  0
SECTION
  2
HEADER
  9
$ACADVER
  1
AC1021
  9
$ACADMAINTVER
 70
    50
  9
$DWGCODEPAGE
  3
ANSI_1251
  9
$LASTSAVEDBY
  1
User
  9
$INSBASE
 10
0.0
 20
0.0
 30
0.0
  9
$EXTMIN
 10
-564.7978008884353
 20
-133.8484629798019
 30
0.0
  9
$EXTMAX
 10
1435.992265644877
 20
324.2747189993872
 30
0.0
  9
$LIMMIN
 10
0.0
 20
0.0
  9
$LIMMAX
 10
279.4
 20
215.9
  9
$ORTHOMODE
 70
     0
  9
$REGENMODE
 70
     1
  9
$FILLMODE
 70
     1
  9
$QTEXTMODE
 70
     0
  9
$MIRRTEXT
 70
     1
  9
$LTSCALE
 40
1.0
  9
$ATTMODE
 70
     1
  9
$TEXTSIZE
 40
3.5
  9
$TRACEWID
 40
1.0
  9
$TEXTSTYLE
  7
Standard
  9
$CLAYER
  8
0
  9
$CELTYPE
  6
ByLayer
  9
$CECOLOR
 62
   256
  9
$CELTSCALE
 40
1.0
  9
$DISPSILH
 70
     0
  9
$DIMSCALE
 40
1.0
  9
$DIMASZ
 40
3.5
  9
$DIMEXO
 40
0.01
  9
$DIMDLI
 40
3.75
  9
$DIMRND
 40
0.0
  9
$DIMDLE
 40
0.0
  9
$DIMEXE
 40
1.0
  9
$DIMTP
 40
0.0
  9
$DIMTM
 40
0.0
  9
$DIMTXT
 40
3.5
  9
$DIMCEN
 40
2.5
  9
$DIMTSZ
 40
0.0
  9
$DIMTOL
 70
     0
  9
$DIMLIM
 70
     0
  9
$DIMTIH
 70
     1
  9
$DIMTOH
 70
     1
  9
$DIMSE1
 70
     0
  9
$DIMSE2
 70
     0
  9
$DIMTAD
 70
     1
  9
$DIMZIN
 70
     0
  9
$DIMBLK
  1

  9
$DIMASO
 70
     1
  9
$DIMSHO
 70
     1
  9
$DIMPOST
  1

  9
$DIMAPOST
  1

  9
$DIMALT
 70
     0
  9
$DIMALTD
 70
     3
  9
$DIMALTF
 40
0.0393700787401575
  9
$DIMLFAC
 40
1.0
  9
$DIMTOFL
 70
     1
  9
$DIMTVP
 40
0.0
  9
$DIMTIX
 70
     0
  9
$DIMSOXD
 70
     0
  9
$DIMSAH
 70
     0
  9
$DIMBLK1
  1

  9
$DIMBLK2
  1

  9
$DIMSTYLE
  2
ISO-25
  9
$DIMCLRD
 70
     0
  9
$DIMCLRE
 70
     0
  9
$DIMCLRT
 70
     0
  9
$DIMTFAC
 40
1.0
  9
$DIMGAP
 40
3.0
  9
$DIMJUST
 70
     0
  9
$DIMSD1
 70
     0
  9
$DIMSD2
 70
     0
  9
$DIMTOLJ
 70
     0
  9
$DIMTZIN
 70
     0
  9
$DIMALTZ
 70
     0
  9
$DIMALTTZ
 70
     0
  9
$DIMUPT
 70
     0
  9
$DIMDEC
 70
     2
  9
$DIMTDEC
 70
     3
  9
$DIMALTU
 70
     2
  9
$DIMALTTD
 70
     3
  9
$DIMTXSTY
  7
Standard
  9
$DIMAUNIT
 70
     0
  9
$DIMADEC
 70
     2
  9
$DIMALTRND
 40
0.0
  9
$DIMAZIN
 70
     0
  9
$DIMDSEP
 70
    44
  9
$DIMATFIT
 70
     3
  9
$DIMFRAC
 70
     0
  9
$DIMLDRBLK
  1

  9
$DIMLUNIT
 70
     2
  9
$DIMLWD
 70
    -2
  9
$DIMLWE
 70
    -2
  9
$DIMTMOVE
 70
     0
  9
$DIMFXL
 40
1.0
  9
$DIMFXLON
 70
     0
  9
$DIMJOGANG
 40
0.7853981633974483
  9
$DIMTFILL
 70
     0
  9
$DIMTFILLCLR
 70
     0
  9
$DIMARCSYM
 70
     0
  9
$DIMLTYPE
  6

  9
$DIMLTEX1
  6

  9
$DIMLTEX2
  6

  9
$LUNITS
 70
     2
  9
$LUPREC
 70
     2
  9
$SKETCHINC
 40
1.0
  9
$FILLETRAD
 40
10.0
  9
$AUNITS
 70
     0
  9
$AUPREC
 70
     2
  9
$MENU
  1
.
  9
$ELEVATION
 40
0.0
  9
$PELEVATION
 40
0.0
  9
$THICKNESS
 40
0.0
  9
$LIMCHECK
 70
     0
  9
$CHAMFERA
 40
10.0
  9
$CHAMFERB
 40
10.0
  9
$CHAMFERC
 40
20.0
  9
$CHAMFERD
 40
0.0
  9
$SKPOLY
 70
     0
  9
$TDCREATE
 40
2458175.539399595
  9
$TDUCREATE
 40
2458175.456066262
  9
$TDUPDATE
 40
2458175.541335984
  9
$TDUUPDATE
 40
2458175.458002651
  9
$TDINDWG
 40
0.0015173727
  9
$TDUSRTIMER
 40
0.0015173727
  9
$USRTIMER
 70
     1
  9
$ANGBASE
 50
0.0
  9
$ANGDIR
 70
     0
  9
$PDMODE
 70
     0
  9
$PDSIZE
 40
-1.0
  9
$PLINEWID
 40
0.0
  9
$SPLFRAME
 70
     0
  9
$SPLINETYPE
 70
     6
  9
$SPLINESEGS
 70
     8
  9
$HANDSEED
  5
3AB
  9
$SURFTAB1
 70
     6
  9
$SURFTAB2
 70
     6
  9
$SURFTYPE
 70
     6
  9
$SURFU
 70
     6
  9
$SURFV
 70
     6
  9
$UCSBASE
  2

  9
$UCSNAME
  2

  9
$UCSORG
 10
0.0
 20
0.0
 30
0.0
  9
$UCSXDIR
 10
1.0
 20
0.0
 30
0.0
  9
$UCSYDIR
 10
0.0
 20
1.0
 30
0.0
  9
$UCSORTHOREF
  2

  9
$UCSORTHOVIEW
 70
     0
  9
$UCSORGTOP
 10
0.0
 20
0.0
 30
0.0
  9
$UCSORGBOTTOM
 10
0.0
 20
0.0
 30
0.0
  9
$UCSORGLEFT
 10
0.0
 20
0.0
 30
0.0
  9
$UCSORGRIGHT
 10
0.0
 20
0.0
 30
0.0
  9
$UCSORGFRONT
 10
0.0
 20
0.0
 30
0.0
  9
$UCSORGBACK
 10
0.0
 20
0.0
 30
0.0
  9
$PUCSBASE
  2

  9
$PUCSNAME
  2

  9
$PUCSORG
 10
0.0
 20
0.0
 30
0.0
  9
$PUCSXDIR
 10
1.0
 20
0.0
 30
0.0
  9
$PUCSYDIR
 10
0.0
 20
1.0
 30
0.0
  9
$PUCSORTHOREF
  2

  9
$PUCSORTHOVIEW
 70
     0
  9
$PUCSORGTOP
 10
0.0
 20
0.0
 30
0.0
  9
$PUCSORGBOTTOM
 10
0.0
 20
0.0
 30
0.0
  9
$PUCSORGLEFT
 10
0.0
 20
0.0
 30
0.0
  9
$PUCSORGRIGHT
 10
0.0
 20
0.0
 30
0.0
  9
$PUCSORGFRONT
 10
0.0
 20
0.0
 30
0.0
  9
$PUCSORGBACK
 10
0.0
 20
0.0
 30
0.0
  9
$USERI1
 70
     0
  9
$USERI2
 70
     0
  9
$USERI3
 70
     0
  9
$USERI4
 70
     0
  9
$USERI5
 70
     0
  9
$USERR1
 40
0.0
  9
$USERR2
 40
0.0
  9
$USERR3
 40
0.0
  9
$USERR4
 40
0.0
  9
$USERR5
 40
0.0
  9
$WORLDVIEW
 70
     1
  9
$SHADEDGE
 70
     3
  9
$SHADEDIF
 70
    70
  9
$TILEMODE
 70
     1
  9
$MAXACTVP
 70
    64
  9
$PINSBASE
 10
0.0
 20
0.0
 30
0.0
  9
$PLIMCHECK
 70
     0
  9
$PEXTMIN
 10
1.000000000000000E+20
 20
1.000000000000000E+20
 30
1.000000000000000E+20
  9
$PEXTMAX
 10
-1.000000000000000E+20
 20
-1.000000000000000E+20
 30
-1.000000000000000E+20
  9
$PLIMMIN
 10
0.0
 20
0.0
  9
$PLIMMAX
 10
420.0
 20
297.0
  9
$UNITMODE
 70
     0
  9
$VISRETAIN
 70
     1
  9
$PLINEGEN
 70
     0
  9
$PSLTSCALE
 70
     1
  9
$TREEDEPTH
 70
  3020
  9
$CMLSTYLE
  2
Standard
  9
$CMLJUST
 70
     0
  9
$CMLSCALE
 40
20.0
  9
$PROXYGRAPHICS
 70
     1
  9
$MEASUREMENT
 70
     1
  9
$CELWEIGHT
370
    -1
  9
$ENDCAPS
280
     0
  9
$JOINSTYLE
280
     0
  9
$LWDISPLAY
290
     1
  9
$INSUNITS
 70
     4
  9
$HYPERLINKBASE
  1

  9
$STYLESHEET
  1

  9
$XEDIT
290
     1
  9
$CEPSNTYPE
380
     0
  9
$PSTYLEMODE
290
     1
  9
$FINGERPRINTGUID
  2
{74E61F6B-466C-47E2-8450-7D8ADB97EDEF}
  9
$VERSIONGUID
  2
{3A4FBB82-2E8C-4DC0-AE23-F64717F8BD39}
  9
$EXTNAMES
290
     1
  9
$PSVPSCALE
 40
0.0
  9
$OLESTARTUP
290
     0
  9
$SORTENTS
280
   127
  9
$INDEXCTL
280
     0
  9
$HIDETEXT
280
     0
  9
$XCLIPFRAME
290
     0
  9
$HALOGAP
280
     0
  9
$OBSCOLOR
 70
   257
  9
$OBSLTYPE
280
     0
  9
$INTERSECTIONDISPLAY
280
     0
  9
$INTERSECTIONCOLOR
 70
   257
  9
$DIMASSOC
280
     1
  9
$PROJECTNAME
  1

  9
$CAMERADISPLAY
290
     0
  9
$LENSLENGTH
 40
50.0
  9
$CAMERAHEIGHT
 40
0.0
  9
$STEPSPERSEC
 40
2.0
  9
$STEPSIZE
 40
6.0
  9
$3DDWFPREC
 40
2.0
  9
$PSOLWIDTH
 40
0.25
  9
$PSOLHEIGHT
 40
4.0
  9
$LOFTANG1
 40
1.570796326794896
  9
$LOFTANG2
 40
1.570796326794896
  9
$LOFTMAG1
 40
0.0
  9
$LOFTMAG2
 40
0.0
  9
$LOFTPARAM
 70
     7
  9
$LOFTNORMALS
280
     1
  9
$LATITUDE
 40
37.795
  9
$LONGITUDE
 40
-122.394
  9
$NORTHDIRECTION
 40
0.0
  9
$TIMEZONE
 70
 -8000
  9
$LIGHTGLYPHDISPLAY
280
     1
  9
$TILEMODELIGHTSYNCH
280
     1
  9
$CMATERIAL
347
35B
  9
$SOLIDHIST
280
     1
  9
$SHOWHIST
280
     1
  9
$DWFFRAME
280
     2
  9
$DGNFRAME
280
     0
  9
$REALWORLDSCALE
290
     1
  9
$INTERFERECOLOR
 62
     1
  9
$INTERFEREOBJVS
345
37D
  9
$INTERFEREVPVS
346
37A
  9
$CSHADOW
280
     0
  9
$SHADOWPLANELOCATION
 40
0.0
  0
ENDSEC
  0
SECTION
  2
CLASSES
  0
CLASS
  1
ACDBDICTIONARYWDFLT
  2
AcDbDictionaryWithDefault
  3
ObjectDBX Classes
 90
        0
 91
        1
280
     0
281
     0
  0
CLASS
  1
VISUALSTYLE
  2
AcDbVisualStyle
  3
ObjectDBX Classes
 90
     4095
 91
       16
280
     0
281
     0
  0
CLASS
  1
MATERIAL
  2
AcDbMaterial
  3
ObjectDBX Classes
 90
     1153
 91
        3
280
     0
281
     0
  0
CLASS
  1
TABLESTYLE
  2
AcDbTableStyle
  3
ObjectDBX Classes
 90
     4095
 91
        1
280
     0
281
     0
  0
CLASS
  1
SCALE
  2
AcDbScale
  3
ObjectDBX Classes
 90
     1153
 91
       17
280
     0
281
     0
  0
CLASS
  1
MLEADERSTYLE
  2
AcDbMLeaderStyle
  3
ACDB_MLEADERSTYLE_CLASS
 90
     4095
 91
        1
280
     0
281
     0
  0
CLASS
  1
DICTIONARYVAR
  2
AcDbDictionaryVar
  3
ObjectDBX Classes
 90
        0
 91
        7
280
     0
281
     0
  0
CLASS
  1
CELLSTYLEMAP
  2
AcDbCellStyleMap
  3
ObjectDBX Classes
 90
     1152
 91
        1
280
     0
281
     0
  0
ENDSEC
  0
SECTION
  2
TABLES
  0
TABLE
  2
VPORT
  5
8
330
0
100
AcDbSymbolTable
 70
     1
  0
VPORT
  5
29
330
8
100
AcDbSymbolTableRecord
100
AcDbViewportTableRecord
  2
*Active
 70
     0
 10
0.0
 20
0.0
 11
1.0
 21
1.0
 12
435.5972323782212
 22
95.21312800979263
 13
0.0
 23
0.0
 14
10.0
 24
10.0
 15
10.0
 25
10.0
 16
0.0
 26
0.0
 36
1.0
 17
0.0
 27
0.0
 37
0.0
 40
814.2861667822137
 41
2.46875
 42
50.0
 43
0.0
 44
0.0
 50
0.0
 51
0.0
 71
     0
 72
  2000
 73
     1
 74
     3
 75
     0
 76
     0
 77
     0
 78
     0
281
     0
 65
     1
110
0.0
120
0.0
130
0.0
111
1.0
121
0.0
131
0.0
112
0.0
122
1.0
132
0.0
 79
     0
146
0.0
348
379
 60
     3
 61
     5
292
     1
282
     1
141
0.0
142
0.0
 63
   250
421
  3355443
  0
ENDTAB
  0
TABLE
  2
LTYPE
  5
5
330
0
100
AcDbSymbolTable
 70
     6
  0
LTYPE
  5
14
330
5
100
AcDbSymbolTableRecord
100
AcDbLinetypeTableRecord
  2
ByBlock
 70
     0
  3

 72
    65
 73
     0
 40
0.0
  0
LTYPE
  5
15
330
5
100
AcDbSymbolTableRecord
100
AcDbLinetypeTableRecord
  2
ByLayer
 70
     0
  3

 72
    65
 73
     0
 40
0.0
  0
LTYPE
  5
16
330
5
100
AcDbSymbolTableRecord
100
AcDbLinetypeTableRecord
  2
Continuous
 70
     0
  3
Solid line
 72
    65
 73
     0
 40
0.0
  0
LTYPE
  5
3F
330
5
100
AcDbSymbolTableRecord
100
AcDbLinetypeTableRecord
  2
HIDDEN
 70
     0
  3
Hidden __ __ __ __ __ __ __ __ __ __ __ __ __ __
 72
    65
 73
     2
 40
1.905
 49
1.27
 74
     0
 49
-0.635
 74
     0
  0
LTYPE
  5
40
330
5
100
AcDbSymbolTableRecord
100
AcDbLinetypeTableRecord
  2
PHANTOM
 70
     0
  3
Phantom ______  __  __  ______  __  __  ______
 72
    65
 73
     6
 40
12.7
 49
6.349999999999999
 74
     0
 49
-1.27
 74
     0
 49
1.27
 74
     0
 49
-1.27
 74
     0
 49
1.27
 74
     0
 49
-1.27
 74
     0
  0
LTYPE
  5
41
330
5
100
AcDbSymbolTableRecord
100
AcDbLinetypeTableRecord
  2
CENTER
 70
     0
  3
Center ____ _ ____ _ ____ _ ____ _ ____ _ ____
 72
    65
 73
     4
 40
10.16
 49
6.349999999999999
 74
     0
 49
-1.27
 74
     0
 49
1.27
 74
     0
 49
-1.27
 74
     0
  0
LTYPE
  5
42
330
5
100
AcDbSymbolTableRecord
100
AcDbLinetypeTableRecord
  2
CENTERX2
 70
     0
  3
Center (2x) ________  __  ________  __  _____
 72
    65
 73
     4
 40
20.32
 49
12.7
 74
     0
 49
-2.54
 74
     0
 49
2.54
 74
     0
 49
-2.54
 74
     0
  0
LTYPE
  5
43
330
5
100
AcDbSymbolTableRecord
100
AcDbLinetypeTableRecord
  2
DOT2
 70
     0
  3
Dot (.5x) ........................................
 72
    65
 73
     2
 40
0.635
 49
0.0
 74
     0
 49
-0.635
 74
     0
  0
ENDTAB
  0
TABLE
  2
LAYER
  5
2
330
0
100
AcDbSymbolTable
 70
     1
  0
LAYER
  5
10
102
{ACAD_XDICTIONARY
360
39E
102
}
330
2
100
AcDbSymbolTableRecord
100
AcDbLayerTableRecord
  2
0
 70
     0
 62
     7
  6
Continuous
370
    -3
390
F
347
36B
  0
ENDTAB
  0
TABLE
  2
STYLE
  5
3
330
0
100
AcDbSymbolTable
 70
     1
  0
STYLE
  5
11
330
3
100
AcDbSymbolTableRecord
100
AcDbTextStyleTableRecord
  2
Standard
 70
     0
 40
0.0
 41
1.0
 50
0.0
 71
     0
 42
3.5
  3
txt
  4

  0
ENDTAB
  0
TABLE
  2
VIEW
  5
6
330
0
100
AcDbSymbolTable
 70
     0
  0
ENDTAB
  0
TABLE
  2
UCS
  5
7
330
0
100
AcDbSymbolTable
 70
     0
  0
ENDTAB
  0
TABLE
  2
APPID
  5
9
330
0
100
AcDbSymbolTable
 70
     2
  0
APPID
  5
12
330
9
100
AcDbSymbolTableRecord
100
AcDbRegAppTableRecord
  2
ACAD
 70
     0
  0
APPID
  5
39B
330
9
100
AcDbSymbolTableRecord
100
AcDbRegAppTableRecord
  2
ACAD_MLEADERVER
 70
     0
  0
ENDTAB
  0
TABLE
  2
DIMSTYLE
  5
A
330
0
100
AcDbSymbolTable
 70
     1
100
AcDbDimStyleTable
 71
     0
  0
DIMSTYLE
105
27
330
A
100
AcDbSymbolTableRecord
100
AcDbDimStyleTableRecord
  2
ISO-25
 70
     0
 41
2.5
 42
0.625
 43
3.75
 44
1.25
 73
     0
 74
     0
 77
     1
 78
     8
140
2.5
141
2.5
143
0.03937007874016
147
0.625
171
     3
172
     1
271
     2
272
     2
274
     3
278
    44
283
     0
284
     8
340
11
  0
ENDTAB
  0
TABLE
  2
BLOCK_RECORD
  5
1
330
0
100
AcDbSymbolTable
 70
     1
  0
BLOCK_RECORD
  5
1F
330
1
100
AcDbSymbolTableRecord
100
AcDbBlockTableRecord
  2
*Model_Space
340
22
 70
     0
280
     1
281
     0
  0
BLOCK_RECORD
  5
1B
330
1
100
AcDbSymbolTableRecord
100
AcDbBlockTableRecord
  2
*Paper_Space
340
1E
 70
     0
280
     1
281
     0
  0
BLOCK_RECORD
  5
23
330
1
100
AcDbSymbolTableRecord
100
AcDbBlockTableRecord
  2
*Paper_Space0
340
26
 70
     0
280
     1
281
     0
  0
ENDTAB
  0
ENDSEC
  0
SECTION
  2
BLOCKS
  0
BLOCK
  5
20
330
1F
100
AcDbEntity
  8
0
100
AcDbBlockBegin
  2
*Model_Space
 70
     0
 10
0.0
 20
0.0
 30
0.0
  3
*Model_Space
  1

  0
ENDBLK
  5
21
330
1F
100
AcDbEntity
  8
0
100
AcDbBlockEnd
  0
BLOCK
  5
1C
330
1B
100
AcDbEntity
 67
     1
  8
0
100
AcDbBlockBegin
  2
*Paper_Space
 70
     0
 10
0.0
 20
0.0
 30
0.0
  3
*Paper_Space
  1

  0
ENDBLK
  5
1D
330
1B
100
AcDbEntity
 67
     1
  8
0
100
AcDbBlockEnd
  0
BLOCK
  5
24
330
23
100
AcDbEntity
 67
     1
  8
0
100
AcDbBlockBegin
  2
*Paper_Space0
 70
     0
 10
0.0
 20
0.0
 30
0.0
  3
*Paper_Space0
  1

  0
ENDBLK
  5
25
330
23
100
AcDbEntity
 67
     1
  8
0
100
AcDbBlockEnd
  0
ENDSEC
  0
SECTION
  2
ENTITIES
  0
LINE
  5
44
330
1F
100
AcDbEntity
  8
0
  6
Continuous
 62
     7
370
    15
100
AcDbLine
 10
730.2021991115643
 20
228.3378970507087
 30
0.0
 11
740.2021991115644
 21
228.3378970507087
 31
0.0
  0
LINE
  5
45
330
1F
100
AcDbEntity
  8
0
  6
Continuous
 62
     7
370
    15
100
AcDbLine
 10
740.2021991115644
 20
259.3898754134445
 30
0.0
 11
730.2021991115643
 21
259.3898754134445
 31
0.0
  0
LINE
  5
46
330
1F
100
AcDbEntity
  8
0
  6
Continuous
 62
     7
370
    15
100
AcDbLine
 10
360.2021991115646
 20
228.3378970507087
 30
0.0
 11
370.2021991115648
 21
228.3378970507087
 31
0.0
  0
LINE
  5
47
330
1F
100
AcDbEntity
  8
0
  6
Continuous
 62
     7
370
    15
100
AcDbLine
 10
370.2021991115648
 20
259.3898754134445
 30
0.0
 11
360.2021991115646
 21
259.3898754134445
 31
0.0
  0
LINE
  5
48
330
1F
100
AcDbEntity
  8
0
  6
Continuous
 62
     7
370
    15
100
AcDbLine
 10
-69.79780088843551
 20
228.3378970507087
 30
0.0
 11
-59.7978008884354
 21
228.3378970507087
 31
0.0
  0
LINE
  5
49
330
1F
100
AcDbEntity
  8
0
  6
Continuous
 62
     7
370
    15
100
AcDbLine
 10
-59.7978008884354
 20
259.3898754134445
 30
0.0
 11
-69.79780088843551
 21
259.3898754134445
 31
0.0
  0
LINE
  5
4A
330
1F
100
AcDbEntity
  8
0
  6
Continuous
 62
     7
370
    15
100
AcDbLine
 10
-419.7978008884353
 20
228.3378970507087
 30
0.0
 11
-409.7978008884354
 21
228.3378970507087
 31
0.0
  0
LINE
  5
4B
330
1F
100
AcDbEntity
  8
0
  6
Continuous
 62
     7
370
    15
100
AcDbLine
 10
-409.7978008884354
 20
259.3898754134445
 30
0.0
 11
-419.7978008884353
 21
259.3898754134445
 31
0.0
  0
LINE
  5
4C
330
1F
100
AcDbEntity
  8
0
  6
Continuous
 62
     7
370
    15
100
AcDbLine
 10
-525.0133341844589
 20
309.4510999014376
 30
0.0
 11
-539.7978008884353
 21
254.2747189993872
 31
0.0
  0
LINE
  5
4D
330
1F
100
AcDbEntity
  8
0
  6
Continuous
 62
     7
370
    15
100
AcDbLine
 10
995.4177324075882
 20
309.4510999014376
 30
0.0
 11
-525.0133341844589
 21
309.4510999014376
 31
0.0
  0
LINE
  5
4E
330
1F
100
AcDbEntity
  8
0
  6
Continuous
 62
     7
370
    15
100
AcDbLine
 10
995.4177324075882
 20
309.4510999014376
 30
0.0
 11
1010.202199111564
 21
254.2747189993872
 31
0.0
  0
LINE
  5
4F
330
1F
100
AcDbEntity
  8
0
  6
Continuous
 62
     7
370
    15
100
AcDbLine
 10
-521.0413574182568
 20
324.2747189993872
 30
0.0
 11
991.4457556413859
 21
324.2747189993872
 31
0.0
  0
LINE
  5
50
330
1F
100
AcDbEntity
  8
0
  6
Continuous
 62
     7
370
    15
100
AcDbLine
 10
991.4457556413859
 20
324.2747189993872
 30
0.0
 11
995.4177324075882
 21
309.4510999014373
 31
0.0
  0
LINE
  5
51
330
1F
100
AcDbEntity
  8
0
  6
Continuous
 62
     7
370
    15
100
AcDbLine
 10
-525.0133341844589
 20
309.4510999014376
 30
0.0
 11
-521.0413574182566
 21
324.2747189993872
 31
0.0
  0
LINE
  5
52
330
1F
100
AcDbEntity
  8
0
  6
Continuous
 62
     7
370
    15
100
AcDbLine
 10
740.2021991115644
 20
259.3898754134445
 30
0.0
 11
740.2021991115644
 21
228.3378970507087
 31
0.0
  0
LINE
  5
53
330
1F
100
AcDbEntity
  8
0
  6
Continuous
 62
     7
370
    15
100
AcDbLine
 10
730.2021991115643
 20
259.3898754134445
 30
0.0
 11
730.2021991115643
 21
228.3378970507087
 31
0.0
  0
LINE
  5
54
330
1F
100
AcDbEntity
  8
0
  6
Continuous
 62
     7
370
    15
100
AcDbLine
 10
-564.7978008884353
 20
234.2747189993874
 30
0.0
 11
-564.7978008884353
 21
254.2747189993872
 31
0.0
  0
LINE
  5
55
330
1F
100
AcDbEntity
  8
0
  6
Continuous
 62
     7
370
    15
100
AcDbLine
 10
-544.7978008884354
 20
254.2747189993872
 30
0.0
 11
-544.7978008884354
 21
234.2747189993874
 31
0.0
  0
LINE
  5
56
330
1F
100
AcDbEntity
  8
0
  6
Continuous
 62
     7
370
    15
100
AcDbLine
 10
-544.7978008884354
 20
234.2747189993874
 30
0.0
 11
-564.7978008884353
 21
234.2747189993874
 31
0.0
  0
LINE
  5
57
330
1F
100
AcDbEntity
  8
0
  6
Continuous
 62
     7
370
    15
100
AcDbLine
 10
-564.7978008884353
 20
254.2747189993872
 30
0.0
 11
-544.7978008884354
 21
254.2747189993872
 31
0.0
  0
LINE
  5
58
330
1F
100
AcDbEntity
  8
0
  6
Continuous
 62
     7
370
    15
100
AcDbLine
 10
730.2021991115643
 20
234.2747189993874
 30
0.0
 11
370.2021991115648
 21
234.2747189993874
 31
0.0
  0
LINE
  5
59
330
1F
100
AcDbEntity
  8
0
  6
Continuous
 62
     7
370
    15
100
AcDbLine
 10
360.2021991115646
 20
234.2747189993874
 30
0.0
 11
-59.7978008884354
 21
234.2747189993874
 31
0.0
  0
LINE
  5
5A
330
1F
100
AcDbEntity
  8
0
  6
Continuous
 62
     7
370
    15
100
AcDbLine
 10
-69.79780088843551
 20
234.2747189993874
 30
0.0
 11
-409.7978008884354
 21
234.2747189993874
 31
0.0
  0
LINE
  5
5B
330
1F
100
AcDbEntity
  8
0
  6
Continuous
 62
     7
370
    15
100
AcDbLine
 10
-419.7978008884353
 20
234.2747189993874
 30
0.0
 11
-544.7978008884354
 21
234.2747189993874
 31
0.0
  0
LINE
  5
5C
330
1F
100
AcDbEntity
  8
0
  6
Continuous
 62
     7
370
    15
100
AcDbLine
 10
730.2021991115643
 20
254.2747189993872
 30
0.0
 11
370.2021991115648
 21
254.2747189993872
 31
0.0
  0
LINE
  5
5D
330
1F
100
AcDbEntity
  8
0
  6
Continuous
 62
     7
370
    15
100
AcDbLine
 10
360.2021991115646
 20
254.2747189993872
 30
0.0
 11
-59.7978008884354
 21
254.2747189993872
 31
0.0
  0
LINE
  5
5E
330
1F
100
AcDbEntity
  8
0
  6
Continuous
 62
     7
370
    15
100
AcDbLine
 10
-69.79780088843551
 20
254.2747189993872
 30
0.0
 11
-409.7978008884354
 21
254.2747189993872
 31
0.0
  0
LINE
  5
5F
330
1F
100
AcDbEntity
  8
0
  6
Continuous
 62
     7
370
    15
100
AcDbLine
 10
-419.7978008884353
 20
254.2747189993872
 30
0.0
 11
-544.7978008884354
 21
254.2747189993872
 31
0.0
  0
LINE
  5
60
330
1F
100
AcDbEntity
  8
0
  6
Continuous
 62
     7
370
    15
100
AcDbLine
 10
1015.202199111564
 20
234.2747189993874
 30
0.0
 11
1015.202199111564
 21
254.2747189993872
 31
0.0
  0
LINE
  5
61
330
1F
100
AcDbEntity
  8
0
  6
Continuous
 62
     7
370
    15
100
AcDbLine
 10
1015.202199111564
 20
234.2747189993874
 30
0.0
 11
740.2021991115644
 21
234.2747189993874
 31
0.0
  0
LINE
  5
62
330
1F
100
AcDbEntity
  8
0
  6
Continuous
 62
     7
370
    15
100
AcDbLine
 10
1015.202199111564
 20
254.2747189993872
 30
0.0
 11
740.2021991115644
 21
254.2747189993872
 31
0.0
  0
LINE
  5
63
330
1F
100
AcDbEntity
  8
0
  6
Continuous
 62
     7
370
    15
100
AcDbLine
 10
1035.202199111564
 20
254.2747189993872
 30
0.0
 11
1035.202199111564
 21
234.2747189993874
 31
0.0
  0
LINE
  5
64
330
1F
100
AcDbEntity
  8
0
  6
Continuous
 62
     7
370
    15
100
AcDbLine
 10
1035.202199111564
 20
234.2747189993874
 30
0.0
 11
1015.202199111564
 21
234.2747189993874
 31
0.0
  0
LINE
  5
65
330
1F
100
AcDbEntity
  8
0
  6
Continuous
 62
     7
370
    15
100
AcDbLine
 10
1015.202199111564
 20
254.2747189993872
 30
0.0
 11
1035.202199111564
 21
254.2747189993872
 31
0.0
  0
LINE
  5
66
330
1F
100
AcDbEntity
  8
0
  6
Continuous
 62
     7
370
    15
100
AcDbLine
 10
740.2021991115644
 20
295.6990577670881
 30
0.0
 11
730.2021991115643
 21
295.6990577670881
 31
0.0
  0
LINE
  5
67
330
1F
100
AcDbEntity
  8
0
  6
Continuous
 62
     7
370
    15
100
AcDbLine
 10
730.2021991115643
 20
295.6990577670881
 30
0.0
 11
730.2021991115643
 21
259.3898754134445
 31
0.0
  0
LINE
  5
68
330
1F
100
AcDbEntity
  8
0
  6
Continuous
 62
     7
370
    15
100
AcDbLine
 10
740.2021991115644
 20
295.6990577670881
 30
0.0
 11
740.2021991115644
 21
259.3898754134445
 31
0.0
  0
LINE
  5
69
330
1F
100
AcDbEntity
  8
0
  6
Continuous
 62
     7
370
    15
100
AcDbLine
 10
370.2021991115648
 20
259.3898754134445
 30
0.0
 11
370.2021991115648
 21
228.3378970507087
 31
0.0
  0
LINE
  5
6A
330
1F
100
AcDbEntity
  8
0
  6
Continuous
 62
     7
370
    15
100
AcDbLine
 10
360.2021991115646
 20
259.3898754134445
 30
0.0
 11
360.2021991115646
 21
228.3378970507087
 31
0.0
  0
LINE
  5
6B
330
1F
100
AcDbEntity
  8
0
  6
Continuous
 62
     7
370
    15
100
AcDbLine
 10
370.2021991115648
 20
295.6990577670881
 30
0.0
 11
360.2021991115646
 21
295.6990577670881
 31
0.0
  0
LINE
  5
6C
330
1F
100
AcDbEntity
  8
0
  6
Continuous
 62
     7
370
    15
100
AcDbLine
 10
370.2021991115648
 20
295.6990577670881
 30
0.0
 11
370.2021991115648
 21
259.3898754134445
 31
0.0
  0
LINE
  5
6D
330
1F
100
AcDbEntity
  8
0
  6
Continuous
 62
     7
370
    15
100
AcDbLine
 10
360.2021991115646
 20
295.6990577670881
 30
0.0
 11
360.2021991115646
 21
259.3898754134445
 31
0.0
  0
LINE
  5
6E
330
1F
100
AcDbEntity
  8
0
  6
Continuous
 62
     7
370
    15
100
AcDbLine
 10
-59.7978008884354
 20
259.3898754134445
 30
0.0
 11
-59.7978008884354
 21
228.3378970507087
 31
0.0
  0
LINE
  5
6F
330
1F
100
AcDbEntity
  8
0
  6
Continuous
 62
     7
370
    15
100
AcDbLine
 10
-69.79780088843551
 20
259.3898754134445
 30
0.0
 11
-69.79780088843551
 21
228.3378970507087
 31
0.0
  0
LINE
  5
70
330
1F
100
AcDbEntity
  8
0
  6
Continuous
 62
     7
370
    15
100
AcDbLine
 10
-59.7978008884354
 20
295.6990577670881
 30
0.0
 11
-69.79780088843551
 21
295.6990577670881
 31
0.0
  0
LINE
  5
71
330
1F
100
AcDbEntity
  8
0
  6
Continuous
 62
     7
370
    15
100
AcDbLine
 10
-59.7978008884354
 20
295.6990577670881
 30
0.0
 11
-59.7978008884354
 21
259.3898754134445
 31
0.0
  0
LINE
  5
72
330
1F
100
AcDbEntity
  8
0
  6
Continuous
 62
     7
370
    15
100
AcDbLine
 10
-69.79780088843551
 20
295.6990577670881
 30
0.0
 11
-69.79780088843551
 21
259.3898754134445
 31
0.0
  0
LINE
  5
73
330
1F
100
AcDbEntity
  8
0
  6
Continuous
 62
     7
370
    15
100
AcDbLine
 10
-409.7978008884354
 20
259.3898754134445
 30
0.0
 11
-409.7978008884354
 21
228.3378970507087
 31
0.0
  0
LINE
  5
74
330
1F
100
AcDbEntity
  8
0
  6
Continuous
 62
     7
370
    15
100
AcDbLine
 10
-419.7978008884353
 20
259.3898754134445
 30
0.0
 11
-419.7978008884353
 21
228.3378970507087
 31
0.0
  0
LINE
  5
75
330
1F
100
AcDbEntity
  8
0
  6
Continuous
 62
     7
370
    15
100
AcDbLine
 10
-409.7978008884354
 20
295.6990577670881
 30
0.0
 11
-419.7978008884353
 21
295.6990577670881
 31
0.0
  0
LINE
  5
76
330
1F
100
AcDbEntity
  8
0
  6
Continuous
 62
     7
370
    15
100
AcDbLine
 10
-409.7978008884354
 20
295.6990577670881
 30
0.0
 11
-409.7978008884354
 21
259.3898754134445
 31
0.0
  0
LINE
  5
77
330
1F
100
AcDbEntity
  8
0
  6
Continuous
 62
     7
370
    15
100
AcDbLine
 10
-419.7978008884353
 20
295.6990577670881
 30
0.0
 11
-419.7978008884353
 21
259.3898754134445
 31
0.0
  0
LINE
  5
78
330
1F
100
AcDbEntity
  8
0
  6
Continuous
 62
     7
370
    15
100
AcDbLine
 10
730.2021991115643
 20
-133.8484629798019
 30
0.0
 11
740.2021991115644
 21
-133.8484629798019
 31
0.0
  0
LINE
  5
79
330
1F
100
AcDbEntity
  8
0
  6
Continuous
 62
     7
370
    15
100
AcDbLine
 10
740.2021991115644
 20
88.07259240564041
 30
0.0
 11
730.2021991115643
 21
88.07259240564041
 31
0.0
  0
LINE
  5
7A
330
1F
100
AcDbEntity
  8
0
  6
Continuous
 62
     7
370
    15
100
AcDbLine
 10
370.2021991115648
 20
88.07259240564041
 30
0.0
 11
360.2021991115646
 21
88.07259240564041
 31
0.0
  0
LINE
  5
7B
330
1F
100
AcDbEntity
  8
0
  6
Continuous
 62
     7
370
    15
100
AcDbLine
 10
360.2021991115646
 20
-133.8484629798019
 30
0.0
 11
370.2021991115648
 21
-133.8484629798019
 31
0.0
  0
LINE
  5
7C
330
1F
100
AcDbEntity
  8
0
  6
Continuous
 62
     7
370
    15
100
AcDbLine
 10
-59.7978008884354
 20
88.07259240564041
 30
0.0
 11
-69.79780088843551
 21
88.07259240564041
 31
0.0
  0
LINE
  5
7D
330
1F
100
AcDbEntity
  8
0
  6
Continuous
 62
     7
370
    15
100
AcDbLine
 10
-69.79780088843551
 20
-133.8484629798019
 30
0.0
 11
-59.7978008884354
 21
-133.8484629798019
 31
0.0
  0
LINE
  5
7E
330
1F
100
AcDbEntity
  8
0
  6
Continuous
 62
     7
370
    15
100
AcDbLine
 10
-409.7978008884354
 20
88.07259240564041
 30
0.0
 11
-419.7978008884353
 21
88.07259240564041
 31
0.0
  0
LINE
  5
7F
330
1F
100
AcDbEntity
  8
0
  6
Continuous
 62
     7
370
    15
100
AcDbLine
 10
-419.7978008884353
 20
-133.8484629798019
 30
0.0
 11
-409.7978008884354
 21
-133.8484629798019
 31
0.0
  0
LINE
  5
80
330
1F
100
AcDbEntity
  8
0
  6
Continuous
 62
     7
370
    15
100
AcDbLine
 10
495.9859121699423
 20
-74.9033632293673
 30
0.0
 11
485.4517470628679
 21
-74.9033632293673
 31
0.0
  0
LINE
  5
81
330
1F
100
AcDbEntity
  8
0
  6
Continuous
 62
     7
370
    15
100
AcDbLine
 10
495.9859121699423
 20
-86.23518711433844
 30
0.0
 11
495.9859121699423
 21
-74.9033632293673
 31
0.0
  0
LINE
  5
82
330
1F
100
AcDbEntity
  8
0
  6
Continuous
 62
     7
370
    15
100
AcDbLine
 10
485.4517470628679
 20
-86.23518711433844
 30
0.0
 11
495.9859121699423
 21
-86.23518711433844
 31
0.0
  0
LINE
  5
83
330
1F
100
AcDbEntity
  8
0
  6
Continuous
 62
     7
370
    15
100
AcDbLine
 10
485.4517470628679
 20
-74.9033632293673
 30
0.0
 11
485.4517470628679
 21
-86.23518711433844
 31
0.0
  0
LINE
  5
84
330
1F
100
AcDbEntity
  8
0
  6
Continuous
 62
     7
370
    15
100
AcDbLine
 10
-454.0140878300577
 20
-74.9033632293673
 30
0.0
 11
-464.548252937132
 21
-74.9033632293673
 31
0.0
  0
LINE
  5
85
330
1F
100
AcDbEntity
  8
0
  6
Continuous
 62
     7
370
    15
100
AcDbLine
 10
-454.0140878300577
 20
-86.23518711433844
 30
0.0
 11
-454.0140878300577
 21
-74.9033632293673
 31
0.0
  0
LINE
  5
86
330
1F
100
AcDbEntity
  8
0
  6
Continuous
 62
     7
370
    15
100
AcDbLine
 10
-464.548252937132
 20
-86.23518711433844
 30
0.0
 11
-454.0140878300577
 21
-86.23518711433844
 31
0.0
  0
LINE
  5
87
330
1F
100
AcDbEntity
  8
0
  6
Continuous
 62
     7
370
    15
100
AcDbLine
 10
-464.548252937132
 20
-74.9033632293673
 30
0.0
 11
-464.548252937132
 21
-86.23518711433844
 31
0.0
  0
LINE
  5
88
330
1F
100
AcDbEntity
  8
0
  6
Continuous
 62
     7
370
    15
100
AcDbLine
 10
-504.0140878300577
 20
-74.9033632293673
 30
0.0
 11
-514.5482529371321
 21
-74.9033632293673
 31
0.0
  0
LINE
  5
89
330
1F
100
AcDbEntity
  8
0
  6
Continuous
 62
     7
370
    15
100
AcDbLine
 10
-504.0140878300577
 20
-86.23518711433844
 30
0.0
 11
-504.0140878300577
 21
-74.9033632293673
 31
0.0
  0
LINE
  5
8A
330
1F
100
AcDbEntity
  8
0
  6
Continuous
 62
     7
370
    15
100
AcDbLine
 10
-514.5482529371321
 20
-86.23518711433844
 30
0.0
 11
-504.0140878300577
 21
-86.23518711433844
 31
0.0
  0
LINE
  5
8B
330
1F
100
AcDbEntity
  8
0
  6
Continuous
 62
     7
370
    15
100
AcDbLine
 10
-514.5482529371321
 20
-74.9033632293673
 30
0.0
 11
-514.5482529371321
 21
-86.23518711433844
 31
0.0
  0
LINE
  5
8C
330
1F
100
AcDbEntity
  8
0
  6
Continuous
 62
     7
370
    15
100
AcDbLine
 10
-54.01408783005763
 20
-74.9033632293673
 30
0.0
 11
-64.54825293713202
 21
-74.9033632293673
 31
0.0
  0
LINE
  5
8D
330
1F
100
AcDbEntity
  8
0
  6
Continuous
 62
     7
370
    15
100
AcDbLine
 10
-64.54825293713202
 20
-86.23518711433844
 30
0.0
 11
-54.01408783005763
 21
-86.23518711433844
 31
0.0
  0
LINE
  5
8E
330
1F
100
AcDbEntity
  8
0
  6
Continuous
 62
     7
370
    15
100
AcDbLine
 10
-64.54825293713202
 20
-74.9033632293673
 30
0.0
 11
-64.54825293713202
 21
-86.23518711433844
 31
0.0
  0
LINE
  5
8F
330
1F
100
AcDbEntity
  8
0
  6
Continuous
 62
     7
370
    15
100
AcDbLine
 10
-54.01408783005763
 20
-86.23518711433844
 30
0.0
 11
-54.01408783005763
 21
-74.9033632293673
 31
0.0
  0
LINE
  5
90
330
1F
100
AcDbEntity
  8
0
  6
Continuous
 62
     7
370
    15
100
AcDbLine
 10
-304.0140878300577
 20
-74.9033632293673
 30
0.0
 11
-314.5482529371321
 21
-74.9033632293673
 31
0.0
  0
LINE
  5
91
330
1F
100
AcDbEntity
  8
0
  6
Continuous
 62
     7
370
    15
100
AcDbLine
 10
-304.0140878300577
 20
-86.23518711433844
 30
0.0
 11
-304.0140878300577
 21
-74.9033632293673
 31
0.0
  0
LINE
  5
92
330
1F
100
AcDbEntity
  8
0
  6
Continuous
 62
     7
370
    15
100
AcDbLine
 10
-314.5482529371321
 20
-86.23518711433844
 30
0.0
 11
-304.0140878300577
 21
-86.23518711433844
 31
0.0
  0
LINE
  5
93
330
1F
100
AcDbEntity
  8
0
  6
Continuous
 62
     7
370
    15
100
AcDbLine
 10
-314.5482529371321
 20
-74.9033632293673
 30
0.0
 11
-314.5482529371321
 21
-86.23518711433844
 31
0.0
  0
LINE
  5
94
330
1F
100
AcDbEntity
  8
0
  6
Continuous
 62
     7
370
    15
100
AcDbLine
 10
45.98591216994236
 20
-74.9033632293673
 30
0.0
 11
35.45174706286798
 21
-74.9033632293673
 31
0.0
  0
LINE
  5
95
330
1F
100
AcDbEntity
  8
0
  6
Continuous
 62
     7
370
    15
100
AcDbLine
 10
35.45174706286798
 20
-74.9033632293673
 30
0.0
 11
35.45174706286798
 21
-86.23518711433844
 31
0.0
  0
LINE
  5
96
330
1F
100
AcDbEntity
  8
0
  6
Continuous
 62
     7
370
    15
100
AcDbLine
 10
35.45174706286798
 20
-86.23518711433844
 30
0.0
 11
45.98591216994236
 21
-86.23518711433844
 31
0.0
  0
LINE
  5
97
330
1F
100
AcDbEntity
  8
0
  6
Continuous
 62
     7
370
    15
100
AcDbLine
 10
45.98591216994236
 20
-86.23518711433844
 30
0.0
 11
45.98591216994236
 21
-74.9033632293673
 31
0.0
  0
LINE
  5
98
330
1F
100
AcDbEntity
  8
0
  6
Continuous
 62
     7
370
    15
100
AcDbLine
 10
-204.0140878300576
 20
-74.9033632293673
 30
0.0
 11
-214.548252937132
 21
-74.9033632293673
 31
0.0
  0
LINE
  5
99
330
1F
100
AcDbEntity
  8
0
  6
Continuous
 62
     7
370
    15
100
AcDbLine
 10
-204.0140878300576
 20
-86.23518711433844
 30
0.0
 11
-204.0140878300576
 21
-74.9033632293673
 31
0.0
  0
LINE
  5
9A
330
1F
100
AcDbEntity
  8
0
  6
Continuous
 62
     7
370
    15
100
AcDbLine
 10
-214.548252937132
 20
-86.23518711433844
 30
0.0
 11
-204.0140878300576
 21
-86.23518711433844
 31
0.0
  0
LINE
  5
9B
330
1F
100
AcDbEntity
  8
0
  6
Continuous
 62
     7
370
    15
100
AcDbLine
 10
-214.548252937132
 20
-74.9033632293673
 30
0.0
 11
-214.548252937132
 21
-86.23518711433844
 31
0.0
  0
LINE
  5
9C
330
1F
100
AcDbEntity
  8
0
  6
Continuous
 62
     7
370
    15
100
AcDbLine
 10
995.9859121699428
 20
-86.23518711433844
 30
0.0
 11
995.9859121699428
 21
-74.9033632293673
 31
0.0
  0
LINE
  5
9D
330
1F
100
AcDbEntity
  8
0
  6
Continuous
 62
     7
370
    15
100
AcDbLine
 10
985.4517470628687
 20
-86.23518711433844
 30
0.0
 11
995.9859121699428
 21
-86.23518711433844
 31
0.0
  0
LINE
  5
9E
330
1F
100
AcDbEntity
  8
0
  6
Continuous
 62
     7
370
    15
100
AcDbLine
 10
985.4517470628687
 20
-74.9033632293673
 30
0.0
 11
985.4517470628687
 21
-86.23518711433844
 31
0.0
  0
LINE
  5
9F
330
1F
100
AcDbEntity
  8
0
  6
Continuous
 62
     7
370
    15
100
AcDbLine
 10
995.9859121699428
 20
-74.9033632293673
 30
0.0
 11
985.4517470628687
 21
-74.9033632293673
 31
0.0
  0
LINE
  5
A0
330
1F
100
AcDbEntity
  8
0
  6
Continuous
 62
     7
370
    15
100
AcDbLine
 10
395.9859121699424
 20
-74.9033632293673
 30
0.0
 11
385.451747062868
 21
-74.9033632293673
 31
0.0
  0
LINE
  5
A1
330
1F
100
AcDbEntity
  8
0
  6
Continuous
 62
     7
370
    15
100
AcDbLine
 10
385.451747062868
 20
-74.9033632293673
 30
0.0
 11
385.451747062868
 21
-86.23518711433844
 31
0.0
  0
LINE
  5
A2
330
1F
100
AcDbEntity
  8
0
  6
Continuous
 62
     7
370
    15
100
AcDbLine
 10
395.9859121699424
 20
-86.23518711433844
 30
0.0
 11
395.9859121699424
 21
-74.9033632293673
 31
0.0
  0
LINE
  5
A3
330
1F
100
AcDbEntity
  8
0
  6
Continuous
 62
     7
370
    15
100
AcDbLine
 10
385.451747062868
 20
-86.23518711433844
 30
0.0
 11
395.9859121699424
 21
-86.23518711433844
 31
0.0
  0
LINE
  5
A4
330
1F
100
AcDbEntity
  8
0
  6
Continuous
 62
     7
370
    15
100
AcDbLine
 10
145.9859121699422
 20
-74.9033632293673
 30
0.0
 11
135.4517470628678
 21
-74.9033632293673
 31
0.0
  0
LINE
  5
A5
330
1F
100
AcDbEntity
  8
0
  6
Continuous
 62
     7
370
    15
100
AcDbLine
 10
135.4517470628678
 20
-74.9033632293673
 30
0.0
 11
135.4517470628678
 21
-86.23518711433844
 31
0.0
  0
LINE
  5
A6
330
1F
100
AcDbEntity
  8
0
  6
Continuous
 62
     7
370
    15
100
AcDbLine
 10
135.4517470628678
 20
-86.23518711433844
 30
0.0
 11
145.9859121699422
 21
-86.23518711433844
 31
0.0
  0
LINE
  5
A7
330
1F
100
AcDbEntity
  8
0
  6
Continuous
 62
     7
370
    15
100
AcDbLine
 10
145.9859121699422
 20
-86.23518711433844
 30
0.0
 11
145.9859121699422
 21
-74.9033632293673
 31
0.0
  0
LINE
  5
A8
330
1F
100
AcDbEntity
  8
0
  6
Continuous
 62
     7
370
    15
100
AcDbLine
 10
195.9859121699423
 20
-74.9033632293673
 30
0.0
 11
185.451747062868
 21
-74.9033632293673
 31
0.0
  0
LINE
  5
A9
330
1F
100
AcDbEntity
  8
0
  6
Continuous
 62
     7
370
    15
100
AcDbLine
 10
195.9859121699423
 20
-86.23518711433844
 30
0.0
 11
195.9859121699423
 21
-74.9033632293673
 31
0.0
  0
LINE
  5
AA
330
1F
100
AcDbEntity
  8
0
  6
Continuous
 62
     7
370
    15
100
AcDbLine
 10
185.451747062868
 20
-86.23518711433844
 30
0.0
 11
195.9859121699423
 21
-86.23518711433844
 31
0.0
  0
LINE
  5
AB
330
1F
100
AcDbEntity
  8
0
  6
Continuous
 62
     7
370
    15
100
AcDbLine
 10
185.451747062868
 20
-74.9033632293673
 30
0.0
 11
185.451747062868
 21
-86.23518711433844
 31
0.0
  0
LINE
  5
AC
330
1F
100
AcDbEntity
  8
0
  6
Continuous
 62
     7
370
    15
100
AcDbLine
 10
245.9859121699424
 20
-74.9033632293673
 30
0.0
 11
235.4517470628679
 21
-74.9033632293673
 31
0.0
  0
LINE
  5
AD
330
1F
100
AcDbEntity
  8
0
  6
Continuous
 62
     7
370
    15
100
AcDbLine
 10
235.4517470628679
 20
-86.23518711433844
 30
0.0
 11
245.9859121699424
 21
-86.23518711433844
 31
0.0
  0
LINE
  5
AE
330
1F
100
AcDbEntity
  8
0
  6
Continuous
 62
     7
370
    15
100
AcDbLine
 10
235.4517470628679
 20
-74.9033632293673
 30
0.0
 11
235.4517470628679
 21
-86.23518711433844
 31
0.0
  0
LINE
  5
AF
330
1F
100
AcDbEntity
  8
0
  6
Continuous
 62
     7
370
    15
100
AcDbLine
 10
245.9859121699424
 20
-86.23518711433844
 30
0.0
 11
245.9859121699424
 21
-74.9033632293673
 31
0.0
  0
LINE
  5
B0
330
1F
100
AcDbEntity
  8
0
  6
Continuous
 62
     7
370
    15
100
AcDbLine
 10
295.9859121699424
 20
-74.9033632293673
 30
0.0
 11
285.4517470628679
 21
-74.9033632293673
 31
0.0
  0
LINE
  5
B1
330
1F
100
AcDbEntity
  8
0
  6
Continuous
 62
     7
370
    15
100
AcDbLine
 10
295.9859121699424
 20
-86.23518711433844
 30
0.0
 11
295.9859121699424
 21
-74.9033632293673
 31
0.0
  0
LINE
  5
B2
330
1F
100
AcDbEntity
  8
0
  6
Continuous
 62
     7
370
    15
100
AcDbLine
 10
285.4517470628679
 20
-86.23518711433844
 30
0.0
 11
295.9859121699424
 21
-86.23518711433844
 31
0.0
  0
LINE
  5
B3
330
1F
100
AcDbEntity
  8
0
  6
Continuous
 62
     7
370
    15
100
AcDbLine
 10
285.4517470628679
 20
-74.9033632293673
 30
0.0
 11
285.4517470628679
 21
-86.23518711433844
 31
0.0
  0
LINE
  5
B4
330
1F
100
AcDbEntity
  8
0
  6
Continuous
 62
     7
370
    15
100
AcDbLine
 10
345.9859121699426
 20
-74.9033632293673
 30
0.0
 11
335.451747062868
 21
-74.9033632293673
 31
0.0
  0
LINE
  5
B5
330
1F
100
AcDbEntity
  8
0
  6
Continuous
 62
     7
370
    15
100
AcDbLine
 10
345.9859121699426
 20
-86.23518711433844
 30
0.0
 11
345.9859121699426
 21
-74.9033632293673
 31
0.0
  0
LINE
  5
B6
330
1F
100
AcDbEntity
  8
0
  6
Continuous
 62
     7
370
    15
100
AcDbLine
 10
335.451747062868
 20
-86.23518711433844
 30
0.0
 11
345.9859121699426
 21
-86.23518711433844
 31
0.0
  0
LINE
  5
B7
330
1F
100
AcDbEntity
  8
0
  6
Continuous
 62
     7
370
    15
100
AcDbLine
 10
335.451747062868
 20
-74.9033632293673
 30
0.0
 11
335.451747062868
 21
-86.23518711433844
 31
0.0
  0
LINE
  5
B8
330
1F
100
AcDbEntity
  8
0
  6
Continuous
 62
     7
370
    15
100
AcDbLine
 10
-154.0140878300575
 20
-74.9033632293673
 30
0.0
 11
-164.5482529371319
 21
-74.9033632293673
 31
0.0
  0
LINE
  5
B9
330
1F
100
AcDbEntity
  8
0
  6
Continuous
 62
     7
370
    15
100
AcDbLine
 10
-154.0140878300575
 20
-86.23518711433844
 30
0.0
 11
-154.0140878300575
 21
-74.9033632293673
 31
0.0
  0
LINE
  5
BA
330
1F
100
AcDbEntity
  8
0
  6
Continuous
 62
     7
370
    15
100
AcDbLine
 10
-164.5482529371319
 20
-86.23518711433844
 30
0.0
 11
-154.0140878300575
 21
-86.23518711433844
 31
0.0
  0
LINE
  5
BB
330
1F
100
AcDbEntity
  8
0
  6
Continuous
 62
     7
370
    15
100
AcDbLine
 10
-164.5482529371319
 20
-74.9033632293673
 30
0.0
 11
-164.5482529371319
 21
-86.23518711433844
 31
0.0
  0
LINE
  5
BC
330
1F
100
AcDbEntity
  8
0
  6
Continuous
 62
     7
370
    15
100
AcDbLine
 10
445.9859121699423
 20
-74.9033632293673
 30
0.0
 11
435.4517470628679
 21
-74.9033632293673
 31
0.0
  0
LINE
  5
BD
330
1F
100
AcDbEntity
  8
0
  6
Continuous
 62
     7
370
    15
100
AcDbLine
 10
445.9859121699423
 20
-86.23518711433844
 30
0.0
 11
445.9859121699423
 21
-74.9033632293673
 31
0.0
  0
LINE
  5
BE
330
1F
100
AcDbEntity
  8
0
  6
Continuous
 62
     7
370
    15
100
AcDbLine
 10
435.4517470628679
 20
-86.23518711433844
 30
0.0
 11
445.9859121699423
 21
-86.23518711433844
 31
0.0
  0
LINE
  5
BF
330
1F
100
AcDbEntity
  8
0
  6
Continuous
 62
     7
370
    15
100
AcDbLine
 10
435.4517470628679
 20
-74.9033632293673
 30
0.0
 11
435.4517470628679
 21
-86.23518711433844
 31
0.0
  0
LINE
  5
C0
330
1F
100
AcDbEntity
  8
0
  6
Continuous
 62
     7
370
    15
100
AcDbLine
 10
545.9859121699423
 20
-74.9033632293673
 30
0.0
 11
535.4517470628682
 21
-74.9033632293673
 31
0.0
  0
LINE
  5
C1
330
1F
100
AcDbEntity
  8
0
  6
Continuous
 62
     7
370
    15
100
AcDbLine
 10
545.9859121699423
 20
-86.23518711433844
 30
0.0
 11
545.9859121699423
 21
-74.9033632293673
 31
0.0
  0
LINE
  5
C2
330
1F
100
AcDbEntity
  8
0
  6
Continuous
 62
     7
370
    15
100
AcDbLine
 10
535.4517470628682
 20
-86.23518711433844
 30
0.0
 11
545.9859121699423
 21
-86.23518711433844
 31
0.0
  0
LINE
  5
C3
330
1F
100
AcDbEntity
  8
0
  6
Continuous
 62
     7
370
    15
100
AcDbLine
 10
535.4517470628682
 20
-74.9033632293673
 30
0.0
 11
535.4517470628682
 21
-86.23518711433844
 31
0.0
  0
LINE
  5
C4
330
1F
100
AcDbEntity
  8
0
  6
Continuous
 62
     7
370
    15
100
AcDbLine
 10
895.9859121699428
 20
-74.9033632293673
 30
0.0
 11
885.4517470628683
 21
-74.9033632293673
 31
0.0
  0
LINE
  5
C5
330
1F
100
AcDbEntity
  8
0
  6
Continuous
 62
     7
370
    15
100
AcDbLine
 10
885.4517470628683
 20
-74.9033632293673
 30
0.0
 11
885.4517470628683
 21
-86.23518711433844
 31
0.0
  0
LINE
  5
C6
330
1F
100
AcDbEntity
  8
0
  6
Continuous
 62
     7
370
    15
100
AcDbLine
 10
895.9859121699428
 20
-86.23518711433844
 30
0.0
 11
895.9859121699428
 21
-74.9033632293673
 31
0.0
  0
LINE
  5
C7
330
1F
100
AcDbEntity
  8
0
  6
Continuous
 62
     7
370
    15
100
AcDbLine
 10
885.4517470628683
 20
-86.23518711433844
 30
0.0
 11
895.9859121699428
 21
-86.23518711433844
 31
0.0
  0
LINE
  5
C8
330
1F
100
AcDbEntity
  8
0
  6
Continuous
 62
     7
370
    15
100
AcDbLine
 10
595.9859121699426
 20
-74.9033632293673
 30
0.0
 11
585.4517470628682
 21
-74.9033632293673
 31
0.0
  0
LINE
  5
C9
330
1F
100
AcDbEntity
  8
0
  6
Continuous
 62
     7
370
    15
100
AcDbLine
 10
595.9859121699426
 20
-86.23518711433844
 30
0.0
 11
595.9859121699426
 21
-74.9033632293673
 31
0.0
  0
LINE
  5
CA
330
1F
100
AcDbEntity
  8
0
  6
Continuous
 62
     7
370
    15
100
AcDbLine
 10
585.4517470628682
 20
-86.23518711433844
 30
0.0
 11
595.9859121699426
 21
-86.23518711433844
 31
0.0
  0
LINE
  5
CB
330
1F
100
AcDbEntity
  8
0
  6
Continuous
 62
     7
370
    15
100
AcDbLine
 10
585.4517470628682
 20
-74.9033632293673
 30
0.0
 11
585.4517470628682
 21
-86.23518711433844
 31
0.0
  0
LINE
  5
CC
330
1F
100
AcDbEntity
  8
0
  6
Continuous
 62
     7
370
    15
100
AcDbLine
 10
-404.0140878300576
 20
-74.9033632293673
 30
0.0
 11
-414.548252937132
 21
-74.9033632293673
 31
0.0
  0
LINE
  5
CD
330
1F
100
AcDbEntity
  8
0
  6
Continuous
 62
     7
370
    15
100
AcDbLine
 10
-414.548252937132
 20
-74.9033632293673
 30
0.0
 11
-414.548252937132
 21
-86.23518711433844
 31
0.0
  0
LINE
  5
CE
330
1F
100
AcDbEntity
  8
0
  6
Continuous
 62
     7
370
    15
100
AcDbLine
 10
-404.0140878300576
 20
-86.23518711433844
 30
0.0
 11
-404.0140878300576
 21
-74.9033632293673
 31
0.0
  0
LINE
  5
CF
330
1F
100
AcDbEntity
  8
0
  6
Continuous
 62
     7
370
    15
100
AcDbLine
 10
-414.548252937132
 20
-86.23518711433844
 30
0.0
 11
-404.0140878300576
 21
-86.23518711433844
 31
0.0
  0
LINE
  5
D0
330
1F
100
AcDbEntity
  8
0
  6
Continuous
 62
     7
370
    15
100
AcDbLine
 10
-104.0140878300577
 20
-74.9033632293673
 30
0.0
 11
-114.548252937132
 21
-74.9033632293673
 31
0.0
  0
LINE
  5
D1
330
1F
100
AcDbEntity
  8
0
  6
Continuous
 62
     7
370
    15
100
AcDbLine
 10
-104.0140878300577
 20
-86.23518711433844
 30
0.0
 11
-104.0140878300577
 21
-74.9033632293673
 31
0.0
  0
LINE
  5
D2
330
1F
100
AcDbEntity
  8
0
  6
Continuous
 62
     7
370
    15
100
AcDbLine
 10
-114.548252937132
 20
-86.23518711433844
 30
0.0
 11
-104.0140878300577
 21
-86.23518711433844
 31
0.0
  0
LINE
  5
D3
330
1F
100
AcDbEntity
  8
0
  6
Continuous
 62
     7
370
    15
100
AcDbLine
 10
-114.548252937132
 20
-74.9033632293673
 30
0.0
 11
-114.548252937132
 21
-86.23518711433844
 31
0.0
  0
LINE
  5
D4
330
1F
100
AcDbEntity
  8
0
  6
Continuous
 62
     7
370
    15
100
AcDbLine
 10
-354.0140878300577
 20
-74.9033632293673
 30
0.0
 11
-364.5482529371321
 21
-74.9033632293673
 31
0.0
  0
LINE
  5
D5
330
1F
100
AcDbEntity
  8
0
  6
Continuous
 62
     7
370
    15
100
AcDbLine
 10
-364.5482529371321
 20
-86.23518711433844
 30
0.0
 11
-354.0140878300577
 21
-86.23518711433844
 31
0.0
  0
LINE
  5
D6
330
1F
100
AcDbEntity
  8
0
  6
Continuous
 62
     7
370
    15
100
AcDbLine
 10
-364.5482529371321
 20
-74.9033632293673
 30
0.0
 11
-364.5482529371321
 21
-86.23518711433844
 31
0.0
  0
LINE
  5
D7
330
1F
100
AcDbEntity
  8
0
  6
Continuous
 62
     7
370
    15
100
AcDbLine
 10
-354.0140878300577
 20
-86.23518711433844
 30
0.0
 11
-354.0140878300577
 21
-74.9033632293673
 31
0.0
  0
LINE
  5
D8
330
1F
100
AcDbEntity
  8
0
  6
Continuous
 62
     7
370
    15
100
AcDbLine
 10
785.4517470628684
 20
-86.23518711433844
 30
0.0
 11
795.9859121699426
 21
-86.23518711433844
 31
0.0
  0
LINE
  5
D9
330
1F
100
AcDbEntity
  8
0
  6
Continuous
 62
     7
370
    15
100
AcDbLine
 10
795.9859121699426
 20
-74.9033632293673
 30
0.0
 11
785.4517470628684
 21
-74.9033632293673
 31
0.0
  0
LINE
  5
DA
330
1F
100
AcDbEntity
  8
0
  6
Continuous
 62
     7
370
    15
100
AcDbLine
 10
795.9859121699426
 20
-86.23518711433844
 30
0.0
 11
795.9859121699426
 21
-74.9033632293673
 31
0.0
  0
LINE
  5
DB
330
1F
100
AcDbEntity
  8
0
  6
Continuous
 62
     7
370
    15
100
AcDbLine
 10
785.4517470628684
 20
-74.9033632293673
 30
0.0
 11
785.4517470628684
 21
-86.23518711433844
 31
0.0
  0
LINE
  5
DC
330
1F
100
AcDbEntity
  8
0
  6
Continuous
 62
     7
370
    15
100
AcDbLine
 10
95.98591216994236
 20
-74.9033632293673
 30
0.0
 11
85.45174706286799
 21
-74.9033632293673
 31
0.0
  0
LINE
  5
DD
330
1F
100
AcDbEntity
  8
0
  6
Continuous
 62
     7
370
    15
100
AcDbLine
 10
85.45174706286799
 20
-86.23518711433844
 30
0.0
 11
95.98591216994236
 21
-86.23518711433844
 31
0.0
  0
LINE
  5
DE
330
1F
100
AcDbEntity
  8
0
  6
Continuous
 62
     7
370
    15
100
AcDbLine
 10
95.98591216994236
 20
-86.23518711433844
 30
0.0
 11
95.98591216994236
 21
-74.9033632293673
 31
0.0
  0
LINE
  5
DF
330
1F
100
AcDbEntity
  8
0
  6
Continuous
 62
     7
370
    15
100
AcDbLine
 10
85.45174706286799
 20
-74.9033632293673
 30
0.0
 11
85.45174706286799
 21
-86.23518711433844
 31
0.0
  0
LINE
  5
E0
330
1F
100
AcDbEntity
  8
0
  6
Continuous
 62
     7
370
    15
100
AcDbLine
 10
845.9859121699425
 20
-74.9033632293673
 30
0.0
 11
835.451747062868
 21
-74.9033632293673
 31
0.0
  0
LINE
  5
E1
330
1F
100
AcDbEntity
  8
0
  6
Continuous
 62
     7
370
    15
100
AcDbLine
 10
835.451747062868
 20
-74.9033632293673
 30
0.0
 11
835.451747062868
 21
-86.23518711433844
 31
0.0
  0
LINE
  5
E2
330
1F
100
AcDbEntity
  8
0
  6
Continuous
 62
     7
370
    15
100
AcDbLine
 10
845.9859121699425
 20
-86.23518711433844
 30
0.0
 11
845.9859121699425
 21
-74.9033632293673
 31
0.0
  0
LINE
  5
E3
330
1F
100
AcDbEntity
  8
0
  6
Continuous
 62
     7
370
    15
100
AcDbLine
 10
835.451747062868
 20
-86.23518711433844
 30
0.0
 11
845.9859121699425
 21
-86.23518711433844
 31
0.0
  0
LINE
  5
E4
330
1F
100
AcDbEntity
  8
0
  6
Continuous
 62
     7
370
    15
100
AcDbLine
 10
-4.014087830057633
 20
-74.9033632293673
 30
0.0
 11
-14.54825293713202
 21
-74.9033632293673
 31
0.0
  0
LINE
  5
E5
330
1F
100
AcDbEntity
  8
0
  6
Continuous
 62
     7
370
    15
100
AcDbLine
 10
-4.014087830057633
 20
-86.23518711433844
 30
0.0
 11
-4.014087830057633
 21
-74.9033632293673
 31
0.0
  0
LINE
  5
E6
330
1F
100
AcDbEntity
  8
0
  6
Continuous
 62
     7
370
    15
100
AcDbLine
 10
-14.54825293713202
 20
-86.23518711433844
 30
0.0
 11
-4.014087830057633
 21
-86.23518711433844
 31
0.0
  0
LINE
  5
E7
330
1F
100
AcDbEntity
  8
0
  6
Continuous
 62
     7
370
    15
100
AcDbLine
 10
-14.54825293713202
 20
-74.9033632293673
 30
0.0
 11
-14.54825293713202
 21
-86.23518711433844
 31
0.0
  0
LINE
  5
E8
330
1F
100
AcDbEntity
  8
0
  6
Continuous
 62
     7
370
    15
100
AcDbLine
 10
-254.0140878300578
 20
-74.9033632293673
 30
0.0
 11
-264.5482529371321
 21
-74.9033632293673
 31
0.0
  0
LINE
  5
E9
330
1F
100
AcDbEntity
  8
0
  6
Continuous
 62
     7
370
    15
100
AcDbLine
 10
-254.0140878300578
 20
-86.23518711433844
 30
0.0
 11
-254.0140878300578
 21
-74.9033632293673
 31
0.0
  0
LINE
  5
EA
330
1F
100
AcDbEntity
  8
0
  6
Continuous
 62
     7
370
    15
100
AcDbLine
 10
-264.5482529371321
 20
-86.23518711433844
 30
0.0
 11
-254.0140878300578
 21
-86.23518711433844
 31
0.0
  0
LINE
  5
EB
330
1F
100
AcDbEntity
  8
0
  6
Continuous
 62
     7
370
    15
100
AcDbLine
 10
-264.5482529371321
 20
-74.9033632293673
 30
0.0
 11
-264.5482529371321
 21
-86.23518711433844
 31
0.0
  0
LINE
  5
EC
330
1F
100
AcDbEntity
  8
0
  6
Continuous
 62
     7
370
    15
100
AcDbLine
 10
945.9859121699428
 20
-74.9033632293673
 30
0.0
 11
935.4517470628683
 21
-74.9033632293673
 31
0.0
  0
LINE
  5
ED
330
1F
100
AcDbEntity
  8
0
  6
Continuous
 62
     7
370
    15
100
AcDbLine
 10
945.9859121699428
 20
-86.23518711433844
 30
0.0
 11
945.9859121699428
 21
-74.9033632293673
 31
0.0
  0
LINE
  5
EE
330
1F
100
AcDbEntity
  8
0
  6
Continuous
 62
     7
370
    15
100
AcDbLine
 10
935.4517470628683
 20
-74.9033632293673
 30
0.0
 11
935.4517470628683
 21
-86.23518711433844
 31
0.0
  0
LINE
  5
EF
330
1F
100
AcDbEntity
  8
0
  6
Continuous
 62
     7
370
    15
100
AcDbLine
 10
935.4517470628683
 20
-86.23518711433844
 30
0.0
 11
945.9859121699428
 21
-86.23518711433844
 31
0.0
  0
LINE
  5
F0
330
1F
100
AcDbEntity
  8
0
  6
Continuous
 62
     7
370
    15
100
AcDbLine
 10
645.9859121699423
 20
-74.9033632293673
 30
0.0
 11
635.4517470628682
 21
-74.9033632293673
 31
0.0
  0
LINE
  5
F1
330
1F
100
AcDbEntity
  8
0
  6
Continuous
 62
     7
370
    15
100
AcDbLine
 10
635.4517470628682
 20
-86.23518711433844
 30
0.0
 11
645.9859121699423
 21
-86.23518711433844
 31
0.0
  0
LINE
  5
F2
330
1F
100
AcDbEntity
  8
0
  6
Continuous
 62
     7
370
    15
100
AcDbLine
 10
645.9859121699423
 20
-86.23518711433844
 30
0.0
 11
645.9859121699423
 21
-74.9033632293673
 31
0.0
  0
LINE
  5
F3
330
1F
100
AcDbEntity
  8
0
  6
Continuous
 62
     7
370
    15
100
AcDbLine
 10
635.4517470628682
 20
-74.9033632293673
 30
0.0
 11
635.4517470628682
 21
-86.23518711433844
 31
0.0
  0
LINE
  5
F4
330
1F
100
AcDbEntity
  8
0
  6
Continuous
 62
     7
370
    15
100
AcDbLine
 10
745.9859121699426
 20
-74.9033632293673
 30
0.0
 11
735.4517470628679
 21
-74.9033632293673
 31
0.0
  0
LINE
  5
F5
330
1F
100
AcDbEntity
  8
0
  6
Continuous
 62
     7
370
    15
100
AcDbLine
 10
745.9859121699426
 20
-86.23518711433844
 30
0.0
 11
745.9859121699426
 21
-74.9033632293673
 31
0.0
  0
LINE
  5
F6
330
1F
100
AcDbEntity
  8
0
  6
Continuous
 62
     7
370
    15
100
AcDbLine
 10
735.4517470628679
 20
-74.9033632293673
 30
0.0
 11
735.4517470628679
 21
-86.23518711433844
 31
0.0
  0
LINE
  5
F7
330
1F
100
AcDbEntity
  8
0
  6
Continuous
 62
     7
370
    15
100
AcDbLine
 10
735.4517470628679
 20
-86.23518711433844
 30
0.0
 11
745.9859121699426
 21
-86.23518711433844
 31
0.0
  0
LINE
  5
F8
330
1F
100
AcDbEntity
  8
0
  6
Continuous
 62
     7
370
    15
100
AcDbLine
 10
695.9859121699428
 20
-74.9033632293673
 30
0.0
 11
685.4517470628684
 21
-74.9033632293673
 31
0.0
  0
LINE
  5
F9
330
1F
100
AcDbEntity
  8
0
  6
Continuous
 62
     7
370
    15
100
AcDbLine
 10
685.4517470628684
 20
-86.23518711433844
 30
0.0
 11
695.9859121699428
 21
-86.23518711433844
 31
0.0
  0
LINE
  5
FA
330
1F
100
AcDbEntity
  8
0
  6
Continuous
 62
     7
370
    15
100
AcDbLine
 10
685.4517470628684
 20
-74.9033632293673
 30
0.0
 11
685.4517470628684
 21
-86.23518711433844
 31
0.0
  0
LINE
  5
FB
330
1F
100
AcDbEntity
  8
0
  6
Continuous
 62
     7
370
    15
100
AcDbLine
 10
695.9859121699428
 20
-86.23518711433844
 30
0.0
 11
695.9859121699428
 21
-74.9033632293673
 31
0.0
  0
LINE
  5
FC
330
1F
100
AcDbEntity
  8
0
  6
Continuous
 62
     7
370
    15
100
AcDbLine
 10
-454.0140878300579
 20
-44.90336322936729
 30
0.0
 11
-464.5482529371323
 21
-44.90336322936729
 31
0.0
  0
LINE
  5
FD
330
1F
100
AcDbEntity
  8
0
  6
Continuous
 62
     7
370
    15
100
AcDbLine
 10
-454.0140878300579
 20
-56.23518711433843
 30
0.0
 11
-454.0140878300579
 21
-44.90336322936729
 31
0.0
  0
LINE
  5
FE
330
1F
100
AcDbEntity
  8
0
  6
Continuous
 62
     7
370
    15
100
AcDbLine
 10
-464.5482529371323
 20
-56.23518711433843
 30
0.0
 11
-454.0140878300579
 21
-56.23518711433843
 31
0.0
  0
LINE
  5
FF
330
1F
100
AcDbEntity
  8
0
  6
Continuous
 62
     7
370
    15
100
AcDbLine
 10
-464.5482529371323
 20
-44.90336322936729
 30
0.0
 11
-464.5482529371323
 21
-56.23518711433843
 31
0.0
  0
LINE
  5
100
330
1F
100
AcDbEntity
  8
0
  6
Continuous
 62
     7
370
    15
100
AcDbLine
 10
395.9859121699419
 20
-44.90336322936729
 30
0.0
 11
385.4517470628676
 21
-44.90336322936729
 31
0.0
  0
LINE
  5
101
330
1F
100
AcDbEntity
  8
0
  6
Continuous
 62
     7
370
    15
100
AcDbLine
 10
395.9859121699419
 20
-56.23518711433843
 30
0.0
 11
395.9859121699419
 21
-44.90336322936729
 31
0.0
  0
LINE
  5
102
330
1F
100
AcDbEntity
  8
0
  6
Continuous
 62
     7
370
    15
100
AcDbLine
 10
385.4517470628676
 20
-56.23518711433843
 30
0.0
 11
395.9859121699419
 21
-56.23518711433843
 31
0.0
  0
LINE
  5
103
330
1F
100
AcDbEntity
  8
0
  6
Continuous
 62
     7
370
    15
100
AcDbLine
 10
385.4517470628676
 20
-44.90336322936729
 30
0.0
 11
385.4517470628676
 21
-56.23518711433843
 31
0.0
  0
LINE
  5
104
330
1F
100
AcDbEntity
  8
0
  6
Continuous
 62
     7
370
    15
100
AcDbLine
 10
595.9859121699421
 20
-44.90336322936729
 30
0.0
 11
585.4517470628675
 21
-44.90336322936729
 31
0.0
  0
LINE
  5
105
330
1F
100
AcDbEntity
  8
0
  6
Continuous
 62
     7
370
    15
100
AcDbLine
 10
595.9859121699421
 20
-56.23518711433843
 30
0.0
 11
595.9859121699421
 21
-44.90336322936729
 31
0.0
  0
LINE
  5
106
330
1F
100
AcDbEntity
  8
0
  6
Continuous
 62
     7
370
    15
100
AcDbLine
 10
585.4517470628675
 20
-56.23518711433843
 30
0.0
 11
595.9859121699421
 21
-56.23518711433843
 31
0.0
  0
LINE
  5
107
330
1F
100
AcDbEntity
  8
0
  6
Continuous
 62
     7
370
    15
100
AcDbLine
 10
585.4517470628675
 20
-44.90336322936729
 30
0.0
 11
585.4517470628675
 21
-56.23518711433843
 31
0.0
  0
LINE
  5
108
330
1F
100
AcDbEntity
  8
0
  6
Continuous
 62
     7
370
    15
100
AcDbLine
 10
-354.014087830058
 20
-44.90336322936729
 30
0.0
 11
-364.5482529371323
 21
-44.90336322936729
 31
0.0
  0
LINE
  5
109
330
1F
100
AcDbEntity
  8
0
  6
Continuous
 62
     7
370
    15
100
AcDbLine
 10
-354.014087830058
 20
-56.23518711433843
 30
0.0
 11
-354.014087830058
 21
-44.90336322936729
 31
0.0
  0
LINE
  5
10A
330
1F
100
AcDbEntity
  8
0
  6
Continuous
 62
     7
370
    15
100
AcDbLine
 10
-364.5482529371323
 20
-56.23518711433843
 30
0.0
 11
-354.014087830058
 21
-56.23518711433843
 31
0.0
  0
LINE
  5
10B
330
1F
100
AcDbEntity
  8
0
  6
Continuous
 62
     7
370
    15
100
AcDbLine
 10
-364.5482529371323
 20
-44.90336322936729
 30
0.0
 11
-364.5482529371323
 21
-56.23518711433843
 31
0.0
  0
LINE
  5
10C
330
1F
100
AcDbEntity
  8
0
  6
Continuous
 62
     7
370
    15
100
AcDbLine
 10
745.9859121699419
 20
-44.90336322936729
 30
0.0
 11
735.4517470628679
 21
-44.90336322936729
 31
0.0
  0
LINE
  5
10D
330
1F
100
AcDbEntity
  8
0
  6
Continuous
 62
     7
370
    15
100
AcDbLine
 10
745.9859121699419
 20
-56.23518711433843
 30
0.0
 11
745.9859121699419
 21
-44.90336322936729
 31
0.0
  0
LINE
  5
10E
330
1F
100
AcDbEntity
  8
0
  6
Continuous
 62
     7
370
    15
100
AcDbLine
 10
735.4517470628679
 20
-56.23518711433843
 30
0.0
 11
745.9859121699419
 21
-56.23518711433843
 31
0.0
  0
LINE
  5
10F
330
1F
100
AcDbEntity
  8
0
  6
Continuous
 62
     7
370
    15
100
AcDbLine
 10
735.4517470628679
 20
-44.90336322936729
 30
0.0
 11
735.4517470628679
 21
-56.23518711433843
 31
0.0
  0
LINE
  5
110
330
1F
100
AcDbEntity
  8
0
  6
Continuous
 62
     7
370
    15
100
AcDbLine
 10
295.9859121699419
 20
-44.90336322936729
 30
0.0
 11
285.4517470628676
 21
-44.90336322936729
 31
0.0
  0
LINE
  5
111
330
1F
100
AcDbEntity
  8
0
  6
Continuous
 62
     7
370
    15
100
AcDbLine
 10
295.9859121699419
 20
-56.23518711433843
 30
0.0
 11
295.9859121699419
 21
-44.90336322936729
 31
0.0
  0
LINE
  5
112
330
1F
100
AcDbEntity
  8
0
  6
Continuous
 62
     7
370
    15
100
AcDbLine
 10
285.4517470628676
 20
-56.23518711433843
 30
0.0
 11
295.9859121699419
 21
-56.23518711433843
 31
0.0
  0
LINE
  5
113
330
1F
100
AcDbEntity
  8
0
  6
Continuous
 62
     7
370
    15
100
AcDbLine
 10
285.4517470628676
 20
-44.90336322936729
 30
0.0
 11
285.4517470628676
 21
-56.23518711433843
 31
0.0
  0
LINE
  5
114
330
1F
100
AcDbEntity
  8
0
  6
Continuous
 62
     7
370
    15
100
AcDbLine
 10
95.98591216994213
 20
-44.90336322936729
 30
0.0
 11
85.45174706286776
 21
-44.90336322936729
 31
0.0
  0
LINE
  5
115
330
1F
100
AcDbEntity
  8
0
  6
Continuous
 62
     7
370
    15
100
AcDbLine
 10
95.98591216994213
 20
-56.23518711433843
 30
0.0
 11
95.98591216994213
 21
-44.90336322936729
 31
0.0
  0
LINE
  5
116
330
1F
100
AcDbEntity
  8
0
  6
Continuous
 62
     7
370
    15
100
AcDbLine
 10
85.45174706286776
 20
-56.23518711433843
 30
0.0
 11
95.98591216994213
 21
-56.23518711433843
 31
0.0
  0
LINE
  5
117
330
1F
100
AcDbEntity
  8
0
  6
Continuous
 62
     7
370
    15
100
AcDbLine
 10
85.45174706286776
 20
-44.90336322936729
 30
0.0
 11
85.45174706286776
 21
-56.23518711433843
 31
0.0
  0
LINE
  5
118
330
1F
100
AcDbEntity
  8
0
  6
Continuous
 62
     7
370
    15
100
AcDbLine
 10
695.9859121699423
 20
-44.90336322936729
 30
0.0
 11
685.4517470628677
 21
-44.90336322936729
 31
0.0
  0
LINE
  5
119
330
1F
100
AcDbEntity
  8
0
  6
Continuous
 62
     7
370
    15
100
AcDbLine
 10
695.9859121699423
 20
-56.23518711433843
 30
0.0
 11
695.9859121699423
 21
-44.90336322936729
 31
0.0
  0
LINE
  5
11A
330
1F
100
AcDbEntity
  8
0
  6
Continuous
 62
     7
370
    15
100
AcDbLine
 10
685.4517470628677
 20
-56.23518711433843
 30
0.0
 11
695.9859121699423
 21
-56.23518711433843
 31
0.0
  0
LINE
  5
11B
330
1F
100
AcDbEntity
  8
0
  6
Continuous
 62
     7
370
    15
100
AcDbLine
 10
685.4517470628677
 20
-44.90336322936729
 30
0.0
 11
685.4517470628677
 21
-56.23518711433843
 31
0.0
  0
LINE
  5
11C
330
1F
100
AcDbEntity
  8
0
  6
Continuous
 62
     7
370
    15
100
AcDbLine
 10
445.9859121699419
 20
-44.90336322936729
 30
0.0
 11
435.4517470628677
 21
-44.90336322936729
 31
0.0
  0
LINE
  5
11D
330
1F
100
AcDbEntity
  8
0
  6
Continuous
 62
     7
370
    15
100
AcDbLine
 10
445.9859121699419
 20
-56.23518711433843
 30
0.0
 11
445.9859121699419
 21
-44.90336322936729
 31
0.0
  0
LINE
  5
11E
330
1F
100
AcDbEntity
  8
0
  6
Continuous
 62
     7
370
    15
100
AcDbLine
 10
435.4517470628677
 20
-56.23518711433843
 30
0.0
 11
445.9859121699419
 21
-56.23518711433843
 31
0.0
  0
LINE
  5
11F
330
1F
100
AcDbEntity
  8
0
  6
Continuous
 62
     7
370
    15
100
AcDbLine
 10
435.4517470628677
 20
-44.90336322936729
 30
0.0
 11
435.4517470628677
 21
-56.23518711433843
 31
0.0
  0
LINE
  5
120
330
1F
100
AcDbEntity
  8
0
  6
Continuous
 62
     7
370
    15
100
AcDbLine
 10
995.9859121699423
 20
-44.90336322936729
 30
0.0
 11
985.4517470628683
 21
-44.90336322936729
 31
0.0
  0
LINE
  5
121
330
1F
100
AcDbEntity
  8
0
  6
Continuous
 62
     7
370
    15
100
AcDbLine
 10
995.9859121699423
 20
-56.23518711433843
 30
0.0
 11
995.9859121699423
 21
-44.90336322936729
 31
0.0
  0
LINE
  5
122
330
1F
100
AcDbEntity
  8
0
  6
Continuous
 62
     7
370
    15
100
AcDbLine
 10
985.4517470628683
 20
-56.23518711433843
 30
0.0
 11
995.9859121699423
 21
-56.23518711433843
 31
0.0
  0
LINE
  5
123
330
1F
100
AcDbEntity
  8
0
  6
Continuous
 62
     7
370
    15
100
AcDbLine
 10
985.4517470628683
 20
-44.90336322936729
 30
0.0
 11
985.4517470628683
 21
-56.23518711433843
 31
0.0
  0
LINE
  5
124
330
1F
100
AcDbEntity
  8
0
  6
Continuous
 62
     7
370
    15
100
AcDbLine
 10
345.9859121699421
 20
-44.90336322936729
 30
0.0
 11
335.4517470628678
 21
-44.90336322936729
 31
0.0
  0
LINE
  5
125
330
1F
100
AcDbEntity
  8
0
  6
Continuous
 62
     7
370
    15
100
AcDbLine
 10
345.9859121699421
 20
-56.23518711433843
 30
0.0
 11
345.9859121699421
 21
-44.90336322936729
 31
0.0
  0
LINE
  5
126
330
1F
100
AcDbEntity
  8
0
  6
Continuous
 62
     7
370
    15
100
AcDbLine
 10
335.4517470628678
 20
-44.90336322936729
 30
0.0
 11
335.4517470628678
 21
-56.23518711433843
 31
0.0
  0
LINE
  5
127
330
1F
100
AcDbEntity
  8
0
  6
Continuous
 62
     7
370
    15
100
AcDbLine
 10
335.4517470628678
 20
-56.23518711433843
 30
0.0
 11
345.9859121699421
 21
-56.23518711433843
 31
0.0
  0
LINE
  5
128
330
1F
100
AcDbEntity
  8
0
  6
Continuous
 62
     7
370
    15
100
AcDbLine
 10
195.9859121699421
 20
-44.90336322936729
 30
0.0
 11
185.4517470628677
 21
-44.90336322936729
 31
0.0
  0
LINE
  5
129
330
1F
100
AcDbEntity
  8
0
  6
Continuous
 62
     7
370
    15
100
AcDbLine
 10
195.9859121699421
 20
-56.23518711433843
 30
0.0
 11
195.9859121699421
 21
-44.90336322936729
 31
0.0
  0
LINE
  5
12A
330
1F
100
AcDbEntity
  8
0
  6
Continuous
 62
     7
370
    15
100
AcDbLine
 10
185.4517470628677
 20
-56.23518711433843
 30
0.0
 11
195.9859121699421
 21
-56.23518711433843
 31
0.0
  0
LINE
  5
12B
330
1F
100
AcDbEntity
  8
0
  6
Continuous
 62
     7
370
    15
100
AcDbLine
 10
185.4517470628677
 20
-44.90336322936729
 30
0.0
 11
185.4517470628677
 21
-56.23518711433843
 31
0.0
  0
LINE
  5
12C
330
1F
100
AcDbEntity
  8
0
  6
Continuous
 62
     7
370
    15
100
AcDbLine
 10
245.9859121699419
 20
-44.90336322936729
 30
0.0
 11
235.4517470628676
 21
-44.90336322936729
 31
0.0
  0
LINE
  5
12D
330
1F
100
AcDbEntity
  8
0
  6
Continuous
 62
     7
370
    15
100
AcDbLine
 10
235.4517470628676
 20
-56.23518711433843
 30
0.0
 11
245.9859121699419
 21
-56.23518711433843
 31
0.0
  0
LINE
  5
12E
330
1F
100
AcDbEntity
  8
0
  6
Continuous
 62
     7
370
    15
100
AcDbLine
 10
235.4517470628676
 20
-44.90336322936729
 30
0.0
 11
235.4517470628676
 21
-56.23518711433843
 31
0.0
  0
LINE
  5
12F
330
1F
100
AcDbEntity
  8
0
  6
Continuous
 62
     7
370
    15
100
AcDbLine
 10
245.9859121699419
 20
-56.23518711433843
 30
0.0
 11
245.9859121699419
 21
-44.90336322936729
 31
0.0
  0
LINE
  5
130
330
1F
100
AcDbEntity
  8
0
  6
Continuous
 62
     7
370
    15
100
AcDbLine
 10
785.4517470628679
 20
-44.90336322936729
 30
0.0
 11
785.4517470628679
 21
-56.23518711433843
 31
0.0
  0
LINE
  5
131
330
1F
100
AcDbEntity
  8
0
  6
Continuous
 62
     7
370
    15
100
AcDbLine
 10
795.9859121699426
 20
-44.90336322936729
 30
0.0
 11
785.4517470628679
 21
-44.90336322936729
 31
0.0
  0
LINE
  5
132
330
1F
100
AcDbEntity
  8
0
  6
Continuous
 62
     7
370
    15
100
AcDbLine
 10
795.9859121699426
 20
-56.23518711433843
 30
0.0
 11
795.9859121699426
 21
-44.90336322936729
 31
0.0
  0
LINE
  5
133
330
1F
100
AcDbEntity
  8
0
  6
Continuous
 62
     7
370
    15
100
AcDbLine
 10
785.4517470628679
 20
-56.23518711433843
 30
0.0
 11
795.9859121699426
 21
-56.23518711433843
 31
0.0
  0
LINE
  5
134
330
1F
100
AcDbEntity
  8
0
  6
Continuous
 62
     7
370
    15
100
AcDbLine
 10
845.985912169942
 20
-44.90336322936729
 30
0.0
 11
835.4517470628675
 21
-44.90336322936729
 31
0.0
  0
LINE
  5
135
330
1F
100
AcDbEntity
  8
0
  6
Continuous
 62
     7
370
    15
100
AcDbLine
 10
845.985912169942
 20
-56.23518711433843
 30
0.0
 11
845.985912169942
 21
-44.90336322936729
 31
0.0
  0
LINE
  5
136
330
1F
100
AcDbEntity
  8
0
  6
Continuous
 62
     7
370
    15
100
AcDbLine
 10
835.4517470628675
 20
-56.23518711433843
 30
0.0
 11
845.985912169942
 21
-56.23518711433843
 31
0.0
  0
LINE
  5
137
330
1F
100
AcDbEntity
  8
0
  6
Continuous
 62
     7
370
    15
100
AcDbLine
 10
835.4517470628675
 20
-44.90336322936729
 30
0.0
 11
835.4517470628675
 21
-56.23518711433843
 31
0.0
  0
LINE
  5
138
330
1F
100
AcDbEntity
  8
0
  6
Continuous
 62
     7
370
    15
100
AcDbLine
 10
895.9859121699423
 20
-44.90336322936729
 30
0.0
 11
885.4517470628683
 21
-44.90336322936729
 31
0.0
  0
LINE
  5
139
330
1F
100
AcDbEntity
  8
0
  6
Continuous
 62
     7
370
    15
100
AcDbLine
 10
895.9859121699423
 20
-56.23518711433843
 30
0.0
 11
895.9859121699423
 21
-44.90336322936729
 31
0.0
  0
LINE
  5
13A
330
1F
100
AcDbEntity
  8
0
  6
Continuous
 62
     7
370
    15
100
AcDbLine
 10
885.4517470628683
 20
-56.23518711433843
 30
0.0
 11
895.9859121699423
 21
-56.23518711433843
 31
0.0
  0
LINE
  5
13B
330
1F
100
AcDbEntity
  8
0
  6
Continuous
 62
     7
370
    15
100
AcDbLine
 10
885.4517470628683
 20
-44.90336322936729
 30
0.0
 11
885.4517470628683
 21
-56.23518711433843
 31
0.0
  0
LINE
  5
13C
330
1F
100
AcDbEntity
  8
0
  6
Continuous
 62
     7
370
    15
100
AcDbLine
 10
945.9859121699423
 20
-44.90336322936729
 30
0.0
 11
935.4517470628676
 21
-44.90336322936729
 31
0.0
  0
LINE
  5
13D
330
1F
100
AcDbEntity
  8
0
  6
Continuous
 62
     7
370
    15
100
AcDbLine
 10
945.9859121699423
 20
-56.23518711433843
 30
0.0
 11
945.9859121699423
 21
-44.90336322936729
 31
0.0
  0
LINE
  5
13E
330
1F
100
AcDbEntity
  8
0
  6
Continuous
 62
     7
370
    15
100
AcDbLine
 10
935.4517470628676
 20
-56.23518711433843
 30
0.0
 11
945.9859121699423
 21
-56.23518711433843
 31
0.0
  0
LINE
  5
13F
330
1F
100
AcDbEntity
  8
0
  6
Continuous
 62
     7
370
    15
100
AcDbLine
 10
935.4517470628676
 20
-44.90336322936729
 30
0.0
 11
935.4517470628676
 21
-56.23518711433843
 31
0.0
  0
LINE
  5
140
330
1F
100
AcDbEntity
  8
0
  6
Continuous
 62
     7
370
    15
100
AcDbLine
 10
-154.014087830058
 20
-44.90336322936729
 30
0.0
 11
-164.5482529371323
 21
-44.90336322936729
 31
0.0
  0
LINE
  5
141
330
1F
100
AcDbEntity
  8
0
  6
Continuous
 62
     7
370
    15
100
AcDbLine
 10
-154.014087830058
 20
-56.23518711433843
 30
0.0
 11
-154.014087830058
 21
-44.90336322936729
 31
0.0
  0
LINE
  5
142
330
1F
100
AcDbEntity
  8
0
  6
Continuous
 62
     7
370
    15
100
AcDbLine
 10
-164.5482529371323
 20
-56.23518711433843
 30
0.0
 11
-154.014087830058
 21
-56.23518711433843
 31
0.0
  0
LINE
  5
143
330
1F
100
AcDbEntity
  8
0
  6
Continuous
 62
     7
370
    15
100
AcDbLine
 10
-164.5482529371323
 20
-44.90336322936729
 30
0.0
 11
-164.5482529371323
 21
-56.23518711433843
 31
0.0
  0
LINE
  5
144
330
1F
100
AcDbEntity
  8
0
  6
Continuous
 62
     7
370
    15
100
AcDbLine
 10
495.9859121699421
 20
-44.90336322936729
 30
0.0
 11
485.4517470628675
 21
-44.90336322936729
 31
0.0
  0
LINE
  5
145
330
1F
100
AcDbEntity
  8
0
  6
Continuous
 62
     7
370
    15
100
AcDbLine
 10
495.9859121699421
 20
-56.23518711433843
 30
0.0
 11
495.9859121699421
 21
-44.90336322936729
 31
0.0
  0
LINE
  5
146
330
1F
100
AcDbEntity
  8
0
  6
Continuous
 62
     7
370
    15
100
AcDbLine
 10
485.4517470628675
 20
-56.23518711433843
 30
0.0
 11
495.9859121699421
 21
-56.23518711433843
 31
0.0
  0
LINE
  5
147
330
1F
100
AcDbEntity
  8
0
  6
Continuous
 62
     7
370
    15
100
AcDbLine
 10
485.4517470628675
 20
-44.90336322936729
 30
0.0
 11
485.4517470628675
 21
-56.23518711433843
 31
0.0
  0
LINE
  5
148
330
1F
100
AcDbEntity
  8
0
  6
Continuous
 62
     7
370
    15
100
AcDbLine
 10
545.9859121699419
 20
-44.90336322936729
 30
0.0
 11
535.4517470628675
 21
-44.90336322936729
 31
0.0
  0
LINE
  5
149
330
1F
100
AcDbEntity
  8
0
  6
Continuous
 62
     7
370
    15
100
AcDbLine
 10
545.9859121699419
 20
-56.23518711433843
 30
0.0
 11
545.9859121699419
 21
-44.90336322936729
 31
0.0
  0
LINE
  5
14A
330
1F
100
AcDbEntity
  8
0
  6
Continuous
 62
     7
370
    15
100
AcDbLine
 10
535.4517470628675
 20
-56.23518711433843
 30
0.0
 11
545.9859121699419
 21
-56.23518711433843
 31
0.0
  0
LINE
  5
14B
330
1F
100
AcDbEntity
  8
0
  6
Continuous
 62
     7
370
    15
100
AcDbLine
 10
535.4517470628675
 20
-44.90336322936729
 30
0.0
 11
535.4517470628675
 21
-56.23518711433843
 31
0.0
  0
LINE
  5
14C
330
1F
100
AcDbEntity
  8
0
  6
Continuous
 62
     7
370
    15
100
AcDbLine
 10
-4.014087830057974
 20
-44.90336322936729
 30
0.0
 11
-14.54825293713236
 21
-44.90336322936729
 31
0.0
  0
LINE
  5
14D
330
1F
100
AcDbEntity
  8
0
  6
Continuous
 62
     7
370
    15
100
AcDbLine
 10
-4.014087830057974
 20
-56.23518711433843
 30
0.0
 11
-4.014087830057974
 21
-44.90336322936729
 31
0.0
  0
LINE
  5
14E
330
1F
100
AcDbEntity
  8
0
  6
Continuous
 62
     7
370
    15
100
AcDbLine
 10
-14.54825293713236
 20
-56.23518711433843
 30
0.0
 11
-4.014087830057974
 21
-56.23518711433843
 31
0.0
  0
LINE
  5
14F
330
1F
100
AcDbEntity
  8
0
  6
Continuous
 62
     7
370
    15
100
AcDbLine
 10
-14.54825293713236
 20
-44.90336322936729
 30
0.0
 11
-14.54825293713236
 21
-56.23518711433843
 31
0.0
  0
LINE
  5
150
330
1F
100
AcDbEntity
  8
0
  6
Continuous
 62
     7
370
    15
100
AcDbLine
 10
-254.014087830058
 20
-44.90336322936729
 30
0.0
 11
-264.5482529371325
 21
-44.90336322936729
 31
0.0
  0
LINE
  5
151
330
1F
100
AcDbEntity
  8
0
  6
Continuous
 62
     7
370
    15
100
AcDbLine
 10
-264.5482529371325
 20
-56.23518711433843
 30
0.0
 11
-254.014087830058
 21
-56.23518711433843
 31
0.0
  0
LINE
  5
152
330
1F
100
AcDbEntity
  8
0
  6
Continuous
 62
     7
370
    15
100
AcDbLine
 10
-264.5482529371325
 20
-44.90336322936729
 30
0.0
 11
-264.5482529371325
 21
-56.23518711433843
 31
0.0
  0
LINE
  5
153
330
1F
100
AcDbEntity
  8
0
  6
Continuous
 62
     7
370
    15
100
AcDbLine
 10
-254.014087830058
 20
-56.23518711433843
 30
0.0
 11
-254.014087830058
 21
-44.90336322936729
 31
0.0
  0
LINE
  5
154
330
1F
100
AcDbEntity
  8
0
  6
Continuous
 62
     7
370
    15
100
AcDbLine
 10
645.9859121699421
 20
-44.90336322936729
 30
0.0
 11
635.4517470628675
 21
-44.90336322936729
 31
0.0
  0
LINE
  5
155
330
1F
100
AcDbEntity
  8
0
  6
Continuous
 62
     7
370
    15
100
AcDbLine
 10
645.9859121699421
 20
-56.23518711433843
 30
0.0
 11
645.9859121699421
 21
-44.90336322936729
 31
0.0
  0
LINE
  5
156
330
1F
100
AcDbEntity
  8
0
  6
Continuous
 62
     7
370
    15
100
AcDbLine
 10
635.4517470628675
 20
-56.23518711433843
 30
0.0
 11
645.9859121699421
 21
-56.23518711433843
 31
0.0
  0
LINE
  5
157
330
1F
100
AcDbEntity
  8
0
  6
Continuous
 62
     7
370
    15
100
AcDbLine
 10
635.4517470628675
 20
-44.90336322936729
 30
0.0
 11
635.4517470628675
 21
-56.23518711433843
 31
0.0
  0
LINE
  5
158
330
1F
100
AcDbEntity
  8
0
  6
Continuous
 62
     7
370
    15
100
AcDbLine
 10
-104.0140878300579
 20
-44.90336322936729
 30
0.0
 11
-114.5482529371323
 21
-44.90336322936729
 31
0.0
  0
LINE
  5
159
330
1F
100
AcDbEntity
  8
0
  6
Continuous
 62
     7
370
    15
100
AcDbLine
 10
-114.5482529371323
 20
-44.90336322936729
 30
0.0
 11
-114.5482529371323
 21
-56.23518711433843
 31
0.0
  0
LINE
  5
15A
330
1F
100
AcDbEntity
  8
0
  6
Continuous
 62
     7
370
    15
100
AcDbLine
 10
-114.5482529371323
 20
-56.23518711433843
 30
0.0
 11
-104.0140878300579
 21
-56.23518711433843
 31
0.0
  0
LINE
  5
15B
330
1F
100
AcDbEntity
  8
0
  6
Continuous
 62
     7
370
    15
100
AcDbLine
 10
-104.0140878300579
 20
-56.23518711433843
 30
0.0
 11
-104.0140878300579
 21
-44.90336322936729
 31
0.0
  0
LINE
  5
15C
330
1F
100
AcDbEntity
  8
0
  6
Continuous
 62
     7
370
    15
100
AcDbLine
 10
-504.014087830058
 20
-44.90336322936729
 30
0.0
 11
-514.5482529371324
 21
-44.90336322936729
 31
0.0
  0
LINE
  5
15D
330
1F
100
AcDbEntity
  8
0
  6
Continuous
 62
     7
370
    15
100
AcDbLine
 10
-504.014087830058
 20
-56.23518711433843
 30
0.0
 11
-504.014087830058
 21
-44.90336322936729
 31
0.0
  0
LINE
  5
15E
330
1F
100
AcDbEntity
  8
0
  6
Continuous
 62
     7
370
    15
100
AcDbLine
 10
-514.5482529371324
 20
-44.90336322936729
 30
0.0
 11
-514.5482529371324
 21
-56.23518711433843
 31
0.0
  0
LINE
  5
15F
330
1F
100
AcDbEntity
  8
0
  6
Continuous
 62
     7
370
    15
100
AcDbLine
 10
-514.5482529371324
 20
-56.23518711433843
 30
0.0
 11
-504.014087830058
 21
-56.23518711433843
 31
0.0
  0
LINE
  5
160
330
1F
100
AcDbEntity
  8
0
  6
Continuous
 62
     7
370
    15
100
AcDbLine
 10
-54.01408783005797
 20
-44.90336322936729
 30
0.0
 11
-64.54825293713236
 21
-44.90336322936729
 31
0.0
  0
LINE
  5
161
330
1F
100
AcDbEntity
  8
0
  6
Continuous
 62
     7
370
    15
100
AcDbLine
 10
-64.54825293713236
 20
-56.23518711433843
 30
0.0
 11
-54.01408783005797
 21
-56.23518711433843
 31
0.0
  0
LINE
  5
162
330
1F
100
AcDbEntity
  8
0
  6
Continuous
 62
     7
370
    15
100
AcDbLine
 10
-64.54825293713236
 20
-44.90336322936729
 30
0.0
 11
-64.54825293713236
 21
-56.23518711433843
 31
0.0
  0
LINE
  5
163
330
1F
100
AcDbEntity
  8
0
  6
Continuous
 62
     7
370
    15
100
AcDbLine
 10
-54.01408783005797
 20
-56.23518711433843
 30
0.0
 11
-54.01408783005797
 21
-44.90336322936729
 31
0.0
  0
LINE
  5
164
330
1F
100
AcDbEntity
  8
0
  6
Continuous
 62
     7
370
    15
100
AcDbLine
 10
-304.014087830058
 20
-44.90336322936729
 30
0.0
 11
-314.5482529371323
 21
-44.90336322936729
 31
0.0
  0
LINE
  5
165
330
1F
100
AcDbEntity
  8
0
  6
Continuous
 62
     7
370
    15
100
AcDbLine
 10
-314.5482529371323
 20
-44.90336322936729
 30
0.0
 11
-314.5482529371323
 21
-56.23518711433843
 31
0.0
  0
LINE
  5
166
330
1F
100
AcDbEntity
  8
0
  6
Continuous
 62
     7
370
    15
100
AcDbLine
 10
-314.5482529371323
 20
-56.23518711433843
 30
0.0
 11
-304.014087830058
 21
-56.23518711433843
 31
0.0
  0
LINE
  5
167
330
1F
100
AcDbEntity
  8
0
  6
Continuous
 62
     7
370
    15
100
AcDbLine
 10
-304.014087830058
 20
-56.23518711433843
 30
0.0
 11
-304.014087830058
 21
-44.90336322936729
 31
0.0
  0
LINE
  5
168
330
1F
100
AcDbEntity
  8
0
  6
Continuous
 62
     7
370
    15
100
AcDbLine
 10
45.98591216994202
 20
-44.90336322936729
 30
0.0
 11
35.45174706286764
 21
-44.90336322936729
 31
0.0
  0
LINE
  5
169
330
1F
100
AcDbEntity
  8
0
  6
Continuous
 62
     7
370
    15
100
AcDbLine
 10
45.98591216994202
 20
-56.23518711433843
 30
0.0
 11
45.98591216994202
 21
-44.90336322936729
 31
0.0
  0
LINE
  5
16A
330
1F
100
AcDbEntity
  8
0
  6
Continuous
 62
     7
370
    15
100
AcDbLine
 10
35.45174706286764
 20
-56.23518711433843
 30
0.0
 11
45.98591216994202
 21
-56.23518711433843
 31
0.0
  0
LINE
  5
16B
330
1F
100
AcDbEntity
  8
0
  6
Continuous
 62
     7
370
    15
100
AcDbLine
 10
35.45174706286764
 20
-44.90336322936729
 30
0.0
 11
35.45174706286764
 21
-56.23518711433843
 31
0.0
  0
LINE
  5
16C
330
1F
100
AcDbEntity
  8
0
  6
Continuous
 62
     7
370
    15
100
AcDbLine
 10
-404.0140878300579
 20
-44.90336322936729
 30
0.0
 11
-414.5482529371323
 21
-44.90336322936729
 31
0.0
  0
LINE
  5
16D
330
1F
100
AcDbEntity
  8
0
  6
Continuous
 62
     7
370
    15
100
AcDbLine
 10
-404.0140878300579
 20
-56.23518711433843
 30
0.0
 11
-404.0140878300579
 21
-44.90336322936729
 31
0.0
  0
LINE
  5
16E
330
1F
100
AcDbEntity
  8
0
  6
Continuous
 62
     7
370
    15
100
AcDbLine
 10
-414.5482529371323
 20
-44.90336322936729
 30
0.0
 11
-414.5482529371323
 21
-56.23518711433843
 31
0.0
  0
LINE
  5
16F
330
1F
100
AcDbEntity
  8
0
  6
Continuous
 62
     7
370
    15
100
AcDbLine
 10
-414.5482529371323
 20
-56.23518711433843
 30
0.0
 11
-404.0140878300579
 21
-56.23518711433843
 31
0.0
  0
LINE
  5
170
330
1F
100
AcDbEntity
  8
0
  6
Continuous
 62
     7
370
    15
100
AcDbLine
 10
-204.0140878300578
 20
-44.90336322936729
 30
0.0
 11
-214.5482529371323
 21
-44.90336322936729
 31
0.0
  0
LINE
  5
171
330
1F
100
AcDbEntity
  8
0
  6
Continuous
 62
     7
370
    15
100
AcDbLine
 10
-214.5482529371323
 20
-56.23518711433843
 30
0.0
 11
-204.0140878300578
 21
-56.23518711433843
 31
0.0
  0
LINE
  5
172
330
1F
100
AcDbEntity
  8
0
  6
Continuous
 62
     7
370
    15
100
AcDbLine
 10
-204.0140878300578
 20
-56.23518711433843
 30
0.0
 11
-204.0140878300578
 21
-44.90336322936729
 31
0.0
  0
LINE
  5
173
330
1F
100
AcDbEntity
  8
0
  6
Continuous
 62
     7
370
    15
100
AcDbLine
 10
-214.5482529371323
 20
-44.90336322936729
 30
0.0
 11
-214.5482529371323
 21
-56.23518711433843
 31
0.0
  0
LINE
  5
174
330
1F
100
AcDbEntity
  8
0
  6
Continuous
 62
     7
370
    15
100
AcDbLine
 10
145.9859121699419
 20
-44.90336322936729
 30
0.0
 11
135.4517470628676
 21
-44.90336322936729
 31
0.0
  0
LINE
  5
175
330
1F
100
AcDbEntity
  8
0
  6
Continuous
 62
     7
370
    15
100
AcDbLine
 10
145.9859121699419
 20
-56.23518711433843
 30
0.0
 11
145.9859121699419
 21
-44.90336322936729
 31
0.0
  0
LINE
  5
176
330
1F
100
AcDbEntity
  8
0
  6
Continuous
 62
     7
370
    15
100
AcDbLine
 10
135.4517470628676
 20
-56.23518711433843
 30
0.0
 11
145.9859121699419
 21
-56.23518711433843
 31
0.0
  0
LINE
  5
177
330
1F
100
AcDbEntity
  8
0
  6
Continuous
 62
     7
370
    15
100
AcDbLine
 10
135.4517470628676
 20
-44.90336322936729
 30
0.0
 11
135.4517470628676
 21
-56.23518711433843
 31
0.0
  0
LINE
  5
178
330
1F
100
AcDbEntity
  8
0
  6
Continuous
 62
     7
370
    15
100
AcDbLine
 10
-454.0140878300583
 20
-14.9033632293673
 30
0.0
 11
-464.5482529371327
 21
-14.9033632293673
 31
0.0
  0
LINE
  5
179
330
1F
100
AcDbEntity
  8
0
  6
Continuous
 62
     7
370
    15
100
AcDbLine
 10
-454.0140878300583
 20
-26.23518711433849
 30
0.0
 11
-454.0140878300583
 21
-14.9033632293673
 31
0.0
  0
LINE
  5
17A
330
1F
100
AcDbEntity
  8
0
  6
Continuous
 62
     7
370
    15
100
AcDbLine
 10
-464.5482529371327
 20
-26.23518711433849
 30
0.0
 11
-454.0140878300583
 21
-26.23518711433849
 31
0.0
  0
LINE
  5
17B
330
1F
100
AcDbEntity
  8
0
  6
Continuous
 62
     7
370
    15
100
AcDbLine
 10
-464.5482529371327
 20
-14.9033632293673
 30
0.0
 11
-464.5482529371327
 21
-26.23518711433849
 31
0.0
  0
LINE
  5
17C
330
1F
100
AcDbEntity
  8
0
  6
Continuous
 62
     7
370
    15
100
AcDbLine
 10
445.9859121699419
 20
-14.9033632293673
 30
0.0
 11
435.4517470628675
 21
-14.9033632293673
 31
0.0
  0
LINE
  5
17D
330
1F
100
AcDbEntity
  8
0
  6
Continuous
 62
     7
370
    15
100
AcDbLine
 10
435.4517470628675
 20
-26.23518711433849
 30
0.0
 11
445.9859121699419
 21
-26.23518711433849
 31
0.0
  0
LINE
  5
17E
330
1F
100
AcDbEntity
  8
0
  6
Continuous
 62
     7
370
    15
100
AcDbLine
 10
435.4517470628675
 20
-14.9033632293673
 30
0.0
 11
435.4517470628675
 21
-26.23518711433849
 31
0.0
  0
LINE
  5
17F
330
1F
100
AcDbEntity
  8
0
  6
Continuous
 62
     7
370
    15
100
AcDbLine
 10
445.9859121699419
 20
-26.23518711433849
 30
0.0
 11
445.9859121699419
 21
-14.9033632293673
 31
0.0
  0
LINE
  5
180
330
1F
100
AcDbEntity
  8
0
  6
Continuous
 62
     7
370
    15
100
AcDbLine
 10
-354.0140878300583
 20
-14.9033632293673
 30
0.0
 11
-364.5482529371327
 21
-14.9033632293673
 31
0.0
  0
LINE
  5
181
330
1F
100
AcDbEntity
  8
0
  6
Continuous
 62
     7
370
    15
100
AcDbLine
 10
-354.0140878300583
 20
-26.23518711433849
 30
0.0
 11
-354.0140878300583
 21
-14.9033632293673
 31
0.0
  0
LINE
  5
182
330
1F
100
AcDbEntity
  8
0
  6
Continuous
 62
     7
370
    15
100
AcDbLine
 10
-364.5482529371327
 20
-26.23518711433849
 30
0.0
 11
-354.0140878300583
 21
-26.23518711433849
 31
0.0
  0
LINE
  5
183
330
1F
100
AcDbEntity
  8
0
  6
Continuous
 62
     7
370
    15
100
AcDbLine
 10
-364.5482529371327
 20
-14.9033632293673
 30
0.0
 11
-364.5482529371327
 21
-26.23518711433849
 31
0.0
  0
LINE
  5
184
330
1F
100
AcDbEntity
  8
0
  6
Continuous
 62
     7
370
    15
100
AcDbLine
 10
745.9859121699419
 20
-14.9033632293673
 30
0.0
 11
735.4517470628675
 21
-14.9033632293673
 31
0.0
  0
LINE
  5
185
330
1F
100
AcDbEntity
  8
0
  6
Continuous
 62
     7
370
    15
100
AcDbLine
 10
745.9859121699419
 20
-26.23518711433849
 30
0.0
 11
745.9859121699419
 21
-14.9033632293673
 31
0.0
  0
LINE
  5
186
330
1F
100
AcDbEntity
  8
0
  6
Continuous
 62
     7
370
    15
100
AcDbLine
 10
735.4517470628675
 20
-26.23518711433849
 30
0.0
 11
745.9859121699419
 21
-26.23518711433849
 31
0.0
  0
LINE
  5
187
330
1F
100
AcDbEntity
  8
0
  6
Continuous
 62
     7
370
    15
100
AcDbLine
 10
735.4517470628675
 20
-14.9033632293673
 30
0.0
 11
735.4517470628675
 21
-26.23518711433849
 31
0.0
  0
LINE
  5
188
330
1F
100
AcDbEntity
  8
0
  6
Continuous
 62
     7
370
    15
100
AcDbLine
 10
545.9859121699419
 20
-14.9033632293673
 30
0.0
 11
535.4517470628675
 21
-14.9033632293673
 31
0.0
  0
LINE
  5
189
330
1F
100
AcDbEntity
  8
0
  6
Continuous
 62
     7
370
    15
100
AcDbLine
 10
535.4517470628675
 20
-26.23518711433849
 30
0.0
 11
545.9859121699419
 21
-26.23518711433849
 31
0.0
  0
LINE
  5
18A
330
1F
100
AcDbEntity
  8
0
  6
Continuous
 62
     7
370
    15
100
AcDbLine
 10
545.9859121699419
 20
-26.23518711433849
 30
0.0
 11
545.9859121699419
 21
-14.9033632293673
 31
0.0
  0
LINE
  5
18B
330
1F
100
AcDbEntity
  8
0
  6
Continuous
 62
     7
370
    15
100
AcDbLine
 10
535.4517470628675
 20
-14.9033632293673
 30
0.0
 11
535.4517470628675
 21
-26.23518711433849
 31
0.0
  0
LINE
  5
18C
330
1F
100
AcDbEntity
  8
0
  6
Continuous
 62
     7
370
    15
100
AcDbLine
 10
395.9859121699418
 20
-14.9033632293673
 30
0.0
 11
385.4517470628676
 21
-14.9033632293673
 31
0.0
  0
LINE
  5
18D
330
1F
100
AcDbEntity
  8
0
  6
Continuous
 62
     7
370
    15
100
AcDbLine
 10
385.4517470628676
 20
-14.9033632293673
 30
0.0
 11
385.4517470628676
 21
-26.23518711433849
 31
0.0
  0
LINE
  5
18E
330
1F
100
AcDbEntity
  8
0
  6
Continuous
 62
     7
370
    15
100
AcDbLine
 10
395.9859121699418
 20
-26.23518711433849
 30
0.0
 11
395.9859121699418
 21
-14.9033632293673
 31
0.0
  0
LINE
  5
18F
330
1F
100
AcDbEntity
  8
0
  6
Continuous
 62
     7
370
    15
100
AcDbLine
 10
385.4517470628676
 20
-26.23518711433849
 30
0.0
 11
395.9859121699418
 21
-26.23518711433849
 31
0.0
  0
LINE
  5
190
330
1F
100
AcDbEntity
  8
0
  6
Continuous
 62
     7
370
    15
100
AcDbLine
 10
345.9859121699419
 20
-14.9033632293673
 30
0.0
 11
335.4517470628675
 21
-14.9033632293673
 31
0.0
  0
LINE
  5
191
330
1F
100
AcDbEntity
  8
0
  6
Continuous
 62
     7
370
    15
100
AcDbLine
 10
335.4517470628675
 20
-14.9033632293673
 30
0.0
 11
335.4517470628675
 21
-26.23518711433849
 31
0.0
  0
LINE
  5
192
330
1F
100
AcDbEntity
  8
0
  6
Continuous
 62
     7
370
    15
100
AcDbLine
 10
345.9859121699419
 20
-26.23518711433849
 30
0.0
 11
345.9859121699419
 21
-14.9033632293673
 31
0.0
  0
LINE
  5
193
330
1F
100
AcDbEntity
  8
0
  6
Continuous
 62
     7
370
    15
100
AcDbLine
 10
335.4517470628675
 20
-26.23518711433849
 30
0.0
 11
345.9859121699419
 21
-26.23518711433849
 31
0.0
  0
LINE
  5
194
330
1F
100
AcDbEntity
  8
0
  6
Continuous
 62
     7
370
    15
100
AcDbLine
 10
795.9859121699419
 20
-14.9033632293673
 30
0.0
 11
785.4517470628675
 21
-14.9033632293673
 31
0.0
  0
LINE
  5
195
330
1F
100
AcDbEntity
  8
0
  6
Continuous
 62
     7
370
    15
100
AcDbLine
 10
795.9859121699419
 20
-26.23518711433849
 30
0.0
 11
795.9859121699419
 21
-14.9033632293673
 31
0.0
  0
LINE
  5
196
330
1F
100
AcDbEntity
  8
0
  6
Continuous
 62
     7
370
    15
100
AcDbLine
 10
785.4517470628675
 20
-26.23518711433849
 30
0.0
 11
795.9859121699419
 21
-26.23518711433849
 31
0.0
  0
LINE
  5
197
330
1F
100
AcDbEntity
  8
0
  6
Continuous
 62
     7
370
    15
100
AcDbLine
 10
785.4517470628675
 20
-14.9033632293673
 30
0.0
 11
785.4517470628675
 21
-26.23518711433849
 31
0.0
  0
LINE
  5
198
330
1F
100
AcDbEntity
  8
0
  6
Continuous
 62
     7
370
    15
100
AcDbLine
 10
845.985912169942
 20
-26.23518711433849
 30
0.0
 11
845.985912169942
 21
-14.9033632293673
 31
0.0
  0
LINE
  5
199
330
1F
100
AcDbEntity
  8
0
  6
Continuous
 62
     7
370
    15
100
AcDbLine
 10
835.4517470628675
 20
-26.23518711433849
 30
0.0
 11
845.985912169942
 21
-26.23518711433849
 31
0.0
  0
LINE
  5
19A
330
1F
100
AcDbEntity
  8
0
  6
Continuous
 62
     7
370
    15
100
AcDbLine
 10
845.985912169942
 20
-14.9033632293673
 30
0.0
 11
835.4517470628675
 21
-14.9033632293673
 31
0.0
  0
LINE
  5
19B
330
1F
100
AcDbEntity
  8
0
  6
Continuous
 62
     7
370
    15
100
AcDbLine
 10
835.4517470628675
 20
-14.9033632293673
 30
0.0
 11
835.4517470628675
 21
-26.23518711433849
 31
0.0
  0
LINE
  5
19C
330
1F
100
AcDbEntity
  8
0
  6
Continuous
 62
     7
370
    15
100
AcDbLine
 10
95.98591216994179
 20
-14.9033632293673
 30
0.0
 11
85.45174706286752
 21
-14.9033632293673
 31
0.0
  0
LINE
  5
19D
330
1F
100
AcDbEntity
  8
0
  6
Continuous
 62
     7
370
    15
100
AcDbLine
 10
85.45174706286752
 20
-26.23518711433849
 30
0.0
 11
95.98591216994179
 21
-26.23518711433849
 31
0.0
  0
LINE
  5
19E
330
1F
100
AcDbEntity
  8
0
  6
Continuous
 62
     7
370
    15
100
AcDbLine
 10
85.45174706286752
 20
-14.9033632293673
 30
0.0
 11
85.45174706286752
 21
-26.23518711433849
 31
0.0
  0
LINE
  5
19F
330
1F
100
AcDbEntity
  8
0
  6
Continuous
 62
     7
370
    15
100
AcDbLine
 10
95.98591216994179
 20
-26.23518711433849
 30
0.0
 11
95.98591216994179
 21
-14.9033632293673
 31
0.0
  0
LINE
  5
1A0
330
1F
100
AcDbEntity
  8
0
  6
Continuous
 62
     7
370
    15
100
AcDbLine
 10
-404.0140878300583
 20
-14.9033632293673
 30
0.0
 11
-414.5482529371326
 21
-14.9033632293673
 31
0.0
  0
LINE
  5
1A1
330
1F
100
AcDbEntity
  8
0
  6
Continuous
 62
     7
370
    15
100
AcDbLine
 10
-404.0140878300583
 20
-26.23518711433849
 30
0.0
 11
-404.0140878300583
 21
-14.9033632293673
 31
0.0
  0
LINE
  5
1A2
330
1F
100
AcDbEntity
  8
0
  6
Continuous
 62
     7
370
    15
100
AcDbLine
 10
-414.5482529371326
 20
-14.9033632293673
 30
0.0
 11
-414.5482529371326
 21
-26.23518711433849
 31
0.0
  0
LINE
  5
1A3
330
1F
100
AcDbEntity
  8
0
  6
Continuous
 62
     7
370
    15
100
AcDbLine
 10
-414.5482529371326
 20
-26.23518711433849
 30
0.0
 11
-404.0140878300583
 21
-26.23518711433849
 31
0.0
  0
LINE
  5
1A4
330
1F
100
AcDbEntity
  8
0
  6
Continuous
 62
     7
370
    15
100
AcDbLine
 10
945.985912169942
 20
-14.9033632293673
 30
0.0
 11
935.4517470628676
 21
-14.9033632293673
 31
0.0
  0
LINE
  5
1A5
330
1F
100
AcDbEntity
  8
0
  6
Continuous
 62
     7
370
    15
100
AcDbLine
 10
945.985912169942
 20
-26.23518711433849
 30
0.0
 11
945.985912169942
 21
-14.9033632293673
 31
0.0
  0
LINE
  5
1A6
330
1F
100
AcDbEntity
  8
0
  6
Continuous
 62
     7
370
    15
100
AcDbLine
 10
935.4517470628676
 20
-26.23518711433849
 30
0.0
 11
945.985912169942
 21
-26.23518711433849
 31
0.0
  0
LINE
  5
1A7
330
1F
100
AcDbEntity
  8
0
  6
Continuous
 62
     7
370
    15
100
AcDbLine
 10
935.4517470628676
 20
-14.9033632293673
 30
0.0
 11
935.4517470628676
 21
-26.23518711433849
 31
0.0
  0
LINE
  5
1A8
330
1F
100
AcDbEntity
  8
0
  6
Continuous
 62
     7
370
    15
100
AcDbLine
 10
195.9859121699418
 20
-14.9033632293673
 30
0.0
 11
185.4517470628675
 21
-14.9033632293673
 31
0.0
  0
LINE
  5
1A9
330
1F
100
AcDbEntity
  8
0
  6
Continuous
 62
     7
370
    15
100
AcDbLine
 10
185.4517470628675
 20
-26.23518711433849
 30
0.0
 11
195.9859121699418
 21
-26.23518711433849
 31
0.0
  0
LINE
  5
1AA
330
1F
100
AcDbEntity
  8
0
  6
Continuous
 62
     7
370
    15
100
AcDbLine
 10
185.4517470628675
 20
-14.9033632293673
 30
0.0
 11
185.4517470628675
 21
-26.23518711433849
 31
0.0
  0
LINE
  5
1AB
330
1F
100
AcDbEntity
  8
0
  6
Continuous
 62
     7
370
    15
100
AcDbLine
 10
195.9859121699418
 20
-26.23518711433849
 30
0.0
 11
195.9859121699418
 21
-14.9033632293673
 31
0.0
  0
LINE
  5
1AC
330
1F
100
AcDbEntity
  8
0
  6
Continuous
 62
     7
370
    15
100
AcDbLine
 10
-54.01408783005831
 20
-14.9033632293673
 30
0.0
 11
-64.5482529371327
 21
-14.9033632293673
 31
0.0
  0
LINE
  5
1AD
330
1F
100
AcDbEntity
  8
0
  6
Continuous
 62
     7
370
    15
100
AcDbLine
 10
-54.01408783005831
 20
-26.23518711433849
 30
0.0
 11
-54.01408783005831
 21
-14.9033632293673
 31
0.0
  0
LINE
  5
1AE
330
1F
100
AcDbEntity
  8
0
  6
Continuous
 62
     7
370
    15
100
AcDbLine
 10
-64.5482529371327
 20
-26.23518711433849
 30
0.0
 11
-54.01408783005831
 21
-26.23518711433849
 31
0.0
  0
LINE
  5
1AF
330
1F
100
AcDbEntity
  8
0
  6
Continuous
 62
     7
370
    15
100
AcDbLine
 10
-64.5482529371327
 20
-14.9033632293673
 30
0.0
 11
-64.5482529371327
 21
-26.23518711433849
 31
0.0
  0
LINE
  5
1B0
330
1F
100
AcDbEntity
  8
0
  6
Continuous
 62
     7
370
    15
100
AcDbLine
 10
-4.014087830058201
 20
-14.9033632293673
 30
0.0
 11
-14.54825293713259
 21
-14.9033632293673
 31
0.0
  0
LINE
  5
1B1
330
1F
100
AcDbEntity
  8
0
  6
Continuous
 62
     7
370
    15
100
AcDbLine
 10
-4.014087830058201
 20
-26.23518711433849
 30
0.0
 11
-4.014087830058201
 21
-14.9033632293673
 31
0.0
  0
LINE
  5
1B2
330
1F
100
AcDbEntity
  8
0
  6
Continuous
 62
     7
370
    15
100
AcDbLine
 10
-14.54825293713259
 20
-26.23518711433849
 30
0.0
 11
-4.014087830058201
 21
-26.23518711433849
 31
0.0
  0
LINE
  5
1B3
330
1F
100
AcDbEntity
  8
0
  6
Continuous
 62
     7
370
    15
100
AcDbLine
 10
-14.54825293713259
 20
-14.9033632293673
 30
0.0
 11
-14.54825293713259
 21
-26.23518711433849
 31
0.0
  0
LINE
  5
1B4
330
1F
100
AcDbEntity
  8
0
  6
Continuous
 62
     7
370
    15
100
AcDbLine
 10
-254.0140878300583
 20
-14.9033632293673
 30
0.0
 11
-264.5482529371327
 21
-14.9033632293673
 31
0.0
  0
LINE
  5
1B5
330
1F
100
AcDbEntity
  8
0
  6
Continuous
 62
     7
370
    15
100
AcDbLine
 10
-264.5482529371327
 20
-14.9033632293673
 30
0.0
 11
-264.5482529371327
 21
-26.23518711433849
 31
0.0
  0
LINE
  5
1B6
330
1F
100
AcDbEntity
  8
0
  6
Continuous
 62
     7
370
    15
100
AcDbLine
 10
-264.5482529371327
 20
-26.23518711433849
 30
0.0
 11
-254.0140878300583
 21
-26.23518711433849
 31
0.0
  0
LINE
  5
1B7
330
1F
100
AcDbEntity
  8
0
  6
Continuous
 62
     7
370
    15
100
AcDbLine
 10
-254.0140878300583
 20
-26.23518711433849
 30
0.0
 11
-254.0140878300583
 21
-14.9033632293673
 31
0.0
  0
LINE
  5
1B8
330
1F
100
AcDbEntity
  8
0
  6
Continuous
 62
     7
370
    15
100
AcDbLine
 10
595.9859121699419
 20
-14.9033632293673
 30
0.0
 11
585.4517470628675
 21
-14.9033632293673
 31
0.0
  0
LINE
  5
1B9
330
1F
100
AcDbEntity
  8
0
  6
Continuous
 62
     7
370
    15
100
AcDbLine
 10
585.4517470628675
 20
-26.23518711433849
 30
0.0
 11
595.9859121699419
 21
-26.23518711433849
 31
0.0
  0
LINE
  5
1BA
330
1F
100
AcDbEntity
  8
0
  6
Continuous
 62
     7
370
    15
100
AcDbLine
 10
595.9859121699419
 20
-26.23518711433849
 30
0.0
 11
595.9859121699419
 21
-14.9033632293673
 31
0.0
  0
LINE
  5
1BB
330
1F
100
AcDbEntity
  8
0
  6
Continuous
 62
     7
370
    15
100
AcDbLine
 10
585.4517470628675
 20
-14.9033632293673
 30
0.0
 11
585.4517470628675
 21
-26.23518711433849
 31
0.0
  0
LINE
  5
1BC
330
1F
100
AcDbEntity
  8
0
  6
Continuous
 62
     7
370
    15
100
AcDbLine
 10
-204.0140878300583
 20
-14.9033632293673
 30
0.0
 11
-214.5482529371327
 21
-14.9033632293673
 31
0.0
  0
LINE
  5
1BD
330
1F
100
AcDbEntity
  8
0
  6
Continuous
 62
     7
370
    15
100
AcDbLine
 10
-204.0140878300583
 20
-26.23518711433849
 30
0.0
 11
-204.0140878300583
 21
-14.9033632293673
 31
0.0
  0
LINE
  5
1BE
330
1F
100
AcDbEntity
  8
0
  6
Continuous
 62
     7
370
    15
100
AcDbLine
 10
-214.5482529371327
 20
-14.9033632293673
 30
0.0
 11
-214.5482529371327
 21
-26.23518711433849
 31
0.0
  0
LINE
  5
1BF
330
1F
100
AcDbEntity
  8
0
  6
Continuous
 62
     7
370
    15
100
AcDbLine
 10
-214.5482529371327
 20
-26.23518711433849
 30
0.0
 11
-204.0140878300583
 21
-26.23518711433849
 31
0.0
  0
LINE
  5
1C0
330
1F
100
AcDbEntity
  8
0
  6
Continuous
 62
     7
370
    15
100
AcDbLine
 10
-504.0140878300583
 20
-14.9033632293673
 30
0.0
 11
-514.5482529371327
 21
-14.9033632293673
 31
0.0
  0
LINE
  5
1C1
330
1F
100
AcDbEntity
  8
0
  6
Continuous
 62
     7
370
    15
100
AcDbLine
 10
-504.0140878300583
 20
-26.23518711433849
 30
0.0
 11
-504.0140878300583
 21
-14.9033632293673
 31
0.0
  0
LINE
  5
1C2
330
1F
100
AcDbEntity
  8
0
  6
Continuous
 62
     7
370
    15
100
AcDbLine
 10
-514.5482529371327
 20
-14.9033632293673
 30
0.0
 11
-514.5482529371327
 21
-26.23518711433849
 31
0.0
  0
LINE
  5
1C3
330
1F
100
AcDbEntity
  8
0
  6
Continuous
 62
     7
370
    15
100
AcDbLine
 10
-514.5482529371327
 20
-26.23518711433849
 30
0.0
 11
-504.0140878300583
 21
-26.23518711433849
 31
0.0
  0
LINE
  5
1C4
330
1F
100
AcDbEntity
  8
0
  6
Continuous
 62
     7
370
    15
100
AcDbLine
 10
-154.0140878300582
 20
-14.9033632293673
 30
0.0
 11
-164.5482529371326
 21
-14.9033632293673
 31
0.0
  0
LINE
  5
1C5
330
1F
100
AcDbEntity
  8
0
  6
Continuous
 62
     7
370
    15
100
AcDbLine
 10
-154.0140878300582
 20
-26.23518711433849
 30
0.0
 11
-154.0140878300582
 21
-14.9033632293673
 31
0.0
  0
LINE
  5
1C6
330
1F
100
AcDbEntity
  8
0
  6
Continuous
 62
     7
370
    15
100
AcDbLine
 10
-164.5482529371326
 20
-14.9033632293673
 30
0.0
 11
-164.5482529371326
 21
-26.23518711433849
 31
0.0
  0
LINE
  5
1C7
330
1F
100
AcDbEntity
  8
0
  6
Continuous
 62
     7
370
    15
100
AcDbLine
 10
-164.5482529371326
 20
-26.23518711433849
 30
0.0
 11
-154.0140878300582
 21
-26.23518711433849
 31
0.0
  0
LINE
  5
1C8
330
1F
100
AcDbEntity
  8
0
  6
Continuous
 62
     7
370
    15
100
AcDbLine
 10
695.9859121699419
 20
-14.9033632293673
 30
0.0
 11
685.4517470628675
 21
-14.9033632293673
 31
0.0
  0
LINE
  5
1C9
330
1F
100
AcDbEntity
  8
0
  6
Continuous
 62
     7
370
    15
100
AcDbLine
 10
685.4517470628675
 20
-14.9033632293673
 30
0.0
 11
685.4517470628675
 21
-26.23518711433849
 31
0.0
  0
LINE
  5
1CA
330
1F
100
AcDbEntity
  8
0
  6
Continuous
 62
     7
370
    15
100
AcDbLine
 10
695.9859121699419
 20
-26.23518711433849
 30
0.0
 11
695.9859121699419
 21
-14.9033632293673
 31
0.0
  0
LINE
  5
1CB
330
1F
100
AcDbEntity
  8
0
  6
Continuous
 62
     7
370
    15
100
AcDbLine
 10
685.4517470628675
 20
-26.23518711433849
 30
0.0
 11
695.9859121699419
 21
-26.23518711433849
 31
0.0
  0
LINE
  5
1CC
330
1F
100
AcDbEntity
  8
0
  6
Continuous
 62
     7
370
    15
100
AcDbLine
 10
495.9859121699419
 20
-14.9033632293673
 30
0.0
 11
485.4517470628675
 21
-14.9033632293673
 31
0.0
  0
LINE
  5
1CD
330
1F
100
AcDbEntity
  8
0
  6
Continuous
 62
     7
370
    15
100
AcDbLine
 10
495.9859121699419
 20
-26.23518711433849
 30
0.0
 11
495.9859121699419
 21
-14.9033632293673
 31
0.0
  0
LINE
  5
1CE
330
1F
100
AcDbEntity
  8
0
  6
Continuous
 62
     7
370
    15
100
AcDbLine
 10
485.4517470628675
 20
-26.23518711433849
 30
0.0
 11
495.9859121699419
 21
-26.23518711433849
 31
0.0
  0
LINE
  5
1CF
330
1F
100
AcDbEntity
  8
0
  6
Continuous
 62
     7
370
    15
100
AcDbLine
 10
485.4517470628675
 20
-14.9033632293673
 30
0.0
 11
485.4517470628675
 21
-26.23518711433849
 31
0.0
  0
LINE
  5
1D0
330
1F
100
AcDbEntity
  8
0
  6
Continuous
 62
     7
370
    15
100
AcDbLine
 10
245.9859121699418
 20
-14.9033632293673
 30
0.0
 11
235.4517470628673
 21
-14.9033632293673
 31
0.0
  0
LINE
  5
1D1
330
1F
100
AcDbEntity
  8
0
  6
Continuous
 62
     7
370
    15
100
AcDbLine
 10
245.9859121699418
 20
-26.23518711433849
 30
0.0
 11
245.9859121699418
 21
-14.9033632293673
 31
0.0
  0
LINE
  5
1D2
330
1F
100
AcDbEntity
  8
0
  6
Continuous
 62
     7
370
    15
100
AcDbLine
 10
235.4517470628673
 20
-26.23518711433849
 30
0.0
 11
245.9859121699418
 21
-26.23518711433849
 31
0.0
  0
LINE
  5
1D3
330
1F
100
AcDbEntity
  8
0
  6
Continuous
 62
     7
370
    15
100
AcDbLine
 10
235.4517470628673
 20
-14.9033632293673
 30
0.0
 11
235.4517470628673
 21
-26.23518711433849
 31
0.0
  0
LINE
  5
1D4
330
1F
100
AcDbEntity
  8
0
  6
Continuous
 62
     7
370
    15
100
AcDbLine
 10
-304.0140878300583
 20
-14.9033632293673
 30
0.0
 11
-314.5482529371327
 21
-14.9033632293673
 31
0.0
  0
LINE
  5
1D5
330
1F
100
AcDbEntity
  8
0
  6
Continuous
 62
     7
370
    15
100
AcDbLine
 10
-304.0140878300583
 20
-26.23518711433849
 30
0.0
 11
-304.0140878300583
 21
-14.9033632293673
 31
0.0
  0
LINE
  5
1D6
330
1F
100
AcDbEntity
  8
0
  6
Continuous
 62
     7
370
    15
100
AcDbLine
 10
-314.5482529371327
 20
-26.23518711433849
 30
0.0
 11
-304.0140878300583
 21
-26.23518711433849
 31
0.0
  0
LINE
  5
1D7
330
1F
100
AcDbEntity
  8
0
  6
Continuous
 62
     7
370
    15
100
AcDbLine
 10
-314.5482529371327
 20
-14.9033632293673
 30
0.0
 11
-314.5482529371327
 21
-26.23518711433849
 31
0.0
  0
LINE
  5
1D8
330
1F
100
AcDbEntity
  8
0
  6
Continuous
 62
     7
370
    15
100
AcDbLine
 10
45.98591216994179
 20
-14.9033632293673
 30
0.0
 11
35.45174706286741
 21
-14.9033632293673
 31
0.0
  0
LINE
  5
1D9
330
1F
100
AcDbEntity
  8
0
  6
Continuous
 62
     7
370
    15
100
AcDbLine
 10
35.45174706286741
 20
-14.9033632293673
 30
0.0
 11
35.45174706286741
 21
-26.23518711433849
 31
0.0
  0
LINE
  5
1DA
330
1F
100
AcDbEntity
  8
0
  6
Continuous
 62
     7
370
    15
100
AcDbLine
 10
45.98591216994179
 20
-26.23518711433849
 30
0.0
 11
45.98591216994179
 21
-14.9033632293673
 31
0.0
  0
LINE
  5
1DB
330
1F
100
AcDbEntity
  8
0
  6
Continuous
 62
     7
370
    15
100
AcDbLine
 10
35.45174706286741
 20
-26.23518711433849
 30
0.0
 11
45.98591216994179
 21
-26.23518711433849
 31
0.0
  0
LINE
  5
1DC
330
1F
100
AcDbEntity
  8
0
  6
Continuous
 62
     7
370
    15
100
AcDbLine
 10
645.9859121699421
 20
-14.9033632293673
 30
0.0
 11
635.4517470628675
 21
-14.9033632293673
 31
0.0
  0
LINE
  5
1DD
330
1F
100
AcDbEntity
  8
0
  6
Continuous
 62
     7
370
    15
100
AcDbLine
 10
635.4517470628675
 20
-26.23518711433849
 30
0.0
 11
645.9859121699421
 21
-26.23518711433849
 31
0.0
  0
LINE
  5
1DE
330
1F
100
AcDbEntity
  8
0
  6
Continuous
 62
     7
370
    15
100
AcDbLine
 10
635.4517470628675
 20
-14.9033632293673
 30
0.0
 11
635.4517470628675
 21
-26.23518711433849
 31
0.0
  0
LINE
  5
1DF
330
1F
100
AcDbEntity
  8
0
  6
Continuous
 62
     7
370
    15
100
AcDbLine
 10
645.9859121699421
 20
-26.23518711433849
 30
0.0
 11
645.9859121699421
 21
-14.9033632293673
 31
0.0
  0
LINE
  5
1E0
330
1F
100
AcDbEntity
  8
0
  6
Continuous
 62
     7
370
    15
100
AcDbLine
 10
895.9859121699423
 20
-14.9033632293673
 30
0.0
 11
885.4517470628676
 21
-14.9033632293673
 31
0.0
  0
LINE
  5
1E1
330
1F
100
AcDbEntity
  8
0
  6
Continuous
 62
     7
370
    15
100
AcDbLine
 10
895.9859121699423
 20
-26.23518711433849
 30
0.0
 11
895.9859121699423
 21
-14.9033632293673
 31
0.0
  0
LINE
  5
1E2
330
1F
100
AcDbEntity
  8
0
  6
Continuous
 62
     7
370
    15
100
AcDbLine
 10
885.4517470628676
 20
-26.23518711433849
 30
0.0
 11
895.9859121699423
 21
-26.23518711433849
 31
0.0
  0
LINE
  5
1E3
330
1F
100
AcDbEntity
  8
0
  6
Continuous
 62
     7
370
    15
100
AcDbLine
 10
885.4517470628676
 20
-14.9033632293673
 30
0.0
 11
885.4517470628676
 21
-26.23518711433849
 31
0.0
  0
LINE
  5
1E4
330
1F
100
AcDbEntity
  8
0
  6
Continuous
 62
     7
370
    15
100
AcDbLine
 10
145.9859121699417
 20
-14.9033632293673
 30
0.0
 11
135.4517470628673
 21
-14.9033632293673
 31
0.0
  0
LINE
  5
1E5
330
1F
100
AcDbEntity
  8
0
  6
Continuous
 62
     7
370
    15
100
AcDbLine
 10
135.4517470628673
 20
-26.23518711433849
 30
0.0
 11
145.9859121699417
 21
-26.23518711433849
 31
0.0
  0
LINE
  5
1E6
330
1F
100
AcDbEntity
  8
0
  6
Continuous
 62
     7
370
    15
100
AcDbLine
 10
145.9859121699417
 20
-26.23518711433849
 30
0.0
 11
145.9859121699417
 21
-14.9033632293673
 31
0.0
  0
LINE
  5
1E7
330
1F
100
AcDbEntity
  8
0
  6
Continuous
 62
     7
370
    15
100
AcDbLine
 10
135.4517470628673
 20
-14.9033632293673
 30
0.0
 11
135.4517470628673
 21
-26.23518711433849
 31
0.0
  0
LINE
  5
1E8
330
1F
100
AcDbEntity
  8
0
  6
Continuous
 62
     7
370
    15
100
AcDbLine
 10
-104.0140878300582
 20
-14.9033632293673
 30
0.0
 11
-114.5482529371327
 21
-14.9033632293673
 31
0.0
  0
LINE
  5
1E9
330
1F
100
AcDbEntity
  8
0
  6
Continuous
 62
     7
370
    15
100
AcDbLine
 10
-104.0140878300582
 20
-26.23518711433849
 30
0.0
 11
-104.0140878300582
 21
-14.9033632293673
 31
0.0
  0
LINE
  5
1EA
330
1F
100
AcDbEntity
  8
0
  6
Continuous
 62
     7
370
    15
100
AcDbLine
 10
-114.5482529371327
 20
-14.9033632293673
 30
0.0
 11
-114.5482529371327
 21
-26.23518711433849
 31
0.0
  0
LINE
  5
1EB
330
1F
100
AcDbEntity
  8
0
  6
Continuous
 62
     7
370
    15
100
AcDbLine
 10
-114.5482529371327
 20
-26.23518711433849
 30
0.0
 11
-104.0140878300582
 21
-26.23518711433849
 31
0.0
  0
LINE
  5
1EC
330
1F
100
AcDbEntity
  8
0
  6
Continuous
 62
     7
370
    15
100
AcDbLine
 10
295.9859121699418
 20
-14.9033632293673
 30
0.0
 11
285.4517470628673
 21
-14.9033632293673
 31
0.0
  0
LINE
  5
1ED
330
1F
100
AcDbEntity
  8
0
  6
Continuous
 62
     7
370
    15
100
AcDbLine
 10
285.4517470628673
 20
-14.9033632293673
 30
0.0
 11
285.4517470628673
 21
-26.23518711433849
 31
0.0
  0
LINE
  5
1EE
330
1F
100
AcDbEntity
  8
0
  6
Continuous
 62
     7
370
    15
100
AcDbLine
 10
285.4517470628673
 20
-26.23518711433849
 30
0.0
 11
295.9859121699418
 21
-26.23518711433849
 31
0.0
  0
LINE
  5
1EF
330
1F
100
AcDbEntity
  8
0
  6
Continuous
 62
     7
370
    15
100
AcDbLine
 10
295.9859121699418
 20
-26.23518711433849
 30
0.0
 11
295.9859121699418
 21
-14.9033632293673
 31
0.0
  0
LINE
  5
1F0
330
1F
100
AcDbEntity
  8
0
  6
Continuous
 62
     7
370
    15
100
AcDbLine
 10
995.9859121699423
 20
-14.9033632293673
 30
0.0
 11
985.4517470628676
 21
-14.9033632293673
 31
0.0
  0
LINE
  5
1F1
330
1F
100
AcDbEntity
  8
0
  6
Continuous
 62
     7
370
    15
100
AcDbLine
 10
995.9859121699423
 20
-26.23518711433849
 30
0.0
 11
995.9859121699423
 21
-14.9033632293673
 31
0.0
  0
LINE
  5
1F2
330
1F
100
AcDbEntity
  8
0
  6
Continuous
 62
     7
370
    15
100
AcDbLine
 10
985.4517470628676
 20
-26.23518711433849
 30
0.0
 11
995.9859121699423
 21
-26.23518711433849
 31
0.0
  0
LINE
  5
1F3
330
1F
100
AcDbEntity
  8
0
  6
Continuous
 62
     7
370
    15
100
AcDbLine
 10
985.4517470628676
 20
-14.9033632293673
 30
0.0
 11
985.4517470628676
 21
-26.23518711433849
 31
0.0
  0
LINE
  5
1F4
330
1F
100
AcDbEntity
  8
0
  6
Continuous
 62
     7
370
    15
100
AcDbLine
 10
795.9859121699417
 20
15.0966367706327
 30
0.0
 11
785.4517470628675
 21
15.0966367706327
 31
0.0
  0
LINE
  5
1F5
330
1F
100
AcDbEntity
  8
0
  6
Continuous
 62
     7
370
    15
100
AcDbLine
 10
795.9859121699417
 20
3.764812885661513
 30
0.0
 11
795.9859121699417
 21
15.0966367706327
 31
0.0
  0
LINE
  5
1F6
330
1F
100
AcDbEntity
  8
0
  6
Continuous
 62
     7
370
    15
100
AcDbLine
 10
785.4517470628675
 20
3.764812885661513
 30
0.0
 11
795.9859121699417
 21
3.764812885661513
 31
0.0
  0
LINE
  5
1F7
330
1F
100
AcDbEntity
  8
0
  6
Continuous
 62
     7
370
    15
100
AcDbLine
 10
785.4517470628675
 20
15.0966367706327
 30
0.0
 11
785.4517470628675
 21
3.764812885661513
 31
0.0
  0
LINE
  5
1F8
330
1F
100
AcDbEntity
  8
0
  6
Continuous
 62
     7
370
    15
100
AcDbLine
 10
445.9859121699414
 20
15.0966367706327
 30
0.0
 11
435.451747062867
 21
15.0966367706327
 31
0.0
  0
LINE
  5
1F9
330
1F
100
AcDbEntity
  8
0
  6
Continuous
 62
     7
370
    15
100
AcDbLine
 10
435.451747062867
 20
15.0966367706327
 30
0.0
 11
435.451747062867
 21
3.764812885661513
 31
0.0
  0
LINE
  5
1FA
330
1F
100
AcDbEntity
  8
0
  6
Continuous
 62
     7
370
    15
100
AcDbLine
 10
445.9859121699414
 20
3.764812885661513
 30
0.0
 11
445.9859121699414
 21
15.0966367706327
 31
0.0
  0
LINE
  5
1FB
330
1F
100
AcDbEntity
  8
0
  6
Continuous
 62
     7
370
    15
100
AcDbLine
 10
435.451747062867
 20
3.764812885661513
 30
0.0
 11
445.9859121699414
 21
3.764812885661513
 31
0.0
  0
LINE
  5
1FC
330
1F
100
AcDbEntity
  8
0
  6
Continuous
 62
     7
370
    15
100
AcDbLine
 10
395.9859121699415
 20
15.0966367706327
 30
0.0
 11
385.4517470628671
 21
15.0966367706327
 31
0.0
  0
LINE
  5
1FD
330
1F
100
AcDbEntity
  8
0
  6
Continuous
 62
     7
370
    15
100
AcDbLine
 10
395.9859121699415
 20
3.764812885661513
 30
0.0
 11
395.9859121699415
 21
15.0966367706327
 31
0.0
  0
LINE
  5
1FE
330
1F
100
AcDbEntity
  8
0
  6
Continuous
 62
     7
370
    15
100
AcDbLine
 10
385.4517470628671
 20
3.764812885661513
 30
0.0
 11
395.9859121699415
 21
3.764812885661513
 31
0.0
  0
LINE
  5
1FF
330
1F
100
AcDbEntity
  8
0
  6
Continuous
 62
     7
370
    15
100
AcDbLine
 10
385.4517470628671
 20
15.0966367706327
 30
0.0
 11
385.4517470628671
 21
3.764812885661513
 31
0.0
  0
LINE
  5
200
330
1F
100
AcDbEntity
  8
0
  6
Continuous
 62
     7
370
    15
100
AcDbLine
 10
845.9859121699414
 20
15.0966367706327
 30
0.0
 11
835.4517470628671
 21
15.0966367706327
 31
0.0
  0
LINE
  5
201
330
1F
100
AcDbEntity
  8
0
  6
Continuous
 62
     7
370
    15
100
AcDbLine
 10
835.4517470628671
 20
3.764812885661513
 30
0.0
 11
845.9859121699414
 21
3.764812885661513
 31
0.0
  0
LINE
  5
202
330
1F
100
AcDbEntity
  8
0
  6
Continuous
 62
     7
370
    15
100
AcDbLine
 10
845.9859121699414
 20
3.764812885661513
 30
0.0
 11
845.9859121699414
 21
15.0966367706327
 31
0.0
  0
LINE
  5
203
330
1F
100
AcDbEntity
  8
0
  6
Continuous
 62
     7
370
    15
100
AcDbLine
 10
835.4517470628671
 20
15.0966367706327
 30
0.0
 11
835.4517470628671
 21
3.764812885661513
 31
0.0
  0
LINE
  5
204
330
1F
100
AcDbEntity
  8
0
  6
Continuous
 62
     7
370
    15
100
AcDbLine
 10
895.9859121699416
 20
15.0966367706327
 30
0.0
 11
885.4517470628671
 21
15.0966367706327
 31
0.0
  0
LINE
  5
205
330
1F
100
AcDbEntity
  8
0
  6
Continuous
 62
     7
370
    15
100
AcDbLine
 10
895.9859121699416
 20
3.764812885661513
 30
0.0
 11
895.9859121699416
 21
15.0966367706327
 31
0.0
  0
LINE
  5
206
330
1F
100
AcDbEntity
  8
0
  6
Continuous
 62
     7
370
    15
100
AcDbLine
 10
885.4517470628671
 20
3.764812885661513
 30
0.0
 11
895.9859121699416
 21
3.764812885661513
 31
0.0
  0
LINE
  5
207
330
1F
100
AcDbEntity
  8
0
  6
Continuous
 62
     7
370
    15
100
AcDbLine
 10
885.4517470628671
 20
15.0966367706327
 30
0.0
 11
885.4517470628671
 21
3.764812885661513
 31
0.0
  0
LINE
  5
208
330
1F
100
AcDbEntity
  8
0
  6
Continuous
 62
     7
370
    15
100
AcDbLine
 10
495.9859121699414
 20
15.0966367706327
 30
0.0
 11
485.451747062867
 21
15.0966367706327
 31
0.0
  0
LINE
  5
209
330
1F
100
AcDbEntity
  8
0
  6
Continuous
 62
     7
370
    15
100
AcDbLine
 10
495.9859121699414
 20
3.764812885661513
 30
0.0
 11
495.9859121699414
 21
15.0966367706327
 31
0.0
  0
LINE
  5
20A
330
1F
100
AcDbEntity
  8
0
  6
Continuous
 62
     7
370
    15
100
AcDbLine
 10
485.451747062867
 20
3.764812885661513
 30
0.0
 11
495.9859121699414
 21
3.764812885661513
 31
0.0
  0
LINE
  5
20B
330
1F
100
AcDbEntity
  8
0
  6
Continuous
 62
     7
370
    15
100
AcDbLine
 10
485.451747062867
 20
15.0966367706327
 30
0.0
 11
485.451747062867
 21
3.764812885661513
 31
0.0
  0
LINE
  5
20C
330
1F
100
AcDbEntity
  8
0
  6
Continuous
 62
     7
370
    15
100
AcDbLine
 10
295.9859121699415
 20
15.0966367706327
 30
0.0
 11
285.4517470628671
 21
15.0966367706327
 31
0.0
  0
LINE
  5
20D
330
1F
100
AcDbEntity
  8
0
  6
Continuous
 62
     7
370
    15
100
AcDbLine
 10
285.4517470628671
 20
3.764812885661513
 30
0.0
 11
295.9859121699415
 21
3.764812885661513
 31
0.0
  0
LINE
  5
20E
330
1F
100
AcDbEntity
  8
0
  6
Continuous
 62
     7
370
    15
100
AcDbLine
 10
285.4517470628671
 20
15.0966367706327
 30
0.0
 11
285.4517470628671
 21
3.764812885661513
 31
0.0
  0
LINE
  5
20F
330
1F
100
AcDbEntity
  8
0
  6
Continuous
 62
     7
370
    15
100
AcDbLine
 10
295.9859121699415
 20
3.764812885661513
 30
0.0
 11
295.9859121699415
 21
15.0966367706327
 31
0.0
  0
LINE
  5
210
330
1F
100
AcDbEntity
  8
0
  6
Continuous
 62
     7
370
    15
100
AcDbLine
 10
545.9859121699414
 20
15.0966367706327
 30
0.0
 11
535.451747062867
 21
15.0966367706327
 31
0.0
  0
LINE
  5
211
330
1F
100
AcDbEntity
  8
0
  6
Continuous
 62
     7
370
    15
100
AcDbLine
 10
535.451747062867
 20
3.764812885661513
 30
0.0
 11
545.9859121699414
 21
3.764812885661513
 31
0.0
  0
LINE
  5
212
330
1F
100
AcDbEntity
  8
0
  6
Continuous
 62
     7
370
    15
100
AcDbLine
 10
535.451747062867
 20
15.0966367706327
 30
0.0
 11
535.451747062867
 21
3.764812885661513
 31
0.0
  0
LINE
  5
213
330
1F
100
AcDbEntity
  8
0
  6
Continuous
 62
     7
370
    15
100
AcDbLine
 10
545.9859121699414
 20
3.764812885661513
 30
0.0
 11
545.9859121699414
 21
15.0966367706327
 31
0.0
  0
LINE
  5
214
330
1F
100
AcDbEntity
  8
0
  6
Continuous
 62
     7
370
    15
100
AcDbLine
 10
45.98591216994157
 20
15.0966367706327
 30
0.0
 11
35.45174706286707
 21
15.0966367706327
 31
0.0
  0
LINE
  5
215
330
1F
100
AcDbEntity
  8
0
  6
Continuous
 62
     7
370
    15
100
AcDbLine
 10
45.98591216994157
 20
3.764812885661513
 30
0.0
 11
45.98591216994157
 21
15.0966367706327
 31
0.0
  0
LINE
  5
216
330
1F
100
AcDbEntity
  8
0
  6
Continuous
 62
     7
370
    15
100
AcDbLine
 10
35.45174706286707
 20
3.764812885661513
 30
0.0
 11
45.98591216994157
 21
3.764812885661513
 31
0.0
  0
LINE
  5
217
330
1F
100
AcDbEntity
  8
0
  6
Continuous
 62
     7
370
    15
100
AcDbLine
 10
35.45174706286707
 20
15.0966367706327
 30
0.0
 11
35.45174706286707
 21
3.764812885661513
 31
0.0
  0
LINE
  5
218
330
1F
100
AcDbEntity
  8
0
  6
Continuous
 62
     7
370
    15
100
AcDbLine
 10
645.9859121699416
 20
15.0966367706327
 30
0.0
 11
635.451747062867
 21
15.0966367706327
 31
0.0
  0
LINE
  5
219
330
1F
100
AcDbEntity
  8
0
  6
Continuous
 62
     7
370
    15
100
AcDbLine
 10
635.451747062867
 20
15.0966367706327
 30
0.0
 11
635.451747062867
 21
3.764812885661513
 31
0.0
  0
LINE
  5
21A
330
1F
100
AcDbEntity
  8
0
  6
Continuous
 62
     7
370
    15
100
AcDbLine
 10
645.9859121699416
 20
3.764812885661513
 30
0.0
 11
645.9859121699416
 21
15.0966367706327
 31
0.0
  0
LINE
  5
21B
330
1F
100
AcDbEntity
  8
0
  6
Continuous
 62
     7
370
    15
100
AcDbLine
 10
635.451747062867
 20
3.764812885661513
 30
0.0
 11
645.9859121699416
 21
3.764812885661513
 31
0.0
  0
LINE
  5
21C
330
1F
100
AcDbEntity
  8
0
  6
Continuous
 62
     7
370
    15
100
AcDbLine
 10
695.9859121699414
 20
15.0966367706327
 30
0.0
 11
685.451747062867
 21
15.0966367706327
 31
0.0
  0
LINE
  5
21D
330
1F
100
AcDbEntity
  8
0
  6
Continuous
 62
     7
370
    15
100
AcDbLine
 10
695.9859121699414
 20
3.764812885661513
 30
0.0
 11
695.9859121699414
 21
15.0966367706327
 31
0.0
  0
LINE
  5
21E
330
1F
100
AcDbEntity
  8
0
  6
Continuous
 62
     7
370
    15
100
AcDbLine
 10
685.451747062867
 20
3.764812885661513
 30
0.0
 11
695.9859121699414
 21
3.764812885661513
 31
0.0
  0
LINE
  5
21F
330
1F
100
AcDbEntity
  8
0
  6
Continuous
 62
     7
370
    15
100
AcDbLine
 10
685.451747062867
 20
15.0966367706327
 30
0.0
 11
685.451747062867
 21
3.764812885661513
 31
0.0
  0
LINE
  5
220
330
1F
100
AcDbEntity
  8
0
  6
Continuous
 62
     7
370
    15
100
AcDbLine
 10
195.9859121699415
 20
15.0966367706327
 30
0.0
 11
185.4517470628671
 21
15.0966367706327
 31
0.0
  0
LINE
  5
221
330
1F
100
AcDbEntity
  8
0
  6
Continuous
 62
     7
370
    15
100
AcDbLine
 10
185.4517470628671
 20
15.0966367706327
 30
0.0
 11
185.4517470628671
 21
3.764812885661513
 31
0.0
  0
LINE
  5
222
330
1F
100
AcDbEntity
  8
0
  6
Continuous
 62
     7
370
    15
100
AcDbLine
 10
185.4517470628671
 20
3.764812885661513
 30
0.0
 11
195.9859121699415
 21
3.764812885661513
 31
0.0
  0
LINE
  5
223
330
1F
100
AcDbEntity
  8
0
  6
Continuous
 62
     7
370
    15
100
AcDbLine
 10
195.9859121699415
 20
3.764812885661513
 30
0.0
 11
195.9859121699415
 21
15.0966367706327
 31
0.0
  0
LINE
  5
224
330
1F
100
AcDbEntity
  8
0
  6
Continuous
 62
     7
370
    15
100
AcDbLine
 10
-354.0140878300586
 20
15.0966367706327
 30
0.0
 11
-364.548252937133
 21
15.0966367706327
 31
0.0
  0
LINE
  5
225
330
1F
100
AcDbEntity
  8
0
  6
Continuous
 62
     7
370
    15
100
AcDbLine
 10
-364.548252937133
 20
15.0966367706327
 30
0.0
 11
-364.548252937133
 21
3.764812885661513
 31
0.0
  0
LINE
  5
226
330
1F
100
AcDbEntity
  8
0
  6
Continuous
 62
     7
370
    15
100
AcDbLine
 10
-364.548252937133
 20
3.764812885661513
 30
0.0
 11
-354.0140878300586
 21
3.764812885661513
 31
0.0
  0
LINE
  5
227
330
1F
100
AcDbEntity
  8
0
  6
Continuous
 62
     7
370
    15
100
AcDbLine
 10
-354.0140878300586
 20
3.764812885661513
 30
0.0
 11
-354.0140878300586
 21
15.0966367706327
 31
0.0
  0
LINE
  5
228
330
1F
100
AcDbEntity
  8
0
  6
Continuous
 62
     7
370
    15
100
AcDbLine
 10
945.9859121699416
 20
15.0966367706327
 30
0.0
 11
935.4517470628675
 21
15.0966367706327
 31
0.0
  0
LINE
  5
229
330
1F
100
AcDbEntity
  8
0
  6
Continuous
 62
     7
370
    15
100
AcDbLine
 10
945.9859121699416
 20
3.764812885661513
 30
0.0
 11
945.9859121699416
 21
15.0966367706327
 31
0.0
  0
LINE
  5
22A
330
1F
100
AcDbEntity
  8
0
  6
Continuous
 62
     7
370
    15
100
AcDbLine
 10
935.4517470628675
 20
3.764812885661513
 30
0.0
 11
945.9859121699416
 21
3.764812885661513
 31
0.0
  0
LINE
  5
22B
330
1F
100
AcDbEntity
  8
0
  6
Continuous
 62
     7
370
    15
100
AcDbLine
 10
935.4517470628675
 20
15.0966367706327
 30
0.0
 11
935.4517470628675
 21
3.764812885661513
 31
0.0
  0
LINE
  5
22C
330
1F
100
AcDbEntity
  8
0
  6
Continuous
 62
     7
370
    15
100
AcDbLine
 10
-304.0140878300586
 20
15.0966367706327
 30
0.0
 11
-314.5482529371331
 21
15.0966367706327
 31
0.0
  0
LINE
  5
22D
330
1F
100
AcDbEntity
  8
0
  6
Continuous
 62
     7
370
    15
100
AcDbLine
 10
-314.5482529371331
 20
3.764812885661513
 30
0.0
 11
-304.0140878300586
 21
3.764812885661513
 31
0.0
  0
LINE
  5
22E
330
1F
100
AcDbEntity
  8
0
  6
Continuous
 62
     7
370
    15
100
AcDbLine
 10
-314.5482529371331
 20
15.0966367706327
 30
0.0
 11
-314.5482529371331
 21
3.764812885661513
 31
0.0
  0
LINE
  5
22F
330
1F
100
AcDbEntity
  8
0
  6
Continuous
 62
     7
370
    15
100
AcDbLine
 10
-304.0140878300586
 20
3.764812885661513
 30
0.0
 11
-304.0140878300586
 21
15.0966367706327
 31
0.0
  0
LINE
  5
230
330
1F
100
AcDbEntity
  8
0
  6
Continuous
 62
     7
370
    15
100
AcDbLine
 10
595.9859121699412
 20
15.0966367706327
 30
0.0
 11
585.451747062867
 21
15.0966367706327
 31
0.0
  0
LINE
  5
231
330
1F
100
AcDbEntity
  8
0
  6
Continuous
 62
     7
370
    15
100
AcDbLine
 10
595.9859121699412
 20
3.764812885661513
 30
0.0
 11
595.9859121699412
 21
15.0966367706327
 31
0.0
  0
LINE
  5
232
330
1F
100
AcDbEntity
  8
0
  6
Continuous
 62
     7
370
    15
100
AcDbLine
 10
585.451747062867
 20
3.764812885661513
 30
0.0
 11
595.9859121699412
 21
3.764812885661513
 31
0.0
  0
LINE
  5
233
330
1F
100
AcDbEntity
  8
0
  6
Continuous
 62
     7
370
    15
100
AcDbLine
 10
585.451747062867
 20
15.0966367706327
 30
0.0
 11
585.451747062867
 21
3.764812885661513
 31
0.0
  0
LINE
  5
234
330
1F
100
AcDbEntity
  8
0
  6
Continuous
 62
     7
370
    15
100
AcDbLine
 10
-204.0140878300586
 20
15.0966367706327
 30
0.0
 11
-214.5482529371329
 21
15.0966367706327
 31
0.0
  0
LINE
  5
235
330
1F
100
AcDbEntity
  8
0
  6
Continuous
 62
     7
370
    15
100
AcDbLine
 10
-214.5482529371329
 20
3.764812885661513
 30
0.0
 11
-204.0140878300586
 21
3.764812885661513
 31
0.0
  0
LINE
  5
236
330
1F
100
AcDbEntity
  8
0
  6
Continuous
 62
     7
370
    15
100
AcDbLine
 10
-214.5482529371329
 20
15.0966367706327
 30
0.0
 11
-214.5482529371329
 21
3.764812885661513
 31
0.0
  0
LINE
  5
237
330
1F
100
AcDbEntity
  8
0
  6
Continuous
 62
     7
370
    15
100
AcDbLine
 10
-204.0140878300586
 20
3.764812885661513
 30
0.0
 11
-204.0140878300586
 21
15.0966367706327
 31
0.0
  0
LINE
  5
238
330
1F
100
AcDbEntity
  8
0
  6
Continuous
 62
     7
370
    15
100
AcDbLine
 10
-154.0140878300585
 20
15.0966367706327
 30
0.0
 11
-164.5482529371328
 21
15.0966367706327
 31
0.0
  0
LINE
  5
239
330
1F
100
AcDbEntity
  8
0
  6
Continuous
 62
     7
370
    15
100
AcDbLine
 10
-154.0140878300585
 20
3.764812885661513
 30
0.0
 11
-154.0140878300585
 21
15.0966367706327
 31
0.0
  0
LINE
  5
23A
330
1F
100
AcDbEntity
  8
0
  6
Continuous
 62
     7
370
    15
100
AcDbLine
 10
-164.5482529371328
 20
3.764812885661513
 30
0.0
 11
-154.0140878300585
 21
3.764812885661513
 31
0.0
  0
LINE
  5
23B
330
1F
100
AcDbEntity
  8
0
  6
Continuous
 62
     7
370
    15
100
AcDbLine
 10
-164.5482529371328
 20
15.0966367706327
 30
0.0
 11
-164.5482529371328
 21
3.764812885661513
 31
0.0
  0
LINE
  5
23C
330
1F
100
AcDbEntity
  8
0
  6
Continuous
 62
     7
370
    15
100
AcDbLine
 10
-504.0140878300585
 20
15.0966367706327
 30
0.0
 11
-514.5482529371329
 21
15.0966367706327
 31
0.0
  0
LINE
  5
23D
330
1F
100
AcDbEntity
  8
0
  6
Continuous
 62
     7
370
    15
100
AcDbLine
 10
-504.0140878300585
 20
3.764812885661513
 30
0.0
 11
-504.0140878300585
 21
15.0966367706327
 31
0.0
  0
LINE
  5
23E
330
1F
100
AcDbEntity
  8
0
  6
Continuous
 62
     7
370
    15
100
AcDbLine
 10
-514.5482529371329
 20
3.764812885661513
 30
0.0
 11
-504.0140878300585
 21
3.764812885661513
 31
0.0
  0
LINE
  5
23F
330
1F
100
AcDbEntity
  8
0
  6
Continuous
 62
     7
370
    15
100
AcDbLine
 10
-514.5482529371329
 20
15.0966367706327
 30
0.0
 11
-514.5482529371329
 21
3.764812885661513
 31
0.0
  0
LINE
  5
240
330
1F
100
AcDbEntity
  8
0
  6
Continuous
 62
     7
370
    15
100
AcDbLine
 10
-104.0140878300585
 20
15.0966367706327
 30
0.0
 11
-114.5482529371329
 21
15.0966367706327
 31
0.0
  0
LINE
  5
241
330
1F
100
AcDbEntity
  8
0
  6
Continuous
 62
     7
370
    15
100
AcDbLine
 10
-114.5482529371329
 20
3.764812885661513
 30
0.0
 11
-104.0140878300585
 21
3.764812885661513
 31
0.0
  0
LINE
  5
242
330
1F
100
AcDbEntity
  8
0
  6
Continuous
 62
     7
370
    15
100
AcDbLine
 10
-104.0140878300585
 20
3.764812885661513
 30
0.0
 11
-104.0140878300585
 21
15.0966367706327
 31
0.0
  0
LINE
  5
243
330
1F
100
AcDbEntity
  8
0
  6
Continuous
 62
     7
370
    15
100
AcDbLine
 10
-114.5482529371329
 20
15.0966367706327
 30
0.0
 11
-114.5482529371329
 21
3.764812885661513
 31
0.0
  0
LINE
  5
244
330
1F
100
AcDbEntity
  8
0
  6
Continuous
 62
     7
370
    15
100
AcDbLine
 10
-54.01408783005854
 20
15.0966367706327
 30
0.0
 11
-64.54825293713293
 21
15.0966367706327
 31
0.0
  0
LINE
  5
245
330
1F
100
AcDbEntity
  8
0
  6
Continuous
 62
     7
370
    15
100
AcDbLine
 10
-64.54825293713293
 20
15.0966367706327
 30
0.0
 11
-64.54825293713293
 21
3.764812885661513
 31
0.0
  0
LINE
  5
246
330
1F
100
AcDbEntity
  8
0
  6
Continuous
 62
     7
370
    15
100
AcDbLine
 10
-64.54825293713293
 20
3.764812885661513
 30
0.0
 11
-54.01408783005854
 21
3.764812885661513
 31
0.0
  0
LINE
  5
247
330
1F
100
AcDbEntity
  8
0
  6
Continuous
 62
     7
370
    15
100
AcDbLine
 10
-54.01408783005854
 20
3.764812885661513
 30
0.0
 11
-54.01408783005854
 21
15.0966367706327
 31
0.0
  0
LINE
  5
248
330
1F
100
AcDbEntity
  8
0
  6
Continuous
 62
     7
370
    15
100
AcDbLine
 10
245.9859121699415
 20
15.0966367706327
 30
0.0
 11
235.4517470628671
 21
15.0966367706327
 31
0.0
  0
LINE
  5
249
330
1F
100
AcDbEntity
  8
0
  6
Continuous
 62
     7
370
    15
100
AcDbLine
 10
245.9859121699415
 20
3.764812885661513
 30
0.0
 11
245.9859121699415
 21
15.0966367706327
 31
0.0
  0
LINE
  5
24A
330
1F
100
AcDbEntity
  8
0
  6
Continuous
 62
     7
370
    15
100
AcDbLine
 10
235.4517470628671
 20
3.764812885661513
 30
0.0
 11
245.9859121699415
 21
3.764812885661513
 31
0.0
  0
LINE
  5
24B
330
1F
100
AcDbEntity
  8
0
  6
Continuous
 62
     7
370
    15
100
AcDbLine
 10
235.4517470628671
 20
15.0966367706327
 30
0.0
 11
235.4517470628671
 21
3.764812885661513
 31
0.0
  0
LINE
  5
24C
330
1F
100
AcDbEntity
  8
0
  6
Continuous
 62
     7
370
    15
100
AcDbLine
 10
995.9859121699416
 20
15.0966367706327
 30
0.0
 11
985.4517470628671
 21
15.0966367706327
 31
0.0
  0
LINE
  5
24D
330
1F
100
AcDbEntity
  8
0
  6
Continuous
 62
     7
370
    15
100
AcDbLine
 10
995.9859121699416
 20
3.764812885661513
 30
0.0
 11
995.9859121699416
 21
15.0966367706327
 31
0.0
  0
LINE
  5
24E
330
1F
100
AcDbEntity
  8
0
  6
Continuous
 62
     7
370
    15
100
AcDbLine
 10
985.4517470628671
 20
3.764812885661513
 30
0.0
 11
995.9859121699416
 21
3.764812885661513
 31
0.0
  0
LINE
  5
24F
330
1F
100
AcDbEntity
  8
0
  6
Continuous
 62
     7
370
    15
100
AcDbLine
 10
985.4517470628671
 20
15.0966367706327
 30
0.0
 11
985.4517470628671
 21
3.764812885661513
 31
0.0
  0
LINE
  5
250
330
1F
100
AcDbEntity
  8
0
  6
Continuous
 62
     7
370
    15
100
AcDbLine
 10
-4.014087830058542
 20
15.0966367706327
 30
0.0
 11
-14.54825293713293
 21
15.0966367706327
 31
0.0
  0
LINE
  5
251
330
1F
100
AcDbEntity
  8
0
  6
Continuous
 62
     7
370
    15
100
AcDbLine
 10
-14.54825293713293
 20
3.764812885661513
 30
0.0
 11
-4.014087830058542
 21
3.764812885661513
 31
0.0
  0
LINE
  5
252
330
1F
100
AcDbEntity
  8
0
  6
Continuous
 62
     7
370
    15
100
AcDbLine
 10
-4.014087830058542
 20
3.764812885661513
 30
0.0
 11
-4.014087830058542
 21
15.0966367706327
 31
0.0
  0
LINE
  5
253
330
1F
100
AcDbEntity
  8
0
  6
Continuous
 62
     7
370
    15
100
AcDbLine
 10
-14.54825293713293
 20
15.0966367706327
 30
0.0
 11
-14.54825293713293
 21
3.764812885661513
 31
0.0
  0
LINE
  5
254
330
1F
100
AcDbEntity
  8
0
  6
Continuous
 62
     7
370
    15
100
AcDbLine
 10
345.9859121699416
 20
15.0966367706327
 30
0.0
 11
335.4517470628672
 21
15.0966367706327
 31
0.0
  0
LINE
  5
255
330
1F
100
AcDbEntity
  8
0
  6
Continuous
 62
     7
370
    15
100
AcDbLine
 10
345.9859121699416
 20
3.764812885661513
 30
0.0
 11
345.9859121699416
 21
15.0966367706327
 31
0.0
  0
LINE
  5
256
330
1F
100
AcDbEntity
  8
0
  6
Continuous
 62
     7
370
    15
100
AcDbLine
 10
335.4517470628672
 20
3.764812885661513
 30
0.0
 11
345.9859121699416
 21
3.764812885661513
 31
0.0
  0
LINE
  5
257
330
1F
100
AcDbEntity
  8
0
  6
Continuous
 62
     7
370
    15
100
AcDbLine
 10
335.4517470628672
 20
15.0966367706327
 30
0.0
 11
335.4517470628672
 21
3.764812885661513
 31
0.0
  0
LINE
  5
258
330
1F
100
AcDbEntity
  8
0
  6
Continuous
 62
     7
370
    15
100
AcDbLine
 10
95.98591216994156
 20
15.0966367706327
 30
0.0
 11
85.45174706286719
 21
15.0966367706327
 31
0.0
  0
LINE
  5
259
330
1F
100
AcDbEntity
  8
0
  6
Continuous
 62
     7
370
    15
100
AcDbLine
 10
95.98591216994156
 20
3.764812885661513
 30
0.0
 11
95.98591216994156
 21
15.0966367706327
 31
0.0
  0
LINE
  5
25A
330
1F
100
AcDbEntity
  8
0
  6
Continuous
 62
     7
370
    15
100
AcDbLine
 10
85.45174706286719
 20
3.764812885661513
 30
0.0
 11
95.98591216994156
 21
3.764812885661513
 31
0.0
  0
LINE
  5
25B
330
1F
100
AcDbEntity
  8
0
  6
Continuous
 62
     7
370
    15
100
AcDbLine
 10
85.45174706286719
 20
15.0966367706327
 30
0.0
 11
85.45174706286719
 21
3.764812885661513
 31
0.0
  0
LINE
  5
25C
330
1F
100
AcDbEntity
  8
0
  6
Continuous
 62
     7
370
    15
100
AcDbLine
 10
-454.0140878300586
 20
15.0966367706327
 30
0.0
 11
-464.548252937133
 21
15.0966367706327
 31
0.0
  0
LINE
  5
25D
330
1F
100
AcDbEntity
  8
0
  6
Continuous
 62
     7
370
    15
100
AcDbLine
 10
-454.0140878300586
 20
3.764812885661513
 30
0.0
 11
-454.0140878300586
 21
15.0966367706327
 31
0.0
  0
LINE
  5
25E
330
1F
100
AcDbEntity
  8
0
  6
Continuous
 62
     7
370
    15
100
AcDbLine
 10
-464.548252937133
 20
15.0966367706327
 30
0.0
 11
-464.548252937133
 21
3.764812885661513
 31
0.0
  0
LINE
  5
25F
330
1F
100
AcDbEntity
  8
0
  6
Continuous
 62
     7
370
    15
100
AcDbLine
 10
-464.548252937133
 20
3.764812885661513
 30
0.0
 11
-454.0140878300586
 21
3.764812885661513
 31
0.0
  0
LINE
  5
260
330
1F
100
AcDbEntity
  8
0
  6
Continuous
 62
     7
370
    15
100
AcDbLine
 10
145.9859121699414
 20
15.0966367706327
 30
0.0
 11
135.451747062867
 21
15.0966367706327
 31
0.0
  0
LINE
  5
261
330
1F
100
AcDbEntity
  8
0
  6
Continuous
 62
     7
370
    15
100
AcDbLine
 10
145.9859121699414
 20
3.764812885661513
 30
0.0
 11
145.9859121699414
 21
15.0966367706327
 31
0.0
  0
LINE
  5
262
330
1F
100
AcDbEntity
  8
0
  6
Continuous
 62
     7
370
    15
100
AcDbLine
 10
135.451747062867
 20
3.764812885661513
 30
0.0
 11
145.9859121699414
 21
3.764812885661513
 31
0.0
  0
LINE
  5
263
330
1F
100
AcDbEntity
  8
0
  6
Continuous
 62
     7
370
    15
100
AcDbLine
 10
135.451747062867
 20
15.0966367706327
 30
0.0
 11
135.451747062867
 21
3.764812885661513
 31
0.0
  0
LINE
  5
264
330
1F
100
AcDbEntity
  8
0
  6
Continuous
 62
     7
370
    15
100
AcDbLine
 10
-404.0140878300586
 20
15.0966367706327
 30
0.0
 11
-414.5482529371329
 21
15.0966367706327
 31
0.0
  0
LINE
  5
265
330
1F
100
AcDbEntity
  8
0
  6
Continuous
 62
     7
370
    15
100
AcDbLine
 10
-404.0140878300586
 20
3.764812885661513
 30
0.0
 11
-404.0140878300586
 21
15.0966367706327
 31
0.0
  0
LINE
  5
266
330
1F
100
AcDbEntity
  8
0
  6
Continuous
 62
     7
370
    15
100
AcDbLine
 10
-414.5482529371329
 20
3.764812885661513
 30
0.0
 11
-404.0140878300586
 21
3.764812885661513
 31
0.0
  0
LINE
  5
267
330
1F
100
AcDbEntity
  8
0
  6
Continuous
 62
     7
370
    15
100
AcDbLine
 10
-414.5482529371329
 20
15.0966367706327
 30
0.0
 11
-414.5482529371329
 21
3.764812885661513
 31
0.0
  0
LINE
  5
268
330
1F
100
AcDbEntity
  8
0
  6
Continuous
 62
     7
370
    15
100
AcDbLine
 10
-254.0140878300586
 20
15.0966367706327
 30
0.0
 11
-264.5482529371329
 21
15.0966367706327
 31
0.0
  0
LINE
  5
269
330
1F
100
AcDbEntity
  8
0
  6
Continuous
 62
     7
370
    15
100
AcDbLine
 10
-254.0140878300586
 20
3.764812885661513
 30
0.0
 11
-254.0140878300586
 21
15.0966367706327
 31
0.0
  0
LINE
  5
26A
330
1F
100
AcDbEntity
  8
0
  6
Continuous
 62
     7
370
    15
100
AcDbLine
 10
-264.5482529371329
 20
3.764812885661513
 30
0.0
 11
-254.0140878300586
 21
3.764812885661513
 31
0.0
  0
LINE
  5
26B
330
1F
100
AcDbEntity
  8
0
  6
Continuous
 62
     7
370
    15
100
AcDbLine
 10
-264.5482529371329
 20
15.0966367706327
 30
0.0
 11
-264.5482529371329
 21
3.764812885661513
 31
0.0
  0
LINE
  5
26C
330
1F
100
AcDbEntity
  8
0
  6
Continuous
 62
     7
370
    15
100
AcDbLine
 10
745.9859121699416
 20
15.0966367706327
 30
0.0
 11
735.451747062867
 21
15.0966367706327
 31
0.0
  0
LINE
  5
26D
330
1F
100
AcDbEntity
  8
0
  6
Continuous
 62
     7
370
    15
100
AcDbLine
 10
735.451747062867
 20
3.764812885661513
 30
0.0
 11
745.9859121699416
 21
3.764812885661513
 31
0.0
  0
LINE
  5
26E
330
1F
100
AcDbEntity
  8
0
  6
Continuous
 62
     7
370
    15
100
AcDbLine
 10
735.451747062867
 20
15.0966367706327
 30
0.0
 11
735.451747062867
 21
3.764812885661513
 31
0.0
  0
LINE
  5
26F
330
1F
100
AcDbEntity
  8
0
  6
Continuous
 62
     7
370
    15
100
AcDbLine
 10
745.9859121699416
 20
3.764812885661513
 30
0.0
 11
745.9859121699416
 21
15.0966367706327
 31
0.0
  0
LINE
  5
270
330
1F
100
AcDbEntity
  8
0
  6
Continuous
 62
     7
370
    15
100
AcDbLine
 10
995.9859121699409
 20
45.0966367706327
 30
0.0
 11
985.4517470628671
 21
45.0966367706327
 31
0.0
  0
LINE
  5
271
330
1F
100
AcDbEntity
  8
0
  6
Continuous
 62
     7
370
    15
100
AcDbLine
 10
995.9859121699409
 20
33.76481288566151
 30
0.0
 11
995.9859121699409
 21
45.0966367706327
 31
0.0
  0
LINE
  5
272
330
1F
100
AcDbEntity
  8
0
  6
Continuous
 62
     7
370
    15
100
AcDbLine
 10
985.4517470628671
 20
33.76481288566151
 30
0.0
 11
995.9859121699409
 21
33.76481288566151
 31
0.0
  0
LINE
  5
273
330
1F
100
AcDbEntity
  8
0
  6
Continuous
 62
     7
370
    15
100
AcDbLine
 10
985.4517470628671
 20
45.0966367706327
 30
0.0
 11
985.4517470628671
 21
33.76481288566151
 31
0.0
  0
LINE
  5
274
330
1F
100
AcDbEntity
  8
0
  6
Continuous
 62
     7
370
    15
100
AcDbLine
 10
345.9859121699413
 20
45.0966367706327
 30
0.0
 11
335.4517470628668
 21
45.0966367706327
 31
0.0
  0
LINE
  5
275
330
1F
100
AcDbEntity
  8
0
  6
Continuous
 62
     7
370
    15
100
AcDbLine
 10
345.9859121699413
 20
33.76481288566151
 30
0.0
 11
345.9859121699413
 21
45.0966367706327
 31
0.0
  0
LINE
  5
276
330
1F
100
AcDbEntity
  8
0
  6
Continuous
 62
     7
370
    15
100
AcDbLine
 10
335.4517470628668
 20
33.76481288566151
 30
0.0
 11
345.9859121699413
 21
33.76481288566151
 31
0.0
  0
LINE
  5
277
330
1F
100
AcDbEntity
  8
0
  6
Continuous
 62
     7
370
    15
100
AcDbLine
 10
335.4517470628668
 20
45.0966367706327
 30
0.0
 11
335.4517470628668
 21
33.76481288566151
 31
0.0
  0
LINE
  5
278
330
1F
100
AcDbEntity
  8
0
  6
Continuous
 62
     7
370
    15
100
AcDbLine
 10
885.4517470628671
 20
33.76481288566151
 30
0.0
 11
895.9859121699409
 21
33.76481288566151
 31
0.0
  0
LINE
  5
279
330
1F
100
AcDbEntity
  8
0
  6
Continuous
 62
     7
370
    15
100
AcDbLine
 10
885.4517470628671
 20
45.0966367706327
 30
0.0
 11
885.4517470628671
 21
33.76481288566151
 31
0.0
  0
LINE
  5
27A
330
1F
100
AcDbEntity
  8
0
  6
Continuous
 62
     7
370
    15
100
AcDbLine
 10
895.9859121699409
 20
45.0966367706327
 30
0.0
 11
885.4517470628671
 21
45.0966367706327
 31
0.0
  0
LINE
  5
27B
330
1F
100
AcDbEntity
  8
0
  6
Continuous
 62
     7
370
    15
100
AcDbLine
 10
895.9859121699409
 20
33.76481288566151
 30
0.0
 11
895.9859121699409
 21
45.0966367706327
 31
0.0
  0
LINE
  5
27C
330
1F
100
AcDbEntity
  8
0
  6
Continuous
 62
     7
370
    15
100
AcDbLine
 10
595.9859121699412
 20
45.0966367706327
 30
0.0
 11
585.4517470628668
 21
45.0966367706327
 31
0.0
  0
LINE
  5
27D
330
1F
100
AcDbEntity
  8
0
  6
Continuous
 62
     7
370
    15
100
AcDbLine
 10
595.9859121699412
 20
33.76481288566151
 30
0.0
 11
595.9859121699412
 21
45.0966367706327
 31
0.0
  0
LINE
  5
27E
330
1F
100
AcDbEntity
  8
0
  6
Continuous
 62
     7
370
    15
100
AcDbLine
 10
585.4517470628668
 20
33.76481288566151
 30
0.0
 11
595.9859121699412
 21
33.76481288566151
 31
0.0
  0
LINE
  5
27F
330
1F
100
AcDbEntity
  8
0
  6
Continuous
 62
     7
370
    15
100
AcDbLine
 10
585.4517470628668
 20
45.0966367706327
 30
0.0
 11
585.4517470628668
 21
33.76481288566151
 31
0.0
  0
LINE
  5
280
330
1F
100
AcDbEntity
  8
0
  6
Continuous
 62
     7
370
    15
100
AcDbLine
 10
745.9859121699414
 20
45.0966367706327
 30
0.0
 11
735.4517470628668
 21
45.0966367706327
 31
0.0
  0
LINE
  5
281
330
1F
100
AcDbEntity
  8
0
  6
Continuous
 62
     7
370
    15
100
AcDbLine
 10
745.9859121699414
 20
33.76481288566151
 30
0.0
 11
745.9859121699414
 21
45.0966367706327
 31
0.0
  0
LINE
  5
282
330
1F
100
AcDbEntity
  8
0
  6
Continuous
 62
     7
370
    15
100
AcDbLine
 10
735.4517470628668
 20
45.0966367706327
 30
0.0
 11
735.4517470628668
 21
33.76481288566151
 31
0.0
  0
LINE
  5
283
330
1F
100
AcDbEntity
  8
0
  6
Continuous
 62
     7
370
    15
100
AcDbLine
 10
735.4517470628668
 20
33.76481288566151
 30
0.0
 11
745.9859121699414
 21
33.76481288566151
 31
0.0
  0
LINE
  5
284
330
1F
100
AcDbEntity
  8
0
  6
Continuous
 62
     7
370
    15
100
AcDbLine
 10
-204.0140878300589
 20
45.0966367706327
 30
0.0
 11
-214.5482529371333
 21
45.0966367706327
 31
0.0
  0
LINE
  5
285
330
1F
100
AcDbEntity
  8
0
  6
Continuous
 62
     7
370
    15
100
AcDbLine
 10
-214.5482529371333
 20
33.76481288566151
 30
0.0
 11
-204.0140878300589
 21
33.76481288566151
 31
0.0
  0
LINE
  5
286
330
1F
100
AcDbEntity
  8
0
  6
Continuous
 62
     7
370
    15
100
AcDbLine
 10
-214.5482529371333
 20
45.0966367706327
 30
0.0
 11
-214.5482529371333
 21
33.76481288566151
 31
0.0
  0
LINE
  5
287
330
1F
100
AcDbEntity
  8
0
  6
Continuous
 62
     7
370
    15
100
AcDbLine
 10
-204.0140878300589
 20
33.76481288566151
 30
0.0
 11
-204.0140878300589
 21
45.0966367706327
 31
0.0
  0
LINE
  5
288
330
1F
100
AcDbEntity
  8
0
  6
Continuous
 62
     7
370
    15
100
AcDbLine
 10
695.9859121699414
 20
45.0966367706327
 30
0.0
 11
685.4517470628668
 21
45.0966367706327
 31
0.0
  0
LINE
  5
289
330
1F
100
AcDbEntity
  8
0
  6
Continuous
 62
     7
370
    15
100
AcDbLine
 10
695.9859121699414
 20
33.76481288566151
 30
0.0
 11
695.9859121699414
 21
45.0966367706327
 31
0.0
  0
LINE
  5
28A
330
1F
100
AcDbEntity
  8
0
  6
Continuous
 62
     7
370
    15
100
AcDbLine
 10
685.4517470628668
 20
33.76481288566151
 30
0.0
 11
695.9859121699414
 21
33.76481288566151
 31
0.0
  0
LINE
  5
28B
330
1F
100
AcDbEntity
  8
0
  6
Continuous
 62
     7
370
    15
100
AcDbLine
 10
685.4517470628668
 20
45.0966367706327
 30
0.0
 11
685.4517470628668
 21
33.76481288566151
 31
0.0
  0
LINE
  5
28C
330
1F
100
AcDbEntity
  8
0
  6
Continuous
 62
     7
370
    15
100
AcDbLine
 10
-104.0140878300588
 20
45.0966367706327
 30
0.0
 11
-114.5482529371332
 21
45.0966367706327
 31
0.0
  0
LINE
  5
28D
330
1F
100
AcDbEntity
  8
0
  6
Continuous
 62
     7
370
    15
100
AcDbLine
 10
-104.0140878300588
 20
33.76481288566151
 30
0.0
 11
-104.0140878300588
 21
45.0966367706327
 31
0.0
  0
LINE
  5
28E
330
1F
100
AcDbEntity
  8
0
  6
Continuous
 62
     7
370
    15
100
AcDbLine
 10
-114.5482529371332
 20
33.76481288566151
 30
0.0
 11
-104.0140878300588
 21
33.76481288566151
 31
0.0
  0
LINE
  5
28F
330
1F
100
AcDbEntity
  8
0
  6
Continuous
 62
     7
370
    15
100
AcDbLine
 10
-114.5482529371332
 20
45.0966367706327
 30
0.0
 11
-114.5482529371332
 21
33.76481288566151
 31
0.0
  0
LINE
  5
290
330
1F
100
AcDbEntity
  8
0
  6
Continuous
 62
     7
370
    15
100
AcDbLine
 10
495.9859121699412
 20
45.0966367706327
 30
0.0
 11
485.4517470628668
 21
45.0966367706327
 31
0.0
  0
LINE
  5
291
330
1F
100
AcDbEntity
  8
0
  6
Continuous
 62
     7
370
    15
100
AcDbLine
 10
495.9859121699412
 20
33.76481288566151
 30
0.0
 11
495.9859121699412
 21
45.0966367706327
 31
0.0
  0
LINE
  5
292
330
1F
100
AcDbEntity
  8
0
  6
Continuous
 62
     7
370
    15
100
AcDbLine
 10
485.4517470628668
 20
33.76481288566151
 30
0.0
 11
495.9859121699412
 21
33.76481288566151
 31
0.0
  0
LINE
  5
293
330
1F
100
AcDbEntity
  8
0
  6
Continuous
 62
     7
370
    15
100
AcDbLine
 10
485.4517470628668
 20
45.0966367706327
 30
0.0
 11
485.4517470628668
 21
33.76481288566151
 31
0.0
  0
LINE
  5
294
330
1F
100
AcDbEntity
  8
0
  6
Continuous
 62
     7
370
    15
100
AcDbLine
 10
545.985912169941
 20
45.0966367706327
 30
0.0
 11
535.4517470628668
 21
45.0966367706327
 31
0.0
  0
LINE
  5
295
330
1F
100
AcDbEntity
  8
0
  6
Continuous
 62
     7
370
    15
100
AcDbLine
 10
545.985912169941
 20
33.76481288566151
 30
0.0
 11
545.985912169941
 21
45.0966367706327
 31
0.0
  0
LINE
  5
296
330
1F
100
AcDbEntity
  8
0
  6
Continuous
 62
     7
370
    15
100
AcDbLine
 10
535.4517470628668
 20
33.76481288566151
 30
0.0
 11
545.985912169941
 21
33.76481288566151
 31
0.0
  0
LINE
  5
297
330
1F
100
AcDbEntity
  8
0
  6
Continuous
 62
     7
370
    15
100
AcDbLine
 10
535.4517470628668
 20
45.0966367706327
 30
0.0
 11
535.4517470628668
 21
33.76481288566151
 31
0.0
  0
LINE
  5
298
330
1F
100
AcDbEntity
  8
0
  6
Continuous
 62
     7
370
    15
100
AcDbLine
 10
-504.0140878300588
 20
45.0966367706327
 30
0.0
 11
-514.5482529371333
 21
45.0966367706327
 31
0.0
  0
LINE
  5
299
330
1F
100
AcDbEntity
  8
0
  6
Continuous
 62
     7
370
    15
100
AcDbLine
 10
-504.0140878300588
 20
33.76481288566151
 30
0.0
 11
-504.0140878300588
 21
45.0966367706327
 31
0.0
  0
LINE
  5
29A
330
1F
100
AcDbEntity
  8
0
  6
Continuous
 62
     7
370
    15
100
AcDbLine
 10
-514.5482529371333
 20
33.76481288566151
 30
0.0
 11
-504.0140878300588
 21
33.76481288566151
 31
0.0
  0
LINE
  5
29B
330
1F
100
AcDbEntity
  8
0
  6
Continuous
 62
     7
370
    15
100
AcDbLine
 10
-514.5482529371333
 20
45.0966367706327
 30
0.0
 11
-514.5482529371333
 21
33.76481288566151
 31
0.0
  0
LINE
  5
29C
330
1F
100
AcDbEntity
  8
0
  6
Continuous
 62
     7
370
    15
100
AcDbLine
 10
45.98591216994111
 20
45.0966367706327
 30
0.0
 11
35.45174706286673
 21
45.0966367706327
 31
0.0
  0
LINE
  5
29D
330
1F
100
AcDbEntity
  8
0
  6
Continuous
 62
     7
370
    15
100
AcDbLine
 10
35.45174706286673
 20
45.0966367706327
 30
0.0
 11
35.45174706286673
 21
33.76481288566151
 31
0.0
  0
LINE
  5
29E
330
1F
100
AcDbEntity
  8
0
  6
Continuous
 62
     7
370
    15
100
AcDbLine
 10
45.98591216994111
 20
33.76481288566151
 30
0.0
 11
45.98591216994111
 21
45.0966367706327
 31
0.0
  0
LINE
  5
29F
330
1F
100
AcDbEntity
  8
0
  6
Continuous
 62
     7
370
    15
100
AcDbLine
 10
35.45174706286673
 20
33.76481288566151
 30
0.0
 11
45.98591216994111
 21
33.76481288566151
 31
0.0
  0
LINE
  5
2A0
330
1F
100
AcDbEntity
  8
0
  6
Continuous
 62
     7
370
    15
100
AcDbLine
 10
645.985912169941
 20
45.0966367706327
 30
0.0
 11
635.4517470628668
 21
45.0966367706327
 31
0.0
  0
LINE
  5
2A1
330
1F
100
AcDbEntity
  8
0
  6
Continuous
 62
     7
370
    15
100
AcDbLine
 10
645.985912169941
 20
33.76481288566151
 30
0.0
 11
645.985912169941
 21
45.0966367706327
 31
0.0
  0
LINE
  5
2A2
330
1F
100
AcDbEntity
  8
0
  6
Continuous
 62
     7
370
    15
100
AcDbLine
 10
635.4517470628668
 20
33.76481288566151
 30
0.0
 11
645.985912169941
 21
33.76481288566151
 31
0.0
  0
LINE
  5
2A3
330
1F
100
AcDbEntity
  8
0
  6
Continuous
 62
     7
370
    15
100
AcDbLine
 10
635.4517470628668
 20
45.0966367706327
 30
0.0
 11
635.4517470628668
 21
33.76481288566151
 31
0.0
  0
LINE
  5
2A4
330
1F
100
AcDbEntity
  8
0
  6
Continuous
 62
     7
370
    15
100
AcDbLine
 10
-454.0140878300589
 20
45.0966367706327
 30
0.0
 11
-464.5482529371333
 21
45.0966367706327
 31
0.0
  0
LINE
  5
2A5
330
1F
100
AcDbEntity
  8
0
  6
Continuous
 62
     7
370
    15
100
AcDbLine
 10
-454.0140878300589
 20
33.76481288566151
 30
0.0
 11
-454.0140878300589
 21
45.0966367706327
 31
0.0
  0
LINE
  5
2A6
330
1F
100
AcDbEntity
  8
0
  6
Continuous
 62
     7
370
    15
100
AcDbLine
 10
-464.5482529371333
 20
33.76481288566151
 30
0.0
 11
-454.0140878300589
 21
33.76481288566151
 31
0.0
  0
LINE
  5
2A7
330
1F
100
AcDbEntity
  8
0
  6
Continuous
 62
     7
370
    15
100
AcDbLine
 10
-464.5482529371333
 20
45.0966367706327
 30
0.0
 11
-464.5482529371333
 21
33.76481288566151
 31
0.0
  0
LINE
  5
2A8
330
1F
100
AcDbEntity
  8
0
  6
Continuous
 62
     7
370
    15
100
AcDbLine
 10
-404.0140878300589
 20
45.0966367706327
 30
0.0
 11
-414.5482529371333
 21
45.0966367706327
 31
0.0
  0
LINE
  5
2A9
330
1F
100
AcDbEntity
  8
0
  6
Continuous
 62
     7
370
    15
100
AcDbLine
 10
-414.5482529371333
 20
45.0966367706327
 30
0.0
 11
-414.5482529371333
 21
33.76481288566151
 31
0.0
  0
LINE
  5
2AA
330
1F
100
AcDbEntity
  8
0
  6
Continuous
 62
     7
370
    15
100
AcDbLine
 10
-404.0140878300589
 20
33.76481288566151
 30
0.0
 11
-404.0140878300589
 21
45.0966367706327
 31
0.0
  0
LINE
  5
2AB
330
1F
100
AcDbEntity
  8
0
  6
Continuous
 62
     7
370
    15
100
AcDbLine
 10
-414.5482529371333
 20
33.76481288566151
 30
0.0
 11
-404.0140878300589
 21
33.76481288566151
 31
0.0
  0
LINE
  5
2AC
330
1F
100
AcDbEntity
  8
0
  6
Continuous
 62
     7
370
    15
100
AcDbLine
 10
445.985912169941
 20
45.0966367706327
 30
0.0
 11
435.4517470628668
 21
45.0966367706327
 31
0.0
  0
LINE
  5
2AD
330
1F
100
AcDbEntity
  8
0
  6
Continuous
 62
     7
370
    15
100
AcDbLine
 10
445.985912169941
 20
33.76481288566151
 30
0.0
 11
445.985912169941
 21
45.0966367706327
 31
0.0
  0
LINE
  5
2AE
330
1F
100
AcDbEntity
  8
0
  6
Continuous
 62
     7
370
    15
100
AcDbLine
 10
435.4517470628668
 20
33.76481288566151
 30
0.0
 11
445.985912169941
 21
33.76481288566151
 31
0.0
  0
LINE
  5
2AF
330
1F
100
AcDbEntity
  8
0
  6
Continuous
 62
     7
370
    15
100
AcDbLine
 10
435.4517470628668
 20
45.0966367706327
 30
0.0
 11
435.4517470628668
 21
33.76481288566151
 31
0.0
  0
LINE
  5
2B0
330
1F
100
AcDbEntity
  8
0
  6
Continuous
 62
     7
370
    15
100
AcDbLine
 10
195.9859121699412
 20
45.0966367706327
 30
0.0
 11
185.4517470628667
 21
45.0966367706327
 31
0.0
  0
LINE
  5
2B1
330
1F
100
AcDbEntity
  8
0
  6
Continuous
 62
     7
370
    15
100
AcDbLine
 10
185.4517470628667
 20
33.76481288566151
 30
0.0
 11
195.9859121699412
 21
33.76481288566151
 31
0.0
  0
LINE
  5
2B2
330
1F
100
AcDbEntity
  8
0
  6
Continuous
 62
     7
370
    15
100
AcDbLine
 10
185.4517470628667
 20
45.0966367706327
 30
0.0
 11
185.4517470628667
 21
33.76481288566151
 31
0.0
  0
LINE
  5
2B3
330
1F
100
AcDbEntity
  8
0
  6
Continuous
 62
     7
370
    15
100
AcDbLine
 10
195.9859121699412
 20
33.76481288566151
 30
0.0
 11
195.9859121699412
 21
45.0966367706327
 31
0.0
  0
LINE
  5
2B4
330
1F
100
AcDbEntity
  8
0
  6
Continuous
 62
     7
370
    15
100
AcDbLine
 10
245.9859121699411
 20
45.0966367706327
 30
0.0
 11
235.4517470628668
 21
45.0966367706327
 31
0.0
  0
LINE
  5
2B5
330
1F
100
AcDbEntity
  8
0
  6
Continuous
 62
     7
370
    15
100
AcDbLine
 10
245.9859121699411
 20
33.76481288566151
 30
0.0
 11
245.9859121699411
 21
45.0966367706327
 31
0.0
  0
LINE
  5
2B6
330
1F
100
AcDbEntity
  8
0
  6
Continuous
 62
     7
370
    15
100
AcDbLine
 10
235.4517470628668
 20
33.76481288566151
 30
0.0
 11
245.9859121699411
 21
33.76481288566151
 31
0.0
  0
LINE
  5
2B7
330
1F
100
AcDbEntity
  8
0
  6
Continuous
 62
     7
370
    15
100
AcDbLine
 10
235.4517470628668
 20
45.0966367706327
 30
0.0
 11
235.4517470628668
 21
33.76481288566151
 31
0.0
  0
LINE
  5
2B8
330
1F
100
AcDbEntity
  8
0
  6
Continuous
 62
     7
370
    15
100
AcDbLine
 10
295.9859121699411
 20
45.0966367706327
 30
0.0
 11
285.4517470628668
 21
45.0966367706327
 31
0.0
  0
LINE
  5
2B9
330
1F
100
AcDbEntity
  8
0
  6
Continuous
 62
     7
370
    15
100
AcDbLine
 10
285.4517470628668
 20
33.76481288566151
 30
0.0
 11
295.9859121699411
 21
33.76481288566151
 31
0.0
  0
LINE
  5
2BA
330
1F
100
AcDbEntity
  8
0
  6
Continuous
 62
     7
370
    15
100
AcDbLine
 10
285.4517470628668
 20
45.0966367706327
 30
0.0
 11
285.4517470628668
 21
33.76481288566151
 31
0.0
  0
LINE
  5
2BB
330
1F
100
AcDbEntity
  8
0
  6
Continuous
 62
     7
370
    15
100
AcDbLine
 10
295.9859121699411
 20
33.76481288566151
 30
0.0
 11
295.9859121699411
 21
45.0966367706327
 31
0.0
  0
LINE
  5
2BC
330
1F
100
AcDbEntity
  8
0
  6
Continuous
 62
     7
370
    15
100
AcDbLine
 10
145.9859121699411
 20
45.0966367706327
 30
0.0
 11
135.4517470628666
 21
45.0966367706327
 31
0.0
  0
LINE
  5
2BD
330
1F
100
AcDbEntity
  8
0
  6
Continuous
 62
     7
370
    15
100
AcDbLine
 10
135.4517470628666
 20
45.0966367706327
 30
0.0
 11
135.4517470628666
 21
33.76481288566151
 31
0.0
  0
LINE
  5
2BE
330
1F
100
AcDbEntity
  8
0
  6
Continuous
 62
     7
370
    15
100
AcDbLine
 10
145.9859121699411
 20
33.76481288566151
 30
0.0
 11
145.9859121699411
 21
45.0966367706327
 31
0.0
  0
LINE
  5
2BF
330
1F
100
AcDbEntity
  8
0
  6
Continuous
 62
     7
370
    15
100
AcDbLine
 10
135.4517470628666
 20
33.76481288566151
 30
0.0
 11
145.9859121699411
 21
33.76481288566151
 31
0.0
  0
LINE
  5
2C0
330
1F
100
AcDbEntity
  8
0
  6
Continuous
 62
     7
370
    15
100
AcDbLine
 10
-54.01408783005888
 20
45.0966367706327
 30
0.0
 11
-64.54825293713327
 21
45.0966367706327
 31
0.0
  0
LINE
  5
2C1
330
1F
100
AcDbEntity
  8
0
  6
Continuous
 62
     7
370
    15
100
AcDbLine
 10
-54.01408783005888
 20
33.76481288566151
 30
0.0
 11
-54.01408783005888
 21
45.0966367706327
 31
0.0
  0
LINE
  5
2C2
330
1F
100
AcDbEntity
  8
0
  6
Continuous
 62
     7
370
    15
100
AcDbLine
 10
-64.54825293713327
 20
33.76481288566151
 30
0.0
 11
-54.01408783005888
 21
33.76481288566151
 31
0.0
  0
LINE
  5
2C3
330
1F
100
AcDbEntity
  8
0
  6
Continuous
 62
     7
370
    15
100
AcDbLine
 10
-64.54825293713327
 20
45.0966367706327
 30
0.0
 11
-64.54825293713327
 21
33.76481288566151
 31
0.0
  0
LINE
  5
2C4
330
1F
100
AcDbEntity
  8
0
  6
Continuous
 62
     7
370
    15
100
AcDbLine
 10
-154.0140878300588
 20
45.0966367706327
 30
0.0
 11
-164.5482529371333
 21
45.0966367706327
 31
0.0
  0
LINE
  5
2C5
330
1F
100
AcDbEntity
  8
0
  6
Continuous
 62
     7
370
    15
100
AcDbLine
 10
-164.5482529371333
 20
33.76481288566151
 30
0.0
 11
-154.0140878300588
 21
33.76481288566151
 31
0.0
  0
LINE
  5
2C6
330
1F
100
AcDbEntity
  8
0
  6
Continuous
 62
     7
370
    15
100
AcDbLine
 10
-154.0140878300588
 20
33.76481288566151
 30
0.0
 11
-154.0140878300588
 21
45.0966367706327
 31
0.0
  0
LINE
  5
2C7
330
1F
100
AcDbEntity
  8
0
  6
Continuous
 62
     7
370
    15
100
AcDbLine
 10
-164.5482529371333
 20
45.0966367706327
 30
0.0
 11
-164.5482529371333
 21
33.76481288566151
 31
0.0
  0
LINE
  5
2C8
330
1F
100
AcDbEntity
  8
0
  6
Continuous
 62
     7
370
    15
100
AcDbLine
 10
-254.0140878300589
 20
45.0966367706327
 30
0.0
 11
-264.5482529371333
 21
45.0966367706327
 31
0.0
  0
LINE
  5
2C9
330
1F
100
AcDbEntity
  8
0
  6
Continuous
 62
     7
370
    15
100
AcDbLine
 10
-264.5482529371333
 20
45.0966367706327
 30
0.0
 11
-264.5482529371333
 21
33.76481288566151
 31
0.0
  0
LINE
  5
2CA
330
1F
100
AcDbEntity
  8
0
  6
Continuous
 62
     7
370
    15
100
AcDbLine
 10
-254.0140878300589
 20
33.76481288566151
 30
0.0
 11
-254.0140878300589
 21
45.0966367706327
 31
0.0
  0
LINE
  5
2CB
330
1F
100
AcDbEntity
  8
0
  6
Continuous
 62
     7
370
    15
100
AcDbLine
 10
-264.5482529371333
 20
33.76481288566151
 30
0.0
 11
-254.0140878300589
 21
33.76481288566151
 31
0.0
  0
LINE
  5
2CC
330
1F
100
AcDbEntity
  8
0
  6
Continuous
 62
     7
370
    15
100
AcDbLine
 10
95.98591216994112
 20
45.0966367706327
 30
0.0
 11
85.45174706286672
 21
45.0966367706327
 31
0.0
  0
LINE
  5
2CD
330
1F
100
AcDbEntity
  8
0
  6
Continuous
 62
     7
370
    15
100
AcDbLine
 10
85.45174706286672
 20
33.76481288566151
 30
0.0
 11
95.98591216994112
 21
33.76481288566151
 31
0.0
  0
LINE
  5
2CE
330
1F
100
AcDbEntity
  8
0
  6
Continuous
 62
     7
370
    15
100
AcDbLine
 10
85.45174706286672
 20
45.0966367706327
 30
0.0
 11
85.45174706286672
 21
33.76481288566151
 31
0.0
  0
LINE
  5
2CF
330
1F
100
AcDbEntity
  8
0
  6
Continuous
 62
     7
370
    15
100
AcDbLine
 10
95.98591216994112
 20
33.76481288566151
 30
0.0
 11
95.98591216994112
 21
45.0966367706327
 31
0.0
  0
LINE
  5
2D0
330
1F
100
AcDbEntity
  8
0
  6
Continuous
 62
     7
370
    15
100
AcDbLine
 10
795.9859121699414
 20
45.0966367706327
 30
0.0
 11
785.4517470628668
 21
45.0966367706327
 31
0.0
  0
LINE
  5
2D1
330
1F
100
AcDbEntity
  8
0
  6
Continuous
 62
     7
370
    15
100
AcDbLine
 10
785.4517470628668
 20
45.0966367706327
 30
0.0
 11
785.4517470628668
 21
33.76481288566151
 31
0.0
  0
LINE
  5
2D2
330
1F
100
AcDbEntity
  8
0
  6
Continuous
 62
     7
370
    15
100
AcDbLine
 10
785.4517470628668
 20
33.76481288566151
 30
0.0
 11
795.9859121699414
 21
33.76481288566151
 31
0.0
  0
LINE
  5
2D3
330
1F
100
AcDbEntity
  8
0
  6
Continuous
 62
     7
370
    15
100
AcDbLine
 10
795.9859121699414
 20
33.76481288566151
 30
0.0
 11
795.9859121699414
 21
45.0966367706327
 31
0.0
  0
LINE
  5
2D4
330
1F
100
AcDbEntity
  8
0
  6
Continuous
 62
     7
370
    15
100
AcDbLine
 10
-354.0140878300589
 20
45.0966367706327
 30
0.0
 11
-364.5482529371333
 21
45.0966367706327
 31
0.0
  0
LINE
  5
2D5
330
1F
100
AcDbEntity
  8
0
  6
Continuous
 62
     7
370
    15
100
AcDbLine
 10
-354.0140878300589
 20
33.76481288566151
 30
0.0
 11
-354.0140878300589
 21
45.0966367706327
 31
0.0
  0
LINE
  5
2D6
330
1F
100
AcDbEntity
  8
0
  6
Continuous
 62
     7
370
    15
100
AcDbLine
 10
-364.5482529371333
 20
33.76481288566151
 30
0.0
 11
-354.0140878300589
 21
33.76481288566151
 31
0.0
  0
LINE
  5
2D7
330
1F
100
AcDbEntity
  8
0
  6
Continuous
 62
     7
370
    15
100
AcDbLine
 10
-364.5482529371333
 20
45.0966367706327
 30
0.0
 11
-364.5482529371333
 21
33.76481288566151
 31
0.0
  0
LINE
  5
2D8
330
1F
100
AcDbEntity
  8
0
  6
Continuous
 62
     7
370
    15
100
AcDbLine
 10
395.9859121699411
 20
45.0966367706327
 30
0.0
 11
385.4517470628668
 21
45.0966367706327
 31
0.0
  0
LINE
  5
2D9
330
1F
100
AcDbEntity
  8
0
  6
Continuous
 62
     7
370
    15
100
AcDbLine
 10
395.9859121699411
 20
33.76481288566151
 30
0.0
 11
395.9859121699411
 21
45.0966367706327
 31
0.0
  0
LINE
  5
2DA
330
1F
100
AcDbEntity
  8
0
  6
Continuous
 62
     7
370
    15
100
AcDbLine
 10
385.4517470628668
 20
33.76481288566151
 30
0.0
 11
395.9859121699411
 21
33.76481288566151
 31
0.0
  0
LINE
  5
2DB
330
1F
100
AcDbEntity
  8
0
  6
Continuous
 62
     7
370
    15
100
AcDbLine
 10
385.4517470628668
 20
45.0966367706327
 30
0.0
 11
385.4517470628668
 21
33.76481288566151
 31
0.0
  0
LINE
  5
2DC
330
1F
100
AcDbEntity
  8
0
  6
Continuous
 62
     7
370
    15
100
AcDbLine
 10
-304.014087830059
 20
45.0966367706327
 30
0.0
 11
-314.5482529371334
 21
45.0966367706327
 31
0.0
  0
LINE
  5
2DD
330
1F
100
AcDbEntity
  8
0
  6
Continuous
 62
     7
370
    15
100
AcDbLine
 10
-304.014087830059
 20
33.76481288566151
 30
0.0
 11
-304.014087830059
 21
45.0966367706327
 31
0.0
  0
LINE
  5
2DE
330
1F
100
AcDbEntity
  8
0
  6
Continuous
 62
     7
370
    15
100
AcDbLine
 10
-314.5482529371334
 20
33.76481288566151
 30
0.0
 11
-304.014087830059
 21
33.76481288566151
 31
0.0
  0
LINE
  5
2DF
330
1F
100
AcDbEntity
  8
0
  6
Continuous
 62
     7
370
    15
100
AcDbLine
 10
-314.5482529371334
 20
45.0966367706327
 30
0.0
 11
-314.5482529371334
 21
33.76481288566151
 31
0.0
  0
LINE
  5
2E0
330
1F
100
AcDbEntity
  8
0
  6
Continuous
 62
     7
370
    15
100
AcDbLine
 10
845.9859121699414
 20
45.0966367706327
 30
0.0
 11
835.4517470628668
 21
45.0966367706327
 31
0.0
  0
LINE
  5
2E1
330
1F
100
AcDbEntity
  8
0
  6
Continuous
 62
     7
370
    15
100
AcDbLine
 10
845.9859121699414
 20
33.76481288566151
 30
0.0
 11
845.9859121699414
 21
45.0966367706327
 31
0.0
  0
LINE
  5
2E2
330
1F
100
AcDbEntity
  8
0
  6
Continuous
 62
     7
370
    15
100
AcDbLine
 10
835.4517470628668
 20
45.0966367706327
 30
0.0
 11
835.4517470628668
 21
33.76481288566151
 31
0.0
  0
LINE
  5
2E3
330
1F
100
AcDbEntity
  8
0
  6
Continuous
 62
     7
370
    15
100
AcDbLine
 10
835.4517470628668
 20
33.76481288566151
 30
0.0
 11
845.9859121699414
 21
33.76481288566151
 31
0.0
  0
LINE
  5
2E4
330
1F
100
AcDbEntity
  8
0
  6
Continuous
 62
     7
370
    15
100
AcDbLine
 10
945.9859121699416
 20
45.0966367706327
 30
0.0
 11
935.4517470628671
 21
45.0966367706327
 31
0.0
  0
LINE
  5
2E5
330
1F
100
AcDbEntity
  8
0
  6
Continuous
 62
     7
370
    15
100
AcDbLine
 10
945.9859121699416
 20
33.76481288566151
 30
0.0
 11
945.9859121699416
 21
45.0966367706327
 31
0.0
  0
LINE
  5
2E6
330
1F
100
AcDbEntity
  8
0
  6
Continuous
 62
     7
370
    15
100
AcDbLine
 10
935.4517470628671
 20
45.0966367706327
 30
0.0
 11
935.4517470628671
 21
33.76481288566151
 31
0.0
  0
LINE
  5
2E7
330
1F
100
AcDbEntity
  8
0
  6
Continuous
 62
     7
370
    15
100
AcDbLine
 10
935.4517470628671
 20
33.76481288566151
 30
0.0
 11
945.9859121699416
 21
33.76481288566151
 31
0.0
  0
LINE
  5
2E8
330
1F
100
AcDbEntity
  8
0
  6
Continuous
 62
     7
370
    15
100
AcDbLine
 10
-4.014087830058883
 20
45.0966367706327
 30
0.0
 11
-14.54825293713327
 21
45.0966367706327
 31
0.0
  0
LINE
  5
2E9
330
1F
100
AcDbEntity
  8
0
  6
Continuous
 62
     7
370
    15
100
AcDbLine
 10
-14.54825293713327
 20
45.0966367706327
 30
0.0
 11
-14.54825293713327
 21
33.76481288566151
 31
0.0
  0
LINE
  5
2EA
330
1F
100
AcDbEntity
  8
0
  6
Continuous
 62
     7
370
    15
100
AcDbLine
 10
-14.54825293713327
 20
33.76481288566151
 30
0.0
 11
-4.014087830058883
 21
33.76481288566151
 31
0.0
  0
LINE
  5
2EB
330
1F
100
AcDbEntity
  8
0
  6
Continuous
 62
     7
370
    15
100
AcDbLine
 10
-4.014087830058883
 20
33.76481288566151
 30
0.0
 11
-4.014087830058883
 21
45.0966367706327
 31
0.0
  0
LINE
  5
2EC
330
1F
100
AcDbEntity
  8
0
  6
Continuous
 62
     7
370
    15
100
AcDbLine
 10
740.2021991115644
 20
-107.3832804149865
 30
0.0
 11
730.2021991115643
 21
-107.3832804149865
 31
0.0
  0
LINE
  5
2ED
330
1F
100
AcDbEntity
  8
0
  6
Continuous
 62
     7
370
    15
100
AcDbLine
 10
740.2021991115644
 20
-107.3832804149865
 30
0.0
 11
740.2021991115644
 21
-133.8484629798019
 31
0.0
  0
LINE
  5
2EE
330
1F
100
AcDbEntity
  8
0
  6
Continuous
 62
     7
370
    15
100
AcDbLine
 10
730.2021991115643
 20
-107.3832804149865
 30
0.0
 11
730.2021991115643
 21
-133.8484629798019
 31
0.0
  0
LINE
  5
2EF
330
1F
100
AcDbEntity
  8
0
  6
Continuous
 62
     7
370
    15
100
AcDbLine
 10
740.2021991115644
 20
61.60740984082486
 30
0.0
 11
730.2021991115643
 21
61.60740984082486
 31
0.0
  0
LINE
  5
2F0
330
1F
100
AcDbEntity
  8
0
  6
Continuous
 62
     7
370
    15
100
AcDbLine
 10
730.2021991115643
 20
88.07259240564041
 30
0.0
 11
730.2021991115643
 21
61.60740984082486
 31
0.0
  0
LINE
  5
2F1
330
1F
100
AcDbEntity
  8
0
  6
Continuous
 62
     7
370
    15
100
AcDbLine
 10
740.2021991115644
 20
88.07259240564041
 30
0.0
 11
740.2021991115644
 21
61.60740984082486
 31
0.0
  0
LINE
  5
2F2
330
1F
100
AcDbEntity
  8
0
  6
Continuous
 62
     7
370
    15
100
AcDbLine
 10
730.2021991115643
 20
-105.6136384955842
 30
0.0
 11
740.2021991115644
 21
-105.6136384955842
 31
0.0
  0
LINE
  5
2F3
330
1F
100
AcDbEntity
  8
0
  6
Continuous
 62
     7
370
    15
100
AcDbLine
 10
740.2021991115644
 20
-105.6136384955842
 30
0.0
 11
740.2021991115644
 21
-107.3832804149865
 31
0.0
  0
LINE
  5
2F4
330
1F
100
AcDbEntity
  8
0
  6
Continuous
 62
     7
370
    15
100
AcDbLine
 10
730.2021991115643
 20
-105.6136384955842
 30
0.0
 11
730.2021991115643
 21
-107.3832804149865
 31
0.0
  0
LINE
  5
2F5
330
1F
100
AcDbEntity
  8
0
  6
Continuous
 62
     7
370
    15
100
AcDbLine
 10
740.2021991115644
 20
59.83776792142271
 30
0.0
 11
730.2021991115643
 21
59.83776792142271
 31
0.0
  0
LINE
  5
2F6
330
1F
100
AcDbEntity
  8
0
  6
Continuous
 62
     7
370
    15
100
AcDbLine
 10
730.2021991115643
 20
61.60740984082486
 30
0.0
 11
730.2021991115643
 21
59.83776792142271
 31
0.0
  0
LINE
  5
2F7
330
1F
100
AcDbEntity
  8
0
  6
Continuous
 62
     7
370
    15
100
AcDbLine
 10
740.2021991115644
 20
61.60740984082486
 30
0.0
 11
740.2021991115644
 21
59.83776792142271
 31
0.0
  0
LINE
  5
2F8
330
1F
100
AcDbEntity
  8
0
  6
Continuous
 62
     7
370
    15
100
AcDbLine
 10
-544.7978008884354
 20
-127.8879352870808
 30
0.0
 11
-419.7978008884353
 21
-127.8879352870808
 31
0.0
  0
LINE
  5
2F9
330
1F
100
AcDbEntity
  8
0
  6
Continuous
 62
     7
370
    15
100
AcDbLine
 10
-409.7978008884354
 20
-127.8879352870808
 30
0.0
 11
-69.79780088843551
 21
-127.8879352870808
 31
0.0
  0
LINE
  5
2FA
330
1F
100
AcDbEntity
  8
0
  6
Continuous
 62
     7
370
    15
100
AcDbLine
 10
-59.7978008884354
 20
-127.8879352870808
 30
0.0
 11
360.2021991115646
 21
-127.8879352870808
 31
0.0
  0
LINE
  5
2FB
330
1F
100
AcDbEntity
  8
0
  6
Continuous
 62
     7
370
    15
100
AcDbLine
 10
370.2021991115648
 20
-127.8879352870808
 30
0.0
 11
730.2021991115643
 21
-127.8879352870808
 31
0.0
  0
ARC
  5
2FC
330
1F
100
AcDbEntity
  8
0
  6
Continuous
 62
     7
370
    15
100
AcDbCircle
 10
-544.7978008884354
 20
-107.8879352870808
 30
0.0
 40
20.00000000000002
100
AcDbArc
 50
180.0
 51
270.0000000000013
  0
LINE
  5
2FD
330
1F
100
AcDbEntity
  8
0
  6
Continuous
 62
     7
370
    15
100
AcDbLine
 10
-564.7978008884353
 20
62.11206471291916
 30
0.0
 11
-564.7978008884353
 21
-107.8879352870808
 31
0.0
  0
ARC
  5
2FE
330
1F
100
AcDbEntity
  8
0
  6
Continuous
 62
     7
370
    15
100
AcDbCircle
 10
-544.7978008884354
 20
62.11206471291916
 30
0.0
 40
20.00000000000002
100
AcDbArc
 50
90.0
 51
180.0
  0
LINE
  5
2FF
330
1F
100
AcDbEntity
  8
0
  6
Continuous
 62
     7
370
    15
100
AcDbLine
 10
730.2021991115643
 20
82.11206471291916
 30
0.0
 11
370.2021991115648
 21
82.11206471291916
 31
0.0
  0
LINE
  5
300
330
1F
100
AcDbEntity
  8
0
  6
Continuous
 62
     7
370
    15
100
AcDbLine
 10
360.2021991115646
 20
82.11206471291916
 30
0.0
 11
-59.7978008884354
 21
82.11206471291916
 31
0.0
  0
LINE
  5
301
330
1F
100
AcDbEntity
  8
0
  6
Continuous
 62
     7
370
    15
100
AcDbLine
 10
-69.79780088843551
 20
82.11206471291916
 30
0.0
 11
-409.7978008884354
 21
82.11206471291916
 31
0.0
  0
LINE
  5
302
330
1F
100
AcDbEntity
  8
0
  6
Continuous
 62
     7
370
    15
100
AcDbLine
 10
-419.7978008884353
 20
82.11206471291916
 30
0.0
 11
-544.7978008884354
 21
82.11206471291916
 31
0.0
  0
LINE
  5
303
330
1F
100
AcDbEntity
  8
0
  6
Continuous
 62
     7
370
    15
100
AcDbLine
 10
1015.202199111564
 20
82.11206471291916
 30
0.0
 11
740.2021991115644
 21
82.11206471291916
 31
0.0
  0
ARC
  5
304
330
1F
100
AcDbEntity
  8
0
  6
Continuous
 62
     7
370
    15
100
AcDbCircle
 10
1015.202199111564
 20
62.11206471291916
 30
0.0
 40
20.0
100
AcDbArc
 50
0.0
 51
90.0
  0
LINE
  5
305
330
1F
100
AcDbEntity
  8
0
  6
Continuous
 62
     7
370
    15
100
AcDbLine
 10
1035.202199111564
 20
-107.8879352870808
 30
0.0
 11
1035.202199111564
 21
62.11206471291916
 31
0.0
  0
ARC
  5
306
330
1F
100
AcDbEntity
  8
0
  6
Continuous
 62
     7
370
    15
100
AcDbCircle
 10
1015.202199111564
 20
-107.8879352870808
 30
0.0
 40
20.0
100
AcDbArc
 50
270.0000000000013
 51
0.0
  0
LINE
  5
307
330
1F
100
AcDbEntity
  8
0
  6
Continuous
 62
     7
370
    15
100
AcDbLine
 10
740.2021991115644
 20
-127.8879352870808
 30
0.0
 11
1015.202199111564
 21
-127.8879352870808
 31
0.0
  0
LINE
  5
308
330
1F
100
AcDbEntity
  8
0
  6
Continuous
 62
     7
370
    15
100
AcDbLine
 10
-539.7978008884353
 20
-102.8879352870808
 30
0.0
 11
1010.202199111565
 21
-102.8879352870808
 31
0.0
  0
LINE
  5
309
330
1F
100
AcDbEntity
  8
0
  6
Continuous
 62
     7
370
    15
100
AcDbLine
 10
1010.202199111565
 20
-102.8879352870808
 30
0.0
 11
1010.202199111565
 21
57.11206471291916
 31
0.0
  0
LINE
  5
30A
330
1F
100
AcDbEntity
  8
0
  6
Continuous
 62
     7
370
    15
100
AcDbLine
 10
1010.202199111565
 20
57.11206471291916
 30
0.0
 11
-539.7978008884353
 21
57.11206471291916
 31
0.0
  0
LINE
  5
30B
330
1F
100
AcDbEntity
  8
0
  6
Continuous
 62
     7
370
    15
100
AcDbLine
 10
-539.7978008884353
 20
57.11206471291916
 30
0.0
 11
-539.7978008884353
 21
-102.8879352870808
 31
0.0
  0
LINE
  5
30C
330
1F
100
AcDbEntity
  8
0
  6
Continuous
 62
     7
370
    15
100
AcDbLine
 10
740.2021991115644
 20
-101.3697856471356
 30
0.0
 11
730.2021991115643
 21
-101.3697856471356
 31
0.0
  0
LINE
  5
30D
330
1F
100
AcDbEntity
  8
0
  6
Continuous
 62
     7
370
    15
100
AcDbLine
 10
740.2021991115644
 20
-101.3697856471356
 30
0.0
 11
740.2021991115644
 21
-102.8879352870808
 31
0.0
  0
LINE
  5
30E
330
1F
100
AcDbEntity
  8
0
  6
Continuous
 62
     7
370
    15
100
AcDbLine
 10
730.2021991115643
 20
-101.3697856471356
 30
0.0
 11
730.2021991115643
 21
-102.8879352870808
 31
0.0
  0
LINE
  5
30F
330
1F
100
AcDbEntity
  8
0
  6
Continuous
 62
     7
370
    15
100
AcDbLine
 10
740.2021991115644
 20
57.11206471291916
 30
0.0
 11
740.2021991115644
 21
55.59391507297402
 31
0.0
  0
LINE
  5
310
330
1F
100
AcDbEntity
  8
0
  6
Continuous
 62
     7
370
    15
100
AcDbLine
 10
740.2021991115644
 20
55.59391507297402
 30
0.0
 11
730.2021991115643
 21
55.59391507297402
 31
0.0
  0
LINE
  5
311
330
1F
100
AcDbEntity
  8
0
  6
Continuous
 62
     7
370
    15
100
AcDbLine
 10
730.2021991115643
 20
57.11206471291916
 30
0.0
 11
730.2021991115643
 21
55.59391507297402
 31
0.0
  0
LINE
  5
312
330
1F
100
AcDbEntity
  8
0
  6
Continuous
 62
     7
370
    15
100
AcDbLine
 10
370.2021991115648
 20
61.60740984082486
 30
0.0
 11
360.2021991115646
 21
61.60740984082486
 31
0.0
  0
LINE
  5
313
330
1F
100
AcDbEntity
  8
0
  6
Continuous
 62
     7
370
    15
100
AcDbLine
 10
370.2021991115648
 20
88.07259240564041
 30
0.0
 11
370.2021991115648
 21
61.60740984082486
 31
0.0
  0
LINE
  5
314
330
1F
100
AcDbEntity
  8
0
  6
Continuous
 62
     7
370
    15
100
AcDbLine
 10
360.2021991115646
 20
88.07259240564041
 30
0.0
 11
360.2021991115646
 21
61.60740984082486
 31
0.0
  0
LINE
  5
315
330
1F
100
AcDbEntity
  8
0
  6
Continuous
 62
     7
370
    15
100
AcDbLine
 10
370.2021991115648
 20
55.59391507297391
 30
0.0
 11
360.2021991115646
 21
55.59391507297391
 31
0.0
  0
LINE
  5
316
330
1F
100
AcDbEntity
  8
0
  6
Continuous
 62
     7
370
    15
100
AcDbLine
 10
370.2021991115648
 20
61.60740984082486
 30
0.0
 11
370.2021991115648
 21
59.83776792142271
 31
0.0
  0
LINE
  5
317
330
1F
100
AcDbEntity
  8
0
  6
Continuous
 62
     7
370
    15
100
AcDbLine
 10
370.2021991115648
 20
57.11206471291916
 30
0.0
 11
370.2021991115648
 21
55.59391507297391
 31
0.0
  0
LINE
  5
318
330
1F
100
AcDbEntity
  8
0
  6
Continuous
 62
     7
370
    15
100
AcDbLine
 10
360.2021991115646
 20
61.60740984082486
 30
0.0
 11
360.2021991115646
 21
59.83776792142271
 31
0.0
  0
LINE
  5
319
330
1F
100
AcDbEntity
  8
0
  6
Continuous
 62
     7
370
    15
100
AcDbLine
 10
360.2021991115646
 20
57.11206471291916
 30
0.0
 11
360.2021991115646
 21
55.59391507297391
 31
0.0
  0
LINE
  5
31A
330
1F
100
AcDbEntity
  8
0
  6
Continuous
 62
     7
370
    15
100
AcDbLine
 10
370.2021991115648
 20
-107.3832804149865
 30
0.0
 11
360.2021991115646
 21
-107.3832804149865
 31
0.0
  0
LINE
  5
31B
330
1F
100
AcDbEntity
  8
0
  6
Continuous
 62
     7
370
    15
100
AcDbLine
 10
370.2021991115648
 20
-107.3832804149865
 30
0.0
 11
370.2021991115648
 21
-133.8484629798019
 31
0.0
  0
LINE
  5
31C
330
1F
100
AcDbEntity
  8
0
  6
Continuous
 62
     7
370
    15
100
AcDbLine
 10
360.2021991115646
 20
-107.3832804149865
 30
0.0
 11
360.2021991115646
 21
-133.8484629798019
 31
0.0
  0
LINE
  5
31D
330
1F
100
AcDbEntity
  8
0
  6
Continuous
 62
     7
370
    15
100
AcDbLine
 10
370.2021991115648
 20
-101.3697856471356
 30
0.0
 11
360.2021991115646
 21
-101.3697856471356
 31
0.0
  0
LINE
  5
31E
330
1F
100
AcDbEntity
  8
0
  6
Continuous
 62
     7
370
    15
100
AcDbLine
 10
360.2021991115646
 20
-101.3697856471356
 30
0.0
 11
360.2021991115646
 21
-102.8879352870808
 31
0.0
  0
LINE
  5
31F
330
1F
100
AcDbEntity
  8
0
  6
Continuous
 62
     7
370
    15
100
AcDbLine
 10
360.2021991115646
 20
-105.6136384955842
 30
0.0
 11
360.2021991115646
 21
-107.3832804149865
 31
0.0
  0
LINE
  5
320
330
1F
100
AcDbEntity
  8
0
  6
Continuous
 62
     7
370
    15
100
AcDbLine
 10
370.2021991115648
 20
-101.3697856471356
 30
0.0
 11
370.2021991115648
 21
-102.8879352870808
 31
0.0
  0
LINE
  5
321
330
1F
100
AcDbEntity
  8
0
  6
Continuous
 62
     7
370
    15
100
AcDbLine
 10
370.2021991115648
 20
-105.6136384955842
 30
0.0
 11
370.2021991115648
 21
-107.3832804149865
 31
0.0
  0
LINE
  5
322
330
1F
100
AcDbEntity
  8
0
  6
Continuous
 62
     7
370
    15
100
AcDbLine
 10
-59.7978008884354
 20
61.60740984082486
 30
0.0
 11
-69.79780088843551
 21
61.60740984082486
 31
0.0
  0
LINE
  5
323
330
1F
100
AcDbEntity
  8
0
  6
Continuous
 62
     7
370
    15
100
AcDbLine
 10
-59.7978008884354
 20
88.07259240564041
 30
0.0
 11
-59.7978008884354
 21
61.60740984082486
 31
0.0
  0
LINE
  5
324
330
1F
100
AcDbEntity
  8
0
  6
Continuous
 62
     7
370
    15
100
AcDbLine
 10
-69.79780088843551
 20
88.07259240564041
 30
0.0
 11
-69.79780088843551
 21
61.60740984082486
 31
0.0
  0
LINE
  5
325
330
1F
100
AcDbEntity
  8
0
  6
Continuous
 62
     7
370
    15
100
AcDbLine
 10
-59.7978008884354
 20
55.59391507297402
 30
0.0
 11
-69.79780088843551
 21
55.59391507297402
 31
0.0
  0
LINE
  5
326
330
1F
100
AcDbEntity
  8
0
  6
Continuous
 62
     7
370
    15
100
AcDbLine
 10
-59.7978008884354
 20
61.60740984082486
 30
0.0
 11
-59.7978008884354
 21
59.83776792142271
 31
0.0
  0
LINE
  5
327
330
1F
100
AcDbEntity
  8
0
  6
Continuous
 62
     7
370
    15
100
AcDbLine
 10
-59.7978008884354
 20
57.11206471291916
 30
0.0
 11
-59.7978008884354
 21
55.59391507297402
 31
0.0
  0
LINE
  5
328
330
1F
100
AcDbEntity
  8
0
  6
Continuous
 62
     7
370
    15
100
AcDbLine
 10
-69.79780088843551
 20
61.60740984082486
 30
0.0
 11
-69.79780088843551
 21
59.83776792142271
 31
0.0
  0
LINE
  5
329
330
1F
100
AcDbEntity
  8
0
  6
Continuous
 62
     7
370
    15
100
AcDbLine
 10
-69.79780088843551
 20
57.11206471291916
 30
0.0
 11
-69.79780088843551
 21
55.59391507297402
 31
0.0
  0
LINE
  5
32A
330
1F
100
AcDbEntity
  8
0
  6
Continuous
 62
     7
370
    15
100
AcDbLine
 10
-59.7978008884354
 20
-107.3832804149865
 30
0.0
 11
-69.79780088843551
 21
-107.3832804149865
 31
0.0
  0
LINE
  5
32B
330
1F
100
AcDbEntity
  8
0
  6
Continuous
 62
     7
370
    15
100
AcDbLine
 10
-59.7978008884354
 20
-107.3832804149865
 30
0.0
 11
-59.7978008884354
 21
-133.8484629798019
 31
0.0
  0
LINE
  5
32C
330
1F
100
AcDbEntity
  8
0
  6
Continuous
 62
     7
370
    15
100
AcDbLine
 10
-69.79780088843551
 20
-107.3832804149865
 30
0.0
 11
-69.79780088843551
 21
-133.8484629798019
 31
0.0
  0
LINE
  5
32D
330
1F
100
AcDbEntity
  8
0
  6
Continuous
 62
     7
370
    15
100
AcDbLine
 10
-59.7978008884354
 20
-101.3697856471356
 30
0.0
 11
-69.79780088843551
 21
-101.3697856471356
 31
0.0
  0
LINE
  5
32E
330
1F
100
AcDbEntity
  8
0
  6
Continuous
 62
     7
370
    15
100
AcDbLine
 10
-69.79780088843551
 20
-101.3697856471356
 30
0.0
 11
-69.79780088843551
 21
-102.8879352870808
 31
0.0
  0
LINE
  5
32F
330
1F
100
AcDbEntity
  8
0
  6
Continuous
 62
     7
370
    15
100
AcDbLine
 10
-69.79780088843551
 20
-105.6136384955842
 30
0.0
 11
-69.79780088843551
 21
-107.3832804149865
 31
0.0
  0
LINE
  5
330
330
1F
100
AcDbEntity
  8
0
  6
Continuous
 62
     7
370
    15
100
AcDbLine
 10
-59.7978008884354
 20
-101.3697856471356
 30
0.0
 11
-59.7978008884354
 21
-102.8879352870808
 31
0.0
  0
LINE
  5
331
330
1F
100
AcDbEntity
  8
0
  6
Continuous
 62
     7
370
    15
100
AcDbLine
 10
-59.7978008884354
 20
-105.6136384955842
 30
0.0
 11
-59.7978008884354
 21
-107.3832804149865
 31
0.0
  0
LINE
  5
332
330
1F
100
AcDbEntity
  8
0
  6
Continuous
 62
     7
370
    15
100
AcDbLine
 10
-409.7978008884354
 20
61.60740984082486
 30
0.0
 11
-419.7978008884353
 21
61.60740984082486
 31
0.0
  0
LINE
  5
333
330
1F
100
AcDbEntity
  8
0
  6
Continuous
 62
     7
370
    15
100
AcDbLine
 10
-409.7978008884354
 20
88.07259240564041
 30
0.0
 11
-409.7978008884354
 21
61.60740984082486
 31
0.0
  0
LINE
  5
334
330
1F
100
AcDbEntity
  8
0
  6
Continuous
 62
     7
370
    15
100
AcDbLine
 10
-419.7978008884353
 20
88.07259240564041
 30
0.0
 11
-419.7978008884353
 21
61.60740984082486
 31
0.0
  0
LINE
  5
335
330
1F
100
AcDbEntity
  8
0
  6
Continuous
 62
     7
370
    15
100
AcDbLine
 10
-409.7978008884354
 20
55.59391507297402
 30
0.0
 11
-419.7978008884353
 21
55.59391507297402
 31
0.0
  0
LINE
  5
336
330
1F
100
AcDbEntity
  8
0
  6
Continuous
 62
     7
370
    15
100
AcDbLine
 10
-409.7978008884354
 20
61.60740984082486
 30
0.0
 11
-409.7978008884354
 21
59.83776792142271
 31
0.0
  0
LINE
  5
337
330
1F
100
AcDbEntity
  8
0
  6
Continuous
 62
     7
370
    15
100
AcDbLine
 10
-409.7978008884354
 20
57.11206471291916
 30
0.0
 11
-409.7978008884354
 21
55.59391507297402
 31
0.0
  0
LINE
  5
338
330
1F
100
AcDbEntity
  8
0
  6
Continuous
 62
     7
370
    15
100
AcDbLine
 10
-419.7978008884353
 20
61.60740984082486
 30
0.0
 11
-419.7978008884353
 21
59.83776792142271
 31
0.0
  0
LINE
  5
339
330
1F
100
AcDbEntity
  8
0
  6
Continuous
 62
     7
370
    15
100
AcDbLine
 10
-419.7978008884353
 20
57.11206471291916
 30
0.0
 11
-419.7978008884353
 21
55.59391507297402
 31
0.0
  0
LINE
  5
33A
330
1F
100
AcDbEntity
  8
0
  6
Continuous
 62
     7
370
    15
100
AcDbLine
 10
-409.7978008884354
 20
-107.3832804149865
 30
0.0
 11
-419.7978008884353
 21
-107.3832804149865
 31
0.0
  0
LINE
  5
33B
330
1F
100
AcDbEntity
  8
0
  6
Continuous
 62
     7
370
    15
100
AcDbLine
 10
-409.7978008884354
 20
-107.3832804149865
 30
0.0
 11
-409.7978008884354
 21
-133.8484629798019
 31
0.0
  0
LINE
  5
33C
330
1F
100
AcDbEntity
  8
0
  6
Continuous
 62
     7
370
    15
100
AcDbLine
 10
-419.7978008884353
 20
-107.3832804149865
 30
0.0
 11
-419.7978008884353
 21
-133.8484629798019
 31
0.0
  0
LINE
  5
33D
330
1F
100
AcDbEntity
  8
0
  6
Continuous
 62
     7
370
    15
100
AcDbLine
 10
-409.7978008884354
 20
-101.3697856471356
 30
0.0
 11
-419.7978008884353
 21
-101.3697856471356
 31
0.0
  0
LINE
  5
33E
330
1F
100
AcDbEntity
  8
0
  6
Continuous
 62
     7
370
    15
100
AcDbLine
 10
-409.7978008884354
 20
-101.3697856471356
 30
0.0
 11
-409.7978008884354
 21
-102.8879352870808
 31
0.0
  0
LINE
  5
33F
330
1F
100
AcDbEntity
  8
0
  6
Continuous
 62
     7
370
    15
100
AcDbLine
 10
-409.7978008884354
 20
-105.6136384955842
 30
0.0
 11
-409.7978008884354
 21
-107.3832804149865
 31
0.0
  0
LINE
  5
340
330
1F
100
AcDbEntity
  8
0
  6
Continuous
 62
     7
370
    15
100
AcDbLine
 10
-419.7978008884353
 20
-101.3697856471356
 30
0.0
 11
-419.7978008884353
 21
-102.8879352870808
 31
0.0
  0
LINE
  5
341
330
1F
100
AcDbEntity
  8
0
  6
Continuous
 62
     7
370
    15
100
AcDbLine
 10
-419.7978008884353
 20
-105.6136384955842
 30
0.0
 11
-419.7978008884353
 21
-107.3832804149865
 31
0.0
  0
ARC
  5
342
330
1F
100
AcDbEntity
  8
0
  6
Continuous
 62
     7
370
    15
100
AcDbCircle
 10
1375.940644418997
 20
304.2747189993872
 30
0.0
 40
20.0
100
AcDbArc
 50
14.99999999999982
 51
90.0
  0
LINE
  5
343
330
1F
100
AcDbEntity
  8
0
  6
Continuous
 62
     7
370
    15
100
AcDbLine
 10
1395.259160944778
 20
309.4510999014376
 30
0.0
 11
1410.043627648755
 21
254.2747189993872
 31
0.0
  0
ARC
  5
344
330
1F
100
AcDbEntity
  8
0
  6
Continuous
 62
     7
370
    15
100
AcDbCircle
 10
1274.146610878513
 20
304.2747189993872
 30
0.0
 40
20.0
100
AcDbArc
 50
90.0
 51
165.0000000000001
  0
LINE
  5
345
330
1F
100
AcDbEntity
  8
0
  6
Continuous
 62
     7
370
    15
100
AcDbLine
 10
1274.146610878513
 20
324.2747189993872
 30
0.0
 11
1375.940644418997
 21
324.2747189993872
 31
0.0
  0
LINE
  5
346
330
1F
100
AcDbEntity
  8
0
  6
Continuous
 62
     7
370
    15
100
AcDbLine
 10
1254.828094352731
 20
309.4510999014376
 30
0.0
 11
1240.043627648755
 21
254.2747189993872
 31
0.0
  0
LINE
  5
347
330
1F
100
AcDbEntity
  8
0
  6
Continuous
 62
     7
370
    15
100
AcDbLine
 10
1220.043627648755
 20
234.2747189993874
 30
0.0
 11
1220.043627648755
 21
254.2747189993872
 31
0.0
  0
LINE
  5
348
330
1F
100
AcDbEntity
  8
0
  6
Continuous
 62
     7
370
    15
100
AcDbLine
 10
1240.043627648755
 20
254.2747189993872
 30
0.0
 11
1240.043627648755
 21
234.2747189993874
 31
0.0
  0
LINE
  5
349
330
1F
100
AcDbEntity
  8
0
  6
Continuous
 62
     7
370
    15
100
AcDbLine
 10
1240.043627648755
 20
234.2747189993874
 30
0.0
 11
1220.043627648755
 21
234.2747189993874
 31
0.0
  0
LINE
  5
34A
330
1F
100
AcDbEntity
  8
0
  6
Continuous
 62
     7
370
    15
100
AcDbLine
 10
1220.043627648755
 20
254.2747189993872
 30
0.0
 11
1240.043627648755
 21
254.2747189993872
 31
0.0
  0
LINE
  5
34B
330
1F
100
AcDbEntity
  8
0
  6
Continuous
 62
     7
370
    15
100
AcDbLine
 10
1410.043627648755
 20
234.2747189993874
 30
0.0
 11
1410.043627648755
 21
254.2747189993872
 31
0.0
  0
LINE
  5
34C
330
1F
100
AcDbEntity
  8
0
  6
Continuous
 62
     7
370
    15
100
AcDbLine
 10
1410.043627648755
 20
234.2747189993874
 30
0.0
 11
1240.043627648755
 21
234.2747189993874
 31
0.0
  0
LINE
  5
34D
330
1F
100
AcDbEntity
  8
0
  6
Continuous
 62
     7
370
    15
100
AcDbLine
 10
1410.043627648755
 20
254.2747189993872
 30
0.0
 11
1240.043627648755
 21
254.2747189993872
 31
0.0
  0
LINE
  5
34E
330
1F
100
AcDbEntity
  8
0
  6
Continuous
 62
     7
370
    15
100
AcDbLine
 10
1430.043627648755
 20
254.2747189993872
 30
0.0
 11
1430.043627648755
 21
234.2747189993874
 31
0.0
  0
LINE
  5
34F
330
1F
100
AcDbEntity
  8
0
  6
Continuous
 62
     7
370
    15
100
AcDbLine
 10
1430.043627648755
 20
234.2747189993874
 30
0.0
 11
1410.043627648755
 21
234.2747189993874
 31
0.0
  0
LINE
  5
350
330
1F
100
AcDbEntity
  8
0
  6
Continuous
 62
     7
370
    15
100
AcDbLine
 10
1410.043627648755
 20
254.2747189993872
 30
0.0
 11
1430.043627648755
 21
254.2747189993872
 31
0.0
  0
LINE
  5
351
330
1F
100
AcDbEntity
  8
0
  6
Continuous
 62
     7
370
    15
100
AcDbLine
 10
1399.036955397445
 20
295.3521790635341
 30
0.0
 11
1400.422765102248
 21
295.6990577670881
 31
0.0
  0
LINE
  5
352
330
1F
100
AcDbEntity
  8
0
  6
Continuous
 62
     7
370
    15
100
AcDbLine
 10
1400.422765102248
 20
295.6990577670881
 30
0.0
 11
1410.434011712021
 21
255.7032823941673
 31
0.0
  0
ARC
  5
353
330
1F
100
AcDbEntity
  8
0
  6
Continuous
 62
     7
370
    15
100
AcDbCircle
 10
1420.478166160108
 20
243.8638862320768
 30
0.0
 40
15.52598918136805
100
AcDbArc
 50
225.2049391537965
 51
130.310178118992
  0
LINE
  5
354
330
1F
100
AcDbEntity
  8
0
  6
Continuous
 62
     7
370
    15
100
AcDbLine
 10
1409.53897277666
 20
232.8461556046069
 30
0.0
 11
1407.769330857259
 21
234.2747189993874
 31
0.0
  0
LINE
  5
355
330
1F
100
AcDbEntity
  8
0
  6
Continuous
 62
     7
370
    15
100
AcDbLine
 10
1239.653243585488
 20
255.7032823941673
 30
0.0
 11
1249.664490195262
 21
295.6990577670881
 31
0.0
  0
LINE
  5
356
330
1F
100
AcDbEntity
  8
0
  6
Continuous
 62
     7
370
    15
100
AcDbLine
 10
1249.664490195262
 20
295.6990577670881
 30
0.0
 11
1251.050299900065
 21
295.3521790635341
 31
0.0
  0
LINE
  5
357
330
1F
100
AcDbEntity
  8
0
  6
Continuous
 62
     7
370
    15
100
AcDbLine
 10
1242.317924440252
 20
234.2747189993872
 30
0.0
 11
1240.54828252085
 21
232.8461556046069
 31
0.0
  0
ARC
  5
358
330
1F
100
AcDbEntity
  8
0
  6
Continuous
 62
     7
370
    15
100
AcDbCircle
 10
1229.609089137402
 20
243.8638862320768
 30
0.0
 40
15.52598918136805
100
AcDbArc
 50
49.68982188100985
 51
314.7950608462054
  0
ENDSEC
  0
SECTION
  2
OBJECTS
  0
DICTIONARY
  5
C
330
0
100
AcDbDictionary
281
     1
  3
ACAD_COLOR
350
384
  3
ACAD_GROUP
350
D
  3
ACAD_LAYOUT
350
1A
  3
ACAD_MATERIAL
350
35A
  3
ACAD_MLEADERSTYLE
350
399
  3
ACAD_MLINESTYLE
350
17
  3
ACAD_PLOTSETTINGS
350
19
  3
ACAD_PLOTSTYLENAME
350
E
  3
ACAD_SCALELIST
350
387
  3
ACAD_TABLESTYLE
350
385
  3
ACAD_VISUALSTYLE
350
373
  3
ACDB_RECOMPOSE_DATA
350
3AA
  3
AcDbVariableDictionary
350
3A0
  0
DICTIONARY
  5
39E
330
10
100
AcDbDictionary
280
     1
281
     1
  3
ADSK_XREC_LAYER_RECONCILED
360
39F
  0
DICTIONARY
  5
384
102
{ACAD_REACTORS
330
C
102
}
330
C
100
AcDbDictionary
281
     1
  0
DICTIONARY
  5
D
102
{ACAD_REACTORS
330
C
102
}
330
C
100
AcDbDictionary
281
     1
  0
DICTIONARY
  5
1A
102
{ACAD_REACTORS
330
C
102
}
330
C
100
AcDbDictionary
281
     1
  3
Layout1
350
1E
  3
Layout2
350
26
  3
Model
350
22
  0
DICTIONARY
  5
35A
102
{ACAD_REACTORS
330
C
102
}
330
C
100
AcDbDictionary
281
     1
  3
ByBlock
350
363
  3
ByLayer
350
35B
  3
Global
350
36B
  0
DICTIONARY
  5
399
102
{ACAD_REACTORS
330
C
102
}
330
C
100
AcDbDictionary
281
     1
  3
Standard
350
39A
  0
DICTIONARY
  5
17
102
{ACAD_REACTORS
330
C
102
}
330
C
100
AcDbDictionary
281
     1
  3
Standard
350
18
  0
DICTIONARY
  5
19
102
{ACAD_REACTORS
330
C
102
}
330
C
100
AcDbDictionary
281
     1
  0
ACDBDICTIONARYWDFLT
  5
E
102
{ACAD_REACTORS
330
C
102
}
330
C
100
AcDbDictionary
281
     1
  3
Normal
350
F
100
AcDbDictionaryWithDefault
340
F
  0
DICTIONARY
  5
387
102
{ACAD_REACTORS
330
C
102
}
330
C
100
AcDbDictionary
281
     1
  3
A0
350
388
  3
A1
350
389
  3
A2
350
38A
  3
A3
350
38B
  3
A4
350
38C
  3
A5
350
38D
  3
A6
350
38E
  3
A7
350
38F
  3
A8
350
390
  3
A9
350
391
  3
B0
350
392
  3
B1
350
393
  3
B2
350
394
  3
B3
350
395
  3
B4
350
396
  3
B5
350
397
  3
B6
350
398
  0
DICTIONARY
  5
385
102
{ACAD_REACTORS
330
C
102
}
330
C
100
AcDbDictionary
281
     1
  3
Standard
350
386
  0
DICTIONARY
  5
373
102
{ACAD_REACTORS
330
C
102
}
330
C
100
AcDbDictionary
281
     1
  3
2dWireframe
350
379
  3
3D Hidden
350
37B
  3
3dWireframe
350
37A
  3
Basic
350
378
  3
Brighten
350
37F
  3
ColorChange
350
383
  3
Conceptual
350
37C
  3
Dim
350
37E
  3
Facepattern
350
382
  3
Flat
350
374
  3
FlatWithEdges
350
375
  3
Gouraud
350
376
  3
GouraudWithEdges
350
377
  3
Linepattern
350
381
  3
Realistic
350
37D
  3
Thicken
350
380
  0
XRECORD
  5
3AA
102
{ACAD_REACTORS
330
C
102
}
330
C
100
AcDbXrecord
280
     1
 90
        1
330
386
  0
DICTIONARY
  5
3A0
102
{ACAD_REACTORS
330
C
102
}
330
C
100
AcDbDictionary
281
     1
  3
CANNOSCALE
350
3A4
  3
CMLEADERSTYLE
350
3A2
  3
CTABLESTYLE
350
3A1
  3
LAYEREVAL
350
3A6
  3
LAYERNOTIFY
350
3A7
  3
LIGHTINGUNITS
350
3A5
  3
MSLTSCALE
350
3A3
  0
XRECORD
  5
39F
102
{ACAD_REACTORS
330
39E
102
}
330
39E
100
AcDbXrecord
280
     1
290
     1
  0
LAYOUT
  5
1E
102
{ACAD_REACTORS
330
1A
102
}
330
1A
100
AcDbPlotSettings
  1

  2
none_device
  4

  6

 40
0.0
 41
0.0
 42
0.0
 43
0.0
 44
0.0
 45
0.0
 46
0.0
 47
0.0
 48
0.0
 49
0.0
140
0.0
141
0.0
142
1.0
143
1.0
 70
   688
 72
     0
 73
     0
 74
     5
  7

 75
    16
147
1.0
 76
     0
 77
     2
 78
   300
148
0.0
149
0.0
100
AcDbLayout
  1
Layout1
 70
     1
 71
     1
 10
0.0
 20
0.0
 11
420.0
 21
297.0
 12
0.0
 22
0.0
 32
0.0
 14
1.000000000000000E+20
 24
1.000000000000000E+20
 34
1.000000000000000E+20
 15
-1.000000000000000E+20
 25
-1.000000000000000E+20
 35
-1.000000000000000E+20
146
0.0
 13
0.0
 23
0.0
 33
0.0
 16
1.0
 26
0.0
 36
0.0
 17
0.0
 27
1.0
 37
0.0
 76
     0
330
1B
  0
LAYOUT
  5
26
102
{ACAD_REACTORS
330
1A
102
}
330
1A
100
AcDbPlotSettings
  1

  2
none_device
  4

  6

 40
0.0
 41
0.0
 42
0.0
 43
0.0
 44
0.0
 45
0.0
 46
0.0
 47
0.0
 48
0.0
 49
0.0
140
0.0
141
0.0
142
1.0
143
1.0
 70
   688
 72
     0
 73
     0
 74
     5
  7

 75
    16
147
1.0
 76
     0
 77
     2
 78
   300
148
0.0
149
0.0
100
AcDbLayout
  1
Layout2
 70
     1
 71
     2
 10
0.0
 20
0.0
 11
0.0
 21
0.0
 12
0.0
 22
0.0
 32
0.0
 14
0.0
 24
0.0
 34
0.0
 15
0.0
 25
0.0
 35
0.0
146
0.0
 13
0.0
 23
0.0
 33
0.0
 16
1.0
 26
0.0
 36
0.0
 17
0.0
 27
1.0
 37
0.0
 76
     0
330
23
  0
LAYOUT
  5
22
102
{ACAD_REACTORS
330
1A
102
}
330
1A
100
AcDbPlotSettings
  1

  2
none_device
  4

  6

 40
0.0
 41
0.0
 42
0.0
 43
0.0
 44
0.0
 45
0.0
 46
0.0
 47
0.0
 48
0.0
 49
0.0
140
0.0
141
0.0
142
1.0
143
1.0
 70
  1712
 72
     0
 73
     0
 74
     0
  7

 75
     0
147
1.0
 76
     0
 77
     2
 78
   300
148
0.0
149
0.0
100
AcDbLayout
  1
Model
 70
     1
 71
     0
 10
0.0
 20
0.0
 11
279.4
 21
215.9
 12
0.0
 22
0.0
 32
0.0
 14
0.0
 24
0.0
 34
0.0
 15
279.4
 25
215.9
 35
0.0
146
0.0
 13
0.0
 23
0.0
 33
0.0
 16
1.0
 26
0.0
 36
0.0
 17
0.0
 27
1.0
 37
0.0
 76
     0
330
1F
331
29
  0
MATERIAL
  5
363
102
{ACAD_XDICTIONARY
360
364
102
}
102
{ACAD_REACTORS
330
35A
102
}
330
35A
100
AcDbMaterial
  1
ByBlock
 72
     0
 43
0.0008202099737533
 43
0.0
 43
0.0
 43
0.0
 43
0.0
 43
0.0008202099737533
 43
0.0
 43
0.0
 43
0.0
 43
0.0
 43
1.0
 43
0.0
 43
0.0
 43
0.0
 43
0.0
 43
1.0
 77
     0
 47
0.0008202099737533
 47
0.0
 47
0.0
 47
0.0
 47
0.0
 47
0.0008202099737533
 47
0.0
 47
0.0
 47
0.0
 47
0.0
 47
1.0
 47
0.0
 47
0.0
 47
0.0
 47
0.0
 47
1.0
171
     0
 49
0.0008202099737533
 49
0.0
 49
0.0
 49
0.0
 49
0.0
 49
0.0008202099737533
 49
0.0
 49
0.0
 49
0.0
 49
0.0
 49
1.0
 49
0.0
 49
0.0
 49
0.0
 49
0.0
 49
1.0
175
     0
142
0.0008202099737533
142
0.0
142
0.0
142
0.0
142
0.0
142
0.0008202099737533
142
0.0
142
0.0
142
0.0
142
0.0
142
1.0
142
0.0
142
0.0
142
0.0
142
0.0
142
1.0
179
     0
144
0.0008202099737533
144
0.0
144
0.0
144
0.0
144
0.0
144
0.0008202099737533
144
0.0
144
0.0
144
0.0
144
0.0
144
1.0
144
0.0
144
0.0
144
0.0
144
0.0
144
1.0
147
0.0008202099737533
147
0.0
147
0.0
147
0.0
147
0.0
147
0.0008202099737533
147
0.0
147
0.0
147
0.0
147
0.0
147
1.0
147
0.0
147
0.0
147
0.0
147
0.0
147
1.0
  0
MATERIAL
  5
35B
102
{ACAD_XDICTIONARY
360
35C
102
}
102
{ACAD_REACTORS
330
35A
102
}
330
35A
100
AcDbMaterial
  1
ByLayer
 72
     0
 43
0.0008202099737533
 43
0.0
 43
0.0
 43
0.0
 43
0.0
 43
0.0008202099737533
 43
0.0
 43
0.0
 43
0.0
 43
0.0
 43
1.0
 43
0.0
 43
0.0
 43
0.0
 43
0.0
 43
1.0
 77
     0
 47
0.0008202099737533
 47
0.0
 47
0.0
 47
0.0
 47
0.0
 47
0.0008202099737533
 47
0.0
 47
0.0
 47
0.0
 47
0.0
 47
1.0
 47
0.0
 47
0.0
 47
0.0
 47
0.0
 47
1.0
171
     0
 49
0.0008202099737533
 49
0.0
 49
0.0
 49
0.0
 49
0.0
 49
0.0008202099737533
 49
0.0
 49
0.0
 49
0.0
 49
0.0
 49
1.0
 49
0.0
 49
0.0
 49
0.0
 49
0.0
 49
1.0
175
     0
142
0.0008202099737533
142
0.0
142
0.0
142
0.0
142
0.0
142
0.0008202099737533
142
0.0
142
0.0
142
0.0
142
0.0
142
1.0
142
0.0
142
0.0
142
0.0
142
0.0
142
1.0
179
     0
144
0.0008202099737533
144
0.0
144
0.0
144
0.0
144
0.0
144
0.0008202099737533
144
0.0
144
0.0
144
0.0
144
0.0
144
1.0
144
0.0
144
0.0
144
0.0
144
0.0
144
1.0
147
0.0008202099737533
147
0.0
147
0.0
147
0.0
147
0.0
147
0.0008202099737533
147
0.0
147
0.0
147
0.0
147
0.0
147
1.0
147
0.0
147
0.0
147
0.0
147
0.0
147
1.0
  0
MATERIAL
  5
36B
102
{ACAD_XDICTIONARY
360
36C
102
}
102
{ACAD_REACTORS
330
35A
102
}
330
35A
100
AcDbMaterial
  1
Global
 72
     0
 43
0.0008202099737533
 43
0.0
 43
0.0
 43
0.0
 43
0.0
 43
0.0008202099737533
 43
0.0
 43
0.0
 43
0.0
 43
0.0
 43
1.0
 43
0.0
 43
0.0
 43
0.0
 43
0.0
 43
1.0
 77
     0
 47
0.0008202099737533
 47
0.0
 47
0.0
 47
0.0
 47
0.0
 47
0.0008202099737533
 47
0.0
 47
0.0
 47
0.0
 47
0.0
 47
1.0
 47
0.0
 47
0.0
 47
0.0
 47
0.0
 47
1.0
171
     0
 49
0.0008202099737533
 49
0.0
 49
0.0
 49
0.0
 49
0.0
 49
0.0008202099737533
 49
0.0
 49
0.0
 49
0.0
 49
0.0
 49
1.0
 49
0.0
 49
0.0
 49
0.0
 49
0.0
 49
1.0
175
     0
142
0.0008202099737533
142
0.0
142
0.0
142
0.0
142
0.0
142
0.0008202099737533
142
0.0
142
0.0
142
0.0
142
0.0
142
1.0
142
0.0
142
0.0
142
0.0
142
0.0
142
1.0
179
     0
144
0.0008202099737533
144
0.0
144
0.0
144
0.0
144
0.0
144
0.0008202099737533
144
0.0
144
0.0
144
0.0
144
0.0
144
1.0
144
0.0
144
0.0
144
0.0
144
0.0
144
1.0
147
0.0008202099737533
147
0.0
147
0.0
147
0.0
147
0.0
147
0.0008202099737533
147
0.0
147
0.0
147
0.0
147
0.0
147
1.0
147
0.0
147
0.0
147
0.0
147
0.0
147
1.0
  0
MLEADERSTYLE
  5
39A
102
{ACAD_REACTORS
330
399
102
}
330
399
100
AcDbMLeaderStyle
170
     2
171
     1
172
     0
 90
        2
 40
0.0
 41
0.0
173
     1
 91
-1056964608
340
14
 92
       -2
290
     1
 42
2.0
291
     1
 43
0.36
  3
Standard
 44
4.0
300

342
11
174
     1
178
     6
175
     1
176
     0
 93
-1056964608
 45
4.0
292
     0
297
     0
 46
4.0
 94
-1056964608
 47
1.0
 49
1.0
140
1.0
293
     1
141
0.0
294
     1
177
     0
142
1.0
295
     1
296
     0
143
0.125
1001
ACAD_MLEADERVER
1070
     2
  0
MLINESTYLE
  5
18
102
{ACAD_REACTORS
330
17
102
}
330
17
100
AcDbMlineStyle
  2
STANDARD
 70
     0
  3

 62
   256
 51
90.0
 52
90.0
 71
     2
 49
0.5
 62
   256
  6
BYLAYER
 49
-0.5
 62
   256
  6
BYLAYER
  0
ACDBPLACEHOLDER
  5
F
102
{ACAD_REACTORS
330
E
102
}
330
E
  0
SCALE
  5
388
102
{ACAD_REACTORS
330
387
102
}
330
387
100
AcDbScale
 70
     0
300
1:1
140
1.0
141
1.0
290
     1
  0
SCALE
  5
389
102
{ACAD_REACTORS
330
387
102
}
330
387
100
AcDbScale
 70
     0
300
1:2
140
1.0
141
2.0
290
     0
  0
SCALE
  5
38A
102
{ACAD_REACTORS
330
387
102
}
330
387
100
AcDbScale
 70
     0
300
1:4
140
1.0
141
4.0
290
     0
  0
SCALE
  5
38B
102
{ACAD_REACTORS
330
387
102
}
330
387
100
AcDbScale
 70
     0
300
1:5
140
1.0
141
5.0
290
     0
  0
SCALE
  5
38C
102
{ACAD_REACTORS
330
387
102
}
330
387
100
AcDbScale
 70
     0
300
1:8
140
1.0
141
8.0
290
     0
  0
SCALE
  5
38D
102
{ACAD_REACTORS
330
387
102
}
330
387
100
AcDbScale
 70
     0
300
1:10
140
1.0
141
10.0
290
     0
  0
SCALE
  5
38E
102
{ACAD_REACTORS
330
387
102
}
330
387
100
AcDbScale
 70
     0
300
1:16
140
1.0
141
16.0
290
     0
  0
SCALE
  5
38F
102
{ACAD_REACTORS
330
387
102
}
330
387
100
AcDbScale
 70
     0
300
1:20
140
1.0
141
20.0
290
     0
  0
SCALE
  5
390
102
{ACAD_REACTORS
330
387
102
}
330
387
100
AcDbScale
 70
     0
300
1:30
140
1.0
141
30.0
290
     0
  0
SCALE
  5
391
102
{ACAD_REACTORS
330
387
102
}
330
387
100
AcDbScale
 70
     0
300
1:40
140
1.0
141
40.0
290
     0
  0
SCALE
  5
392
102
{ACAD_REACTORS
330
387
102
}
330
387
100
AcDbScale
 70
     0
300
1:50
140
1.0
141
50.0
290
     0
  0
SCALE
  5
393
102
{ACAD_REACTORS
330
387
102
}
330
387
100
AcDbScale
 70
     0
300
1:100
140
1.0
141
100.0
290
     0
  0
SCALE
  5
394
102
{ACAD_REACTORS
330
387
102
}
330
387
100
AcDbScale
 70
     0
300
2:1
140
2.0
141
1.0
290
     0
  0
SCALE
  5
395
102
{ACAD_REACTORS
330
387
102
}
330
387
100
AcDbScale
 70
     0
300
4:1
140
4.0
141
1.0
290
     0
  0
SCALE
  5
396
102
{ACAD_REACTORS
330
387
102
}
330
387
100
AcDbScale
 70
     0
300
8:1
140
8.0
141
1.0
290
     0
  0
SCALE
  5
397
102
{ACAD_REACTORS
330
387
102
}
330
387
100
AcDbScale
 70
     0
300
10:1
140
10.0
141
1.0
290
     0
  0
SCALE
  5
398
102
{ACAD_REACTORS
330
387
102
}
330
387
100
AcDbScale
 70
     0
300
100:1
140
100.0
141
1.0
290
     0
  0
TABLESTYLE
  5
386
102
{ACAD_XDICTIONARY
360
3A8
102
}
102
{ACAD_REACTORS
330
385
102
}
330
385
100
AcDbTableStyle
  3
Standard
 70
     0
 71
     0
 40
1.5
 41
1.5
280
     0
281
     0
  7
Standard
140
4.5
170
     2
 62
     0
 63
     7
283
     0
 90
      512
 91
        0
  1

274
    -2
284
     1
 64
     0
275
    -2
285
     1
 65
     0
276
    -2
286
     1
 66
     0
277
    -2
287
     1
 67
     0
278
    -2
288
     1
 68
     0
279
    -2
289
     1
 69
     0
  7
Standard
140
6.0
170
     5
 62
     0
 63
     7
283
     0
 90
      512
 91
        0
  1

274
    -2
284
     1
 64
     0
275
    -2
285
     1
 65
     0
276
    -2
286
     1
 66
     0
277
    -2
287
     1
 67
     0
278
    -2
288
     1
 68
     0
279
    -2
289
     1
 69
     0
  7
Standard
140
4.5
170
     5
 62
     0
 63
     7
283
     0
 90
      512
 91
        0
  1

274
    -2
284
     1
 64
     0
275
    -2
285
     1
 65
     0
276
    -2
286
     1
 66
     0
277
    -2
287
     1
 67
     0
278
    -2
288
     1
 68
     0
279
    -2
289
     1
 69
     0
  0
VISUALSTYLE
  5
379
102
{ACAD_REACTORS
330
373
102
}
330
373
100
AcDbVisualStyle
  2
2dWireframe
 70
     4
 71
     0
 72
     2
 73
     0
 90
        0
 40
-0.6
 41
-30.0
 62
     5
 63
     7
421
 16777215
 74
     1
 91
        4
 64
     7
 65
   257
 75
     1
175
     1
 42
1.0
 92
        0
 66
   257
 43
1.0
 76
     1
 77
     6
 78
     2
 67
     7
 79
     5
170
     0
171
     0
290
     0
174
     0
 93
        1
 44
0.0
173
     0
291
     0
 45
0.0
  0
VISUALSTYLE
  5
37B
102
{ACAD_REACTORS
330
373
102
}
330
373
100
AcDbVisualStyle
  2
3D Hidden
 70
     6
 71
     1
 72
     2
 73
     2
 90
        0
 40
-0.6
 41
-30.0
 62
     5
 63
     7
421
 16777215
 74
     2
 91
        2
 64
     7
 65
   257
 75
     2
175
     1
 42
40.0
 92
        0
 66
   257
 43
1.0
 76
     1
 77
     6
 78
     2
 67
     7
 79
     3
170
     0
171
     0
290
     0
174
     0
 93
        1
 44
0.0
173
     0
291
     0
 45
0.0
  0
VISUALSTYLE
  5
37A
102
{ACAD_REACTORS
330
373
102
}
330
373
100
AcDbVisualStyle
  2
3dWireframe
 70
     5
 71
     0
 72
     2
 73
     0
 90
        0
 40
-0.6
 41
-30.0
 62
     5
 63
     7
421
 16777215
 74
     1
 91
        4
 64
     7
 65
   257
 75
     1
175
     1
 42
1.0
 92
        0
 66
   257
 43
1.0
 76
     1
 77
     6
 78
     2
 67
     7
 79
     5
170
     0
171
     0
290
     0
174
     0
 93
        1
 44
0.0
173
     0
291
     0
 45
0.0
  0
VISUALSTYLE
  5
378
102
{ACAD_REACTORS
330
373
102
}
330
373
100
AcDbVisualStyle
  2
Basic
 70
     7
 71
     1
 72
     0
 73
     1
 90
        0
 40
-0.6
 41
-30.0
 62
     5
 63
     7
421
 16777215
 74
     0
 91
        4
 64
     7
 65
   257
 75
     1
175
     1
 42
1.0
 92
        8
 66
     7
 43
1.0
 76
     1
 77
     6
 78
     2
 67
     7
 79
     5
170
     0
171
     0
290
     0
174
     0
 93
        1
 44
0.0
173
     0
291
     1
 45
0.0
  0
VISUALSTYLE
  5
37F
102
{ACAD_REACTORS
330
373
102
}
330
373
100
AcDbVisualStyle
  2
Brighten
 70
    12
 71
     2
 72
     2
 73
     0
 90
        0
 40
-0.6
 41
-30.0
 62
     5
 63
     7
421
 16777215
 74
     1
 91
        4
 64
     7
 65
   257
 75
     1
175
     1
 42
1.0
 92
        8
 66
     7
 43
1.0
 76
     1
 77
     6
 78
     2
 67
     7
 79
     5
170
     0
171
     0
290
     0
174
     0
 93
        1
 44
50.0
173
     0
291
     1
 45
0.0
  0
VISUALSTYLE
  5
383
102
{ACAD_REACTORS
330
373
102
}
330
373
100
AcDbVisualStyle
  2
ColorChange
 70
    16
 71
     2
 72
     2
 73
     3
 90
        0
 40
-0.6
 41
-30.0
 62
     5
 63
     8
421
  8421504
 74
     1
 91
        4
 64
     7
 65
   257
 75
     1
175
     1
 42
1.0
 92
        8
 66
     8
424
  8421504
 43
1.0
 76
     1
 77
     6
 78
     2
 67
     7
 79
     5
170
     0
171
     0
290
     0
174
     0
 93
        1
 44
0.0
173
     0
291
     1
 45
0.0
  0
VISUALSTYLE
  5
37C
102
{ACAD_REACTORS
330
373
102
}
330
373
100
AcDbVisualStyle
  2
Conceptual
 70
     9
 71
     3
 72
     2
 73
     0
 90
        0
 40
-0.6
 41
-30.0
 62
     5
 63
     7
421
 16777215
 74
     2
 91
        2
 64
     7
 65
   257
 75
     1
175
     1
 42
40.0
 92
        8
 66
     7
 43
1.0
 76
     1
 77
     6
 78
     2
 67
     7
 79
     3
170
     0
171
     0
290
     0
174
     0
 93
        1
 44
0.0
173
     0
291
     0
 45
0.0
  0
VISUALSTYLE
  5
37E
102
{ACAD_REACTORS
330
373
102
}
330
373
100
AcDbVisualStyle
  2
Dim
 70
    11
 71
     2
 72
     2
 73
     0
 90
        0
 40
-0.6
 41
-30.0
 62
     5
 63
     7
421
 16777215
 74
     1
 91
        4
 64
     7
 65
   257
 75
     1
175
     1
 42
1.0
 92
        8
 66
     7
 43
1.0
 76
     1
 77
     6
 78
     2
 67
     7
 79
     5
170
     0
171
     0
290
     0
174
     0
 93
        1
 44
-50.0
173
     0
291
     1
 45
0.0
  0
VISUALSTYLE
  5
382
102
{ACAD_REACTORS
330
373
102
}
330
373
100
AcDbVisualStyle
  2
Facepattern
 70
    15
 71
     2
 72
     2
 73
     0
 90
        0
 40
-0.6
 41
-30.0
 62
     5
 63
     7
421
 16777215
 74
     1
 91
        4
 64
     7
 65
   257
 75
     1
175
     1
 42
1.0
 92
        8
 66
     7
 43
1.0
 76
     1
 77
     6
 78
     2
 67
     7
 79
     5
170
     0
171
     0
290
     0
174
     0
 93
        1
 44
0.0
173
     0
291
     1
 45
0.0
  0
VISUALSTYLE
  5
374
102
{ACAD_REACTORS
330
373
102
}
330
373
100
AcDbVisualStyle
  2
Flat
 70
     0
 71
     2
 72
     1
 73
     1
 90
        2
 40
-0.6
 41
30.0
 62
     5
 63
     7
421
 16777215
 74
     0
 91
        4
 64
     7
 65
   257
 75
     1
175
     1
 42
1.0
 92
        8
 66
     7
 43
1.0
 76
     1
 77
     6
 78
     2
 67
     7
 79
     5
170
     0
171
     0
290
     0
174
     0
 93
       13
 44
0.0
173
     0
291
     1
 45
0.0
  0
VISUALSTYLE
  5
375
102
{ACAD_REACTORS
330
373
102
}
330
373
100
AcDbVisualStyle
  2
FlatWithEdges
 70
     1
 71
     2
 72
     1
 73
     1
 90
        2
 40
-0.6
 41
30.0
 62
     5
 63
     7
421
 16777215
 74
     1
 91
        4
 64
     7
 65
   257
 75
     1
175
     1
 42
1.0
 92
        0
 66
   257
 43
1.0
 76
     1
 77
     6
 78
     2
 67
     7
 79
     5
170
     0
171
     0
290
     0
174
     0
 93
       13
 44
0.0
173
     0
291
     1
 45
0.0
  0
VISUALSTYLE
  5
376
102
{ACAD_REACTORS
330
373
102
}
330
373
100
AcDbVisualStyle
  2
Gouraud
 70
     2
 71
     2
 72
     2
 73
     1
 90
        2
 40
-0.6
 41
30.0
 62
     5
 63
     7
421
 16777215
 74
     0
 91
        4
 64
     7
 65
   257
 75
     1
175
     1
 42
1.0
 92
        0
 66
     7
 43
1.0
 76
     1
 77
     6
 78
     2
 67
     7
 79
     5
170
     0
171
     0
290
     0
174
     0
 93
       13
 44
0.0
173
     0
291
     1
 45
0.0
  0
VISUALSTYLE
  5
377
102
{ACAD_REACTORS
330
373
102
}
330
373
100
AcDbVisualStyle
  2
GouraudWithEdges
 70
     3
 71
     2
 72
     2
 73
     1
 90
        2
 40
-0.6
 41
30.0
 62
     5
 63
     7
421
 16777215
 74
     1
 91
        4
 64
     7
 65
   257
 75
     1
175
     1
 42
1.0
 92
        0
 66
   257
 43
1.0
 76
     1
 77
     6
 78
     2
 67
     7
 79
     5
170
     0
171
     0
290
     0
174
     0
 93
       13
 44
0.0
173
     0
291
     1
 45
0.0
  0
VISUALSTYLE
  5
381
102
{ACAD_REACTORS
330
373
102
}
330
373
100
AcDbVisualStyle
  2
Linepattern
 70
    14
 71
     2
 72
     2
 73
     0
 90
        0
 40
-0.6
 41
-30.0
 62
     5
 63
     7
421
 16777215
 74
     1
 91
        4
 64
     7
 65
   257
 75
     7
175
     7
 42
1.0
 92
        8
 66
     7
 43
1.0
 76
     1
 77
     6
 78
     2
 67
     7
 79
     5
170
     0
171
     0
290
     0
174
     0
 93
        1
 44
0.0
173
     0
291
     1
 45
0.0
  0
VISUALSTYLE
  5
37D
102
{ACAD_REACTORS
330
373
102
}
330
373
100
AcDbVisualStyle
  2
Realistic
 70
     8
 71
     2
 72
     2
 73
     0
 90
        0
 40
-0.6
 41
-30.0
 62
     5
 63
     7
421
 16777215
 74
     1
 91
        0
 64
     7
 65
   257
 75
     1
175
     1
 42
1.0
 92
        8
 66
     8
424
  7895160
 43
1.0
 76
     1
 77
     6
 78
     2
 67
     7
 79
     5
170
     0
171
     0
290
     0
174
     0
 93
       13
 44
0.0
173
     0
291
     0
 45
0.0
  0
VISUALSTYLE
  5
380
102
{ACAD_REACTORS
330
373
102
}
330
373
100
AcDbVisualStyle
  2
Thicken
 70
    13
 71
     2
 72
     2
 73
     0
 90
        0
 40
-0.6
 41
-30.0
 62
     5
 63
     7
421
 16777215
 74
     1
 91
        4
 64
     7
 65
   257
 75
     1
175
     1
 42
1.0
 92
       12
 66
     7
 43
1.0
 76
     1
 77
     6
 78
     2
 67
     7
 79
     5
170
     0
171
     0
290
     0
174
     0
 93
        1
 44
0.0
173
     0
291
     1
 45
0.0
  0
DICTIONARYVAR
  5
3A4
102
{ACAD_REACTORS
330
3A0
102
}
330
3A0
100
DictionaryVariables
280
     0
  1
1:1
  0
DICTIONARYVAR
  5
3A2
102
{ACAD_REACTORS
330
3A0
102
}
330
3A0
100
DictionaryVariables
280
     0
  1
STANDARD
  0
DICTIONARYVAR
  5
3A1
102
{ACAD_REACTORS
330
3A0
102
}
330
3A0
100
DictionaryVariables
280
     0
  1
STANDARD
  0
DICTIONARYVAR
  5
3A6
102
{ACAD_REACTORS
330
3A0
102
}
330
3A0
100
DictionaryVariables
280
     0
  1
1
  0
DICTIONARYVAR
  5
3A7
102
{ACAD_REACTORS
330
3A0
102
}
330
3A0
100
DictionaryVariables
280
     0
  1
15
  0
DICTIONARYVAR
  5
3A5
102
{ACAD_REACTORS
330
3A0
102
}
330
3A0
100
DictionaryVariables
280
     0
  1
0
  0
DICTIONARYVAR
  5
3A3
102
{ACAD_REACTORS
330
3A0
102
}
330
3A0
100
DictionaryVariables
280
     0
  1
0
  0
DICTIONARY
  5
364
330
363
100
AcDbDictionary
280
     1
281
     1
  3
BUMPTILE
360
366
  3
DIFFUSETILE
360
365
  3
OPACITYTILE
360
369
  3
REFLECTIONTILE
360
368
  3
REFRACTIONTILE
360
36A
  3
SPECULARTILE
360
367
  0
DICTIONARY
  5
35C
330
35B
100
AcDbDictionary
280
     1
281
     1
  3
BUMPTILE
360
35E
  3
DIFFUSETILE
360
35D
  3
OPACITYTILE
360
361
  3
REFLECTIONTILE
360
360
  3
REFRACTIONTILE
360
362
  3
SPECULARTILE
360
35F
  0
DICTIONARY
  5
36C
330
36B
100
AcDbDictionary
280
     1
281
     1
  3
BUMPTILE
360
36E
  3
DIFFUSETILE
360
36D
  3
OPACITYTILE
360
371
  3
REFLECTIONTILE
360
370
  3
REFRACTIONTILE
360
372
  3
SPECULARTILE
360
36F
  0
DICTIONARY
  5
3A8
330
386
100
AcDbDictionary
280
     1
281
     1
  3
ACAD_ROUNDTRIP_2008_TABLESTYLE_CELLSTYLEMAP
360
3A9
  0
XRECORD
  5
366
102
{ACAD_REACTORS
330
364
102
}
330
364
100
AcDbXrecord
280
     1
270
     1
271
     1
  0
XRECORD
  5
365
102
{ACAD_REACTORS
330
364
102
}
330
364
100
AcDbXrecord
280
     1
270
     1
271
     1
  0
XRECORD
  5
369
102
{ACAD_REACTORS
330
364
102
}
330
364
100
AcDbXrecord
280
     1
270
     1
271
     1
  0
XRECORD
  5
368
102
{ACAD_REACTORS
330
364
102
}
330
364
100
AcDbXrecord
280
     1
270
     1
271
     1
  0
XRECORD
  5
36A
102
{ACAD_REACTORS
330
364
102
}
330
364
100
AcDbXrecord
280
     1
270
     1
271
     1
  0
XRECORD
  5
367
102
{ACAD_REACTORS
330
364
102
}
330
364
100
AcDbXrecord
280
     1
270
     1
271
     1
  0
XRECORD
  5
35E
102
{ACAD_REACTORS
330
35C
102
}
330
35C
100
AcDbXrecord
280
     1
270
     1
271
     1
  0
XRECORD
  5
35D
102
{ACAD_REACTORS
330
35C
102
}
330
35C
100
AcDbXrecord
280
     1
270
     1
271
     1
  0
XRECORD
  5
361
102
{ACAD_REACTORS
330
35C
102
}
330
35C
100
AcDbXrecord
280
     1
270
     1
271
     1
  0
XRECORD
  5
360
102
{ACAD_REACTORS
330
35C
102
}
330
35C
100
AcDbXrecord
280
     1
270
     1
271
     1
  0
XRECORD
  5
362
102
{ACAD_REACTORS
330
35C
102
}
330
35C
100
AcDbXrecord
280
     1
270
     1
271
     1
  0
XRECORD
  5
35F
102
{ACAD_REACTORS
330
35C
102
}
330
35C
100
AcDbXrecord
280
     1
270
     1
271
     1
  0
XRECORD
  5
36E
102
{ACAD_REACTORS
330
36C
102
}
330
36C
100
AcDbXrecord
280
     1
270
     1
271
     1
  0
XRECORD
  5
36D
102
{ACAD_REACTORS
330
36C
102
}
330
36C
100
AcDbXrecord
280
     1
270
     1
271
     1
  0
XRECORD
  5
371
102
{ACAD_REACTORS
330
36C
102
}
330
36C
100
AcDbXrecord
280
     1
270
     1
271
     1
  0
XRECORD
  5
370
102
{ACAD_REACTORS
330
36C
102
}
330
36C
100
AcDbXrecord
280
     1
270
     1
271
     1
  0
XRECORD
  5
372
102
{ACAD_REACTORS
330
36C
102
}
330
36C
100
AcDbXrecord
280
     1
270
     1
271
     1
  0
XRECORD
  5
36F
102
{ACAD_REACTORS
330
36C
102
}
330
36C
100
AcDbXrecord
280
     1
270
     1
271
     1
  0
CELLSTYLEMAP
  5
3A9
102
{ACAD_REACTORS
330
3A8
102
}
330
3A8
100
AcDbCellStyleMap
 90
        3
300
CELLSTYLE
  1
TABLEFORMAT_BEGIN
 90
        5
170
     1
 91
        0
 92
    32768
 62
   257
 93
        1
300
CONTENTFORMAT
  1
CONTENTFORMAT_BEGIN
 90
        0
 91
        0
 92
      512
 93
        0
300

 40
0.0
140
1.0
 94
        5
 62
     0
340
11
144
6.0
309
CONTENTFORMAT_END
171
     1
301
MARGIN
  1
CELLMARGIN_BEGIN
 40
1.5
 40
1.5
 40
1.5
 40
1.5
 40
4.5
 40
4.5
309
CELLMARGIN_END
 94
        6
 95
        1
302
GRIDFORMAT
  1
GRIDFORMAT_BEGIN
 90
        0
 91
        1
 62
     0
 92
       -2
340
0
 93
        0
 40
1.125
309
GRIDFORMAT_END
 95
        2
302
GRIDFORMAT
  1
GRIDFORMAT_BEGIN
 90
        0
 91
        1
 62
     0
 92
       -2
340
0
 93
        0
 40
1.125
309
GRIDFORMAT_END
 95
        4
302
GRIDFORMAT
  1
GRIDFORMAT_BEGIN
 90
        0
 91
        1
 62
     0
 92
       -2
340
0
 93
        0
 40
1.125
309
GRIDFORMAT_END
 95
        8
302
GRIDFORMAT
  1
GRIDFORMAT_BEGIN
 90
        0
 91
        1
 62
     0
 92
       -2
340
0
 93
        0
 40
1.125
309
GRIDFORMAT_END
 95
       16
302
GRIDFORMAT
  1
GRIDFORMAT_BEGIN
 90
        0
 91
        1
 62
     0
 92
       -2
340
0
 93
        0
 40
1.125
309
GRIDFORMAT_END
 95
       32
302
GRIDFORMAT
  1
GRIDFORMAT_BEGIN
 90
        0
 91
        1
 62
     0
 92
       -2
340
0
 93
        0
 40
1.125
309
GRIDFORMAT_END
309
TABLEFORMAT_END
  1
CELLSTYLE_BEGIN
 90
        1
 91
        1
300
_TITLE
309
CELLSTYLE_END
300
CELLSTYLE
  1
TABLEFORMAT_BEGIN
 90
        5
170
     1
 91
        0
 92
        0
 62
   257
 93
        1
300
CONTENTFORMAT
  1
CONTENTFORMAT_BEGIN
 90
        0
 91
        0
 92
      512
 93
        0
300

 40
0.0
140
1.0
 94
        5
 62
     0
340
11
144
4.5
309
CONTENTFORMAT_END
171
     1
301
MARGIN
  1
CELLMARGIN_BEGIN
 40
1.5
 40
1.5
 40
1.5
 40
1.5
 40
4.5
 40
4.5
309
CELLMARGIN_END
 94
        6
 95
        1
302
GRIDFORMAT
  1
GRIDFORMAT_BEGIN
 90
        0
 91
        1
 62
     0
 92
       -2
340
0
 93
        0
 40
1.125
309
GRIDFORMAT_END
 95
        2
302
GRIDFORMAT
  1
GRIDFORMAT_BEGIN
 90
        0
 91
        1
 62
     0
 92
       -2
340
0
 93
        0
 40
1.125
309
GRIDFORMAT_END
 95
        4
302
GRIDFORMAT
  1
GRIDFORMAT_BEGIN
 90
        0
 91
        1
 62
     0
 92
       -2
340
0
 93
        0
 40
1.125
309
GRIDFORMAT_END
 95
        8
302
GRIDFORMAT
  1
GRIDFORMAT_BEGIN
 90
        0
 91
        1
 62
     0
 92
       -2
340
0
 93
        0
 40
1.125
309
GRIDFORMAT_END
 95
       16
302
GRIDFORMAT
  1
GRIDFORMAT_BEGIN
 90
        0
 91
        1
 62
     0
 92
       -2
340
0
 93
        0
 40
1.125
309
GRIDFORMAT_END
 95
       32
302
GRIDFORMAT
  1
GRIDFORMAT_BEGIN
 90
        0
 91
        1
 62
     0
 92
       -2
340
0
 93
        0
 40
1.125
309
GRIDFORMAT_END
309
TABLEFORMAT_END
  1
CELLSTYLE_BEGIN
 90
        2
 91
        1
300
_HEADER
309
CELLSTYLE_END
300
CELLSTYLE
  1
TABLEFORMAT_BEGIN
 90
        5
170
     1
 91
        0
 92
        0
 62
   257
 93
        1
300
CONTENTFORMAT
  1
CONTENTFORMAT_BEGIN
 90
        0
 91
        0
 92
      512
 93
        0
300

 40
0.0
140
1.0
 94
        2
 62
     0
340
11
144
4.5
309
CONTENTFORMAT_END
171
     1
301
MARGIN
  1
CELLMARGIN_BEGIN
 40
1.5
 40
1.5
 40
1.5
 40
1.5
 40
4.5
 40
4.5
309
CELLMARGIN_END
 94
        6
 95
        1
302
GRIDFORMAT
  1
GRIDFORMAT_BEGIN
 90
        0
 91
        1
 62
     0
 92
       -2
340
0
 93
        0
 40
1.125
309
GRIDFORMAT_END
 95
        2
302
GRIDFORMAT
  1
GRIDFORMAT_BEGIN
 90
        0
 91
        1
 62
     0
 92
       -2
340
0
 93
        0
 40
1.125
309
GRIDFORMAT_END
 95
        4
302
GRIDFORMAT
  1
GRIDFORMAT_BEGIN
 90
        0
 91
        1
 62
     0
 92
       -2
340
0
 93
        0
 40
1.125
309
GRIDFORMAT_END
 95
        8
302
GRIDFORMAT
  1
GRIDFORMAT_BEGIN
 90
        0
 91
        1
 62
     0
 92
       -2
340
0
 93
        0
 40
1.125
309
GRIDFORMAT_END
 95
       16
302
GRIDFORMAT
  1
GRIDFORMAT_BEGIN
 90
        0
 91
        1
 62
     0
 92
       -2
340
0
 93
        0
 40
1.125
309
GRIDFORMAT_END
 95
       32
302
GRIDFORMAT
  1
GRIDFORMAT_BEGIN
 90
        0
 91
        1
 62
     0
 92
       -2
340
0
 93
        0
 40
1.125
309
GRIDFORMAT_END
309
TABLEFORMAT_END
  1
CELLSTYLE_BEGIN
 90
        3
 91
        2
300
_DATA
309
CELLSTYLE_END
  0
ENDSEC
  0
EOF
