  0
SECTION
  2
HEADER
  9
$ACADVER
  1
AC1015
  9
$ACADMAINTVER
 70
     6
  9
$DWGCODEPAGE
  3
ANSI_1251
  9
$INSBASE
 10
0.0
 20
0.0
 30
0.0
  9
$EXTMIN
 10
0.0
 20
0.0
 30
0.0
  9
$EXTMAX
 10
558.8
 20
431.8
 30
0.0
  9
$LIMMIN
 10
0.0
 20
0.0
  9
$LIMMAX
 10
558.8
 20
431.8
  9
$ORTHOMODE
 70
     0
  9
$REGENMODE
 70
     1
  9
$FILLMODE
 70
     1
  9
$QTEXTMODE
 70
     0
  9
$MIRRTEXT
 70
     1
  9
$LTSCALE
 40
2.0
  9
$ATTMODE
 70
     1
  9
$TEXTSIZE
 40
7.0
  9
$TRACEWID
 40
1.0
  9
$TEXTSTYLE
  7
Standard
  9
$CLAYER
  8
0
  9
$CELTYPE
  6
ByLayer
  9
$CECOLOR
 62
   256
  9
$CELTSCALE
 40
1.0
  9
$DISPSILH
 70
     0
  9
$DIMSCALE
 40
1.0
  9
$DIMASZ
 40
7.0
  9
$DIMEXO
 40
0.02
  9
$DIMDLI
 40
3.75
  9
$DIMRND
 40
0.0
  9
$DIMDLE
 40
0.0
  9
$DIMEXE
 40
2.0
  9
$DIMTP
 40
0.0
  9
$DIMTM
 40
0.0
  9
$DIMTXT
 40
7.0
  9
$DIMCEN
 40
2.5
  9
$DIMTSZ
 40
0.0
  9
$DIMTOL
 70
     0
  9
$DIMLIM
 70
     0
  9
$DIMTIH
 70
     1
  9
$DIMTOH
 70
     1
  9
$DIMSE1
 70
     0
  9
$DIMSE2
 70
     0
  9
$DIMTAD
 70
     1
  9
$DIMZIN
 70
     0
  9
$DIMBLK
  1

  9
$DIMASO
 70
     1
  9
$DIMSHO
 70
     1
  9
$DIMPOST
  1

  9
$DIMAPOST
  1

  9
$DIMALT
 70
     0
  9
$DIMALTD
 70
     3
  9
$DIMALTF
 40
0.0393700787
  9
$DIMLFAC
 40
1.0
  9
$DIMTOFL
 70
     1
  9
$DIMTVP
 40
0.0
  9
$DIMTIX
 70
     0
  9
$DIMSOXD
 70
     0
  9
$DIMSAH
 70
     0
  9
$DIMBLK1
  1

  9
$DIMBLK2
  1

  9
$DIMSTYLE
  2
ISO-25
  9
$DIMCLRD
 70
     0
  9
$DIMCLRE
 70
     0
  9
$DIMCLRT
 70
     0
  9
$DIMTFAC
 40
1.0
  9
$DIMGAP
 40
6.0
  9
$DIMJUST
 70
     0
  9
$DIMSD1
 70
     0
  9
$DIMSD2
 70
     0
  9
$DIMTOLJ
 70
     0
  9
$DIMTZIN
 70
     0
  9
$DIMALTZ
 70
     0
  9
$DIMALTTZ
 70
     0
  9
$DIMUPT
 70
     0
  9
$DIMDEC
 70
     2
  9
$DIMTDEC
 70
     3
  9
$DIMALTU
 70
     2
  9
$DIMALTTD
 70
     3
  9
$DIMTXSTY
  7
Standard
  9
$DIMAUNIT
 70
     0
  9
$DIMADEC
 70
     2
  9
$DIMALTRND
 40
0.0
  9
$DIMAZIN
 70
     0
  9
$DIMDSEP
 70
    44
  9
$DIMATFIT
 70
     3
  9
$DIMFRAC
 70
     0
  9
$DIMLDRBLK
  1

  9
$DIMLUNIT
 70
     2
  9
$DIMLWD
 70
    -2
  9
$DIMLWE
 70
    -2
  9
$DIMTMOVE
 70
     0
  9
$LUNITS
 70
     2
  9
$LUPREC
 70
     2
  9
$SKETCHINC
 40
1.0
  9
$FILLETRAD
 40
10.0
  9
$AUNITS
 70
     0
  9
$AUPREC
 70
     2
  9
$MENU
  1
.
  9
$ELEVATION
 40
0.0
  9
$PELEVATION
 40
0.0
  9
$THICKNESS
 40
0.0
  9
$LIMCHECK
 70
     0
  9
$CHAMFERA
 40
10.0
  9
$CHAMFERB
 40
10.0
  9
$CHAMFERC
 40
20.0
  9
$CHAMFERD
 40
0.0
  9
$SKPOLY
 70
     0
  9
$TDCREATE
 40
2458092.915171609
  9
$TDUCREATE
 40
2458092.831838275
  9
$TDUPDATE
 40
2458092.915171956
  9
$TDUUPDATE
 40
2458092.831838623
  9
$TDINDWG
 40
0.0000000116
  9
$TDUSRTIMER
 40
0.0000000116
  9
$USRTIMER
 70
     1
  9
$ANGBASE
 50
0.0
  9
$ANGDIR
 70
     0
  9
$PDMODE
 70
     0
  9
$PDSIZE
 40
-1.0
  9
$PLINEWID
 40
0.0
  9
$SPLFRAME
 70
     0
  9
$SPLINETYPE
 70
     6
  9
$SPLINESEGS
 70
     8
  9
$HANDSEED
  5
60
  9
$SURFTAB1
 70
     6
  9
$SURFTAB2
 70
     6
  9
$SURFTYPE
 70
     6
  9
$SURFU
 70
     6
  9
$SURFV
 70
     6
  9
$UCSBASE
  2

  9
$UCSNAME
  2

  9
$UCSORG
 10
0.0
 20
0.0
 30
0.0
  9
$UCSXDIR
 10
1.0
 20
0.0
 30
0.0
  9
$UCSYDIR
 10
0.0
 20
1.0
 30
0.0
  9
$UCSORTHOREF
  2

  9
$UCSORTHOVIEW
 70
     0
  9
$UCSORGTOP
 10
0.0
 20
0.0
 30
0.0
  9
$UCSORGBOTTOM
 10
0.0
 20
0.0
 30
0.0
  9
$UCSORGLEFT
 10
0.0
 20
0.0
 30
0.0
  9
$UCSORGRIGHT
 10
0.0
 20
0.0
 30
0.0
  9
$UCSORGFRONT
 10
0.0
 20
0.0
 30
0.0
  9
$UCSORGBACK
 10
0.0
 20
0.0
 30
0.0
  9
$PUCSBASE
  2

  9
$PUCSNAME
  2

  9
$PUCSORG
 10
0.0
 20
0.0
 30
0.0
  9
$PUCSXDIR
 10
1.0
 20
0.0
 30
0.0
  9
$PUCSYDIR
 10
0.0
 20
1.0
 30
0.0
  9
$PUCSORTHOREF
  2

  9
$PUCSORTHOVIEW
 70
     0
  9
$PUCSORGTOP
 10
0.0
 20
0.0
 30
0.0
  9
$PUCSORGBOTTOM
 10
0.0
 20
0.0
 30
0.0
  9
$PUCSORGLEFT
 10
0.0
 20
0.0
 30
0.0
  9
$PUCSORGRIGHT
 10
0.0
 20
0.0
 30
0.0
  9
$PUCSORGFRONT
 10
0.0
 20
0.0
 30
0.0
  9
$PUCSORGBACK
 10
0.0
 20
0.0
 30
0.0
  9
$USERI1
 70
     0
  9
$USERI2
 70
     0
  9
$USERI3
 70
     0
  9
$USERI4
 70
     0
  9
$USERI5
 70
     0
  9
$USERR1
 40
0.0
  9
$USERR2
 40
0.0
  9
$USERR3
 40
0.0
  9
$USERR4
 40
0.0
  9
$USERR5
 40
0.0
  9
$WORLDVIEW
 70
     1
  9
$SHADEDGE
 70
     3
  9
$SHADEDIF
 70
    70
  9
$TILEMODE
 70
     1
  9
$MAXACTVP
 70
    64
  9
$PINSBASE
 10
0.0
 20
0.0
 30
0.0
  9
$PLIMCHECK
 70
     0
  9
$PEXTMIN
 10
1.0000000000E+20
 20
1.0000000000E+20
 30
1.0000000000E+20
  9
$PEXTMAX
 10
-1.0000000000E+20
 20
-1.0000000000E+20
 30
-1.0000000000E+20
  9
$PLIMMIN
 10
0.0
 20
0.0
  9
$PLIMMAX
 10
420.0
 20
297.0
  9
$UNITMODE
 70
     0
  9
$VISRETAIN
 70
     1
  9
$PLINEGEN
 70
     0
  9
$PSLTSCALE
 70
     1
  9
$TREEDEPTH
 70
  3020
  9
$CMLSTYLE
  2
Standard
  9
$CMLJUST
 70
     0
  9
$CMLSCALE
 40
20.0
  9
$PROXYGRAPHICS
 70
     1
  9
$MEASUREMENT
 70
     1
  9
$CELWEIGHT
370
    -1
  9
$ENDCAPS
280
     0
  9
$JOINSTYLE
280
     0
  9
$LWDISPLAY
290
     1
  9
$INSUNITS
 70
     4
  9
$HYPERLINKBASE
  1

  9
$STYLESHEET
  1

  9
$XEDIT
290
     1
  9
$CEPSNTYPE
380
     0
  9
$PSTYLEMODE
290
     1
  9
$FINGERPRINTGUID
  2
{7CAB5E2D-7A67-4F79-9871-8A63C72768BB}
  9
$VERSIONGUID
  2
{FAEB1C32-E019-11D5-929B-00C0DF256EC4}
  9
$EXTNAMES
290
     1
  9
$PSVPSCALE
 40
0.0
  9
$OLESTARTUP
290
     0
  0
ENDSEC
  0
SECTION
  2
CLASSES
  0
CLASS
  1
ACDBDICTIONARYWDFLT
  2
AcDbDictionaryWithDefault
  3
ObjectDBX Classes
 90
        0
280
     0
281
     0
  0
CLASS
  1
VISUALSTYLE
  2
AcDbVisualStyle
  3
ObjectDBX Classes
 90
     4095
280
     0
281
     0
  0
CLASS
  1
MATERIAL
  2
AcDbMaterial
  3
ObjectDBX Classes
 90
     1153
280
     0
281
     0
  0
CLASS
  1
ACDBPLACEHOLDER
  2
AcDbPlaceHolder
  3
ObjectDBX Classes
 90
        0
280
     0
281
     0
  0
CLASS
  1
LAYOUT
  2
AcDbLayout
  3
ObjectDBX Classes
 90
        0
280
     0
281
     0
  0
ENDSEC
  0
SECTION
  2
TABLES
  0
TABLE
  2
VPORT
  5
8
330
0
100
AcDbSymbolTable
 70
     1
  0
VPORT
  5
29
330
8
100
AcDbSymbolTableRecord
100
AcDbViewportTableRecord
  2
*Active
 70
     0
 10
0.0
 20
0.0
 11
1.0
 21
1.0
 12
279.4
 22
215.9
 13
0.0
 23
0.0
 14
10.0
 24
10.0
 15
10.0
 25
10.0
 16
0.0
 26
0.0
 36
1.0
 17
0.0
 27
0.0
 37
0.0
 40
431.8
 41
1.2941176471
 42
50.0
 43
0.0
 44
0.0
 50
0.0
 51
0.0
 71
     0
 72
  2000
 73
     1
 74
     3
 75
     0
 76
     0
 77
     0
 78
     0
281
     0
 65
     1
110
0.0
120
0.0
130
0.0
111
1.0
121
0.0
131
0.0
112
0.0
122
1.0
132
0.0
 79
     0
146
0.0
  0
ENDTAB
  0
TABLE
  2
LTYPE
  5
5
330
0
100
AcDbSymbolTable
 70
     6
  0
LTYPE
  5
14
330
5
100
AcDbSymbolTableRecord
100
AcDbLinetypeTableRecord
  2
ByBlock
 70
     0
  3

 72
    65
 73
     0
 40
0.0
  0
LTYPE
  5
15
330
5
100
AcDbSymbolTableRecord
100
AcDbLinetypeTableRecord
  2
ByLayer
 70
     0
  3

 72
    65
 73
     0
 40
0.0
  0
LTYPE
  5
16
330
5
100
AcDbSymbolTableRecord
100
AcDbLinetypeTableRecord
  2
Continuous
 70
     0
  3
Solid line
 72
    65
 73
     0
 40
0.0
  0
LTYPE
  5
3F
330
5
100
AcDbSymbolTableRecord
100
AcDbLinetypeTableRecord
  2
HIDDEN
 70
     0
  3
Hidden __ __ __ __ __ __ __ __ __ __ __ __ __ __
 72
    65
 73
     2
 40
1.905
 49
1.27
 74
     0
 49
-0.635
 74
     0
  0
LTYPE
  5
40
330
5
100
AcDbSymbolTableRecord
100
AcDbLinetypeTableRecord
  2
PHANTOM
 70
     0
  3
Phantom ______  __  __  ______  __  __  ______
 72
    65
 73
     6
 40
12.7
 49
6.35
 74
     0
 49
-1.27
 74
     0
 49
1.27
 74
     0
 49
-1.27
 74
     0
 49
1.27
 74
     0
 49
-1.27
 74
     0
  0
LTYPE
  5
41
330
5
100
AcDbSymbolTableRecord
100
AcDbLinetypeTableRecord
  2
CENTER
 70
     0
  3
Center ____ _ ____ _ ____ _ ____ _ ____ _ ____
 72
    65
 73
     4
 40
10.16
 49
6.35
 74
     0
 49
-1.27
 74
     0
 49
1.27
 74
     0
 49
-1.27
 74
     0
  0
LTYPE
  5
42
330
5
100
AcDbSymbolTableRecord
100
AcDbLinetypeTableRecord
  2
CENTERX2
 70
     0
  3
Center (2x) ________  __  ________  __  _____
 72
    65
 73
     4
 40
20.32
 49
12.7
 74
     0
 49
-2.54
 74
     0
 49
2.54
 74
     0
 49
-2.54
 74
     0
  0
LTYPE
  5
43
330
5
100
AcDbSymbolTableRecord
100
AcDbLinetypeTableRecord
  2
DOT2
 70
     0
  3
Dot (.5x) ........................................
 72
    65
 73
     2
 40
0.635
 49
0.0
 74
     0
 49
-0.635
 74
     0
  0
ENDTAB
  0
TABLE
  2
LAYER
  5
2
330
0
100
AcDbSymbolTable
 70
     1
  0
LAYER
  5
10
330
2
100
AcDbSymbolTableRecord
100
AcDbLayerTableRecord
  2
0
 70
     0
 62
     7
  6
Continuous
370
    -3
390
F
  0
ENDTAB
  0
TABLE
  2
STYLE
  5
3
330
0
100
AcDbSymbolTable
 70
     1
  0
STYLE
  5
11
330
3
100
AcDbSymbolTableRecord
100
AcDbTextStyleTableRecord
  2
Standard
 70
     0
 40
0.0
 41
1.0
 50
0.0
 71
     0
 42
7.0
  3
txt
  4

  0
ENDTAB
  0
TABLE
  2
VIEW
  5
6
330
0
100
AcDbSymbolTable
 70
     0
  0
ENDTAB
  0
TABLE
  2
UCS
  5
7
330
0
100
AcDbSymbolTable
 70
     0
  0
ENDTAB
  0
TABLE
  2
APPID
  5
9
330
0
100
AcDbSymbolTable
 70
     1
  0
APPID
  5
12
330
9
100
AcDbSymbolTableRecord
100
AcDbRegAppTableRecord
  2
ACAD
 70
     0
  0
ENDTAB
  0
TABLE
  2
DIMSTYLE
  5
A
330
0
100
AcDbSymbolTable
 70
     1
100
AcDbDimStyleTable
  0
DIMSTYLE
105
27
330
A
100
AcDbSymbolTableRecord
100
AcDbDimStyleTableRecord
  2
ISO-25
 70
     0
 41
2.5
 42
0.625
 43
3.75
 44
1.25
 73
     0
 74
     0
 77
     1
 78
     8
140
2.5
141
2.5
143
0.0393700787
147
0.625
171
     3
172
     1
178
     0
271
     2
272
     2
274
     3
278
    44
283
     0
284
     8
340
11
  0
ENDTAB
  0
TABLE
  2
BLOCK_RECORD
  5
1
330
0
100
AcDbSymbolTable
 70
     1
  0
BLOCK_RECORD
  5
1F
330
1
100
AcDbSymbolTableRecord
100
AcDbBlockTableRecord
  2
*Model_Space
340
22
  0
BLOCK_RECORD
  5
1B
330
1
100
AcDbSymbolTableRecord
100
AcDbBlockTableRecord
  2
*Paper_Space
340
1E
  0
BLOCK_RECORD
  5
23
330
1
100
AcDbSymbolTableRecord
100
AcDbBlockTableRecord
  2
*Paper_Space0
340
26
  0
ENDTAB
  0
ENDSEC
  0
SECTION
  2
BLOCKS
  0
BLOCK
  5
20
330
1F
100
AcDbEntity
  8
0
100
AcDbBlockBegin
  2
*Model_Space
 70
     0
 10
0.0
 20
0.0
 30
0.0
  3
*Model_Space
  1

  0
ENDBLK
  5
21
330
1F
100
AcDbEntity
  8
0
100
AcDbBlockEnd
  0
BLOCK
  5
1C
330
1B
100
AcDbEntity
 67
     1
  8
0
100
AcDbBlockBegin
  2
*Paper_Space
 70
     0
 10
0.0
 20
0.0
 30
0.0
  3
*Paper_Space
  1

  0
ENDBLK
  5
1D
330
1B
100
AcDbEntity
 67
     1
  8
0
100
AcDbBlockEnd
  0
BLOCK
  5
24
330
23
100
AcDbEntity
  8
0
100
AcDbBlockBegin
  2
*Paper_Space0
 70
     0
 10
0.0
 20
0.0
 30
0.0
  3
*Paper_Space0
  1

  0
ENDBLK
  5
25
330
23
100
AcDbEntity
  8
0
100
AcDbBlockEnd
  0
ENDSEC
  0
SECTION
  2
ENTITIES
  0
LINE
  5
44
330
1F
100
AcDbEntity
  8
0
  6
Continuous
 62
     7
370
    15
100
AcDbLine
 10
56.0437129631
 20
284.5314934335
 30
0.0
 11
56.0437141336
 21
283.5314934335
 31
0.0
  0
LINE
  5
45
330
1F
100
AcDbEntity
  8
0
  6
Continuous
 62
     7
370
    15
100
AcDbLine
 10
138.0443700982
 20
283.531589421
 30
0.0
 11
138.0443689276
 21
284.531589421
 31
0.0
  0
LINE
  5
46
330
1F
100
AcDbEntity
  8
0
  6
Continuous
 62
     7
370
    15
100
AcDbLine
 10
135.5443656514
 20
284.5315836214
 30
0.0
 11
114.0442451863
 21
333.5315337443
 31
0.0
  0
LINE
  5
47
330
1F
100
AcDbEntity
  8
0
  6
Continuous
 62
     7
370
    15
100
AcDbLine
 10
80.0437219886
 20
333.5314939443
 30
0.0
 11
58.5437162392
 21
284.5314934867
 31
0.0
  0
LINE
  5
48
330
1F
100
AcDbEntity
  8
0
  6
Continuous
 62
     7
370
    15
100
AcDbLine
 10
120.0442460105
 20
333.5315476634
 30
0.0
 11
120.0442226717
 21
343.5315552928
 31
0.0
  0
LINE
  5
49
330
1F
100
AcDbEntity
  8
0
  6
Continuous
 62
     7
370
    15
100
AcDbLine
 10
74.0437210917
 20
343.531501446
 30
0.0
 11
74.0437211644
 21
333.5314938166
 31
0.0
  0
LINE
  5
4A
330
1F
100
AcDbEntity
  8
0
  6
Continuous
 62
     7
370
    15
100
AcDbLine
 10
116.0441942021
 20
355.5315460133
 30
0.0
 11
116.0441406351
 21
378.5315383839
 31
0.0
  0
LINE
  5
4B
330
1F
100
AcDbEntity
  8
0
  6
Continuous
 62
     7
370
    15
100
AcDbLine
 10
78.0437211884
 20
378.5314939017
 30
0.0
 11
78.0437214676
 21
355.5315015311
 31
0.0
  0
LINE
  5
4C
330
1F
100
AcDbEntity
  8
0
  6
Continuous
 62
     7
370
    15
100
AcDbLine
 10
114.0442218475
 20
343.5315413737
 30
0.0
 11
114.0441939391
 21
355.5315413736
 31
0.0
  0
LINE
  5
4D
330
1F
100
AcDbEntity
  8
0
  6
Continuous
 62
     7
370
    15
100
AcDbLine
 10
80.0437217306
 20
355.5315015737
 30
0.0
 11
80.0437219159
 21
343.5315015737
 31
0.0
  0
LWPOLYLINE
  5
4E
330
1F
100
AcDbEntity
  8
0
  6
Continuous
 62
     7
370
    15
100
AcDbPolyline
 90
       52
 70
   128
 43
0.0
 10
59.5437135214
 20
283.531493508
 10
59.5625933475
 20
283.5314933401
 10
59.7135179128
 20
283.5314931376
 10
60.0147593236
 20
283.5314931134
 10
60.4651045869
 20
283.5314932676
 10
61.0627403213
 20
283.5314935994
 10
61.8052600586
 20
283.5314941076
 10
62.689673934
 20
283.5314947902
 10
63.7124207249
 20
283.5314956444
 10
64.869382191
 20
283.5314966667
 10
66.1558996567
 20
283.5314978531
 10
67.5667927704
 20
283.5314991987
 10
69.0963803633
 20
283.5315006982
 10
70.7385033262
 20
283.5315023455
 10
72.4865494093
 20
283.5315041339
 10
74.3334798483
 20
283.5315060563
 10
76.2718577059
 20
283.531508105
 10
78.2938778187
 20
283.5315102716
 10
80.3913982254
 20
283.5315125475
 10
82.5559729515
 20
283.5315149234
 10
84.7788860188
 20
283.5315173899
 10
87.0511865407
 20
283.531519937
 10
89.3637247651
 20
283.5315225545
 10
91.7071889168
 20
283.5315252317
 10
94.0721426927
 20
283.5315279579
 10
96.4490632586
 20
283.5315307222
 10
98.8283795945
 20
283.5315335134
 10
101.200511033
 20
283.5315363202
 10
103.5559058383
 20
283.5315391314
 10
105.8850796666
 20
283.5315419357
 10
108.1786537571
 20
283.5315447217
 10
110.4273926965
 20
283.5315474783
 10
112.6222416066
 20
283.5315501943
 10
114.7543626056
 20
283.5315528588
 10
116.8151703947
 20
283.5315554611
 10
118.7963668283
 20
283.5315579906
 10
120.6899743277
 20
283.5315604373
 10
122.4883680038
 20
283.5315627912
 10
124.1843063599
 20
283.5315650429
 10
125.7709604509
 20
283.5315671833
 10
127.2419413807
 20
283.5315692039
 10
128.5913260284
 20
283.5315710963
 10
129.8136808981
 20
283.5315728531
 10
130.9040839983
 20
283.5315744672
 10
131.8581446606
 20
283.531575932
 10
132.6720212193
 20
283.5315772417
 10
133.3424364809
 20
283.531578391
 10
133.8666909196
 20
283.5315793752
 10
134.2426735479
 20
283.5315801905
 10
134.4688704165
 20
283.5315808334
 10
134.5443707104
 20
283.5315813015
 10
134.5443707104
 20
283.5315813015
  0
LWPOLYLINE
  5
4F
330
1F
100
AcDbEntity
  8
0
  6
Continuous
 62
     7
370
    15
100
AcDbPolyline
 90
        8
 70
   128
 43
0.0
 10
138.0443706728
 20
283.531589421
 10
137.9681087152
 20
283.5315897308
 10
137.739606542
 20
283.5315898609
 10
137.3597141962
 20
283.5315898108
 10
136.8298449024
 20
283.5315895807
 10
136.151969809
 20
283.5315891715
 10
135.328610656
 20
283.5315885846
 10
134.5443677843
 20
283.5315879703
  0
LWPOLYLINE
  5
50
330
1F
100
AcDbEntity
  8
0
  6
Continuous
 62
     7
370
    15
100
AcDbPolyline
 90
       61
 70
   128
 43
0.0
 10
59.5437164475
 20
283.5315001767
 10
59.2247733458
 20
283.531499685
 10
58.3297873654
 20
283.5314982646
 10
57.5788209554
 20
283.5314970048
 10
56.9746677603
 20
283.5314959101
 10
56.5195752695
 20
283.5314949849
 10
56.215236457
 20
283.5314942323
 10
56.0627834833
 20
283.5314936554
 10
56.0627834833
 20
283.5314932562
 10
56.215236457
 20
283.5314930361
 10
56.5195752695
 20
283.5314929961
 10
56.9746677603
 20
283.5314931363
 10
57.5788209554
 20
283.5314934561
 10
58.3297873654
 20
283.5314939543
 10
59.2247733458
 20
283.5314946292
 10
60.26044949
 20
283.5314954781
 10
61.4329630147
 20
283.531496498
 10
62.7379520926
 20
283.531497685
 10
64.1705620787
 20
283.5314990348
 10
65.7254635696
 20
283.5315005422
 10
67.3968722297
 20
283.5315022018
 10
69.178570309
 20
283.5315040072
 10
71.0639297737
 20
283.5315059519
 10
73.0459369626
 20
283.5315080286
 10
75.1172186789
 20
283.5315102294
 10
77.2700696186
 20
283.5315125464
 10
79.4964810347
 20
283.5315149708
 10
81.7881705306
 20
283.5315174936
 10
84.1366128707
 20
283.5315201054
 10
86.5330716955
 20
283.5315227966
 10
88.9686320205
 20
283.531525557
 10
91.4342334015
 20
283.5315283765
 10
93.9207036394
 20
283.5315312446
 10
96.4187929015
 20
283.5315341505
 10
98.9192081318
 20
283.5315370835
 10
101.4126476214
 20
283.5315400327
 10
103.8898356115
 20
283.531542987
 10
106.3415568002
 20
283.5315459355
 10
108.7586906236
 20
283.5315488673
 10
111.1322451851
 20
283.5315517714
 10
113.4533907059
 20
283.531554637
 10
115.7134923722
 20
283.5315574535
 10
117.9041424573
 20
283.5315602104
 10
120.0171915991
 20
283.5315628973
 10
122.0447791159
 20
283.5315655044
 10
123.979362249
 20
283.531568022
 10
125.8137442221
 20
283.5315704406
 10
127.5411010137
 20
283.5315727513
 10
129.1550067432
 20
283.5315749454
 10
130.6494575752
 20
283.5315770149
 10
132.0188940546
 20
283.5315789519
 10
133.2582217875
 20
283.5315807494
 10
134.3628303935
 20
283.5315824006
 10
135.328610656
 20
283.5315838994
 10
136.151969809
 20
283.5315852402
 10
136.8298449024
 20
283.5315864179
 10
137.3597141962
 20
283.5315874284
 10
137.739606542
 20
283.5315882676
 10
137.9681087152
 20
283.5315889327
 10
138.0443706728
 20
283.531589421
 10
138.0443706728
 20
283.531589421
  0
LWPOLYLINE
  5
51
330
1F
100
AcDbEntity
  8
0
  6
Continuous
 62
     7
370
    15
100
AcDbPolyline
 90
        9
 70
   128
 43
0.0
 10
138.044368353
 20
284.531589421
 10
137.9681063975
 20
284.5315897308
 10
137.7396042307
 20
284.5315898609
 10
137.3597118956
 20
284.5315898108
 10
136.8298426166
 20
284.5315895807
 10
136.1519675422
 20
284.5315891715
 10
135.3286084123
 20
284.5315885846
 10
134.3628281768
 20
284.5315878224
 10
134.105589469
 20
284.5315876098
  0
LWPOLYLINE
  5
52
330
1F
100
AcDbEntity
  8
0
  6
Continuous
 62
     7
370
    15
100
AcDbPolyline
 90
       61
 70
   128
 43
0.0
 10
59.9824924216
 20
284.5315008435
 10
59.2247732353
 20
284.531499685
 10
58.32978728
 20
284.5314982646
 10
57.5788208911
 20
284.5314970048
 10
56.9746677129
 20
284.5314959101
 10
56.5195752349
 20
284.5314949849
 10
56.2152364309
 20
284.5314942323
 10
56.0627834614
 20
284.5314936554
 10
56.0627834614
 20
284.5314932562
 10
56.2152364309
 20
284.5314930361
 10
56.5195752349
 20
284.5314929961
 10
56.9746677129
 20
284.5314931363
 10
57.5788208911
 20
284.5314934561
 10
58.32978728
 20
284.5314939543
 10
59.2247732353
 20
284.5314946292
 10
60.2604493505
 20
284.5314954781
 10
61.4329628424
 20
284.531496498
 10
62.7379518837
 20
284.531497685
 10
64.1705618296
 20
284.5314990348
 10
65.7254632769
 20
284.5315005422
 10
67.3968718902
 20
284.5315022018
 10
69.1785699195
 20
284.5315040072
 10
71.0639293313
 20
284.5315059519
 10
73.0459364647
 20
284.5315080286
 10
75.117218123
 20
284.5315102294
 10
77.2700690023
 20
284.5315125464
 10
79.496480356
 20
284.5315149708
 10
81.7881697876
 20
284.5315174936
 10
84.136612062
 20
284.5315201054
 10
86.5330708195
 20
284.5315227966
 10
88.9686310763
 20
284.531525557
 10
91.4342323882
 20
284.5315283765
 10
93.9207025564
 20
284.5315312446
 10
96.4187917485
 20
284.5315341505
 10
98.9192069087
 20
284.5315370835
 10
101.4126463283
 20
284.5315400327
 10
103.889834249
 20
284.531542987
 10
106.341555369
 20
284.5315459355
 10
108.7586891247
 20
284.5315488673
 10
111.1322436197
 20
284.5315517714
 10
113.4533890754
 20
284.531554637
 10
115.7134906783
 20
284.5315574535
 10
117.904140702
 20
284.5315602104
 10
120.0171897846
 20
284.5315628973
 10
122.0447772445
 20
284.5315655044
 10
123.9793603234
 20
284.531568022
 10
125.8137422451
 20
284.5315704406
 10
127.5410989883
 20
284.5315727513
 10
129.1550046725
 20
284.5315749454
 10
130.6494554627
 20
284.5315770149
 10
132.0188919036
 20
284.5315789519
 10
133.2582196018
 20
284.5315807494
 10
134.3628281768
 20
284.5315824006
 10
135.3286084123
 20
284.5315838994
 10
136.1519675422
 20
284.5315852402
 10
136.8298426166
 20
284.5315864179
 10
137.3597118956
 20
284.5315874284
 10
137.7396042307
 20
284.5315882676
 10
137.9681063975
 20
284.5315889327
 10
138.044368353
 20
284.531589421
 10
138.044368353
 20
284.531589421
  0
LWPOLYLINE
  5
53
330
1F
100
AcDbEntity
  8
0
  6
Continuous
 62
     7
370
    15
100
AcDbPolyline
 90
        6
 70
   128
 43
0.0
 10
135.5443656514
 20
284.5315836213
 10
135.4683940552
 20
284.5315839184
 10
135.2407790916
 20
284.5315840363
 10
134.8624190531
 20
284.5315839748
 10
134.3348071537
 20
284.531583734
 10
134.1055912277
 20
284.5315836018
  0
LWPOLYLINE
  5
54
330
1F
100
AcDbEntity
  8
0
  6
Continuous
 62
     7
370
    15
100
AcDbPolyline
 90
       57
 70
   128
 43
0.0
 10
59.982490663
 20
284.5314968355
 10
59.753274737
 20
284.5314964311
 10
59.2256628376
 20
284.5314954367
 10
58.847302799
 20
284.5314946124
 10
58.6196878355
 20
284.5314939615
 10
58.5437162392
 20
284.5314934867
 10
58.6196878355
 20
284.5314931897
 10
58.847302799
 20
284.5314930717
 10
59.2256628376
 20
284.5314931332
 10
59.753274737
 20
284.531493374
 10
60.4280562541
 20
284.5314937931
 10
61.2473443345
 20
284.5314943888
 10
62.2079056225
 20
284.5314951588
 10
63.3059492215
 20
284.5314961001
 10
64.5371416551
 20
284.531497209
 10
65.8966239691
 20
284.531498481
 10
67.3790309081
 20
284.5314999111
 10
68.9785120891
 20
284.5315014938
 10
70.6887550905
 20
284.5315032227
 10
72.5030103646
 20
284.5315050911
 10
74.4141178746
 20
284.5315070915
 10
76.4145353524
 20
284.5315092161
 10
78.4963680641
 20
284.5315114565
 10
80.651399967
 20
284.5315138038
 10
82.8711261347
 20
284.5315162488
 10
85.1467863222
 20
284.5315187818
 10
87.4693995384
 20
284.5315213928
 10
89.8297994899
 20
284.5315240716
 10
92.2186707567
 20
284.5315268076
 10
94.626585555
 20
284.5315295899
 10
97.0440409453
 20
284.5315324075
 10
99.4614963357
 20
284.5315352495
 10
101.869411134
 20
284.5315381044
 10
104.2582824008
 20
284.5315409612
 10
106.6186823523
 20
284.5315438084
 10
108.9412955685
 20
284.5315466349
 10
111.216955756
 20
284.5315494296
 10
113.4366819237
 20
284.5315521813
 10
115.5917138266
 20
284.5315548792
 10
117.6735465383
 20
284.5315575127
 10
119.6739640161
 20
284.5315600713
 10
121.5850715261
 20
284.5315625451
 10
123.3993268002
 20
284.5315649241
 10
125.1095698016
 20
284.5315671991
 10
126.7090509826
 20
284.5315693611
 10
128.1914579215
 20
284.5315714014
 10
129.5509402356
 20
284.5315733122
 10
130.7821326692
 20
284.5315750857
 10
131.8801762682
 20
284.5315767151
 10
132.8407375561
 20
284.5315781939
 10
133.6600256366
 20
284.5315795162
 10
134.3348071537
 20
284.5315806769
 10
134.8624190531
 20
284.5315816713
 10
135.2407790916
 20
284.5315824956
 10
135.4683940552
 20
284.5315831465
 10
135.5443656514
 20
284.5315836213
 10
135.5443656514
 20
284.5315836213
  0
LWPOLYLINE
  5
55
330
1F
100
AcDbEntity
  8
0
  6
Continuous
 62
     7
370
    15
100
AcDbPolyline
 90
       41
 70
   128
 43
0.0
 10
74.0437211644
 20
333.5314938166
 10
74.0628619978
 20
333.5314936892
 10
74.2157975704
 20
333.5314935697
 10
74.5206509545
 20
333.531493631
 10
74.9753934012
 20
333.5314938727
 10
75.5769986745
 20
333.5314942932
 10
76.3214631907
 20
333.5314948897
 10
77.203832661
 20
333.5314956582
 10
78.2182350625
 20
333.5314965936
 10
79.3579197143
 20
333.5314976897
 10
80.6153022032
 20
333.5314989393
 10
81.9820148561
 20
333.5315003339
 10
83.4489624259
 20
333.5315018643
 10
85.0063826186
 20
333.5315035203
 10
86.6439110596
 20
333.5315052909
 10
88.3506502674
 20
333.5315071643
 10
90.1152421741
 20
333.5315091281
 10
91.9259437118
 20
333.5315111691
 10
93.7707049604
 20
333.5315132739
 10
95.6372493383
 20
333.5315154283
 10
97.5131553005
 20
333.531517618
 10
99.3859390023
 20
333.5315198286
 10
101.2431373773
 20
333.5315220452
 10
103.0723910765
 20
333.5315242531
 10
104.8615267186
 20
333.5315264377
 10
106.5986379009
 20
333.5315285843
 10
108.2721644352
 20
333.5315306787
 10
109.8709692785
 20
333.531532707
 10
111.3844126483
 20
333.5315346557
 10
112.8024228287
 20
333.5315365117
 10
114.1155631959
 20
333.5315382628
 10
115.3150950174
 20
333.5315398973
 10
116.3930356069
 20
333.5315414042
 10
117.3422114475
 20
333.5315427737
 10
118.1563059307
 20
333.5315439965
 10
118.829901392
 20
333.5315450646
 10
119.3585151648
 20
333.5315459708
 10
119.7386294115
 20
333.5315467091
 10
119.9677145346
 20
333.5315472746
 10
120.0442460105
 20
333.5315476634
 10
120.0442460105
 20
333.5315476634
  0
LWPOLYLINE
  5
56
330
1F
100
AcDbEntity
  8
0
  6
Continuous
 62
     7
370
    15
100
AcDbPolyline
 90
       78
 70
   128
 43
0.0
 10
120.0442226717
 20
343.5315552928
 10
119.9676912346
 20
343.5315555025
 10
119.7386062273
 20
343.5315555317
 10
119.3584921728
 20
343.53155538
 10
118.8298786674
 20
343.5315550487
 10
118.1562835468
 20
343.5315545398
 10
117.3421894754
 20
343.5315538567
 10
116.3930141148
 20
343.531553004
 10
115.3150740705
 20
343.5315519874
 10
114.1155428557
 20
343.5315508136
 10
112.8024031526
 20
343.5315494904
 10
111.3843936894
 20
343.5315480267
 10
109.8709510851
 20
343.5315464322
 10
108.2721470505
 20
343.5315447174
 10
106.5986213627
 20
343.5315428939
 10
104.8615110589
 20
343.5315409737
 10
103.0723763218
 20
343.5315389696
 10
101.2431235477
 20
343.531536895
 10
99.3859261121
 20
343.5315347637
 10
97.5131433574
 20
343.5315325898
 10
95.6372383441
 20
343.5315303878
 10
93.7706949103
 20
343.5315281723
 10
91.9259345947
 20
343.5315259582
 10
90.1152339728
 20
343.5315237602
 10
88.3506429586
 20
343.5315215928
 10
86.643904614
 20
343.5315194705
 10
85.0063770012
 20
343.5315174074
 10
83.4489575963
 20
343.5315154173
 10
81.9820107684
 20
343.5315135134
 10
80.6152988067
 20
343.5315117083
 10
79.3579169538
 20
343.5315100141
 10
78.2182328784
 20
343.5315084421
 10
77.2038309901
 20
343.5315070027
 10
76.321461966
 20
343.5315057054
 10
75.5769978264
 20
343.531504559
 10
74.9753928573
 20
343.5315035711
 10
74.5206506406
 20
343.5315027481
 10
74.2157974107
 20
343.5315020957
 10
74.0628619155
 20
343.5315016182
 10
74.0628619155
 20
343.5315013186
 10
74.2157974107
 20
343.5315011991
 10
74.5206506406
 20
343.5315012604
 10
74.9753928574
 20
343.5315015021
 10
75.5769978264
 20
343.5315019226
 10
76.321461966
 20
343.531502519
 10
77.2038309901
 20
343.5315032876
 10
78.2182328784
 20
343.531504223
 10
79.3579169538
 20
343.5315053191
 10
80.6152988067
 20
343.5315065686
 10
81.9820107685
 20
343.5315079632
 10
83.4489575963
 20
343.5315094936
 10
85.0063770012
 20
343.5315111497
 10
86.643904614
 20
343.5315129203
 10
88.3506429586
 20
343.5315147937
 10
90.1152339728
 20
343.5315167575
 10
91.9259345947
 20
343.5315187985
 10
93.7706949103
 20
343.5315209032
 10
95.6372383441
 20
343.5315230577
 10
97.5131433575
 20
343.5315252474
 10
99.3859261121
 20
343.531527458
 10
101.2431235477
 20
343.5315296746
 10
103.0723763218
 20
343.5315318825
 10
104.8615110589
 20
343.531534067
 10
106.5986213627
 20
343.5315362137
 10
108.2721470505
 20
343.5315383081
 10
109.8709510851
 20
343.5315403364
 10
111.3843936894
 20
343.531542285
 10
112.8024031526
 20
343.5315441411
 10
114.1155428557
 20
343.5315458922
 10
115.3150740705
 20
343.5315475266
 10
116.3930141148
 20
343.5315490336
 10
117.3421894754
 20
343.5315504031
 10
118.1562835468
 20
343.5315516259
 10
118.8298786674
 20
343.531552694
 10
119.3584921728
 20
343.5315536002
 10
119.7386062273
 20
343.5315543385
 10
119.9676912346
 20
343.5315549039
 10
120.0442226717
 20
343.5315552928
  0
LWPOLYLINE
  5
57
330
1F
100
AcDbEntity
  8
0
  6
Continuous
 62
     7
370
    15
100
AcDbPolyline
 90
       67
 70
   128
 43
0.0
 10
114.0442218475
 20
343.5315413737
 10
113.9672433994
 20
343.5315415415
 10
113.7370051837
 20
343.5315415277
 10
113.3555922736
 20
343.5315413322
 10
112.8264588032
 20
343.5315409569
 10
112.1543966873
 20
343.5315404051
 10
111.3454922244
 20
343.5315396819
 10
110.4070709787
 20
343.5315387938
 10
109.3476314382
 20
343.5315377489
 10
108.1767680515
 20
343.5315365565
 10
106.9050843388
 20
343.5315352276
 10
105.5440968646
 20
343.5315337741
 10
104.1061309423
 20
343.5315322092
 10
102.6042090139
 20
343.5315305471
 10
101.051932717
 20
343.5315288028
 10
99.4633597062
 20
343.5315269922
 10
97.8528763446
 20
343.5315251315
 10
96.2350674189
 20
343.5315232378
 10
94.6245840572
 20
343.531521328
 10
93.0360110464
 20
343.5315194196
 10
91.4837347495
 20
343.5315175298
 10
89.9818128211
 20
343.5315156757
 10
88.5438468988
 20
343.5315138741
 10
87.1828594246
 20
343.5315121414
 10
85.9111757119
 20
343.5315104931
 10
84.7403123252
 20
343.5315089443
 10
83.6808727847
 20
343.5315075089
 10
82.742451539
 20
343.5315062001
 10
81.9335470761
 20
343.5315050295
 10
81.2614849602
 20
343.5315040079
 10
80.7323514899
 20
343.5315031444
 10
80.3509385797
 20
343.5315024469
 10
80.1207003641
 20
343.5315019218
 10
80.0437219159
 20
343.5315015737
 10
80.1207003641
 20
343.5315014058
 10
80.3509385797
 20
343.5315014197
 10
80.7323514899
 20
343.5315016151
 10
81.2614849602
 20
343.5315019905
 10
81.9335470761
 20
343.5315025422
 10
82.742451539
 20
343.5315032654
 10
83.6808727847
 20
343.5315041535
 10
84.7403123252
 20
343.5315051985
 10
85.9111757119
 20
343.5315063908
 10
87.1828594246
 20
343.5315077198
 10
88.5438468988
 20
343.5315091733
 10
89.9818128211
 20
343.5315107381
 10
91.4837347495
 20
343.5315124003
 10
93.0360110464
 20
343.5315141445
 10
94.6245840572
 20
343.5315159552
 10
96.2350674189
 20
343.5315178158
 10
97.8528763446
 20
343.5315197096
 10
99.4633597062
 20
343.5315216193
 10
101.051932717
 20
343.5315235277
 10
102.6042090139
 20
343.5315254176
 10
104.1061309423
 20
343.5315272716
 10
105.5440968646
 20
343.5315290732
 10
106.9050843388
 20
343.531530806
 10
108.1767680515
 20
343.5315324543
 10
109.3476314382
 20
343.5315340031
 10
110.4070709787
 20
343.5315354384
 10
111.3454922244
 20
343.5315367473
 10
112.1543966873
 20
343.5315379178
 10
112.8264588032
 20
343.5315389395
 10
113.3555922736
 20
343.5315398029
 10
113.7370051837
 20
343.5315405004
 10
113.9672433994
 20
343.5315410256
 10
114.0442218475
 20
343.5315413737
  0
LWPOLYLINE
  5
58
330
1F
100
AcDbEntity
  8
0
  6
Continuous
 62
     7
370
    15
100
AcDbPolyline
 90
       36
 70
   128
 43
0.0
 10
78.0437214676
 20
355.5315015311
 10
78.1202108332
 20
355.5315013488
 10
78.3490630827
 20
355.5315013469
 10
78.7284356324
 20
355.5315015256
 10
79.2552739974
 20
355.5315018835
 10
79.9253363852
 20
355.5315024176
 10
80.7332278472
 20
355.5315031236
 10
81.6724437166
 20
355.5315039958
 10
82.7354219793
 20
355.5315050273
 10
83.9136041595
 20
355.5315062097
 10
85.197504227
 20
355.5315075336
 10
86.5767849733
 20
355.5315089881
 10
88.0403412408
 20
355.5315105617
 10
89.5763893352
 20
355.5315122417
 10
91.1725619002
 20
355.5315140145
 10
92.816007493
 20
355.5315158658
 10
94.493494056
 20
355.5315177808
 10
96.1915154536
 20
355.5315197441
 10
97.8964002161
 20
355.5315217398
 10
99.5944216138
 20
355.5315237518
 10
101.2719081767
 20
355.5315257641
 10
102.9153537695
 20
355.5315277602
 10
104.5115263345
 20
355.5315297243
 10
106.0475744289
 20
355.5315316405
 10
107.5111306965
 20
355.5315334933
 10
108.8904114428
 20
355.5315352678
 10
110.1743115102
 20
355.5315369498
 10
111.3524936904
 20
355.5315385256
 10
112.4154719531
 20
355.5315399827
 10
113.3546878225
 20
355.5315413093
 10
114.1625792846
 20
355.5315424947
 10
114.8326416723
 20
355.5315435293
 10
115.3594800374
 20
355.5315444049
 10
115.738852587
 20
355.5315451143
 10
115.9677048365
 20
355.5315456519
 10
116.0441942021
 20
355.5315460133
  0
LWPOLYLINE
  5
59
330
1F
100
AcDbEntity
  8
0
  6
Continuous
 62
     7
370
    15
100
AcDbPolyline
 90
       71
 70
   128
 43
0.0
 10
116.0441406351
 20
378.5315383839
 10
115.9676513768
 20
378.5315385663
 10
115.7387994482
 20
378.5315385681
 10
115.3594274305
 20
378.5315383894
 10
114.8325898043
 20
378.5315380315
 10
114.1625283561
 20
378.5315374974
 10
113.354638027
 20
378.5315367914
 10
112.4154234747
 20
378.5315359192
 10
111.3524467025
 20
378.5315348877
 10
110.1742661745
 20
378.5315337053
 10
108.8903679075
 20
378.5315323815
 10
107.5110890953
 20
378.5315309269
 10
106.0475348801
 20
378.5315293533
 10
104.5114889397
 20
378.5315276733
 10
102.915318613
 20
378.5315259006
 10
101.2718753248
 20
378.5315240492
 10
99.5943911141
 20
378.5315221342
 10
97.8963720976
 20
378.5315201709
 10
96.1914897259
 20
378.5315181752
 10
94.4934707094
 20
378.5315161632
 10
92.8159864987
 20
378.531514151
 10
91.1725432105
 20
378.5315121548
 10
89.5763728838
 20
378.5315101907
 10
88.0403269434
 20
378.5315082746
 10
86.5767727282
 20
378.5315064218
 10
85.197493916
 20
378.5315046473
 10
83.913595649
 20
378.5315029653
 10
82.735415121
 20
378.5315013894
 10
81.6724383488
 20
378.5314999323
 10
80.7332237965
 20
378.5314986058
 10
79.9253334674
 20
378.5314974204
 10
79.2552720193
 20
378.5314963858
 10
78.728434393
 20
378.5314955102
 10
78.3490623753
 20
378.5314948008
 10
78.1202104467
 20
378.5314942632
 10
78.0437211884
 20
378.5314939017
 10
78.1202104467
 20
378.5314937194
 10
78.3490623753
 20
378.5314937175
 10
78.728434393
 20
378.5314938963
 10
79.2552720193
 20
378.5314942541
 10
79.9253334674
 20
378.5314947882
 10
80.7332237965
 20
378.5314954942
 10
81.6724383488
 20
378.5314963664
 10
82.735415121
 20
378.5314973979
 10
83.913595649
 20
378.5314985803
 10
85.197493916
 20
378.5314999042
 10
86.5767727282
 20
378.5315013587
 10
88.0403269434
 20
378.5315029323
 10
89.5763728838
 20
378.5315046123
 10
91.1725432105
 20
378.5315063851
 10
92.8159864987
 20
378.5315082364
 10
94.4934707094
 20
378.5315101514
 10
96.1914897259
 20
378.5315121147
 10
97.8963720976
 20
378.5315141104
 10
99.5943911142
 20
378.5315161224
 10
101.2718753248
 20
378.5315181346
 10
102.915318613
 20
378.5315201308
 10
104.5114889397
 20
378.5315220949
 10
106.0475348801
 20
378.531524011
 10
107.5110890953
 20
378.5315258638
 10
108.8903679075
 20
378.5315276383
 10
110.1742661745
 20
378.5315293203
 10
111.3524467025
 20
378.5315308962
 10
112.4154234747
 20
378.5315323533
 10
113.354638027
 20
378.5315336798
 10
114.1625283561
 20
378.5315348652
 10
114.8325898043
 20
378.5315358998
 10
115.3594274305
 20
378.5315367754
 10
115.7387994482
 20
378.5315374848
 10
115.9676513768
 20
378.5315380224
 10
116.0441406351
 20
378.5315383839
  0
CIRCLE
  5
5A
330
1F
100
AcDbEntity
  8
0
  6
Continuous
 62
     7
370
    15
100
AcDbCircle
 10
97.0439309118
 20
223.6269322019
 30
0.0
 40
19.00020972344062
  0
CIRCLE
  5
5B
330
1F
100
AcDbEntity
  8
0
  6
Continuous
 62
     7
370
    15
100
AcDbCircle
 10
97.0439718817
 20
223.6269377896
 30
0.0
 40
23.0002507900391
  0
ARC
  5
5C
330
1F
100
AcDbEntity
  8
0
  6
Continuous
 62
     7
370
    15
100
AcDbCircle
 10
97.0439835874
 20
223.6269393861
 30
0.0
 40
23.00026242312087
100
AcDbArc
 50
0.0001341375
 51
177.7241515734
  0
ARC
  5
5D
330
1F
100
AcDbEntity
  8
0
  6
Continuous
 62
     7
370
    15
100
AcDbCircle
 10
97.0439835874
 20
223.6269393861
 30
0.0
 40
23.00026242312087
100
AcDbArc
 50
197.8085105382
 51
0.0001341375
  0
CIRCLE
  5
5E
330
1F
100
AcDbEntity
  8
0
  6
Continuous
 62
     7
370
    15
100
AcDbCircle
 10
97.0440409453
 20
223.6269472088
 30
0.0
 40
38.50032470621158
  0
CIRCLE
  5
5F
330
1F
100
AcDbEntity
  8
0
  6
Continuous
 62
     7
370
    15
100
AcDbCircle
 10
97.0440409453
 20
223.6269472088
 30
0.0
 40
41.00032740773967
  0
ENDSEC
  0
SECTION
  2
OBJECTS
  0
DICTIONARY
  5
C
330
0
100
AcDbDictionary
281
     1
  3
ACAD_GROUP
350
D
  3
ACAD_LAYOUT
350
1A
  3
ACAD_MLINESTYLE
350
17
  3
ACAD_PLOTSETTINGS
350
19
  3
ACAD_PLOTSTYLENAME
350
E
  0
DICTIONARY
  5
D
102
{ACAD_REACTORS
330
C
102
}
330
C
100
AcDbDictionary
281
     1
  0
DICTIONARY
  5
1A
102
{ACAD_REACTORS
330
C
102
}
330
C
100
AcDbDictionary
281
     1
  3
Layout1
350
1E
  3
Layout2
350
26
  3
Model
350
22
  0
DICTIONARY
  5
17
102
{ACAD_REACTORS
330
C
102
}
330
C
100
AcDbDictionary
281
     1
  3
Standard
350
18
  0
DICTIONARY
  5
19
102
{ACAD_REACTORS
330
C
102
}
330
C
100
AcDbDictionary
281
     1
  0
ACDBDICTIONARYWDFLT
  5
E
102
{ACAD_REACTORS
330
C
102
}
330
C
100
AcDbDictionary
281
     1
  3
Normal
350
F
100
AcDbDictionaryWithDefault
340
F
  0
LAYOUT
  5
1E
102
{ACAD_REACTORS
330
1A
102
}
330
1A
100
AcDbPlotSettings
  1

  2
none_device
  4

  6

 40
0.0
 41
0.0
 42
0.0
 43
0.0
 44
0.0
 45
0.0
 46
0.0
 47
0.0
 48
0.0
 49
0.0
140
0.0
141
0.0
142
1.0
143
1.0
 70
   688
 72
     0
 73
     0
 74
     5
  7

 75
    16
147
1.0
148
0.0
149
0.0
100
AcDbLayout
  1
Layout1
 70
     1
 71
     1
 10
0.0
 20
0.0
 11
420.0
 21
297.0
 12
0.0
 22
0.0
 32
0.0
 14
1.0000000000E+20
 24
1.0000000000E+20
 34
1.0000000000E+20
 15
-1.0000000000E+20
 25
-1.0000000000E+20
 35
-1.0000000000E+20
146
0.0
 13
0.0
 23
0.0
 33
0.0
 16
1.0
 26
0.0
 36
0.0
 17
0.0
 27
1.0
 37
0.0
 76
     0
330
1B
  0
LAYOUT
  5
26
102
{ACAD_REACTORS
330
1A
102
}
330
1A
100
AcDbPlotSettings
  1

  2
none_device
  4

  6

 40
0.0
 41
0.0
 42
0.0
 43
0.0
 44
0.0
 45
0.0
 46
0.0
 47
0.0
 48
0.0
 49
0.0
140
0.0
141
0.0
142
1.0
143
1.0
 70
   688
 72
     0
 73
     0
 74
     5
  7

 75
    16
147
1.0
148
0.0
149
0.0
100
AcDbLayout
  1
Layout2
 70
     1
 71
     2
 10
0.0
 20
0.0
 11
0.0
 21
0.0
 12
0.0
 22
0.0
 32
0.0
 14
0.0
 24
0.0
 34
0.0
 15
0.0
 25
0.0
 35
0.0
146
0.0
 13
0.0
 23
0.0
 33
0.0
 16
1.0
 26
0.0
 36
0.0
 17
0.0
 27
1.0
 37
0.0
 76
     0
330
23
  0
LAYOUT
  5
22
102
{ACAD_REACTORS
330
1A
102
}
330
1A
100
AcDbPlotSettings
  1

  2
none_device
  4

  6

 40
0.0
 41
0.0
 42
0.0
 43
0.0
 44
0.0
 45
0.0
 46
0.0
 47
0.0
 48
0.0
 49
0.0
140
0.0
141
0.0
142
1.0
143
1.0
 70
  1712
 72
     0
 73
     0
 74
     0
  7

 75
     0
147
1.0
148
0.0
149
0.0
100
AcDbLayout
  1
Model
 70
     1
 71
     0
 10
0.0
 20
0.0
 11
558.8
 21
431.8
 12
0.0
 22
0.0
 32
0.0
 14
0.0
 24
0.0
 34
0.0
 15
558.8
 25
431.8
 35
0.0
146
0.0
 13
0.0
 23
0.0
 33
0.0
 16
1.0
 26
0.0
 36
0.0
 17
0.0
 27
1.0
 37
0.0
 76
     0
330
1F
331
29
  0
MLINESTYLE
  5
18
102
{ACAD_REACTORS
330
17
102
}
330
17
100
AcDbMlineStyle
  2
Standard
 70
     0
  3

 62
   256
 51
90.0
 52
90.0
 71
     2
 49
0.5
 62
   256
  6
BYLAYER
 49
-0.5
 62
   256
  6
BYLAYER
  0
ACDBPLACEHOLDER
  5
F
102
{ACAD_REACTORS
330
E
102
}
330
E
  0
ENDSEC
  0
EOF
