  0
SECTION
  2
HEADER
  9
$ACADVER
  1
AC1015
  9
$ACADMAINTVER
 70
     6
  9
$DWGCODEPAGE
  3
ANSI_1251
  9
$INSBASE
 10
0.0
 20
0.0
 30
0.0
  9
$EXTMIN
 10
0.0
 20
0.0
 30
0.0
  9
$EXTMAX
 10
5588.0
 20
4318.0
 30
0.0
  9
$LIMMIN
 10
0.0
 20
0.0
  9
$LIMMAX
 10
5588.0
 20
4318.0
  9
$ORTHOMODE
 70
     0
  9
$REGENMODE
 70
     1
  9
$FILLMODE
 70
     1
  9
$QTEXTMODE
 70
     0
  9
$MIRRTEXT
 70
     1
  9
$LTSCALE
 40
20.0
  9
$ATTMODE
 70
     1
  9
$TEXTSIZE
 40
70.0
  9
$TRACEWID
 40
1.0
  9
$TEXTSTYLE
  7
Standard
  9
$CLAYER
  8
0
  9
$CELTYPE
  6
ByLayer
  9
$CECOLOR
 62
   256
  9
$CELTSCALE
 40
1.0
  9
$DISPSILH
 70
     0
  9
$DIMSCALE
 40
1.0
  9
$DIMASZ
 40
70.0
  9
$DIMEXO
 40
0.2
  9
$DIMDLI
 40
3.75
  9
$DIMRND
 40
0.0
  9
$DIMDLE
 40
0.0
  9
$DIMEXE
 40
20.0
  9
$DIMTP
 40
0.0
  9
$DIMTM
 40
0.0
  9
$DIMTXT
 40
70.0
  9
$DIMCEN
 40
2.5
  9
$DIMTSZ
 40
0.0
  9
$DIMTOL
 70
     0
  9
$DIMLIM
 70
     0
  9
$DIMTIH
 70
     1
  9
$DIMTOH
 70
     1
  9
$DIMSE1
 70
     0
  9
$DIMSE2
 70
     0
  9
$DIMTAD
 70
     1
  9
$DIMZIN
 70
     0
  9
$DIMBLK
  1

  9
$DIMASO
 70
     1
  9
$DIMSHO
 70
     1
  9
$DIMPOST
  1

  9
$DIMAPOST
  1

  9
$DIMALT
 70
     0
  9
$DIMALTD
 70
     3
  9
$DIMALTF
 40
0.0393700787
  9
$DIMLFAC
 40
1.0
  9
$DIMTOFL
 70
     1
  9
$DIMTVP
 40
0.0
  9
$DIMTIX
 70
     0
  9
$DIMSOXD
 70
     0
  9
$DIMSAH
 70
     0
  9
$DIMBLK1
  1

  9
$DIMBLK2
  1

  9
$DIMSTYLE
  2
ISO-25
  9
$DIMCLRD
 70
     0
  9
$DIMCLRE
 70
     0
  9
$DIMCLRT
 70
     0
  9
$DIMTFAC
 40
1.0
  9
$DIMGAP
 40
60.0
  9
$DIMJUST
 70
     0
  9
$DIMSD1
 70
     0
  9
$DIMSD2
 70
     0
  9
$DIMTOLJ
 70
     0
  9
$DIMTZIN
 70
     0
  9
$DIMALTZ
 70
     0
  9
$DIMALTTZ
 70
     0
  9
$DIMUPT
 70
     0
  9
$DIMDEC
 70
     2
  9
$DIMTDEC
 70
     3
  9
$DIMALTU
 70
     2
  9
$DIMALTTD
 70
     3
  9
$DIMTXSTY
  7
Standard
  9
$DIMAUNIT
 70
     0
  9
$DIMADEC
 70
     2
  9
$DIMALTRND
 40
0.0
  9
$DIMAZIN
 70
     0
  9
$DIMDSEP
 70
    44
  9
$DIMATFIT
 70
     3
  9
$DIMFRAC
 70
     0
  9
$DIMLDRBLK
  1

  9
$DIMLUNIT
 70
     2
  9
$DIMLWD
 70
    -2
  9
$DIMLWE
 70
    -2
  9
$DIMTMOVE
 70
     0
  9
$LUNITS
 70
     2
  9
$LUPREC
 70
     2
  9
$SKETCHINC
 40
1.0
  9
$FILLETRAD
 40
10.0
  9
$AUNITS
 70
     0
  9
$AUPREC
 70
     2
  9
$MENU
  1
.
  9
$ELEVATION
 40
0.0
  9
$PELEVATION
 40
0.0
  9
$THICKNESS
 40
0.0
  9
$LIMCHECK
 70
     0
  9
$CHAMFERA
 40
10.0
  9
$CHAMFERB
 40
10.0
  9
$CHAMFERC
 40
20.0
  9
$CHAMFERD
 40
0.0
  9
$SKPOLY
 70
     0
  9
$TDCREATE
 40
2458170.027131493
  9
$TDUCREATE
 40
2458169.94379816
  9
$TDUPDATE
 40
2458170.027132211
  9
$TDUUPDATE
 40
2458169.943798877
  9
$TDINDWG
 40
0.0000000116
  9
$TDUSRTIMER
 40
0.0000000116
  9
$USRTIMER
 70
     1
  9
$ANGBASE
 50
0.0
  9
$ANGDIR
 70
     0
  9
$PDMODE
 70
     0
  9
$PDSIZE
 40
-1.0
  9
$PLINEWID
 40
0.0
  9
$SPLFRAME
 70
     0
  9
$SPLINETYPE
 70
     6
  9
$SPLINESEGS
 70
     8
  9
$HANDSEED
  5
6E
  9
$SURFTAB1
 70
     6
  9
$SURFTAB2
 70
     6
  9
$SURFTYPE
 70
     6
  9
$SURFU
 70
     6
  9
$SURFV
 70
     6
  9
$UCSBASE
  2

  9
$UCSNAME
  2

  9
$UCSORG
 10
0.0
 20
0.0
 30
0.0
  9
$UCSXDIR
 10
1.0
 20
0.0
 30
0.0
  9
$UCSYDIR
 10
0.0
 20
1.0
 30
0.0
  9
$UCSORTHOREF
  2

  9
$UCSORTHOVIEW
 70
     0
  9
$UCSORGTOP
 10
0.0
 20
0.0
 30
0.0
  9
$UCSORGBOTTOM
 10
0.0
 20
0.0
 30
0.0
  9
$UCSORGLEFT
 10
0.0
 20
0.0
 30
0.0
  9
$UCSORGRIGHT
 10
0.0
 20
0.0
 30
0.0
  9
$UCSORGFRONT
 10
0.0
 20
0.0
 30
0.0
  9
$UCSORGBACK
 10
0.0
 20
0.0
 30
0.0
  9
$PUCSBASE
  2

  9
$PUCSNAME
  2

  9
$PUCSORG
 10
0.0
 20
0.0
 30
0.0
  9
$PUCSXDIR
 10
1.0
 20
0.0
 30
0.0
  9
$PUCSYDIR
 10
0.0
 20
1.0
 30
0.0
  9
$PUCSORTHOREF
  2

  9
$PUCSORTHOVIEW
 70
     0
  9
$PUCSORGTOP
 10
0.0
 20
0.0
 30
0.0
  9
$PUCSORGBOTTOM
 10
0.0
 20
0.0
 30
0.0
  9
$PUCSORGLEFT
 10
0.0
 20
0.0
 30
0.0
  9
$PUCSORGRIGHT
 10
0.0
 20
0.0
 30
0.0
  9
$PUCSORGFRONT
 10
0.0
 20
0.0
 30
0.0
  9
$PUCSORGBACK
 10
0.0
 20
0.0
 30
0.0
  9
$USERI1
 70
     0
  9
$USERI2
 70
     0
  9
$USERI3
 70
     0
  9
$USERI4
 70
     0
  9
$USERI5
 70
     0
  9
$USERR1
 40
0.0
  9
$USERR2
 40
0.0
  9
$USERR3
 40
0.0
  9
$USERR4
 40
0.0
  9
$USERR5
 40
0.0
  9
$WORLDVIEW
 70
     1
  9
$SHADEDGE
 70
     3
  9
$SHADEDIF
 70
    70
  9
$TILEMODE
 70
     1
  9
$MAXACTVP
 70
    64
  9
$PINSBASE
 10
0.0
 20
0.0
 30
0.0
  9
$PLIMCHECK
 70
     0
  9
$PEXTMIN
 10
1.0000000000E+20
 20
1.0000000000E+20
 30
1.0000000000E+20
  9
$PEXTMAX
 10
-1.0000000000E+20
 20
-1.0000000000E+20
 30
-1.0000000000E+20
  9
$PLIMMIN
 10
0.0
 20
0.0
  9
$PLIMMAX
 10
420.0
 20
297.0
  9
$UNITMODE
 70
     0
  9
$VISRETAIN
 70
     1
  9
$PLINEGEN
 70
     0
  9
$PSLTSCALE
 70
     1
  9
$TREEDEPTH
 70
  3020
  9
$CMLSTYLE
  2
Standard
  9
$CMLJUST
 70
     0
  9
$CMLSCALE
 40
20.0
  9
$PROXYGRAPHICS
 70
     1
  9
$MEASUREMENT
 70
     1
  9
$CELWEIGHT
370
    -1
  9
$ENDCAPS
280
     0
  9
$JOINSTYLE
280
     0
  9
$LWDISPLAY
290
     1
  9
$INSUNITS
 70
     4
  9
$HYPERLINKBASE
  1

  9
$STYLESHEET
  1

  9
$XEDIT
290
     1
  9
$CEPSNTYPE
380
     0
  9
$PSTYLEMODE
290
     1
  9
$FINGERPRINTGUID
  2
{9B55925E-7BC4-4CB7-BE21-02E4E59537DB}
  9
$VERSIONGUID
  2
{FAEB1C32-E019-11D5-929B-00C0DF256EC4}
  9
$EXTNAMES
290
     1
  9
$PSVPSCALE
 40
0.0
  9
$OLESTARTUP
290
     0
  0
ENDSEC
  0
SECTION
  2
CLASSES
  0
CLASS
  1
ACDBDICTIONARYWDFLT
  2
AcDbDictionaryWithDefault
  3
ObjectDBX Classes
 90
        0
280
     0
281
     0
  0
CLASS
  1
VISUALSTYLE
  2
AcDbVisualStyle
  3
ObjectDBX Classes
 90
     4095
280
     0
281
     0
  0
CLASS
  1
MATERIAL
  2
AcDbMaterial
  3
ObjectDBX Classes
 90
     1153
280
     0
281
     0
  0
CLASS
  1
ACDBPLACEHOLDER
  2
AcDbPlaceHolder
  3
ObjectDBX Classes
 90
        0
280
     0
281
     0
  0
CLASS
  1
LAYOUT
  2
AcDbLayout
  3
ObjectDBX Classes
 90
        0
280
     0
281
     0
  0
ENDSEC
  0
SECTION
  2
TABLES
  0
TABLE
  2
VPORT
  5
8
330
0
100
AcDbSymbolTable
 70
     1
  0
VPORT
  5
29
330
8
100
AcDbSymbolTableRecord
100
AcDbViewportTableRecord
  2
*Active
 70
     0
 10
0.0
 20
0.0
 11
1.0
 21
1.0
 12
2794.0
 22
2159.0
 13
0.0
 23
0.0
 14
10.0
 24
10.0
 15
10.0
 25
10.0
 16
0.0
 26
0.0
 36
1.0
 17
0.0
 27
0.0
 37
0.0
 40
4318.0
 41
1.2941176471
 42
50.0
 43
0.0
 44
0.0
 50
0.0
 51
0.0
 71
     0
 72
  2000
 73
     1
 74
     3
 75
     0
 76
     0
 77
     0
 78
     0
281
     0
 65
     1
110
0.0
120
0.0
130
0.0
111
1.0
121
0.0
131
0.0
112
0.0
122
1.0
132
0.0
 79
     0
146
0.0
  0
ENDTAB
  0
TABLE
  2
LTYPE
  5
5
330
0
100
AcDbSymbolTable
 70
     6
  0
LTYPE
  5
14
330
5
100
AcDbSymbolTableRecord
100
AcDbLinetypeTableRecord
  2
ByBlock
 70
     0
  3

 72
    65
 73
     0
 40
0.0
  0
LTYPE
  5
15
330
5
100
AcDbSymbolTableRecord
100
AcDbLinetypeTableRecord
  2
ByLayer
 70
     0
  3

 72
    65
 73
     0
 40
0.0
  0
LTYPE
  5
16
330
5
100
AcDbSymbolTableRecord
100
AcDbLinetypeTableRecord
  2
Continuous
 70
     0
  3
Solid line
 72
    65
 73
     0
 40
0.0
  0
LTYPE
  5
3F
330
5
100
AcDbSymbolTableRecord
100
AcDbLinetypeTableRecord
  2
HIDDEN
 70
     0
  3
Hidden __ __ __ __ __ __ __ __ __ __ __ __ __ __
 72
    65
 73
     2
 40
1.905
 49
1.27
 74
     0
 49
-0.635
 74
     0
  0
LTYPE
  5
40
330
5
100
AcDbSymbolTableRecord
100
AcDbLinetypeTableRecord
  2
PHANTOM
 70
     0
  3
Phantom ______  __  __  ______  __  __  ______
 72
    65
 73
     6
 40
12.7
 49
6.35
 74
     0
 49
-1.27
 74
     0
 49
1.27
 74
     0
 49
-1.27
 74
     0
 49
1.27
 74
     0
 49
-1.27
 74
     0
  0
LTYPE
  5
41
330
5
100
AcDbSymbolTableRecord
100
AcDbLinetypeTableRecord
  2
CENTER
 70
     0
  3
Center ____ _ ____ _ ____ _ ____ _ ____ _ ____
 72
    65
 73
     4
 40
10.16
 49
6.35
 74
     0
 49
-1.27
 74
     0
 49
1.27
 74
     0
 49
-1.27
 74
     0
  0
LTYPE
  5
42
330
5
100
AcDbSymbolTableRecord
100
AcDbLinetypeTableRecord
  2
CENTERX2
 70
     0
  3
Center (2x) ________  __  ________  __  _____
 72
    65
 73
     4
 40
20.32
 49
12.7
 74
     0
 49
-2.54
 74
     0
 49
2.54
 74
     0
 49
-2.54
 74
     0
  0
LTYPE
  5
43
330
5
100
AcDbSymbolTableRecord
100
AcDbLinetypeTableRecord
  2
DOT2
 70
     0
  3
Dot (.5x) ........................................
 72
    65
 73
     2
 40
0.635
 49
0.0
 74
     0
 49
-0.635
 74
     0
  0
ENDTAB
  0
TABLE
  2
LAYER
  5
2
330
0
100
AcDbSymbolTable
 70
     1
  0
LAYER
  5
10
330
2
100
AcDbSymbolTableRecord
100
AcDbLayerTableRecord
  2
0
 70
     0
 62
     7
  6
Continuous
370
    -3
390
F
  0
ENDTAB
  0
TABLE
  2
STYLE
  5
3
330
0
100
AcDbSymbolTable
 70
     1
  0
STYLE
  5
11
330
3
100
AcDbSymbolTableRecord
100
AcDbTextStyleTableRecord
  2
Standard
 70
     0
 40
0.0
 41
1.0
 50
0.0
 71
     0
 42
70.0
  3
txt
  4

  0
ENDTAB
  0
TABLE
  2
VIEW
  5
6
330
0
100
AcDbSymbolTable
 70
     0
  0
ENDTAB
  0
TABLE
  2
UCS
  5
7
330
0
100
AcDbSymbolTable
 70
     0
  0
ENDTAB
  0
TABLE
  2
APPID
  5
9
330
0
100
AcDbSymbolTable
 70
     1
  0
APPID
  5
12
330
9
100
AcDbSymbolTableRecord
100
AcDbRegAppTableRecord
  2
ACAD
 70
     0
  0
ENDTAB
  0
TABLE
  2
DIMSTYLE
  5
A
330
0
100
AcDbSymbolTable
 70
     1
100
AcDbDimStyleTable
  0
DIMSTYLE
105
27
330
A
100
AcDbSymbolTableRecord
100
AcDbDimStyleTableRecord
  2
ISO-25
 70
     0
 41
2.5
 42
0.625
 43
3.75
 44
1.25
 73
     0
 74
     0
 77
     1
 78
     8
140
2.5
141
2.5
143
0.0393700787
147
0.625
171
     3
172
     1
178
     0
271
     2
272
     2
274
     3
278
    44
283
     0
284
     8
340
11
  0
ENDTAB
  0
TABLE
  2
BLOCK_RECORD
  5
1
330
0
100
AcDbSymbolTable
 70
     1
  0
BLOCK_RECORD
  5
1F
330
1
100
AcDbSymbolTableRecord
100
AcDbBlockTableRecord
  2
*Model_Space
340
22
  0
BLOCK_RECORD
  5
1B
330
1
100
AcDbSymbolTableRecord
100
AcDbBlockTableRecord
  2
*Paper_Space
340
1E
  0
BLOCK_RECORD
  5
23
330
1
100
AcDbSymbolTableRecord
100
AcDbBlockTableRecord
  2
*Paper_Space0
340
26
  0
ENDTAB
  0
ENDSEC
  0
SECTION
  2
BLOCKS
  0
BLOCK
  5
20
330
1F
100
AcDbEntity
  8
0
100
AcDbBlockBegin
  2
*Model_Space
 70
     0
 10
0.0
 20
0.0
 30
0.0
  3
*Model_Space
  1

  0
ENDBLK
  5
21
330
1F
100
AcDbEntity
  8
0
100
AcDbBlockEnd
  0
BLOCK
  5
1C
330
1B
100
AcDbEntity
 67
     1
  8
0
100
AcDbBlockBegin
  2
*Paper_Space
 70
     0
 10
0.0
 20
0.0
 30
0.0
  3
*Paper_Space
  1

  0
ENDBLK
  5
1D
330
1B
100
AcDbEntity
 67
     1
  8
0
100
AcDbBlockEnd
  0
BLOCK
  5
24
330
23
100
AcDbEntity
  8
0
100
AcDbBlockBegin
  2
*Paper_Space0
 70
     0
 10
0.0
 20
0.0
 30
0.0
  3
*Paper_Space0
  1

  0
ENDBLK
  5
25
330
23
100
AcDbEntity
  8
0
100
AcDbBlockEnd
  0
ENDSEC
  0
SECTION
  2
ENTITIES
  0
LINE
  5
44
330
1F
100
AcDbEntity
  8
0
  6
Continuous
 62
     7
370
    15
100
AcDbLine
 10
458.9423136768
 20
3218.3919093754
 30
0.0
 11
458.9423136768
 21
3218.4550841278
 31
0.0
  0
SPLINE
  5
45
330
1F
100
AcDbEntity
  8
0
  6
Continuous
 62
     7
370
    15
100
AcDbSpline
210
0.0
220
0.0
230
1.0
 70
     8
 71
     3
 72
    38
 73
    34
 74
     0
 42
0.00000001
 43
0.00000001
 12
1.0
 22
0.0
 32
0.0
 13
1.0
 23
0.0
 33
0.0
 40
0.0
 40
0.0
 40
0.0
 40
0.0
 40
0.1249999999999843
 40
0.1249999999999843
 40
0.1874999999999764
 40
0.1874999999999764
 40
0.2187499999999726
 40
0.2187499999999726
 40
0.2499999999999688
 40
0.2499999999999688
 40
0.3749999999999589
 40
0.3749999999999589
 40
0.4062499999999573
 40
0.4062499999999573
 40
0.4374999999999556
 40
0.4374999999999556
 40
0.4999999999999568
 40
0.4999999999999568
 40
0.6249999999999589
 40
0.6249999999999589
 40
0.6562499999999624
 40
0.6562499999999624
 40
0.6874999999999658
 40
0.6874999999999658
 40
0.7499999999999726
 40
0.7499999999999726
 40
0.8124999999999795
 40
0.8124999999999795
 40
0.8437499999999829
 40
0.8437499999999829
 40
0.8749999999999862
 40
0.8749999999999862
 40
1.0
 40
1.0
 40
1.0
 40
1.0
 10
458.9423136767978
 20
3218.455084127797
 30
0.0
 10
458.9423136767977
 20
3214.704706104686
 30
0.0
 10
459.2961120471512
 20
3210.966082967888
 30
0.0
 10
460.3713822127141
 20
3205.383051987126
 30
0.0
 10
460.8210989268915
 20
3203.526261732419
 30
0.0
 10
461.6396621541813
 20
3200.74906384989
 30
0.0
 10
461.9374375179569
 20
3199.822205367018
 30
0.0
 10
462.5783225901781
 20
3197.984017753725
 30
0.0
 10
462.9206287051751
 20
3197.074544350371
 30
0.0
 10
464.74030222034
 20
3192.575223033938
 30
0.0
 10
466.5393309856514
 20
3189.128153639207
 30
0.0
 10
469.2262749751924
 20
3185.022350565806
 30
0.0
 10
469.7857470210896
 20
3184.211428572809
 30
0.0
 10
470.9498215654773
 20
3182.610746935251
 30
0.0
 10
471.5561230418031
 20
3181.819018949156
 30
0.0
 10
473.4243883600149
 20
3179.501200932546
 30
0.0
 10
474.7391498110842
 20
3178.026553779047
 30
0.0
 10
478.8860219896587
 20
3173.810705709632
 30
0.0
 10
481.9187807727171
 20
3171.275587773473
 30
0.0
 10
486.0567301135233
 20
3168.468648046661
 30
0.0
 10
486.8983534568283
 20
3167.927998884344
 30
0.0
 10
488.5991478877981
 20
3166.894082165247
 30
0.0
 10
489.4598589573114
 20
3166.399761445004
 30
0.0
 10
492.0724751527897
 20
3164.983790197019
 30
0.0
 10
493.8547899668469
 20
3164.128971421908
 30
0.0
 10
497.4999411928363
 20
3162.596698440278
 30
0.0
 10
499.3627743787297
 20
3161.919236554115
 30
0.0
 10
502.2187452597392
 20
3161.039249455997
 30
0.0
 10
503.1830917205099
 20
3160.768157208816
 30
0.0
 10
505.1228673978428
 20
3160.274999470435
 30
0.0
 10
506.0960131232585
 20
3160.053390696316
 30
0.0
 10
510.9778007271744
 20
3159.068464898357
 30
0.0
 10
514.9341417713385
 20
3158.670868050135
 30
0.0
 10
518.9423136767981
 20
3158.670868050135
 30
0.0
  0
LINE
  5
46
330
1F
100
AcDbEntity
  8
0
  6
Continuous
 62
     7
370
    15
100
AcDbLine
 10
518.9423136768
 20
3158.6708680501
 30
0.0
 11
518.9423136768
 21
3158.6113619683
 31
0.0
  0
SPLINE
  5
47
330
1F
100
AcDbEntity
  8
0
  6
Continuous
 62
     7
370
    15
100
AcDbSpline
210
0.0
220
0.0
230
1.0
 70
     8
 71
     3
 72
    38
 73
    34
 74
     0
 42
0.00000001
 43
0.00000001
 12
1.0
 22
0.0
 32
0.0
 13
1.0
 23
0.0
 33
0.0
 40
0.0
 40
0.0
 40
0.0
 40
0.0
 40
0.1249999999999916
 40
0.1249999999999916
 40
0.1874999999999908
 40
0.1874999999999908
 40
0.2187499999999938
 40
0.2187499999999938
 40
0.2499999999999967
 40
0.2499999999999967
 40
0.375000000000002
 40
0.375000000000002
 40
0.4062500000000004
 40
0.4062500000000004
 40
0.4374999999999989
 40
0.4374999999999989
 40
0.4999999999999957
 40
0.4999999999999957
 40
0.6249999999999941
 40
0.6249999999999941
 40
0.6562499999999957
 40
0.6562499999999957
 40
0.6874999999999972
 40
0.6874999999999972
 40
0.7499999999999971
 40
0.7499999999999971
 40
0.8124999999999971
 40
0.8124999999999971
 40
0.8437499999999971
 40
0.8437499999999971
 40
0.8749999999999971
 40
0.8749999999999971
 40
1.0
 40
1.0
 40
1.0
 40
1.0
 10
518.942313676798
 20
3158.611361968271
 30
0.0
 10
514.9322294469063
 20
3158.611361968271
 30
0.0
 10
510.9898489583641
 20
3159.009289345202
 30
0.0
 10
505.1737275709783
 20
3160.178599162894
 30
0.0
 10
503.2513856642112
 20
3160.664492326488
 30
0.0
 10
500.3930155870754
 20
3161.5409062414
 30
0.0
 10
499.4420968189293
 20
3161.858548089225
 30
0.0
 10
497.5603406992382
 20
3162.540017399742
 30
0.0
 10
496.631762155747
 20
3162.902874926951
 30
0.0
 10
492.049180360106
 20
3164.825502197275
 30
0.0
 10
488.574361101488
 20
3166.707200184838
 30
0.0
 10
484.4690683773112
 20
3169.48459380558
 30
0.0
 10
483.6600302398056
 20
3170.061528146237
 30
0.0
 10
482.0664200051002
 20
3171.258987304703
 30
0.0
 10
481.2798065094403
 20
3171.881312126601
 30
0.0
 10
478.9806980559795
 20
3173.795367145608
 30
0.0
 10
477.524086194584
 20
3175.136871269638
 30
0.0
 10
473.3758681910008
 20
3179.349960949729
 30
0.0
 10
470.9038935695172
 20
3182.408461436127
 30
0.0
 10
468.1893661123103
 20
3186.544266953292
 30
0.0
 10
467.6655557519614
 20
3187.387305737884
 30
0.0
 10
466.6680144889324
 20
3189.084674075603
 30
0.0
 10
466.1926148965861
 20
3189.941458934612
 30
0.0
 10
464.8349605266294
 20
3192.535191918483
 30
0.0
 10
464.0211071798406
 20
3194.295462065647
 30
0.0
 10
462.5712390030186
 20
3197.874796200816
 30
0.0
 10
461.9352330274313
 20
3199.69386639713
 30
0.0
 10
461.1144974280042
 20
3202.465307286774
 30
0.0
 10
460.863026481157
 20
3203.396844820527
 30
0.0
 10
460.405551703793
 20
3205.271802002123
 30
0.0
 10
460.2009386057007
 20
3206.209389200747
 30
0.0
 10
459.2950368771753
 20
3210.897291435634
 30
0.0
 10
458.9423136767974
 20
3214.647218697962
 30
0.0
 10
458.9423136767978
 20
3218.391909375372
 30
0.0
  0
LINE
  5
48
330
1F
100
AcDbEntity
  8
0
  6
Continuous
 62
     7
370
    15
100
AcDbLine
 10
1949.9423136768
 20
3158.6113619683
 30
0.0
 11
1949.9423136768
 21
3158.6708680501
 31
0.0
  0
SPLINE
  5
49
330
1F
100
AcDbEntity
  8
0
  6
Continuous
 62
     7
370
    15
100
AcDbSpline
210
0.0
220
0.0
230
1.0
 70
     8
 71
     3
 72
    36
 73
    32
 74
     0
 42
0.00000001
 43
0.00000001
 12
1.0
 22
0.0
 32
0.0
 13
1.0
 23
0.0
 33
0.0
 40
0.0
 40
0.0
 40
0.0
 40
0.0
 40
0.1249999999999982
 40
0.1249999999999982
 40
0.1874999999999975
 40
0.1874999999999975
 40
0.2187499999999973
 40
0.2187499999999973
 40
0.2499999999999972
 40
0.2499999999999972
 40
0.3749999999999979
 40
0.3749999999999979
 40
0.4062499999999982
 40
0.4062499999999982
 40
0.4374999999999984
 40
0.4374999999999984
 40
0.4999999999999986
 40
0.4999999999999986
 40
0.6249999999999984
 40
0.6249999999999984
 40
0.6562499999999984
 40
0.6562499999999984
 40
0.6874999999999984
 40
0.6874999999999984
 40
0.7499999999999988
 40
0.7499999999999988
 40
0.8124999999999991
 40
0.8124999999999991
 40
0.8749999999999993
 40
0.8749999999999993
 40
1.0
 40
1.0
 40
1.0
 40
1.0
 10
1949.942313676798
 20
3158.670868050135
 30
0.0
 10
1953.950702512288
 20
3158.670868050135
 30
0.0
 10
1957.891441865983
 20
3159.068461821016
 30
0.0
 10
1963.70518131591
 20
3160.236789230207
 30
0.0
 10
1965.626742744425
 20
3160.722273507663
 30
0.0
 10
1968.48396411484
 20
3161.597944042366
 30
0.0
 10
1969.434483381736
 20
3161.915307995186
 30
0.0
 10
1971.315594648837
 20
3162.596233033069
 30
0.0
 10
1972.243860824761
 20
3162.958802133858
 30
0.0
 10
1976.824932292997
 20
3164.879907611587
 30
0.0
 10
1980.298705419186
 20
3166.760136171173
 30
0.0
 10
1984.402939240351
 20
3169.535376459599
 30
0.0
 10
1985.211778210437
 20
3170.111864122288
 30
0.0
 10
1986.805017259315
 20
3171.308397079555
 30
0.0
 10
1987.591478590503
 20
3171.930254762165
 30
0.0
 10
1989.890385263681
 20
3173.843062421686
 30
0.0
 10
1991.346947144382
 20
3175.183732720267
 30
0.0
 10
1995.495274438808
 20
3179.394367284602
 30
0.0
 10
1997.967668830903
 20
3182.451288086329
 30
0.0
 10
2000.683162735653
 20
3186.585415841386
 30
0.0
 10
2001.207284688495
 20
3187.42828547232
 30
0.0
 10
2002.205491091725
 20
3189.125417590637
 30
0.0
 10
2002.681242527299
 20
3189.982125484654
 30
0.0
 10
2004.039999821744
 20
3192.575764224069
 30
0.0
 10
2004.854652154655
 20
3194.336153443932
 30
0.0
 10
2006.306179621907
 20
3197.91616562185
 30
0.0
 10
2006.943046169575
 20
3199.735794592189
 30
0.0
 10
2008.039057598313
 20
3203.432694181535
 30
0.0
 10
2008.498778222774
 20
3205.316747072127
 30
0.0
 10
2009.588388359155
 20
3210.948151638202
 30
0.0
 10
2009.942313676798
 20
3214.703444849889
 30
0.0
 10
2009.942313676798
 20
3218.455084127797
 30
0.0
  0
LINE
  5
4A
330
1F
100
AcDbEntity
  8
0
  6
Continuous
 62
     7
370
    15
100
AcDbLine
 10
2009.9423136768
 20
3218.4550841278
 30
0.0
 11
2009.9423136768
 21
3218.3919093754
 31
0.0
  0
SPLINE
  5
4B
330
1F
100
AcDbEntity
  8
0
  6
Continuous
 62
     7
370
    15
100
AcDbSpline
210
0.0
220
0.0
230
1.0
 70
     8
 71
     3
 72
    38
 73
    34
 74
     0
 42
0.00000001
 43
0.00000001
 12
1.0
 22
0.0
 32
0.0
 13
1.0
 23
0.0
 33
0.0
 40
0.0
 40
0.0
 40
0.0
 40
0.0
 40
0.1250000000000009
 40
0.1250000000000009
 40
0.1875000000000013
 40
0.1875000000000013
 40
0.2187500000000014
 40
0.2187500000000014
 40
0.2500000000000015
 40
0.2500000000000015
 40
0.3750000000000021
 40
0.3750000000000021
 40
0.4062500000000021
 40
0.4062500000000021
 40
0.4375000000000021
 40
0.4375000000000021
 40
0.5000000000000021
 40
0.5000000000000021
 40
0.6250000000000019
 40
0.6250000000000019
 40
0.6562500000000019
 40
0.6562500000000019
 40
0.6875000000000019
 40
0.6875000000000019
 40
0.7500000000000016
 40
0.7500000000000016
 40
0.8125000000000012
 40
0.8125000000000012
 40
0.8437500000000011
 40
0.8437500000000011
 40
0.875000000000001
 40
0.875000000000001
 40
1.0
 40
1.0
 40
1.0
 40
1.0
 10
2009.942313676798
 20
3218.391909375372
 30
0.0
 10
2009.942313676798
 20
3214.648505837696
 30
0.0
 10
2009.589718777069
 20
3210.915036538047
 30
0.0
 10
2008.51678946521
 20
3205.337340249617
 30
0.0
 10
2008.067947066994
 20
3203.481927355239
 30
0.0
 10
2007.25070195932
 20
3200.70622614609
 30
0.0
 10
2006.953359667882
 20
3199.779750038019
 30
0.0
 10
2006.313381897649
 20
3197.942320394015
 30
0.0
 10
2005.971523638823
 20
3197.03314347136
 30
0.0
 10
2004.154022784278
 20
3192.534930914203
 30
0.0
 10
2002.356510736001
 20
3189.08756276153
 30
0.0
 10
1999.67070232729
 20
3184.980400814309
 30
0.0
 10
1999.111419772766
 20
3184.169157244017
 30
0.0
 10
1997.94763768894
 20
3182.567743647215
 30
0.0
 10
1997.341462609123
 20
3181.775637926036
 30
0.0
 10
1995.473633447013
 20
3179.456809614719
 30
0.0
 10
1994.159030071737
 20
3177.981383862531
 30
0.0
 10
1990.012194818722
 20
3173.76300061694
 30
0.0
 10
1986.978882737658
 20
3171.225926833311
 30
0.0
 10
1982.839351635147
 20
3168.416538219308
 30
0.0
 10
1981.997755035173
 20
3167.875650962344
 30
0.0
 10
1980.296661319092
 20
3166.841055160451
 30
0.0
 10
1979.435766433938
 20
3166.34639168583
 30
0.0
 10
1976.822493818776
 20
3164.929394097339
 30
0.0
 10
1975.039601742047
 20
3164.073893573997
 30
0.0
 10
1971.39299705828
 20
3162.540322798263
 30
0.0
 10
1969.529287822532
 20
3161.862244553146
 30
0.0
 10
1966.671755296452
 20
3160.981432072703
 30
0.0
 10
1965.706713176698
 20
3160.710051287723
 30
0.0
 10
1963.766462141944
 20
3160.216599044049
 30
0.0
 10
1962.793060619905
 20
3159.994852168855
 30
0.0
 10
1957.909903401633
 20
3159.009291889166
 30
0.0
 10
1953.952179838597
 20
3158.611361968271
 30
0.0
 10
1949.942313676798
 20
3158.611361968271
 30
0.0
  0
LINE
  5
4C
330
1F
100
AcDbEntity
  8
0
  6
Continuous
 62
     7
370
    15
100
AcDbLine
 10
1949.9423136768
 20
3158.6708680501
 30
0.0
 11
518.9423136768
 21
3158.6708680501
 31
0.0
  0
LINE
  5
4D
330
1F
100
AcDbEntity
  8
0
  6
Continuous
 62
     7
370
    15
100
AcDbLine
 10
1949.9423136768
 20
3158.6113619683
 30
0.0
 11
518.9423136768
 21
3158.6113619683
 31
0.0
  0
LINE
  5
4E
330
1F
100
AcDbEntity
  8
0
  6
Continuous
 62
     7
370
    15
100
AcDbLine
 10
458.9423136768
 20
3218.4550841278
 30
0.0
 11
458.9423136768
 21
3237.6708680501
 31
0.0
  0
LINE
  5
4F
330
1F
100
AcDbEntity
  8
0
  6
Continuous
 62
     7
370
    15
100
AcDbLine
 10
458.9423136768
 20
3237.6708680501
 30
0.0
 11
2009.9423136768
 21
3237.6708680501
 31
0.0
  0
LINE
  5
50
330
1F
100
AcDbEntity
  8
0
  6
Continuous
 62
     7
370
    15
100
AcDbLine
 10
2009.9423136768
 20
3218.4550841278
 30
0.0
 11
2009.9423136768
 21
3237.6708680501
 31
0.0
  0
LINE
  5
51
330
1F
100
AcDbEntity
  8
0
  6
Continuous
 62
     7
370
    15
100
AcDbLine
 10
2383.368313816
 20
3218.4550841278
 30
0.0
 11
2386.5526432882
 21
3218.3919093754
 31
0.0
  0
SPLINE
  5
52
330
1F
100
AcDbEntity
  8
0
  6
Continuous
 62
     7
370
    15
100
AcDbSpline
210
0.0
220
0.0
230
1.0
 70
     8
 71
     3
 72
    38
 73
    34
 74
     0
 42
0.00000001
 43
0.00000001
 12
1.0
 22
0.0
 32
0.0
 13
1.0
 23
0.0
 33
0.0
 40
0.0
 40
0.0
 40
0.0
 40
0.0
 40
0.1250000000000102
 40
0.1250000000000102
 40
0.1875000000000154
 40
0.1875000000000154
 40
0.218750000000017
 40
0.218750000000017
 40
0.2500000000000186
 40
0.2500000000000186
 40
0.3750000000000276
 40
0.3750000000000276
 40
0.4062500000000299
 40
0.4062500000000299
 40
0.4375000000000322
 40
0.4375000000000322
 40
0.5000000000000324
 40
0.5000000000000324
 40
0.6250000000000329
 40
0.6250000000000329
 40
0.6562500000000301
 40
0.6562500000000301
 40
0.6875000000000273
 40
0.6875000000000273
 40
0.7500000000000216
 40
0.7500000000000216
 40
0.8125000000000161
 40
0.8125000000000161
 40
0.84375000000001
 40
0.84375000000001
 40
0.8750000000000039
 40
0.8750000000000039
 40
1.0
 40
1.0
 40
1.0
 40
1.0
 10
2386.552643288193
 20
3218.391909375372
 30
0.0
 10
2385.120868018091
 20
3214.648505837696
 30
0.0
 10
2383.838329081163
 20
3210.915036538047
 30
0.0
 10
2382.122321974247
 20
3205.337340249617
 30
0.0
 10
2381.585009871974
 20
3203.481927355239
 30
0.0
 10
2380.829464819873
 20
3200.70622614609
 30
0.0
 10
2380.585396947821
 20
3199.779750038019
 30
0.0
 10
2380.117025644186
 20
3197.942320394015
 30
0.0
 10
2379.893122158663
 20
3197.03314347136
 30
0.0
 10
2378.822157242969
 20
3192.534930914203
 30
0.0
 10
2378.120161544788
 20
3189.08756276153
 30
0.0
 10
2377.397454587361
 20
3184.980400814309
 30
0.0
 10
2377.26068578102
 20
3184.169157244017
 30
0.0
 10
2377.001838128066
 20
3182.567743647215
 30
0.0
 10
2376.879493135783
 20
3181.775637926036
 30
0.0
 10
2376.536765885381
 20
3179.456809614719
 30
0.0
 10
2376.339527988158
 20
3177.981383862531
 30
0.0
 10
2375.824356234687
 20
3173.76300061694
 30
0.0
 10
2375.582393177301
 20
3171.225926833311
 30
0.0
 10
2375.361605410055
 20
3168.416538219308
 30
0.0
 10
2375.321798725593
 20
3167.875650962344
 30
0.0
 10
2375.250028550164
 20
3166.841055160451
 30
0.0
 10
2375.217990114915
 20
3166.34639168583
 30
0.0
 10
2375.131639230772
 20
3164.929394097339
 30
0.0
 10
2375.087031252745
 20
3164.073893573997
 30
0.0
 10
2375.015891533303
 20
3162.540322798263
 30
0.0
 10
2374.989369927252
 20
3161.862244553146
 30
0.0
 10
2374.958637915006
 20
3160.981432072703
 30
0.0
 10
2374.949899626934
 20
3160.710051287723
 30
0.0
 10
2374.934947104897
 20
3160.216599044049
 30
0.0
 10
2374.928738144956
 20
3159.994852168855
 30
0.0
 10
2374.902580686959
 20
3159.009291889166
 30
0.0
 10
2374.895994875407
 20
3158.611361968271
 30
0.0
 10
2374.895994875407
 20
3158.611361968271
 30
0.0
  0
LINE
  5
53
330
1F
100
AcDbEntity
  8
0
  6
Continuous
 62
     7
370
    15
100
AcDbLine
 10
2374.8959948754
 20
3158.6113619683
 30
0.0
 11
2371.8965850958
 21
3158.6708680501
 31
0.0
  0
SPLINE
  5
54
330
1F
100
AcDbEntity
  8
0
  6
Continuous
 62
     7
370
    15
100
AcDbSpline
210
0.0
220
0.0
230
1.0
 70
     8
 71
     3
 72
    36
 73
    32
 74
     0
 42
0.00000001
 43
0.00000001
 12
1.0
 22
0.0
 32
0.0
 13
1.0
 23
0.0
 33
0.0
 40
0.0
 40
0.0
 40
0.0
 40
0.0
 40
0.1250000000000197
 40
0.1250000000000197
 40
0.1875000000000295
 40
0.1875000000000295
 40
0.2187500000000311
 40
0.2187500000000311
 40
0.2500000000000327
 40
0.2500000000000327
 40
0.375000000000039
 40
0.375000000000039
 40
0.4062500000000406
 40
0.4062500000000406
 40
0.4375000000000422
 40
0.4375000000000422
 40
0.5000000000000453
 40
0.5000000000000453
 40
0.6250000000000466
 40
0.6250000000000466
 40
0.6562500000000442
 40
0.6562500000000442
 40
0.6875000000000416
 40
0.6875000000000416
 40
0.7500000000000333
 40
0.7500000000000333
 40
0.8125000000000251
 40
0.8125000000000251
 40
0.8750000000000169
 40
0.8750000000000169
 40
1.0
 40
1.0
 40
1.0
 40
1.0
 10
2371.896585095764
 20
3158.670868050135
 30
0.0
 10
2371.896585095764
 20
3158.670868050135
 30
0.0
 10
2371.903226937529
 20
3159.068461821016
 30
0.0
 10
2371.934040510491
 20
3160.236789230207
 30
0.0
 10
2371.948024188938
 20
3160.722273507663
 30
0.0
 10
2371.978218497825
 20
3161.597944042366
 30
0.0
 10
2371.989871261469
 20
3161.915307995186
 30
0.0
 10
2372.016947079617
 20
3162.596233033069
 30
0.0
 10
2372.032328148381
 20
3162.958802133858
 30
0.0
 10
2372.120342144614
 20
3164.879907611587
 30
0.0
 10
2372.225230973416
 20
3166.760136171173
 30
0.0
 10
2372.439711410658
 20
3169.535376459599
 30
0.0
 10
2372.486846924675
 20
3170.111864122288
 30
0.0
 10
2372.590923192005
 20
3171.308397079555
 30
0.0
 10
2372.648050169266
 20
3171.930254762165
 30
0.0
 10
2372.834403492664
 20
3173.843062421686
 30
0.0
 10
2372.978725190754
 20
3175.183732720267
 30
0.0
 10
2373.484551194866
 20
3179.394367284602
 30
0.0
 10
2373.91806756092
 20
3182.451288086329
 30
0.0
 10
2374.63200480777
 20
3186.585415841385
 30
0.0
 10
2374.78355899157
 20
3187.42828547232
 30
0.0
 10
2375.101525824963
 20
3189.125417590637
 30
0.0
 10
2375.268347727277
 20
3189.982125484654
 30
0.0
 10
2375.793400765067
 20
3192.575764224069
 30
0.0
 10
2376.17619997825
 20
3194.336153443932
 30
0.0
 10
2377.01342021929
 20
3197.91616562185
 30
0.0
 10
2377.46783101637
 20
3199.735794592189
 30
0.0
 10
2378.455088186951
 20
3203.432694181535
 30
0.0
 10
2378.99023587808
 20
3205.316747072127
 30
0.0
 10
2380.691167271702
 20
3210.948151638202
 30
0.0
 10
2381.959073391796
 20
3214.703444849888
 30
0.0
 10
2383.368313815998
 20
3218.455084127797
 30
0.0
  0
LINE
  5
55
330
1F
100
AcDbEntity
  8
0
  6
Continuous
 62
     7
370
    15
100
AcDbLine
 10
2434.2405269033
 20
3218.3919093754
 30
0.0
 11
2437.4248563755
 21
3218.4550841278
 31
0.0
  0
SPLINE
  5
56
330
1F
100
AcDbEntity
  8
0
  6
Continuous
 62
     7
370
    15
100
AcDbSpline
210
0.0
220
0.0
230
1.0
 70
     8
 71
     3
 72
    38
 73
    34
 74
     0
 42
0.00000001
 43
0.00000001
 12
1.0
 22
0.0
 32
0.0
 13
1.0
 23
0.0
 33
0.0
 40
0.0
 40
0.0
 40
0.0
 40
0.0
 40
0.1249999999999843
 40
0.1249999999999843
 40
0.1874999999999764
 40
0.1874999999999764
 40
0.2187499999999726
 40
0.2187499999999726
 40
0.2499999999999688
 40
0.2499999999999688
 40
0.3749999999999589
 40
0.3749999999999589
 40
0.4062499999999573
 40
0.4062499999999573
 40
0.4374999999999556
 40
0.4374999999999556
 40
0.4999999999999568
 40
0.4999999999999568
 40
0.6249999999999589
 40
0.6249999999999589
 40
0.6562499999999624
 40
0.6562499999999624
 40
0.6874999999999658
 40
0.6874999999999658
 40
0.7499999999999726
 40
0.7499999999999726
 40
0.8124999999999795
 40
0.8124999999999795
 40
0.8437499999999829
 40
0.8437499999999829
 40
0.8749999999999862
 40
0.8749999999999862
 40
1.0
 40
1.0
 40
1.0
 40
1.0
 10
2437.424856375529
 20
3218.455084127797
 30
0.0
 10
2438.833623030504
 20
3214.704706104686
 30
0.0
 10
2440.095397102734
 20
3210.966082967888
 30
0.0
 10
2441.783490253264
 20
3205.383051987126
 30
0.0
 10
2442.312037549043
 20
3203.526261732419
 30
0.0
 10
2443.055236349124
 20
3200.74906384989
 30
0.0
 10
2443.295306770599
 20
3199.822205367018
 30
0.0
 10
2443.756046319388
 20
3197.984017753725
 30
0.0
 10
2443.976301613418
 20
3197.074544350371
 30
0.0
 10
2445.029823637428
 20
3192.575223033938
 30
0.0
 10
2445.720411939254
 20
3189.128153639207
 30
0.0
 10
2446.431480297852
 20
3185.022350565806
 30
0.0
 10
2446.566052795582
 20
3184.211428572809
 30
0.0
 10
2446.82075778086
 20
3182.610746935251
 30
0.0
 10
2446.941157793413
 20
3181.819018949156
 30
0.0
 10
2447.278490581619
 20
3179.501200932546
 30
0.0
 10
2447.472661060499
 20
3178.026553779047
 30
0.0
 10
2447.979926065305
 20
3173.810705709632
 30
0.0
 10
2448.218337059665
 20
3171.275587773473
 30
0.0
 10
2448.436048698381
 20
3168.468648046661
 30
0.0
 10
2448.475330355795
 20
3167.927998884344
 30
0.0
 10
2448.546158071007
 20
3166.894082165247
 30
0.0
 10
2448.577785909226
 20
3166.399761445004
 30
0.0
 10
2448.663056718382
 20
3164.983790197019
 30
0.0
 10
2448.707146020666
 20
3164.128971421908
 30
0.0
 10
2448.777514965538
 20
3162.596698440278
 30
0.0
 10
2448.803784616771
 20
3161.919236554115
 30
0.0
 10
2448.834257545175
 20
3161.039249455997
 30
0.0
 10
2448.84292857006
 20
3160.768157208816
 30
0.0
 10
2448.857782788036
 20
3160.274999470435
 30
0.0
 10
2448.863956508445
 20
3160.053390696316
 30
0.0
 10
2448.8899826016
 20
3159.068464898357
 30
0.0
 10
2448.896585095764
 20
3158.670868050135
 30
0.0
 10
2448.896585095764
 20
3158.670868050135
 30
0.0
  0
LINE
  5
57
330
1F
100
AcDbEntity
  8
0
  6
Continuous
 62
     7
370
    15
100
AcDbLine
 10
2448.8965850958
 20
3158.6708680501
 30
0.0
 11
2445.8971753161
 21
3158.6113619683
 31
0.0
  0
SPLINE
  5
58
330
1F
100
AcDbEntity
  8
0
  6
Continuous
 62
     7
370
    15
100
AcDbSpline
210
0.0
220
0.0
230
1.0
 70
     8
 71
     3
 72
    38
 73
    34
 74
     0
 42
0.00000001
 43
0.00000001
 12
1.0
 22
0.0
 32
0.0
 13
1.0
 23
0.0
 33
0.0
 40
0.0
 40
0.0
 40
0.0
 40
0.0
 40
0.1249999999999916
 40
0.1249999999999916
 40
0.1874999999999908
 40
0.1874999999999908
 40
0.2187499999999938
 40
0.2187499999999938
 40
0.2499999999999967
 40
0.2499999999999967
 40
0.375000000000002
 40
0.375000000000002
 40
0.4062500000000004
 40
0.4062500000000004
 40
0.4374999999999989
 40
0.4374999999999989
 40
0.4999999999999957
 40
0.4999999999999957
 40
0.6249999999999941
 40
0.6249999999999941
 40
0.6562499999999957
 40
0.6562499999999957
 40
0.6874999999999972
 40
0.6874999999999972
 40
0.7499999999999971
 40
0.7499999999999971
 40
0.8124999999999971
 40
0.8124999999999971
 40
0.8437499999999971
 40
0.8437499999999971
 40
0.8749999999999971
 40
0.8749999999999971
 40
1.0
 40
1.0
 40
1.0
 40
1.0
 10
2445.89717531612
 20
3158.611361968271
 30
0.0
 10
2445.89717531612
 20
3158.611361968271
 30
0.0
 10
2445.890550100522
 20
3159.009289345202
 30
0.0
 10
2445.859574672354
 20
3160.178599162894
 30
0.0
 10
2445.845501739568
 20
3160.664492326488
 30
0.0
 10
2445.815053367367
 20
3161.5409062414
 30
0.0
 10
2445.803294909216
 20
3161.858548089225
 30
0.0
 10
2445.77595568094
 20
3162.540017399742
 30
0.0
 10
2445.760416477473
 20
3162.902874926951
 30
0.0
 10
2445.671443641084
 20
3164.825502197275
 30
0.0
 10
2445.565269486924
 20
3166.707200184838
 30
0.0
 10
2445.34777615757
 20
3169.48459380558
 30
0.0
 10
2445.299966419266
 20
3170.061528146237
 30
0.0
 10
2445.194373318979
 20
3171.258987304703
 30
0.0
 10
2445.136401929508
 20
3171.881312126601
 30
0.0
 10
2444.947270869968
 20
3173.795367145608
 30
0.0
 10
2444.800750398415
 20
3175.136871269638
 30
0.0
 10
2444.28705225898
 20
3179.349960949729
 30
0.0
 10
2443.846603523952
 20
3182.408461436127
 30
0.0
 10
2443.120926437176
 20
3186.544266953292
 30
0.0
 10
2442.966894616225
 20
3187.387305737884
 30
0.0
 10
2442.643717849639
 20
3189.084674075603
 30
0.0
 10
2442.474154656307
 20
3189.941458934612
 30
0.0
 10
2441.940450956042
 20
3192.535191918483
 30
0.0
 10
2441.551315915805
 20
3194.295462065647
 30
0.0
 10
2440.700185156652
 20
3197.874796200816
 30
0.0
 10
2440.238199843081
 20
3199.69386639713
 30
0.0
 10
2439.485380646043
 20
3202.465307286774
 30
0.0
 10
2439.224294952893
 20
3203.396844820527
 30
0.0
 10
2438.681881312819
 20
3205.271802002123
 30
0.0
 10
2438.40224931571
 20
3206.209389200747
 30
0.0
 10
2436.961494854152
 20
3210.897291435634
 30
0.0
 10
2435.672794478052
 20
3214.647218697962
 30
0.0
 10
2434.240526903334
 20
3218.391909375372
 30
0.0
  0
ARC
  5
59
330
1F
100
AcDbEntity
  8
0
  6
Continuous
 62
     7
370
    15
100
AcDbCircle
 10
2268.7547539208
 20
3155.09698674
 30
0.0
 40
180.1772792742512
100
AcDbArc
 50
20.5878475469
 51
27.2769752504
  0
ARC
  5
5A
330
1F
100
AcDbEntity
  8
0
  6
Continuous
 62
     7
370
    15
100
AcDbCircle
 10
2268.7547539208
 20
3155.09698674
 30
0.0
 40
177.1772792742512
100
AcDbArc
 50
20.9308299757
 51
26.6872459041
  0
LINE
  5
5B
330
1F
100
AcDbEntity
  8
0
  6
Continuous
 62
     7
370
    15
100
AcDbLine
 10
2393.7355871606
 20
3234.6708680501
 30
0.0
 11
2427.057583031
 21
3234.6708680501
 31
0.0
  0
ARC
  5
5C
330
1F
100
AcDbEntity
  8
0
  6
Continuous
 62
     7
370
    15
100
AcDbCircle
 10
2552.0384162707
 20
3155.09698674
 30
0.0
 40
177.1772792742517
100
AcDbArc
 50
153.3127540959
 51
159.0691700243
  0
ARC
  5
5D
330
1F
100
AcDbEntity
  8
0
  6
Continuous
 62
     7
370
    15
100
AcDbCircle
 10
2552.0384162707
 20
3155.09698674
 30
0.0
 40
180.1772792742516
100
AcDbArc
 50
152.7230247496
 51
159.4121524531
  0
LINE
  5
5E
330
1F
100
AcDbEntity
  8
0
  6
Continuous
 62
     7
370
    15
100
AcDbLine
 10
2428.8965850958
 20
3237.6708680501
 30
0.0
 11
2391.8965850958
 21
3237.6708680501
 31
0.0
  0
LINE
  5
5F
330
1F
100
AcDbEntity
  8
0
  6
Continuous
 62
     7
370
    15
100
AcDbLine
 10
2375.3078705243
 20
3167.6708680501
 30
0.0
 11
2445.4852996673
 21
3167.6708680501
 31
0.0
  0
LINE
  5
60
330
1F
100
AcDbEntity
  8
0
  6
Continuous
 62
     7
370
    15
100
AcDbLine
 10
2009.9423136768
 20
2903.0052020694
 30
0.0
 11
458.9423136768
 21
2903.0052020694
 31
0.0
  0
LINE
  5
61
330
1F
100
AcDbEntity
  8
0
  6
Continuous
 62
     7
370
    15
100
AcDbLine
 10
458.9423136768
 20
2903.0052020694
 30
0.0
 11
458.9423136768
 21
2911.5334733492
 31
0.0
  0
SPLINE
  5
62
330
1F
100
AcDbEntity
  8
0
  6
Continuous
 62
     7
370
    15
100
AcDbSpline
210
0.0
220
0.0
230
1.0
 70
     8
 71
     3
 72
    36
 73
    32
 74
     0
 42
0.00000001
 43
0.00000001
 12
1.0
 22
0.0
 32
0.0
 13
1.0
 23
0.0
 33
0.0
 40
0.0
 40
0.0
 40
0.0
 40
0.0
 40
0.1250000000000197
 40
0.1250000000000197
 40
0.1875000000000295
 40
0.1875000000000295
 40
0.2187500000000311
 40
0.2187500000000311
 40
0.2500000000000327
 40
0.2500000000000327
 40
0.375000000000039
 40
0.375000000000039
 40
0.4062500000000406
 40
0.4062500000000406
 40
0.4375000000000422
 40
0.4375000000000422
 40
0.5000000000000453
 40
0.5000000000000453
 40
0.6250000000000466
 40
0.6250000000000466
 40
0.6562500000000442
 40
0.6562500000000442
 40
0.6875000000000416
 40
0.6875000000000416
 40
0.7500000000000333
 40
0.7500000000000333
 40
0.8125000000000251
 40
0.8125000000000251
 40
0.8750000000000169
 40
0.8750000000000169
 40
1.0
 40
1.0
 40
1.0
 40
1.0
 10
518.942313676798
 20
2923.005202069409
 30
0.0
 10
514.9339248413078
 20
2923.005202069409
 30
0.0
 10
510.9931854876133
 20
2922.998560227644
 30
0.0
 10
505.1794460376863
 20
2922.967746654681
 30
0.0
 10
503.2578846091709
 20
2922.953762976234
 30
0.0
 10
500.4006632387561
 20
2922.923568667347
 30
0.0
 10
499.45014397186
 20
2922.911915903704
 30
0.0
 10
497.5690327047591
 20
2922.884840085555
 30
0.0
 10
496.6407665288351
 20
2922.869459016792
 30
0.0
 10
492.0596950605988
 20
2922.781445020558
 30
0.0
 10
488.5859219344102
 20
2922.676556191756
 30
0.0
 10
484.4816881132452
 20
2922.462075754514
 30
0.0
 10
483.6728491431592
 20
2922.414940240497
 30
0.0
 10
482.0796100942809
 20
2922.310863973167
 30
0.0
 10
481.293148763093
 20
2922.253736995906
 30
0.0
 10
478.9942420899147
 20
2922.067383672508
 30
0.0
 10
477.5376802092134
 20
2921.923061974418
 30
0.0
 10
473.389352914788
 20
2921.417235970307
 30
0.0
 10
470.9169585226924
 20
2920.983719604253
 30
0.0
 10
468.2014646179425
 20
2920.269782357401
 30
0.0
 10
467.6773426651003
 20
2920.118228173602
 30
0.0
 10
466.6791362618705
 20
2919.80026134021
 30
0.0
 10
466.2033848262968
 20
2919.633439437895
 30
0.0
 10
464.8446275318519
 20
2919.108386400106
 30
0.0
 10
464.029975198941
 20
2918.725587186923
 30
0.0
 10
462.5784477316881
 20
2917.888366945881
 30
0.0
 10
461.9415811840205
 20
2917.433956148802
 30
0.0
 10
460.8455697552826
 20
2916.446698978221
 30
0.0
 10
460.3858491308221
 20
2915.911551287093
 30
0.0
 10
459.2962389944414
 20
2914.21061989347
 30
0.0
 10
458.9423136767984
 20
2912.942713773376
 30
0.0
 10
458.9423136767978
 20
2911.533473349174
 30
0.0
  0
LINE
  5
63
330
1F
100
AcDbEntity
  8
0
  6
Continuous
 62
     7
370
    15
100
AcDbLine
 10
1949.9423136768
 20
2923.0052020694
 30
0.0
 11
518.9423136768
 21
2923.0052020694
 31
0.0
  0
SPLINE
  5
64
330
1F
100
AcDbEntity
  8
0
  6
Continuous
 62
     7
370
    15
100
AcDbSpline
210
0.0
220
0.0
230
1.0
 70
     8
 71
     3
 72
    38
 73
    34
 74
     0
 42
0.00000001
 43
0.00000001
 12
1.0
 22
0.0
 32
0.0
 13
1.0
 23
0.0
 33
0.0
 40
0.0
 40
0.0
 40
0.0
 40
0.0
 40
0.1250000000000001
 40
0.1250000000000001
 40
0.1875000000000002
 40
0.1875000000000002
 40
0.2187500000000001
 40
0.2187500000000001
 40
0.2499999999999999
 40
0.2499999999999999
 40
0.3749999999999991
 40
0.3749999999999991
 40
0.4062499999999991
 40
0.4062499999999991
 40
0.437499999999999
 40
0.437499999999999
 40
0.4999999999999989
 40
0.4999999999999989
 40
0.624999999999999
 40
0.624999999999999
 40
0.656249999999999
 40
0.656249999999999
 40
0.687499999999999
 40
0.687499999999999
 40
0.749999999999999
 40
0.749999999999999
 40
0.8124999999999991
 40
0.8124999999999991
 40
0.8437499999999991
 40
0.8437499999999991
 40
0.8749999999999991
 40
0.8749999999999991
 40
1.0
 40
1.0
 40
1.0
 40
1.0
 10
2009.942313676798
 20
2911.533473349174
 30
0.0
 10
2009.942313676798
 20
2912.942240004148
 30
0.0
 10
2009.588515306445
 20
2914.204014076379
 30
0.0
 10
2008.513245140882
 20
2915.892107226909
 30
0.0
 10
2008.063528426704
 20
2916.420654522688
 30
0.0
 10
2007.244965199415
 20
2917.163853322769
 30
0.0
 10
2006.947189835639
 20
2917.403923744244
 30
0.0
 10
2006.306304763418
 20
2917.864663293033
 30
0.0
 10
2005.963998648421
 20
2918.084918587063
 30
0.0
 10
2004.144325133256
 20
2919.138440611073
 30
0.0
 10
2002.345296367944
 20
2919.829028912899
 30
0.0
 10
1999.658352378403
 20
2920.540097271497
 30
0.0
 10
1999.098880332506
 20
2920.674669769226
 30
0.0
 10
1997.934805788119
 20
2920.929374754505
 30
0.0
 10
1997.328504311793
 20
2921.049774767058
 30
0.0
 10
1995.460238993581
 20
2921.387107555264
 30
0.0
 10
1994.145477542511
 20
2921.581278034144
 30
0.0
 10
1989.998605363937
 20
2922.08854303895
 30
0.0
 10
1986.965846580879
 20
2922.32695403331
 30
0.0
 10
1982.827897240073
 20
2922.544665672026
 30
0.0
 10
1981.986273896767
 20
2922.58394732944
 30
0.0
 10
1980.285479465798
 20
2922.654775044651
 30
0.0
 10
1979.424768396285
 20
2922.68640288287
 30
0.0
 10
1976.812152200806
 20
2922.771673692027
 30
0.0
 10
1975.029837386749
 20
2922.81576299431
 30
0.0
 10
1971.38468616076
 20
2922.886131939183
 30
0.0
 10
1969.521852974867
 20
2922.912401590416
 30
0.0
 10
1966.665882093857
 20
2922.94287451882
 30
0.0
 10
1965.701535633086
 20
2922.951545543705
 30
0.0
 10
1963.761759955753
 20
2922.966399761681
 30
0.0
 10
1962.788614230337
 20
2922.97257348209
 30
0.0
 10
1957.906826626422
 20
2922.998599575245
 30
0.0
 10
1953.950485582258
 20
2923.005202069409
 30
0.0
 10
1949.942313676798
 20
2923.005202069409
 30
0.0
  0
LINE
  5
65
330
1F
100
AcDbEntity
  8
0
  6
Continuous
 62
     7
370
    15
100
AcDbLine
 10
2009.9423136768
 20
2903.0052020694
 30
0.0
 11
2009.9423136768
 21
2911.5334733492
 31
0.0
  0
LINE
  5
66
330
1F
100
AcDbEntity
  8
0
  6
Continuous
 62
     7
370
    15
100
AcDbLine
 10
458.9423136768
 20
2866.0052020694
 30
0.0
 11
2009.9423136768
 21
2866.0052020694
 31
0.0
  0
LINE
  5
67
330
1F
100
AcDbEntity
  8
0
  6
Continuous
 62
     7
370
    15
100
AcDbLine
 10
2009.9423136768
 20
2866.0052020694
 30
0.0
 11
2009.9423136768
 21
2903.0052020694
 31
0.0
  0
LINE
  5
68
330
1F
100
AcDbEntity
  8
0
  6
Continuous
 62
     7
370
    15
100
AcDbLine
 10
458.9423136768
 20
2866.0052020694
 30
0.0
 11
458.9423136768
 21
2903.0052020694
 31
0.0
  0
SPLINE
  5
69
330
1F
100
AcDbEntity
  8
0
  6
Continuous
 62
     7
370
    15
100
AcDbSpline
210
0.0
220
0.0
230
1.0
 70
     8
 71
     3
 72
    38
 73
    34
 74
     0
 42
0.00000001
 43
0.00000001
 12
1.0
 22
0.0
 32
0.0
 13
1.0
 23
0.0
 33
0.0
 40
0.0
 40
0.0
 40
0.0
 40
0.0
 40
0.1249999999999843
 40
0.1249999999999843
 40
0.1874999999999764
 40
0.1874999999999764
 40
0.2187499999999726
 40
0.2187499999999726
 40
0.2499999999999688
 40
0.2499999999999688
 40
0.3749999999999589
 40
0.3749999999999589
 40
0.4062499999999573
 40
0.4062499999999573
 40
0.4374999999999556
 40
0.4374999999999556
 40
0.4999999999999568
 40
0.4999999999999568
 40
0.6249999999999589
 40
0.6249999999999589
 40
0.6562499999999624
 40
0.6562499999999624
 40
0.6874999999999658
 40
0.6874999999999658
 40
0.7499999999999726
 40
0.7499999999999726
 40
0.8124999999999795
 40
0.8124999999999795
 40
0.8437499999999829
 40
0.8437499999999829
 40
0.8749999999999862
 40
0.8749999999999862
 40
1.0
 40
1.0
 40
1.0
 40
1.0
 10
458.9423136767978
 20
2857.476930789643
 30
0.0
 10
458.9423136767977
 20
2856.068164134669
 30
0.0
 10
459.2961120471512
 20
2854.806390062437
 30
0.0
 10
460.3713822127141
 20
2853.118296911909
 30
0.0
 10
460.8210989268915
 20
2852.58974961613
 30
0.0
 10
461.6396621541813
 20
2851.846550816048
 30
0.0
 10
461.9374375179569
 20
2851.606480394573
 30
0.0
 10
462.5783225901781
 20
2851.145740845785
 30
0.0
 10
462.9206287051751
 20
2850.925485551755
 30
0.0
 10
464.74030222034
 20
2849.871963527744
 30
0.0
 10
466.5393309856514
 20
2849.181375225919
 30
0.0
 10
469.2262749751924
 20
2848.470306867319
 30
0.0
 10
469.7857470210896
 20
2848.335734369591
 30
0.0
 10
470.9498215654773
 20
2848.081029384312
 30
0.0
 10
471.5561230418031
 20
2847.960629371759
 30
0.0
 10
473.4243883600149
 20
2847.623296583553
 30
0.0
 10
474.7391498110842
 20
2847.429126104673
 30
0.0
 10
478.8860219896587
 20
2846.921861099867
 30
0.0
 10
481.9187807727171
 20
2846.683450105506
 30
0.0
 10
486.0567301135233
 20
2846.465738466791
 30
0.0
 10
486.8983534568283
 20
2846.426456809377
 30
0.0
 10
488.5991478877981
 20
2846.355629094166
 30
0.0
 10
489.4598589573114
 20
2846.324001255946
 30
0.0
 10
492.0724751527897
 20
2846.23873044679
 30
0.0
 10
493.8547899668469
 20
2846.194641144506
 30
0.0
 10
497.4999411928363
 20
2846.124272199635
 30
0.0
 10
499.3627743787297
 20
2846.098002548402
 30
0.0
 10
502.2187452597392
 20
2846.067529619997
 30
0.0
 10
503.1830917205099
 20
2846.058858595112
 30
0.0
 10
505.1228673978428
 20
2846.044004377137
 30
0.0
 10
506.0960131232585
 20
2846.037830656727
 30
0.0
 10
510.9778007271744
 20
2846.011804563572
 30
0.0
 10
514.9341417713385
 20
2846.005202069409
 30
0.0
 10
518.9423136767981
 20
2846.005202069409
 30
0.0
  0
SPLINE
  5
6A
330
1F
100
AcDbEntity
  8
0
  6
Continuous
 62
     7
370
    15
100
AcDbSpline
210
0.0
220
0.0
230
1.0
 70
     8
 71
     3
 72
    36
 73
    32
 74
     0
 42
0.00000001
 43
0.00000001
 12
1.0
 22
0.0
 32
0.0
 13
1.0
 23
0.0
 33
0.0
 40
0.0
 40
0.0
 40
0.0
 40
0.0
 40
0.1249999999999982
 40
0.1249999999999982
 40
0.1874999999999975
 40
0.1874999999999975
 40
0.2187499999999973
 40
0.2187499999999973
 40
0.2499999999999972
 40
0.2499999999999972
 40
0.3749999999999979
 40
0.3749999999999979
 40
0.4062499999999982
 40
0.4062499999999982
 40
0.4374999999999984
 40
0.4374999999999984
 40
0.4999999999999986
 40
0.4999999999999986
 40
0.6249999999999984
 40
0.6249999999999984
 40
0.6562499999999984
 40
0.6562499999999984
 40
0.6874999999999984
 40
0.6874999999999984
 40
0.7499999999999988
 40
0.7499999999999988
 40
0.8124999999999991
 40
0.8124999999999991
 40
0.8749999999999993
 40
0.8749999999999993
 40
1.0
 40
1.0
 40
1.0
 40
1.0
 10
1949.942313676798
 20
2846.005202069409
 30
0.0
 10
1953.950702512288
 20
2846.005202069409
 30
0.0
 10
1957.891441865983
 20
2846.011843911174
 30
0.0
 10
1963.70518131591
 20
2846.042657484136
 30
0.0
 10
1965.626742744425
 20
2846.056641162583
 30
0.0
 10
1968.48396411484
 20
2846.08683547147
 30
0.0
 10
1969.434483381736
 20
2846.098488235114
 30
0.0
 10
1971.315594648837
 20
2846.125564053262
 30
0.0
 10
1972.243860824761
 20
2846.140945122026
 30
0.0
 10
1976.824932292997
 20
2846.228959118259
 30
0.0
 10
1980.298705419186
 20
2846.333847947061
 30
0.0
 10
1984.402939240351
 20
2846.548328384303
 30
0.0
 10
1985.211778210437
 20
2846.59546389832
 30
0.0
 10
1986.805017259315
 20
2846.69954016565
 30
0.0
 10
1987.591478590503
 20
2846.756667142911
 30
0.0
 10
1989.890385263681
 20
2846.943020466309
 30
0.0
 10
1991.346947144382
 20
2847.087342164399
 30
0.0
 10
1995.495274438808
 20
2847.59316816851
 30
0.0
 10
1997.967668830903
 20
2848.026684534565
 30
0.0
 10
2000.683162735653
 20
2848.740621781415
 30
0.0
 10
2001.207284688495
 20
2848.892175965215
 30
0.0
 10
2002.205491091725
 20
2849.210142798608
 30
0.0
 10
2002.681242527299
 20
2849.376964700922
 30
0.0
 10
2004.039999821744
 20
2849.902017738711
 30
0.0
 10
2004.854652154655
 20
2850.284816951895
 30
0.0
 10
2006.306179621907
 20
2851.122037192935
 30
0.0
 10
2006.943046169575
 20
2851.576447990014
 30
0.0
 10
2008.039057598313
 20
2852.563705160596
 30
0.0
 10
2008.498778222774
 20
2853.098852851725
 30
0.0
 10
2009.588388359155
 20
2854.799784245346
 30
0.0
 10
2009.942313676798
 20
2856.067690365441
 30
0.0
 10
2009.942313676798
 20
2857.476930789643
 30
0.0
  0
LINE
  5
6B
330
1F
100
AcDbEntity
  8
0
  6
Continuous
 62
     7
370
    15
100
AcDbLine
 10
1949.9423136768
 20
2846.0052020694
 30
0.0
 11
518.9423136768
 21
2846.0052020694
 31
0.0
  0
LINE
  5
6C
330
1F
100
AcDbEntity
  8
0
  6
Continuous
 62
     7
370
    15
100
AcDbLine
 10
2009.9423136768
 20
2857.4769307896
 30
0.0
 11
2009.9423136768
 21
2866.0052020694
 31
0.0
  0
LINE
  5
6D
330
1F
100
AcDbEntity
  8
0
  6
Continuous
 62
     7
370
    15
100
AcDbLine
 10
458.9423136768
 20
2857.4769307896
 30
0.0
 11
458.9423136768
 21
2866.0052020694
 31
0.0
  0
ENDSEC
  0
SECTION
  2
OBJECTS
  0
DICTIONARY
  5
C
330
0
100
AcDbDictionary
281
     1
  3
ACAD_GROUP
350
D
  3
ACAD_LAYOUT
350
1A
  3
ACAD_MLINESTYLE
350
17
  3
ACAD_PLOTSETTINGS
350
19
  3
ACAD_PLOTSTYLENAME
350
E
  0
DICTIONARY
  5
D
102
{ACAD_REACTORS
330
C
102
}
330
C
100
AcDbDictionary
281
     1
  0
DICTIONARY
  5
1A
102
{ACAD_REACTORS
330
C
102
}
330
C
100
AcDbDictionary
281
     1
  3
Layout1
350
1E
  3
Layout2
350
26
  3
Model
350
22
  0
DICTIONARY
  5
17
102
{ACAD_REACTORS
330
C
102
}
330
C
100
AcDbDictionary
281
     1
  3
Standard
350
18
  0
DICTIONARY
  5
19
102
{ACAD_REACTORS
330
C
102
}
330
C
100
AcDbDictionary
281
     1
  0
ACDBDICTIONARYWDFLT
  5
E
102
{ACAD_REACTORS
330
C
102
}
330
C
100
AcDbDictionary
281
     1
  3
Normal
350
F
100
AcDbDictionaryWithDefault
340
F
  0
LAYOUT
  5
1E
102
{ACAD_REACTORS
330
1A
102
}
330
1A
100
AcDbPlotSettings
  1

  2
none_device
  4

  6

 40
0.0
 41
0.0
 42
0.0
 43
0.0
 44
0.0
 45
0.0
 46
0.0
 47
0.0
 48
0.0
 49
0.0
140
0.0
141
0.0
142
1.0
143
1.0
 70
   688
 72
     0
 73
     0
 74
     5
  7

 75
    16
147
1.0
148
0.0
149
0.0
100
AcDbLayout
  1
Layout1
 70
     1
 71
     1
 10
0.0
 20
0.0
 11
420.0
 21
297.0
 12
0.0
 22
0.0
 32
0.0
 14
1.0000000000E+20
 24
1.0000000000E+20
 34
1.0000000000E+20
 15
-1.0000000000E+20
 25
-1.0000000000E+20
 35
-1.0000000000E+20
146
0.0
 13
0.0
 23
0.0
 33
0.0
 16
1.0
 26
0.0
 36
0.0
 17
0.0
 27
1.0
 37
0.0
 76
     0
330
1B
  0
LAYOUT
  5
26
102
{ACAD_REACTORS
330
1A
102
}
330
1A
100
AcDbPlotSettings
  1

  2
none_device
  4

  6

 40
0.0
 41
0.0
 42
0.0
 43
0.0
 44
0.0
 45
0.0
 46
0.0
 47
0.0
 48
0.0
 49
0.0
140
0.0
141
0.0
142
1.0
143
1.0
 70
   688
 72
     0
 73
     0
 74
     5
  7

 75
    16
147
1.0
148
0.0
149
0.0
100
AcDbLayout
  1
Layout2
 70
     1
 71
     2
 10
0.0
 20
0.0
 11
0.0
 21
0.0
 12
0.0
 22
0.0
 32
0.0
 14
0.0
 24
0.0
 34
0.0
 15
0.0
 25
0.0
 35
0.0
146
0.0
 13
0.0
 23
0.0
 33
0.0
 16
1.0
 26
0.0
 36
0.0
 17
0.0
 27
1.0
 37
0.0
 76
     0
330
23
  0
LAYOUT
  5
22
102
{ACAD_REACTORS
330
1A
102
}
330
1A
100
AcDbPlotSettings
  1

  2
none_device
  4

  6

 40
0.0
 41
0.0
 42
0.0
 43
0.0
 44
0.0
 45
0.0
 46
0.0
 47
0.0
 48
0.0
 49
0.0
140
0.0
141
0.0
142
1.0
143
1.0
 70
  1712
 72
     0
 73
     0
 74
     0
  7

 75
     0
147
1.0
148
0.0
149
0.0
100
AcDbLayout
  1
Model
 70
     1
 71
     0
 10
0.0
 20
0.0
 11
5588.0
 21
4318.0
 12
0.0
 22
0.0
 32
0.0
 14
0.0
 24
0.0
 34
0.0
 15
5588.0
 25
4318.0
 35
0.0
146
0.0
 13
0.0
 23
0.0
 33
0.0
 16
1.0
 26
0.0
 36
0.0
 17
0.0
 27
1.0
 37
0.0
 76
     0
330
1F
331
29
  0
MLINESTYLE
  5
18
102
{ACAD_REACTORS
330
17
102
}
330
17
100
AcDbMlineStyle
  2
Standard
 70
     0
  3

 62
   256
 51
90.0
 52
90.0
 71
     2
 49
0.5
 62
   256
  6
BYLAYER
 49
-0.5
 62
   256
  6
BYLAYER
  0
ACDBPLACEHOLDER
  5
F
102
{ACAD_REACTORS
330
E
102
}
330
E
  0
ENDSEC
  0
EOF
