  0
SECTION
  2
HEADER
  9
$ACADVER
  1
AC1015
  9
$ACADMAINTVER
 70
     6
  9
$DWGCODEPAGE
  3
ANSI_1251
  9
$INSBASE
 10
0.0
 20
0.0
 30
0.0
  9
$EXTMIN
 10
0.0
 20
0.0
 30
0.0
  9
$EXTMAX
 10
1397.0
 20
1079.5
 30
0.0
  9
$LIMMIN
 10
0.0
 20
0.0
  9
$LIMMAX
 10
1397.0
 20
1079.5
  9
$ORTHOMODE
 70
     0
  9
$REGENMODE
 70
     1
  9
$FILLMODE
 70
     1
  9
$QTEXTMODE
 70
     0
  9
$MIRRTEXT
 70
     1
  9
$LTSCALE
 40
5.0
  9
$ATTMODE
 70
     1
  9
$TEXTSIZE
 40
17.5
  9
$TRACEWID
 40
1.0
  9
$TEXTSTYLE
  7
Standard
  9
$CLAYER
  8
0
  9
$CELTYPE
  6
ByLayer
  9
$CECOLOR
 62
   256
  9
$CELTSCALE
 40
1.0
  9
$DISPSILH
 70
     0
  9
$DIMSCALE
 40
1.0
  9
$DIMASZ
 40
17.5
  9
$DIMEXO
 40
0.05
  9
$DIMDLI
 40
3.75
  9
$DIMRND
 40
0.0
  9
$DIMDLE
 40
0.0
  9
$DIMEXE
 40
5.0
  9
$DIMTP
 40
0.0
  9
$DIMTM
 40
0.0
  9
$DIMTXT
 40
17.5
  9
$DIMCEN
 40
2.5
  9
$DIMTSZ
 40
0.0
  9
$DIMTOL
 70
     0
  9
$DIMLIM
 70
     0
  9
$DIMTIH
 70
     1
  9
$DIMTOH
 70
     1
  9
$DIMSE1
 70
     0
  9
$DIMSE2
 70
     0
  9
$DIMTAD
 70
     1
  9
$DIMZIN
 70
     0
  9
$DIMBLK
  1

  9
$DIMASO
 70
     1
  9
$DIMSHO
 70
     1
  9
$DIMPOST
  1

  9
$DIMAPOST
  1

  9
$DIMALT
 70
     0
  9
$DIMALTD
 70
     3
  9
$DIMALTF
 40
0.0393700787
  9
$DIMLFAC
 40
1.0
  9
$DIMTOFL
 70
     1
  9
$DIMTVP
 40
0.0
  9
$DIMTIX
 70
     0
  9
$DIMSOXD
 70
     0
  9
$DIMSAH
 70
     0
  9
$DIMBLK1
  1

  9
$DIMBLK2
  1

  9
$DIMSTYLE
  2
ISO-25
  9
$DIMCLRD
 70
     0
  9
$DIMCLRE
 70
     0
  9
$DIMCLRT
 70
     0
  9
$DIMTFAC
 40
1.0
  9
$DIMGAP
 40
15.0
  9
$DIMJUST
 70
     0
  9
$DIMSD1
 70
     0
  9
$DIMSD2
 70
     0
  9
$DIMTOLJ
 70
     0
  9
$DIMTZIN
 70
     0
  9
$DIMALTZ
 70
     0
  9
$DIMALTTZ
 70
     0
  9
$DIMUPT
 70
     0
  9
$DIMDEC
 70
     2
  9
$DIMTDEC
 70
     3
  9
$DIMALTU
 70
     2
  9
$DIMALTTD
 70
     3
  9
$DIMTXSTY
  7
Standard
  9
$DIMAUNIT
 70
     0
  9
$DIMADEC
 70
     2
  9
$DIMALTRND
 40
0.0
  9
$DIMAZIN
 70
     0
  9
$DIMDSEP
 70
    44
  9
$DIMATFIT
 70
     3
  9
$DIMFRAC
 70
     0
  9
$DIMLDRBLK
  1

  9
$DIMLUNIT
 70
     2
  9
$DIMLWD
 70
    -2
  9
$DIMLWE
 70
    -2
  9
$DIMTMOVE
 70
     0
  9
$LUNITS
 70
     2
  9
$LUPREC
 70
     2
  9
$SKETCHINC
 40
1.0
  9
$FILLETRAD
 40
10.0
  9
$AUNITS
 70
     0
  9
$AUPREC
 70
     2
  9
$MENU
  1
.
  9
$ELEVATION
 40
0.0
  9
$PELEVATION
 40
0.0
  9
$THICKNESS
 40
0.0
  9
$LIMCHECK
 70
     0
  9
$CHAMFERA
 40
10.0
  9
$CHAMFERB
 40
10.0
  9
$CHAMFERC
 40
20.0
  9
$CHAMFERD
 40
0.0
  9
$SKPOLY
 70
     0
  9
$TDCREATE
 40
2458150.955362083
  9
$TDUCREATE
 40
2458150.87202875
  9
$TDUPDATE
 40
2458150.955364005
  9
$TDUUPDATE
 40
2458150.872030671
  9
$TDINDWG
 40
0.0000000116
  9
$TDUSRTIMER
 40
0.0000000116
  9
$USRTIMER
 70
     1
  9
$ANGBASE
 50
0.0
  9
$ANGDIR
 70
     0
  9
$PDMODE
 70
     0
  9
$PDSIZE
 40
-1.0
  9
$PLINEWID
 40
0.0
  9
$SPLFRAME
 70
     0
  9
$SPLINETYPE
 70
     6
  9
$SPLINESEGS
 70
     8
  9
$HANDSEED
  5
D4
  9
$SURFTAB1
 70
     6
  9
$SURFTAB2
 70
     6
  9
$SURFTYPE
 70
     6
  9
$SURFU
 70
     6
  9
$SURFV
 70
     6
  9
$UCSBASE
  2

  9
$UCSNAME
  2

  9
$UCSORG
 10
0.0
 20
0.0
 30
0.0
  9
$UCSXDIR
 10
1.0
 20
0.0
 30
0.0
  9
$UCSYDIR
 10
0.0
 20
1.0
 30
0.0
  9
$UCSORTHOREF
  2

  9
$UCSORTHOVIEW
 70
     0
  9
$UCSORGTOP
 10
0.0
 20
0.0
 30
0.0
  9
$UCSORGBOTTOM
 10
0.0
 20
0.0
 30
0.0
  9
$UCSORGLEFT
 10
0.0
 20
0.0
 30
0.0
  9
$UCSORGRIGHT
 10
0.0
 20
0.0
 30
0.0
  9
$UCSORGFRONT
 10
0.0
 20
0.0
 30
0.0
  9
$UCSORGBACK
 10
0.0
 20
0.0
 30
0.0
  9
$PUCSBASE
  2

  9
$PUCSNAME
  2

  9
$PUCSORG
 10
0.0
 20
0.0
 30
0.0
  9
$PUCSXDIR
 10
1.0
 20
0.0
 30
0.0
  9
$PUCSYDIR
 10
0.0
 20
1.0
 30
0.0
  9
$PUCSORTHOREF
  2

  9
$PUCSORTHOVIEW
 70
     0
  9
$PUCSORGTOP
 10
0.0
 20
0.0
 30
0.0
  9
$PUCSORGBOTTOM
 10
0.0
 20
0.0
 30
0.0
  9
$PUCSORGLEFT
 10
0.0
 20
0.0
 30
0.0
  9
$PUCSORGRIGHT
 10
0.0
 20
0.0
 30
0.0
  9
$PUCSORGFRONT
 10
0.0
 20
0.0
 30
0.0
  9
$PUCSORGBACK
 10
0.0
 20
0.0
 30
0.0
  9
$USERI1
 70
     0
  9
$USERI2
 70
     0
  9
$USERI3
 70
     0
  9
$USERI4
 70
     0
  9
$USERI5
 70
     0
  9
$USERR1
 40
0.0
  9
$USERR2
 40
0.0
  9
$USERR3
 40
0.0
  9
$USERR4
 40
0.0
  9
$USERR5
 40
0.0
  9
$WORLDVIEW
 70
     1
  9
$SHADEDGE
 70
     3
  9
$SHADEDIF
 70
    70
  9
$TILEMODE
 70
     1
  9
$MAXACTVP
 70
    64
  9
$PINSBASE
 10
0.0
 20
0.0
 30
0.0
  9
$PLIMCHECK
 70
     0
  9
$PEXTMIN
 10
1.0000000000E+20
 20
1.0000000000E+20
 30
1.0000000000E+20
  9
$PEXTMAX
 10
-1.0000000000E+20
 20
-1.0000000000E+20
 30
-1.0000000000E+20
  9
$PLIMMIN
 10
0.0
 20
0.0
  9
$PLIMMAX
 10
420.0
 20
297.0
  9
$UNITMODE
 70
     0
  9
$VISRETAIN
 70
     1
  9
$PLINEGEN
 70
     0
  9
$PSLTSCALE
 70
     1
  9
$TREEDEPTH
 70
  3020
  9
$CMLSTYLE
  2
Standard
  9
$CMLJUST
 70
     0
  9
$CMLSCALE
 40
20.0
  9
$PROXYGRAPHICS
 70
     1
  9
$MEASUREMENT
 70
     1
  9
$CELWEIGHT
370
    -1
  9
$ENDCAPS
280
     0
  9
$JOINSTYLE
280
     0
  9
$LWDISPLAY
290
     1
  9
$INSUNITS
 70
     4
  9
$HYPERLINKBASE
  1

  9
$STYLESHEET
  1

  9
$XEDIT
290
     1
  9
$CEPSNTYPE
380
     0
  9
$PSTYLEMODE
290
     1
  9
$FINGERPRINTGUID
  2
{B7A663BE-D172-4B07-864D-12A76E65974D}
  9
$VERSIONGUID
  2
{FAEB1C32-E019-11D5-929B-00C0DF256EC4}
  9
$EXTNAMES
290
     1
  9
$PSVPSCALE
 40
0.0
  9
$OLESTARTUP
290
     0
  0
ENDSEC
  0
SECTION
  2
CLASSES
  0
CLASS
  1
ACDBDICTIONARYWDFLT
  2
AcDbDictionaryWithDefault
  3
ObjectDBX Classes
 90
        0
280
     0
281
     0
  0
CLASS
  1
VISUALSTYLE
  2
AcDbVisualStyle
  3
ObjectDBX Classes
 90
     4095
280
     0
281
     0
  0
CLASS
  1
MATERIAL
  2
AcDbMaterial
  3
ObjectDBX Classes
 90
     1153
280
     0
281
     0
  0
CLASS
  1
ACDBPLACEHOLDER
  2
AcDbPlaceHolder
  3
ObjectDBX Classes
 90
        0
280
     0
281
     0
  0
CLASS
  1
LAYOUT
  2
AcDbLayout
  3
ObjectDBX Classes
 90
        0
280
     0
281
     0
  0
ENDSEC
  0
SECTION
  2
TABLES
  0
TABLE
  2
VPORT
  5
8
330
0
100
AcDbSymbolTable
 70
     1
  0
VPORT
  5
29
330
8
100
AcDbSymbolTableRecord
100
AcDbViewportTableRecord
  2
*Active
 70
     0
 10
0.0
 20
0.0
 11
1.0
 21
1.0
 12
698.5
 22
539.75
 13
0.0
 23
0.0
 14
10.0
 24
10.0
 15
10.0
 25
10.0
 16
0.0
 26
0.0
 36
1.0
 17
0.0
 27
0.0
 37
0.0
 40
1079.5
 41
1.2941176471
 42
50.0
 43
0.0
 44
0.0
 50
0.0
 51
0.0
 71
     0
 72
  2000
 73
     1
 74
     3
 75
     0
 76
     0
 77
     0
 78
     0
281
     0
 65
     1
110
0.0
120
0.0
130
0.0
111
1.0
121
0.0
131
0.0
112
0.0
122
1.0
132
0.0
 79
     0
146
0.0
  0
ENDTAB
  0
TABLE
  2
LTYPE
  5
5
330
0
100
AcDbSymbolTable
 70
     6
  0
LTYPE
  5
14
330
5
100
AcDbSymbolTableRecord
100
AcDbLinetypeTableRecord
  2
ByBlock
 70
     0
  3

 72
    65
 73
     0
 40
0.0
  0
LTYPE
  5
15
330
5
100
AcDbSymbolTableRecord
100
AcDbLinetypeTableRecord
  2
ByLayer
 70
     0
  3

 72
    65
 73
     0
 40
0.0
  0
LTYPE
  5
16
330
5
100
AcDbSymbolTableRecord
100
AcDbLinetypeTableRecord
  2
Continuous
 70
     0
  3
Solid line
 72
    65
 73
     0
 40
0.0
  0
LTYPE
  5
3F
330
5
100
AcDbSymbolTableRecord
100
AcDbLinetypeTableRecord
  2
HIDDEN
 70
     0
  3
Hidden __ __ __ __ __ __ __ __ __ __ __ __ __ __
 72
    65
 73
     2
 40
1.905
 49
1.27
 74
     0
 49
-0.635
 74
     0
  0
LTYPE
  5
40
330
5
100
AcDbSymbolTableRecord
100
AcDbLinetypeTableRecord
  2
PHANTOM
 70
     0
  3
Phantom ______  __  __  ______  __  __  ______
 72
    65
 73
     6
 40
12.7
 49
6.35
 74
     0
 49
-1.27
 74
     0
 49
1.27
 74
     0
 49
-1.27
 74
     0
 49
1.27
 74
     0
 49
-1.27
 74
     0
  0
LTYPE
  5
41
330
5
100
AcDbSymbolTableRecord
100
AcDbLinetypeTableRecord
  2
CENTER
 70
     0
  3
Center ____ _ ____ _ ____ _ ____ _ ____ _ ____
 72
    65
 73
     4
 40
10.16
 49
6.35
 74
     0
 49
-1.27
 74
     0
 49
1.27
 74
     0
 49
-1.27
 74
     0
  0
LTYPE
  5
42
330
5
100
AcDbSymbolTableRecord
100
AcDbLinetypeTableRecord
  2
CENTERX2
 70
     0
  3
Center (2x) ________  __  ________  __  _____
 72
    65
 73
     4
 40
20.32
 49
12.7
 74
     0
 49
-2.54
 74
     0
 49
2.54
 74
     0
 49
-2.54
 74
     0
  0
LTYPE
  5
43
330
5
100
AcDbSymbolTableRecord
100
AcDbLinetypeTableRecord
  2
DOT2
 70
     0
  3
Dot (.5x) ........................................
 72
    65
 73
     2
 40
0.635
 49
0.0
 74
     0
 49
-0.635
 74
     0
  0
ENDTAB
  0
TABLE
  2
LAYER
  5
2
330
0
100
AcDbSymbolTable
 70
     1
  0
LAYER
  5
10
330
2
100
AcDbSymbolTableRecord
100
AcDbLayerTableRecord
  2
0
 70
     0
 62
     7
  6
Continuous
370
    -3
390
F
  0
ENDTAB
  0
TABLE
  2
STYLE
  5
3
330
0
100
AcDbSymbolTable
 70
     1
  0
STYLE
  5
11
330
3
100
AcDbSymbolTableRecord
100
AcDbTextStyleTableRecord
  2
Standard
 70
     0
 40
0.0
 41
1.0
 50
0.0
 71
     0
 42
17.5
  3
txt
  4

  0
ENDTAB
  0
TABLE
  2
VIEW
  5
6
330
0
100
AcDbSymbolTable
 70
     0
  0
ENDTAB
  0
TABLE
  2
UCS
  5
7
330
0
100
AcDbSymbolTable
 70
     0
  0
ENDTAB
  0
TABLE
  2
APPID
  5
9
330
0
100
AcDbSymbolTable
 70
     1
  0
APPID
  5
12
330
9
100
AcDbSymbolTableRecord
100
AcDbRegAppTableRecord
  2
ACAD
 70
     0
  0
ENDTAB
  0
TABLE
  2
DIMSTYLE
  5
A
330
0
100
AcDbSymbolTable
 70
     1
100
AcDbDimStyleTable
  0
DIMSTYLE
105
27
330
A
100
AcDbSymbolTableRecord
100
AcDbDimStyleTableRecord
  2
ISO-25
 70
     0
 41
2.5
 42
0.625
 43
3.75
 44
1.25
 73
     0
 74
     0
 77
     1
 78
     8
140
2.5
141
2.5
143
0.0393700787
147
0.625
171
     3
172
     1
178
     0
271
     2
272
     2
274
     3
278
    44
283
     0
284
     8
340
11
  0
ENDTAB
  0
TABLE
  2
BLOCK_RECORD
  5
1
330
0
100
AcDbSymbolTable
 70
     1
  0
BLOCK_RECORD
  5
1F
330
1
100
AcDbSymbolTableRecord
100
AcDbBlockTableRecord
  2
*Model_Space
340
22
  0
BLOCK_RECORD
  5
1B
330
1
100
AcDbSymbolTableRecord
100
AcDbBlockTableRecord
  2
*Paper_Space
340
1E
  0
BLOCK_RECORD
  5
23
330
1
100
AcDbSymbolTableRecord
100
AcDbBlockTableRecord
  2
*Paper_Space0
340
26
  0
ENDTAB
  0
ENDSEC
  0
SECTION
  2
BLOCKS
  0
BLOCK
  5
20
330
1F
100
AcDbEntity
  8
0
100
AcDbBlockBegin
  2
*Model_Space
 70
     0
 10
0.0
 20
0.0
 30
0.0
  3
*Model_Space
  1

  0
ENDBLK
  5
21
330
1F
100
AcDbEntity
  8
0
100
AcDbBlockEnd
  0
BLOCK
  5
1C
330
1B
100
AcDbEntity
 67
     1
  8
0
100
AcDbBlockBegin
  2
*Paper_Space
 70
     0
 10
0.0
 20
0.0
 30
0.0
  3
*Paper_Space
  1

  0
ENDBLK
  5
1D
330
1B
100
AcDbEntity
 67
     1
  8
0
100
AcDbBlockEnd
  0
BLOCK
  5
24
330
23
100
AcDbEntity
  8
0
100
AcDbBlockBegin
  2
*Paper_Space0
 70
     0
 10
0.0
 20
0.0
 30
0.0
  3
*Paper_Space0
  1

  0
ENDBLK
  5
25
330
23
100
AcDbEntity
  8
0
100
AcDbBlockEnd
  0
ENDSEC
  0
SECTION
  2
ENTITIES
  0
LINE
  5
44
330
1F
100
AcDbEntity
  8
0
  6
Continuous
 62
     7
370
    15
100
AcDbLine
 10
126.0012600746
 20
662.8957693445
 30
0.0
 11
133.2806647599
 21
642.8957693445
 31
0.0
  0
LINE
  5
45
330
1F
100
AcDbEntity
  8
0
  6
Continuous
 62
     7
370
    15
100
AcDbLine
 10
378.7206647599
 20
642.8957693445
 30
0.0
 11
386.0000694453
 21
662.8957693445
 31
0.0
  0
LINE
  5
46
330
1F
100
AcDbEntity
  8
0
  6
Continuous
 62
     7
370
    15
100
AcDbLine
 10
354.314182383
 20
662.8957693445
 30
0.0
 11
354.314182383
 21
682.8957693445
 31
0.0
  0
LINE
  5
47
330
1F
100
AcDbEntity
  8
0
  6
Continuous
 62
     7
370
    15
100
AcDbLine
 10
157.6871471369
 20
682.8957693445
 30
0.0
 11
157.6871471369
 21
662.8957693445
 31
0.0
  0
LINE
  5
48
330
1F
100
AcDbEntity
  8
0
  6
Continuous
 62
     7
370
    15
100
AcDbLine
 10
263.0016990845
 20
682.8957693445
 30
0.0
 11
262.0731688372
 21
815.8957693445
 31
0.0
  0
LINE
  5
49
330
1F
100
AcDbEntity
  8
0
  6
Continuous
 62
     7
370
    15
100
AcDbLine
 10
276.8413490678
 20
682.8957693445
 30
0.0
 11
275.9128188205
 21
815.8957693445
 31
0.0
  0
LINE
  5
4A
330
1F
100
AcDbEntity
  8
0
  6
Continuous
 62
     7
370
    15
100
AcDbLine
 10
349.6611054647
 20
662.8957693445
 30
0.0
 11
349.6611054647
 21
712.8957693445
 31
0.0
  0
LINE
  5
4B
330
1F
100
AcDbEntity
  8
0
  6
Continuous
 62
     7
370
    15
100
AcDbLine
 10
341.1212280844
 20
712.8957693445
 30
0.0
 11
341.1212280844
 21
662.8957693445
 31
0.0
  0
LINE
  5
4C
330
1F
100
AcDbEntity
  8
0
  6
Continuous
 62
     7
370
    15
100
AcDbLine
 10
170.8801014354
 20
662.8957693445
 30
0.0
 11
170.8801014354
 21
712.8957693445
 31
0.0
  0
LINE
  5
4D
330
1F
100
AcDbEntity
  8
0
  6
Continuous
 62
     7
370
    15
100
AcDbLine
 10
162.3402240552
 20
712.8957693445
 30
0.0
 11
162.3402240552
 21
662.8957693445
 31
0.0
  0
LINE
  5
4E
330
1F
100
AcDbEntity
  8
0
  6
Continuous
 62
     7
370
    15
100
AcDbLine
 10
256.0006647599
 20
642.8957693445
 30
0.0
 11
378.7206647599
 21
642.8957693445
 31
0.0
  0
LINE
  5
4F
330
1F
100
AcDbEntity
  8
0
  6
Continuous
 62
     7
370
    15
100
AcDbLine
 10
133.2806647599
 20
642.8957693445
 30
0.0
 11
256.0006647599
 21
642.8957693445
 31
0.0
  0
LINE
  5
50
330
1F
100
AcDbEntity
  8
0
  6
Continuous
 62
     7
370
    15
100
AcDbLine
 10
256.0006647599
 20
662.8957693445
 30
0.0
 11
386.0000694453
 21
662.8957693445
 31
0.0
  0
LINE
  5
51
330
1F
100
AcDbEntity
  8
0
  6
Continuous
 62
     7
370
    15
100
AcDbLine
 10
126.0012600746
 20
662.8957693445
 30
0.0
 11
256.0006647599
 21
662.8957693445
 31
0.0
  0
LINE
  5
52
330
1F
100
AcDbEntity
  8
0
  6
Continuous
 62
     7
370
    15
100
AcDbLine
 10
256.0006647599
 20
682.8957693445
 30
0.0
 11
341.0777303884
 21
682.8957693445
 31
0.0
  0
LINE
  5
53
330
1F
100
AcDbEntity
  8
0
  6
Continuous
 62
     7
370
    15
100
AcDbLine
 10
349.6611054647
 20
682.8957693445
 30
0.0
 11
354.314182383
 21
682.8957693445
 31
0.0
  0
LINE
  5
54
330
1F
100
AcDbEntity
  8
0
  6
Continuous
 62
     7
370
    15
100
AcDbLine
 10
157.6871471369
 20
682.8957693445
 30
0.0
 11
162.3402240552
 21
682.8957693445
 31
0.0
  0
LINE
  5
55
330
1F
100
AcDbEntity
  8
0
  6
Continuous
 62
     7
370
    15
100
AcDbLine
 10
170.858207253
 20
682.8957693445
 30
0.0
 11
256.0006647599
 21
682.8957693445
 31
0.0
  0
LINE
  5
56
330
1F
100
AcDbEntity
  8
0
  6
Continuous
 62
     7
370
    15
100
AcDbLine
 10
255.2543635582
 20
805.9655819474
 30
0.0
 11
250.2072012905
 21
805.9655819474
 31
0.0
  0
LINE
  5
57
330
1F
100
AcDbEntity
  8
0
  6
Continuous
 62
     7
370
    15
100
AcDbLine
 10
255.2543635582
 20
805.9655819474
 30
0.0
 11
255.896440211
 21
682.8957693445
 31
0.0
  0
LINE
  5
58
330
1F
100
AcDbEntity
  8
0
  6
Continuous
 62
     7
370
    15
100
AcDbLine
 10
250.2072012905
 20
805.9655819474
 30
0.0
 11
249.032147701
 21
682.8957693445
 31
0.0
  0
SPLINE
  5
59
330
1F
100
AcDbEntity
  8
0
  6
Continuous
 62
     7
370
    15
100
AcDbSpline
210
0.0
220
0.0
230
1.0
 70
     8
 71
     3
 72
    30
 73
    26
 74
     0
 42
0.00000001
 43
0.00000001
 12
1.0
 22
0.0
 32
0.0
 13
1.0
 23
0.0
 33
0.0
 40
0.0
 40
0.0
 40
0.0
 40
0.0
 40
0.1249999999999993
 40
0.1249999999999993
 40
0.1874999999999977
 40
0.1874999999999977
 40
0.2499999999999961
 40
0.2499999999999961
 40
0.374999999999991
 40
0.374999999999991
 40
0.4374999999999884
 40
0.4374999999999884
 40
0.4999999999999858
 40
0.4999999999999858
 40
0.6249999999999862
 40
0.6249999999999862
 40
0.6874999999999892
 40
0.6874999999999892
 40
0.7499999999999923
 40
0.7499999999999923
 40
0.8749999999999984
 40
0.8749999999999984
 40
0.9374999999999992
 40
0.9374999999999992
 40
1.0
 40
1.0
 40
1.0
 40
1.0
 10
257.7835735273993
 20
815.8957693444512
 30
0.0
 10
257.6351360481331
 20
815.8957693444513
 30
0.0
 10
257.4856810478842
 20
815.8333101275157
 30
0.0
 10
257.2603188617659
 20
815.649804511481
 30
0.0
 10
257.185005835284
 20
815.5735583455603
 30
0.0
 10
257.0341097636198
 20
815.3902683651048
 30
0.0
 10
256.9581417114994
 20
815.28251788513
 30
0.0
 10
256.7342016024947
 20
814.9179367070661
 30
0.0
 10
256.589471492026
 20
814.6200408566698
 30
0.0
 10
256.380493752074
 20
814.0915179147379
 30
0.0
 10
256.3121991249619
 20
813.9016368246463
 30
0.0
 10
256.1787174637603
 20
813.4933531829378
 30
0.0
 10
256.1139521464208
 20
813.2760358729893
 30
0.0
 10
255.928891958295
 20
812.5950201175959
 30
0.0
 10
255.816511130025
 20
812.0988613903038
 30
0.0
 10
255.6664924963701
 20
811.289903689726
 30
0.0
 10
255.6193614135691
 20
811.0077217717493
 30
0.0
 10
255.5332104714927
 20
810.4291479285542
 30
0.0
 10
255.4942688782659
 20
810.1337273373782
 30
0.0
 10
255.3899362027878
 20
809.2294341409784
 30
0.0
 10
255.3369273133718
 20
808.6027115440089
 30
0.0
 10
255.28446569343
 20
807.6250997070483
 30
0.0
 10
255.2716491741536
 20
807.294649978134
 30
0.0
 10
255.2557592064804
 20
806.6327075307652
 30
0.0
 10
255.2526170209133
 20
806.3000168129023
 30
0.0
 10
255.2543635582144
 20
805.9655819474308
 30
0.0
  0
LINE
  5
5A
330
1F
100
AcDbEntity
  8
0
  6
Continuous
 62
     7
370
    15
100
AcDbLine
 10
257.7835735274
 20
815.8957693445
 30
0.0
 11
262.0731688372
 21
815.8957693445
 31
0.0
  0
SPLINE
  5
5B
330
1F
100
AcDbEntity
  8
0
  6
Continuous
 62
     7
370
    15
100
AcDbSpline
210
0.0
220
0.0
230
1.0
 70
     8
 71
     3
 72
    28
 73
    24
 74
     0
 42
0.00000001
 43
0.00000001
 12
1.0
 22
0.0
 32
0.0
 13
1.0
 23
0.0
 33
0.0
 40
0.0
 40
0.0
 40
0.0
 40
0.0
 40
0.125
 40
0.125
 40
0.1875
 40
0.1875
 40
0.25
 40
0.25
 40
0.3750000000000048
 40
0.3750000000000048
 40
0.4375000000000043
 40
0.4375000000000043
 40
0.5000000000000039
 40
0.5000000000000039
 40
0.6250000000000047
 40
0.6250000000000047
 40
0.7500000000000056
 40
0.7500000000000056
 40
0.8125000000000038
 40
0.8125000000000038
 40
0.875000000000002
 40
0.875000000000002
 40
1.0
 40
1.0
 40
1.0
 40
1.0
 10
250.2072012905467
 20
805.9655819474308
 30
0.0
 10
250.2135787859675
 20
806.6342353388585
 30
0.0
 10
250.2418831033933
 20
807.2904345394752
 30
0.0
 10
250.3153680920461
 20
808.2569279230129
 30
0.0
 10
250.3450685656896
 20
808.5761021620094
 30
0.0
 10
250.4149656586907
 20
809.2083491690698
 30
0.0
 10
250.4552135278497
 20
809.5211438493517
 30
0.0
 10
250.5886413421105
 20
810.4292055281547
 30
0.0
 10
250.6951433718199
 20
811.0018117084286
 30
0.0
 10
250.8795085620183
 20
811.8124292505731
 30
0.0
 10
250.9454840888165
 20
812.0758458870464
 30
0.0
 10
251.083233762675
 20
812.5771833683174
 30
0.0
 10
251.1550380628889
 20
812.8155731957845
 30
0.0
 10
251.3785920454306
 20
813.4951064497743
 30
0.0
 10
251.5384179150589
 20
813.9009690481387
 30
0.0
 10
251.8781304874171
 20
814.6163040250991
 30
0.0
 10
252.052675980024
 20
814.9145857750151
 30
0.0
 10
252.3200268820086
 20
815.2774964418421
 30
0.0
 10
252.4100784104147
 20
815.3842755099423
 30
0.0
 10
252.5919347362446
 20
815.5689827326718
 30
0.0
 10
252.6840273016806
 20
815.6469979791464
 30
0.0
 10
252.9581502040298
 20
815.8332252217219
 30
0.0
 10
253.1393308589576
 20
815.8957693444512
 30
0.0
 10
253.3187485366904
 20
815.8957693444512
 30
0.0
  0
LINE
  5
5C
330
1F
100
AcDbEntity
  8
0
  6
Continuous
 62
     7
370
    15
100
AcDbLine
 10
253.3187485367
 20
815.8957693445
 30
0.0
 11
257.7835735274
 21
815.8957693445
 31
0.0
  0
LINE
  5
5D
330
1F
100
AcDbEntity
  8
0
  6
Continuous
 62
     7
370
    15
100
AcDbLine
 10
264.4256643912
 20
815.8957693445
 30
0.0
 11
262.3492484214
 21
776.3509243597
 31
0.0
  0
LINE
  5
5E
330
1F
100
AcDbEntity
  8
0
  6
Continuous
 62
     7
370
    15
100
AcDbLine
 10
271.522583929
 20
815.8957693445
 30
0.0
 11
264.4256643912
 21
815.8957693445
 31
0.0
  0
SPLINE
  5
5F
330
1F
100
AcDbEntity
  8
0
  6
Continuous
 62
     7
370
    15
100
AcDbSpline
210
0.0
220
0.0
230
1.0
 70
     8
 71
     3
 72
    28
 73
    24
 74
     0
 42
0.00000001
 43
0.00000001
 12
1.0
 22
0.0
 32
0.0
 13
1.0
 23
0.0
 33
0.0
 40
0.0
 40
0.0
 40
0.0
 40
0.0
 40
0.1250000000000107
 40
0.1250000000000107
 40
0.1875000000000158
 40
0.1875000000000158
 40
0.2500000000000209
 40
0.2500000000000209
 40
0.3750000000000263
 40
0.3750000000000263
 40
0.4375000000000261
 40
0.4375000000000261
 40
0.500000000000026
 40
0.500000000000026
 40
0.6250000000000201
 40
0.6250000000000201
 40
0.7500000000000141
 40
0.7500000000000141
 40
0.8125000000000102
 40
0.8125000000000102
 40
0.8750000000000062
 40
0.8750000000000062
 40
1.0
 40
1.0
 40
1.0
 40
1.0
 10
270.5307766016469
 20
805.9655819474308
 30
0.0
 10
270.5361215232955
 20
806.6342353388585
 30
0.0
 10
270.5493769584936
 20
807.2904345394753
 30
0.0
 10
270.5802316620288
 20
808.2569279230129
 30
0.0
 10
270.592353387703
 20
808.5761021620094
 30
0.0
 10
270.6202121799433
 20
809.2083491690696
 30
0.0
 10
270.6359648535088
 20
809.5211438493517
 30
0.0
 10
270.6872869920587
 20
810.4292055281547
 30
0.0
 10
270.7271973040653
 20
811.0018117084286
 30
0.0
 10
270.7941423708685
 20
811.8124292505731
 30
0.0
 10
270.8177802242988
 20
812.0758458870464
 30
0.0
 10
270.8663753763375
 20
812.5771833683174
 30
0.0
 10
270.8913479313515
 20
812.8155731957845
 30
0.0
 10
270.967847171391
 20
813.4951064497743
 30
0.0
 10
271.020945546794
 20
813.9009690481389
 30
0.0
 10
271.129415913932
 20
814.6163040250991
 30
0.0
 10
271.1830719614388
 20
814.9145857750151
 30
0.0
 10
271.2615439186383
 20
815.2774964418423
 30
0.0
 10
271.2873691176333
 20
815.3842755099423
 30
0.0
 10
271.3381914995737
 20
815.5689827326719
 30
0.0
 10
271.3632598941999
 20
815.6469979791464
 30
0.0
 10
271.4357678563903
 20
815.8332252217218
 30
0.0
 10
271.4808949224258
 20
815.8957693444512
 30
0.0
 10
271.5225839290176
 20
815.8957693444512
 30
0.0
  0
LINE
  5
60
330
1F
100
AcDbEntity
  8
0
  6
Continuous
 62
     7
370
    15
100
AcDbLine
 10
270.5307766016
 20
805.9655819474
 30
0.0
 11
269.5444406579
 21
682.8957693445
 31
0.0
  0
LINE
  5
61
330
1F
100
AcDbEntity
  8
0
  6
Continuous
 62
     7
370
    15
100
AcDbLine
 10
275.5029378872
 20
805.9655819474
 30
0.0
 11
270.5307766016
 21
805.9655819474
 31
0.0
  0
LINE
  5
62
330
1F
100
AcDbEntity
  8
0
  6
Continuous
 62
     7
370
    15
100
AcDbLine
 10
275.5029378872
 20
805.9655819474
 30
0.0
 11
276.3102055241
 21
682.8957693445
 31
0.0
  0
LINE
  5
63
330
1F
100
AcDbEntity
  8
0
  6
Continuous
 62
     7
370
    15
100
AcDbLine
 10
271.522583929
 20
815.8957693445
 30
0.0
 11
275.8946223097
 21
815.8957693445
 31
0.0
  0
SPLINE
  5
64
330
1F
100
AcDbEntity
  8
0
  6
Continuous
 62
     7
370
    15
100
AcDbSpline
210
0.0
220
0.0
230
1.0
 70
     8
 71
     3
 72
    30
 73
    26
 74
     0
 42
0.00000001
 43
0.00000001
 12
1.0
 22
0.0
 32
0.0
 13
1.0
 23
0.0
 33
0.0
 40
0.0
 40
0.0
 40
0.0
 40
0.0
 40
0.1249999999999968
 40
0.1249999999999968
 40
0.1874999999999952
 40
0.1874999999999952
 40
0.2499999999999936
 40
0.2499999999999936
 40
0.3749999999999908
 40
0.3749999999999908
 40
0.4374999999999881
 40
0.4374999999999881
 40
0.4999999999999853
 40
0.4999999999999853
 40
0.6249999999999852
 40
0.6249999999999852
 40
0.687499999999988
 40
0.687499999999988
 40
0.7499999999999909
 40
0.7499999999999909
 40
0.8749999999999978
 40
0.8749999999999978
 40
0.9374999999999989
 40
0.9374999999999989
 40
1.0
 40
1.0
 40
1.0
 40
1.0
 10
275.8946223097192
 20
815.8957693444512
 30
0.0
 10
275.8848937728038
 20
815.8957693444512
 30
0.0
 10
275.8718578194039
 20
815.8333101275156
 30
0.0
 10
275.8478391114795
 20
815.649804511481
 30
0.0
 10
275.8390892640104
 20
815.5735583455603
 30
0.0
 10
275.8201968086349
 20
815.3902683651048
 30
0.0
 10
275.8099957897207
 20
815.28251788513
 30
0.0
 10
275.7780747728626
 20
814.9179367070661
 30
0.0
 10
275.7549779111168
 20
814.6200408566697
 30
0.0
 10
275.7189898294521
 20
814.0915179147379
 30
0.0
 10
275.7067709557143
 20
813.9016368246463
 30
0.0
 10
275.6821459024476
 20
813.4933531829378
 30
0.0
 10
275.6698150148346
 20
813.2760358729893
 30
0.0
 10
275.6337614945538
 20
812.595020117596
 30
0.0
 10
275.6107398156349
 20
812.0988613903038
 30
0.0
 10
275.5794939244273
 20
811.2899036897261
 30
0.0
 10
275.5695787013559
 20
811.0077217717493
 30
0.0
 10
275.5514548489552
 20
810.4291479285541
 30
0.0
 10
275.5432640254342
 20
810.1337273373782
 30
0.0
 10
275.5216034089796
 20
809.2294341409784
 30
0.0
 10
275.5110324881329
 20
808.6027115440089
 30
0.0
 10
275.5023244735693
 20
807.6250997070483
 30
0.0
 10
275.5006429198922
 20
807.294649978134
 30
0.0
 10
275.4998572699299
 20
806.6327075307652
 30
0.0
 10
275.5007412775771
 20
806.3000168129021
 30
0.0
 10
275.5029378872279
 20
805.9655819474308
 30
0.0
  0
LINE
  5
65
330
1F
100
AcDbEntity
  8
0
  6
Continuous
 62
     7
370
    15
100
AcDbLine
 10
275.8946223097
 20
815.8957693445
 30
0.0
 11
275.9128188205
 21
815.8957693445
 31
0.0
  0
SPLINE
  5
66
330
1F
100
AcDbEntity
  8
0
  6
Continuous
 62
     7
370
    15
100
AcDbSpline
210
0.0
220
0.0
230
1.0
 70
     8
 71
     3
 72
    30
 73
    26
 74
     0
 42
0.00000001
 43
0.00000001
 12
1.0
 22
0.0
 32
0.0
 13
1.0
 23
0.0
 33
0.0
 40
0.0
 40
0.0
 40
0.0
 40
0.0
 40
0.1250000000000029
 40
0.1250000000000029
 40
0.1875000000000042
 40
0.1875000000000042
 40
0.2500000000000055
 40
0.2500000000000055
 40
0.375000000000004
 40
0.375000000000004
 40
0.437500000000001
 40
0.437500000000001
 40
0.499999999999998
 40
0.499999999999998
 40
0.6249999999999941
 40
0.6249999999999941
 40
0.6874999999999942
 40
0.6874999999999942
 40
0.7499999999999943
 40
0.7499999999999943
 40
0.8749999999999947
 40
0.8749999999999947
 40
0.9374999999999973
 40
0.9374999999999973
 40
1.0
 40
1.0
 40
1.0
 40
1.0
 10
239.5946030765958
 20
815.8957693444512
 30
0.0
 10
239.3139440851049
 20
815.8957693444512
 30
0.0
 10
239.0346019386824
 20
815.8333101275156
 30
0.0
 10
238.6177456833114
 20
815.6498045114809
 30
0.0
 10
238.4791610184659
 20
815.5735583455603
 30
0.0
 10
238.2028562129245
 20
815.3902683651048
 30
0.0
 10
238.0644412960105
 20
815.28251788513
 30
0.0
 10
237.6582693522067
 20
814.9179367070661
 30
0.0
 10
237.3982313933346
 20
814.6200408566698
 30
0.0
 10
237.0253973251178
 20
814.0915179147379
 30
0.0
 10
236.9040117475501
 20
813.9016368246464
 30
0.0
 10
236.6675072675242
 20
813.4933531829378
 30
0.0
 10
236.5531380756043
 20
813.2760358729893
 30
0.0
 10
236.227159237872
 20
812.5950201175959
 30
0.0
 10
236.0303308417094
 20
812.0988613903038
 30
0.0
 10
235.7680959997671
 20
811.2899036897261
 30
0.0
 10
235.6858089117149
 20
811.0077217717493
 30
0.0
 10
235.5353960895295
 20
810.4291479285542
 30
0.0
 10
235.4674056610835
 20
810.1337273373782
 30
0.0
 10
235.2849607651441
 20
809.2294341409784
 30
0.0
 10
235.1918306499912
 20
808.6027115440089
 30
0.0
 10
235.0979082492014
 20
807.6250997070483
 30
0.0
 10
235.0745169077187
 20
807.2946499781339
 30
0.0
 10
235.0442170901703
 20
806.632707530765
 30
0.0
 10
235.0371860399762
 20
806.3000168129021
 30
0.0
 10
235.0384061728667
 20
805.9655819474308
 30
0.0
  0
LINE
  5
67
330
1F
100
AcDbEntity
  8
0
  6
Continuous
 62
     7
370
    15
100
AcDbLine
 10
239.5946030766
 20
815.8957693445
 30
0.0
 11
253.3187485367
 21
815.8957693445
 31
0.0
  0
LINE
  5
68
330
1F
100
AcDbEntity
  8
0
  6
Continuous
 62
     7
370
    15
100
AcDbLine
 10
235.0384061729
 20
805.9655819474
 30
0.0
 11
235.4872300109
 21
682.8957693445
 31
0.0
  0
LINE
  5
69
330
1F
100
AcDbEntity
  8
0
  6
Continuous
 62
     7
370
    15
100
AcDbLine
 10
235.0384061729
 20
805.9655819474
 30
0.0
 11
230.1368281332
 21
805.9655819474
 31
0.0
  0
LINE
  5
6A
330
1F
100
AcDbEntity
  8
0
  6
Continuous
 62
     7
370
    15
100
AcDbLine
 10
230.1368281332
 20
805.9655819474
 30
0.0
 11
228.8244123782
 21
682.8957693445
 31
0.0
  0
LINE
  5
6B
330
1F
100
AcDbEntity
  8
0
  6
Continuous
 62
     7
370
    15
100
AcDbLine
 10
235.2321257526
 20
815.8957693445
 30
0.0
 11
239.5946030766
 21
815.8957693445
 31
0.0
  0
SPLINE
  5
6C
330
1F
100
AcDbEntity
  8
0
  6
Continuous
 62
     7
370
    15
100
AcDbSpline
210
0.0
220
0.0
230
1.0
 70
     8
 71
     3
 72
    28
 73
    24
 74
     0
 42
0.00000001
 43
0.00000001
 12
1.0
 22
0.0
 32
0.0
 13
1.0
 23
0.0
 33
0.0
 40
0.0
 40
0.0
 40
0.0
 40
0.0
 40
0.1250000000000089
 40
0.1250000000000089
 40
0.1875000000000133
 40
0.1875000000000133
 40
0.2500000000000177
 40
0.2500000000000177
 40
0.3750000000000217
 40
0.3750000000000217
 40
0.4375000000000222
 40
0.4375000000000222
 40
0.5000000000000226
 40
0.5000000000000226
 40
0.6250000000000199
 40
0.6250000000000199
 40
0.7500000000000171
 40
0.7500000000000171
 40
0.8125000000000137
 40
0.8125000000000137
 40
0.8750000000000101
 40
0.8750000000000101
 40
1.0
 40
1.0
 40
1.0
 40
1.0
 10
230.136828133181
 20
805.9655819474308
 30
0.0
 10
230.1439594752213
 20
806.6342353388585
 30
0.0
 10
230.1860756403844
 20
807.2904345394752
 30
0.0
 10
230.2989792675306
 20
808.2569279230127
 30
0.0
 10
230.3449604359263
 20
808.5761021620094
 30
0.0
 10
230.4538409913207
 20
809.2083491690696
 30
0.0
 10
230.5168250310603
 20
809.5211438493517
 30
0.0
 10
230.7265270852909
 20
810.4292055281547
 30
0.0
 10
230.8949661829514
 20
811.0018117084286
 30
0.0
 10
231.1886938530508
 20
811.8124292505731
 30
0.0
 10
231.2941236061105
 20
812.0758458870464
 30
0.0
 10
231.5150074800448
 20
812.5771833683174
 30
0.0
 10
231.630505332984
 20
812.8155731957845
 30
0.0
 10
231.9913436762597
 20
813.4951064497744
 30
0.0
 10
232.250911882681
 20
813.9009690481387
 30
0.0
 10
232.8070195907256
 20
814.6163040250991
 30
0.0
 10
233.0948260528435
 20
814.9145857750151
 30
0.0
 10
233.5393713823045
 20
815.2774964418423
 30
0.0
 10
233.6897135562152
 20
815.3842755099424
 30
0.0
 10
233.9946558318524
 20
815.5689827326719
 30
0.0
 10
234.1497476810795
 20
815.6469979791464
 30
0.0
 10
234.6135050373672
 20
815.8332252217218
 30
0.0
 10
234.9228208171657
 20
815.8957693444513
 30
0.0
 10
235.2321257525809
 20
815.8957693444512
 30
0.0
  0
LINE
  5
6D
330
1F
100
AcDbEntity
  8
0
  6
Continuous
 62
     7
370
    15
100
AcDbLine
 10
294.8991692983
 20
805.9655819474
 30
0.0
 11
290.2193163021
 21
805.9655819474
 31
0.0
  0
LINE
  5
6E
330
1F
100
AcDbEntity
  8
0
  6
Continuous
 62
     7
370
    15
100
AcDbLine
 10
294.8991692983
 20
805.9655819474
 30
0.0
 11
295.8363464498
 21
682.8957693445
 31
0.0
  0
LINE
  5
6F
330
1F
100
AcDbEntity
  8
0
  6
Continuous
 62
     7
370
    15
100
AcDbLine
 10
290.2193163021
 20
805.9655819474
 30
0.0
 11
289.4648056178
 21
682.8957693445
 31
0.0
  0
LINE
  5
70
330
1F
100
AcDbEntity
  8
0
  6
Continuous
 62
     7
370
    15
100
AcDbLine
 10
289.0480369712
 20
815.8957693445
 30
0.0
 11
275.9128188205
 21
815.8957693445
 31
0.0
  0
SPLINE
  5
71
330
1F
100
AcDbEntity
  8
0
  6
Continuous
 62
     7
370
    15
100
AcDbSpline
210
0.0
220
0.0
230
1.0
 70
     8
 71
     3
 72
    28
 73
    24
 74
     0
 42
0.00000001
 43
0.00000001
 12
1.0
 22
0.0
 32
0.0
 13
1.0
 23
0.0
 33
0.0
 40
0.0
 40
0.0
 40
0.0
 40
0.0
 40
0.1250000000000084
 40
0.1250000000000084
 40
0.1875000000000126
 40
0.1875000000000126
 40
0.2500000000000168
 40
0.2500000000000168
 40
0.3750000000000204
 40
0.3750000000000204
 40
0.4375000000000202
 40
0.4375000000000202
 40
0.5000000000000199
 40
0.5000000000000199
 40
0.6250000000000157
 40
0.6250000000000157
 40
0.7500000000000113
 40
0.7500000000000113
 40
0.8125000000000094
 40
0.8125000000000094
 40
0.8750000000000075
 40
0.8750000000000075
 40
1.0
 40
1.0
 40
1.0
 40
1.0
 10
290.219316302052
 20
805.9655819474308
 30
0.0
 10
290.2233950512046
 20
806.6342353388585
 30
0.0
 10
290.22102227805
 20
807.2904345394752
 30
0.0
 10
290.207898197866
 20
808.2569279230129
 30
0.0
 10
290.2019113979924
 20
808.5761021620095
 30
0.0
 10
290.1865143265696
 20
809.2083491690696
 30
0.0
 10
290.1770833371171
 20
809.5211438493517
 30
0.0
 10
290.1440567762307
 20
810.4292055281547
 30
0.0
 10
290.1156310983888
 20
811.0018117084286
 30
0.0
 10
290.0622302211397
 20
811.8124292505731
 30
0.0
 10
290.0424973135798
 20
812.0758458870464
 30
0.0
 10
289.9998141024694
 20
812.5771833683174
 30
0.0
 10
289.9768634917976
 20
812.8155731957845
 30
0.0
 10
289.9029646054612
 20
813.4951064497743
 30
0.0
 10
289.8470148328395
 20
813.9009690481389
 30
0.0
 10
289.7195023192147
 20
814.6163040250992
 30
0.0
 10
289.6499238948752
 20
814.9145857750151
 30
0.0
 10
289.5360873062098
 20
815.2774964418423
 30
0.0
 10
289.4965574906744
 20
815.3842755099424
 30
0.0
 10
289.4141247467617
 20
815.568982732672
 30
0.0
 10
289.3710733614413
 20
815.6469979791464
 30
0.0
 10
289.2387974375934
 20
815.8332252217218
 30
0.0
 10
289.1458986454072
 20
815.8957693444512
 30
0.0
 10
289.0480369712241
 20
815.8957693444512
 30
0.0
  0
LINE
  5
72
330
1F
100
AcDbEntity
  8
0
  6
Continuous
 62
     7
370
    15
100
AcDbLine
 10
289.0480369712
 20
815.8957693445
 30
0.0
 11
293.1362096853
 21
815.8957693445
 31
0.0
  0
SPLINE
  5
73
330
1F
100
AcDbEntity
  8
0
  6
Continuous
 62
     7
370
    15
100
AcDbSpline
210
0.0
220
0.0
230
1.0
 70
     8
 71
     3
 72
    30
 73
    26
 74
     0
 42
0.00000001
 43
0.00000001
 12
1.0
 22
0.0
 32
0.0
 13
1.0
 23
0.0
 33
0.0
 40
0.0
 40
0.0
 40
0.0
 40
0.0
 40
0.1249999999999982
 40
0.1249999999999982
 40
0.1874999999999974
 40
0.1874999999999974
 40
0.2499999999999966
 40
0.2499999999999966
 40
0.374999999999993
 40
0.374999999999993
 40
0.4374999999999913
 40
0.4374999999999913
 40
0.4999999999999897
 40
0.4999999999999897
 40
0.6249999999999881
 40
0.6249999999999881
 40
0.6874999999999896
 40
0.6874999999999896
 40
0.7499999999999909
 40
0.7499999999999909
 40
0.8749999999999927
 40
0.8749999999999927
 40
0.9374999999999963
 40
0.9374999999999963
 40
1.0
 40
1.0
 40
1.0
 40
1.0
 10
293.1362096853139
 20
815.8957693444512
 30
0.0
 10
293.2656152744952
 20
815.8957693444512
 30
0.0
 10
293.3895681016614
 20
815.8333101275156
 30
0.0
 10
293.5679426047215
 20
815.649804511481
 30
0.0
 10
293.6261383465862
 20
815.5735583455603
 30
0.0
 10
293.7400751984553
 20
815.3902683651047
 30
0.0
 10
293.7960870462239
 20
815.28251788513
 30
0.0
 10
293.9575802231231
 20
814.9179367070661
 30
0.0
 10
294.0571260537895
 20
814.6200408566698
 30
0.0
 10
294.1957004822709
 20
814.0915179147379
 30
0.0
 10
294.2400913853224
 20
813.9016368246464
 30
0.0
 10
294.3253991729824
 20
813.4933531829378
 30
0.0
 10
294.3660416340548
 20
813.2760358729893
 30
0.0
 10
294.4805704934593
 20
812.5950201175959
 30
0.0
 10
294.5479141217305
 20
812.0988613903038
 30
0.0
 10
294.6368065683504
 20
811.2899036897261
 30
0.0
 10
294.6645405478353
 20
811.0077217717493
 30
0.0
 10
294.7152358844282
 20
810.4291479285542
 30
0.0
 10
294.7381538089048
 20
810.1337273373781
 30
0.0
 10
294.8001119243518
 20
809.2294341409784
 30
0.0
 10
294.8324409720403
 20
808.6027115440089
 30
0.0
 10
294.867867144877
 20
807.6250997070483
 30
0.0
 10
294.8773940487637
 20
807.294649978134
 30
0.0
 10
294.8917470531858
 20
806.6327075307652
 30
0.0
 10
294.8966186186712
 20
806.3000168129021
 30
0.0
 10
294.8991692982894
 20
805.9655819474308
 30
0.0
  0
LINE
  5
74
330
1F
100
AcDbEntity
  8
0
  6
Continuous
 62
     7
370
    15
100
AcDbLine
 10
215.7386000759
 20
805.9655819474
 30
0.0
 11
211.1968287449
 21
805.9655819474
 31
0.0
  0
LINE
  5
75
330
1F
100
AcDbEntity
  8
0
  6
Continuous
 62
     7
370
    15
100
AcDbLine
 10
215.7386000759
 20
805.9655819474
 30
0.0
 11
215.9745553436
 21
682.8957693445
 31
0.0
  0
LINE
  5
76
330
1F
100
AcDbEntity
  8
0
  6
Continuous
 62
     7
370
    15
100
AcDbLine
 10
211.1968287449
 20
805.9655819474
 30
0.0
 11
209.8044096906
 21
682.8957693445
 31
0.0
  0
SPLINE
  5
77
330
1F
100
AcDbEntity
  8
0
  6
Continuous
 62
     7
370
    15
100
AcDbSpline
210
0.0
220
0.0
230
1.0
 70
     8
 71
     3
 72
    30
 73
    26
 74
     0
 42
0.00000001
 43
0.00000001
 12
1.0
 22
0.0
 32
0.0
 13
1.0
 23
0.0
 33
0.0
 40
0.0
 40
0.0
 40
0.0
 40
0.0
 40
0.1250000000000012
 40
0.1250000000000012
 40
0.1875000000000029
 40
0.1875000000000029
 40
0.2500000000000046
 40
0.2500000000000046
 40
0.3750000000000041
 40
0.3750000000000041
 40
0.4375000000000032
 40
0.4375000000000032
 40
0.5000000000000023
 40
0.5000000000000023
 40
0.6249999999999987
 40
0.6249999999999987
 40
0.6874999999999998
 40
0.6874999999999998
 40
0.7500000000000008
 40
0.7500000000000008
 40
0.8750000000000031
 40
0.8750000000000031
 40
0.9375000000000016
 40
0.9375000000000016
 40
1.0
 40
1.0
 40
1.0
 40
1.0
 10
222.1226562463726
 20
815.8957693444512
 30
0.0
 10
221.7220418873363
 20
815.8957693444512
 30
0.0
 10
221.3250211869713
 20
815.8333101275156
 30
0.0
 10
220.7348894810056
 20
815.649804511481
 30
0.0
 10
220.5390899926532
 20
815.5735583455603
 30
0.0
 10
220.1494522990943
 20
815.3902683651048
 30
0.0
 10
219.9546399134444
 20
815.28251788513
 30
0.0
 10
219.3839877978149
 20
814.9179367070661
 30
0.0
 10
219.0200068971428
 20
814.6200408566698
 30
0.0
 10
218.4996111384984
 20
814.0915179147379
 30
0.0
 10
218.3304397426875
 20
813.9016368246463
 30
0.0
 10
218.0012488244889
 20
813.4933531829378
 30
0.0
 10
217.8422742404798
 20
813.2760358729893
 30
0.0
 10
217.3896235925699
 20
812.595020117596
 30
0.0
 10
217.1169499739143
 20
812.0988613903038
 30
0.0
 10
216.75395984462
 20
811.2899036897261
 30
0.0
 10
216.6401130919218
 20
811.0077217717492
 30
0.0
 10
216.4320121517177
 20
810.4291479285542
 30
0.0
 10
216.3379443960299
 20
810.1337273373781
 30
0.0
 10
216.0853609970495
 20
809.2294341409784
 30
0.0
 10
215.9561798890796
 20
808.6027115440089
 30
0.0
 10
215.8249015670461
 20
807.6250997070483
 30
0.0
 10
215.791957717224
 20
807.2946499781339
 30
0.0
 10
215.7485722972219
 20
806.6327075307652
 30
0.0
 10
215.7379596730329
 20
806.3000168129021
 30
0.0
 10
215.7386000758507
 20
805.9655819474308
 30
0.0
  0
LINE
  5
78
330
1F
100
AcDbEntity
  8
0
  6
Continuous
 62
     7
370
    15
100
AcDbLine
 10
222.1226562464
 20
815.8957693445
 30
0.0
 11
235.2321257526
 21
815.8957693445
 31
0.0
  0
LINE
  5
79
330
1F
100
AcDbEntity
  8
0
  6
Continuous
 62
     7
370
    15
100
AcDbLine
 10
218.0531877816
 20
815.8957693445
 30
0.0
 11
222.1226562464
 21
815.8957693445
 31
0.0
  0
SPLINE
  5
7A
330
1F
100
AcDbEntity
  8
0
  6
Continuous
 62
     7
370
    15
100
AcDbSpline
210
0.0
220
0.0
230
1.0
 70
     8
 71
     3
 72
    28
 73
    24
 74
     0
 42
0.00000001
 43
0.00000001
 12
1.0
 22
0.0
 32
0.0
 13
1.0
 23
0.0
 33
0.0
 40
0.0
 40
0.0
 40
0.0
 40
0.0
 40
0.1250000000000086
 40
0.1250000000000086
 40
0.1875000000000127
 40
0.1875000000000127
 40
0.2500000000000168
 40
0.2500000000000168
 40
0.3750000000000206
 40
0.3750000000000206
 40
0.4375000000000201
 40
0.4375000000000201
 40
0.5000000000000195
 40
0.5000000000000195
 40
0.6250000000000164
 40
0.6250000000000164
 40
0.7500000000000131
 40
0.7500000000000131
 40
0.8125000000000105
 40
0.8125000000000105
 40
0.875000000000008
 40
0.875000000000008
 40
1.0
 40
1.0
 40
1.0
 40
1.0
 10
211.1968287448623
 20
805.9655819474308
 30
0.0
 10
211.204402259655
 20
806.6342353388586
 30
0.0
 10
211.2584895940418
 20
807.2904345394753
 30
0.0
 10
211.4058774294033
 20
808.2569279230129
 30
0.0
 10
211.4661296948504
 20
808.5761021620094
 30
0.0
 10
211.6092351099005
 20
809.2083491690696
 30
0.0
 10
211.6922026154529
 20
809.5211438493517
 30
0.0
 10
211.9690139236215
 20
810.4292055281547
 30
0.0
 10
212.1920284924049
 20
811.0018117084286
 30
0.0
 10
212.5822813337603
 20
811.8124292505731
 30
0.0
 10
212.7225575269645
 20
812.0758458870464
 30
0.0
 10
213.0169219157653
 20
812.5771833683174
 30
0.0
 10
213.1710655110362
 20
812.8155731957845
 30
0.0
 10
213.6534178479503
 20
813.4951064497744
 30
0.0
 10
214.0013840149976
 20
813.9009690481389
 30
0.0
 10
214.7495822833861
 20
814.6163040250989
 30
0.0
 10
215.1380711915717
 20
814.9145857750151
 30
0.0
 10
215.7403821844466
 20
815.2774964418423
 30
0.0
 10
215.9444443294402
 20
815.3842755099424
 30
0.0
 10
216.359145114164
 20
815.5689827326719
 30
0.0
 10
216.5704579891576
 20
815.6469979791464
 30
0.0
 10
217.2035813775594
 20
815.8332252217218
 30
0.0
 10
217.6275136983896
 20
815.8957693444512
 30
0.0
 10
218.0531877815999
 20
815.8957693444512
 30
0.0
  0
LINE
  5
7B
330
1F
100
AcDbEntity
  8
0
  6
Continuous
 62
     7
370
    15
100
AcDbLine
 10
305.1291612689
 20
815.8957693445
 30
0.0
 11
293.1362096853
 21
815.8957693445
 31
0.0
  0
SPLINE
  5
7C
330
1F
100
AcDbEntity
  8
0
  6
Continuous
 62
     7
370
    15
100
AcDbSpline
210
0.0
220
0.0
230
1.0
 70
     8
 71
     3
 72
    28
 73
    24
 74
     0
 42
0.00000001
 43
0.00000001
 12
1.0
 22
0.0
 32
0.0
 13
1.0
 23
0.0
 33
0.0
 40
0.0
 40
0.0
 40
0.0
 40
0.0
 40
0.1250000000000076
 40
0.1250000000000076
 40
0.1875000000000118
 40
0.1875000000000118
 40
0.2500000000000159
 40
0.2500000000000159
 40
0.3750000000000192
 40
0.3750000000000192
 40
0.4375000000000188
 40
0.4375000000000188
 40
0.5000000000000184
 40
0.5000000000000184
 40
0.6250000000000142
 40
0.6250000000000142
 40
0.7500000000000098
 40
0.7500000000000098
 40
0.8125000000000077
 40
0.8125000000000077
 40
0.8750000000000054
 40
0.8750000000000054
 40
1.0
 40
1.0
 40
1.0
 40
1.0
 10
308.4123367307589
 20
805.9655819474308
 30
0.0
 10
308.4149710465056
 20
806.6342353388585
 30
0.0
 10
308.3970737665711
 20
807.2904345394753
 30
0.0
 10
308.340544487948
 20
808.2569279230127
 30
0.0
 10
308.3167108144091
 20
808.5761021620094
 30
0.0
 10
308.2587308052277
 20
809.2083491690696
 30
0.0
 10
308.2245283322511
 20
809.5211438493517
 30
0.0
 10
308.1085964911181
 20
810.4292055281547
 30
0.0
 10
308.013077161951
 20
811.0018117084286
 30
0.0
 10
307.841664215231
 20
811.8124292505731
 30
0.0
 10
307.7794229694306
 20
812.0758458870464
 30
0.0
 10
307.6473268563132
 20
812.5771833683174
 30
0.0
 10
307.5774561317714
 20
812.8155731957845
 30
0.0
 10
307.3563888549981
 20
813.4951064497743
 30
0.0
 10
307.193836207892
 20
813.9009690481387
 30
0.0
 10
306.8359137222229
 20
814.6163040250991
 30
0.0
 10
306.6461417370548
 20
814.9145857750151
 30
0.0
 10
306.3449718076977
 20
815.2774964418421
 30
0.0
 10
306.241814620256
 20
815.3842755099424
 30
0.0
 10
306.0297294569554
 20
815.5689827326719
 30
0.0
 10
305.9204398438105
 20
815.6469979791464
 30
0.0
 10
305.5891611265267
 20
815.8332252217219
 30
0.0
 10
305.3622965991153
 20
815.8957693444513
 30
0.0
 10
305.1291612689113
 20
815.8957693444512
 30
0.0
  0
LINE
  5
7D
330
1F
100
AcDbEntity
  8
0
  6
Continuous
 62
     7
370
    15
100
AcDbLine
 10
308.4123367308
 20
805.9655819474
 30
0.0
 11
307.9226270435
 21
682.8957693445
 31
0.0
  0
LINE
  5
7E
330
1F
100
AcDbEntity
  8
0
  6
Continuous
 62
     7
370
    15
100
AcDbLine
 10
312.5953494053
 20
805.9655819474
 30
0.0
 11
308.4123367308
 21
805.9655819474
 31
0.0
  0
LINE
  5
7F
330
1F
100
AcDbEntity
  8
0
  6
Continuous
 62
     7
370
    15
100
AcDbLine
 10
312.5953494053
 20
805.9655819474
 30
0.0
 11
313.6214769329
 21
682.8957693445
 31
0.0
  0
LINE
  5
80
330
1F
100
AcDbEntity
  8
0
  6
Continuous
 62
     7
370
    15
100
AcDbLine
 10
305.1291612689
 20
815.8957693445
 30
0.0
 11
308.7547955516
 21
815.8957693445
 31
0.0
  0
SPLINE
  5
81
330
1F
100
AcDbEntity
  8
0
  6
Continuous
 62
     7
370
    15
100
AcDbSpline
210
0.0
220
0.0
230
1.0
 70
     8
 71
     3
 72
    30
 73
    26
 74
     0
 42
0.00000001
 43
0.00000001
 12
1.0
 22
0.0
 32
0.0
 13
1.0
 23
0.0
 33
0.0
 40
0.0
 40
0.0
 40
0.0
 40
0.0
 40
0.1250000000000027
 40
0.1250000000000027
 40
0.1875000000000041
 40
0.1875000000000041
 40
0.2500000000000054
 40
0.2500000000000054
 40
0.3750000000000058
 40
0.3750000000000058
 40
0.4375000000000033
 40
0.4375000000000033
 40
0.5000000000000008
 40
0.5000000000000008
 40
0.6249999999999958
 40
0.6249999999999958
 40
0.6874999999999962
 40
0.6874999999999962
 40
0.7499999999999966
 40
0.7499999999999966
 40
0.874999999999996
 40
0.874999999999996
 40
0.9374999999999981
 40
0.9374999999999981
 40
1.0
 40
1.0
 40
1.0
 40
1.0
 10
308.7547955515545
 20
815.8957693444512
 30
0.0
 10
309.0176796216284
 20
815.8957693444512
 30
0.0
 10
309.2732038960219
 20
815.8333101275156
 30
0.0
 10
309.646175788347
 20
815.649804511481
 30
0.0
 10
309.7687736863717
 20
815.5735583455603
 30
0.0
 10
310.0105602583292
 20
815.3902683651048
 30
0.0
 10
310.1303369862584
 20
815.28251788513
 30
0.0
 10
310.4781863301541
 20
814.9179367070661
 30
0.0
 10
310.6960242227588
 20
814.6200408566698
 30
0.0
 10
311.0031047939076
 20
814.0915179147379
 30
0.0
 10
311.102165378274
 20
813.9016368246464
 30
0.0
 10
311.2936776471878
 20
813.4933531829378
 30
0.0
 10
311.3855171863725
 20
813.2760358729893
 30
0.0
 10
311.6456229647357
 20
812.595020117596
 30
0.0
 10
311.8003886604911
 20
812.0988613903038
 30
0.0
 10
312.0055344184678
 20
811.2899036897261
 30
0.0
 10
312.0697054925233
 20
811.0077217717493
 30
0.0
 10
312.1870043886375
 20
810.4291479285541
 30
0.0
 10
312.2400294378395
 20
810.1337273373782
 30
0.0
 10
312.3828984182351
 20
809.2294341409784
 30
0.0
 10
312.456714499943
 20
808.6027115440089
 30
0.0
 10
312.5347265664334
 20
807.6250997070483
 30
0.0
 10
312.555045556469
 20
807.2946499781339
 30
0.0
 10
312.5839099201088
 20
806.632707530765
 30
0.0
 10
312.5925561326441
 20
806.3000168129021
 30
0.0
 10
312.595349405291
 20
805.9655819474308
 30
0.0
  0
LINE
  5
82
330
1F
100
AcDbEntity
  8
0
  6
Continuous
 62
     7
370
    15
100
AcDbLine
 10
198.1984394044
 20
805.9655819474
 30
0.0
 11
194.2149719831
 21
805.9655819474
 31
0.0
  0
LINE
  5
83
330
1F
100
AcDbEntity
  8
0
  6
Continuous
 62
     7
370
    15
100
AcDbLine
 10
198.1984394044
 20
805.9655819474
 30
0.0
 11
198.2112137244
 21
682.8957693445
 31
0.0
  0
LINE
  5
84
330
1F
100
AcDbEntity
  8
0
  6
Continuous
 62
     7
370
    15
100
AcDbLine
 10
194.2149719831
 20
805.9655819474
 30
0.0
 11
192.8034050237
 21
682.8957693445
 31
0.0
  0
SPLINE
  5
85
330
1F
100
AcDbEntity
  8
0
  6
Continuous
 62
     7
370
    15
100
AcDbSpline
210
0.0
220
0.0
230
1.0
 70
     8
 71
     3
 72
    30
 73
    26
 74
     0
 42
0.00000001
 43
0.00000001
 12
1.0
 22
0.0
 32
0.0
 13
1.0
 23
0.0
 33
0.0
 40
0.0
 40
0.0
 40
0.0
 40
0.0
 40
0.1250000000000005
 40
0.1250000000000005
 40
0.1875000000000013
 40
0.1875000000000013
 40
0.2500000000000021
 40
0.2500000000000021
 40
0.3749999999999991
 40
0.3749999999999991
 40
0.437499999999997
 40
0.437499999999997
 40
0.4999999999999949
 40
0.4999999999999949
 40
0.6249999999999907
 40
0.6249999999999907
 40
0.6874999999999913
 40
0.6874999999999913
 40
0.749999999999992
 40
0.749999999999992
 40
0.8749999999999936
 40
0.8749999999999936
 40
0.9374999999999969
 40
0.9374999999999969
 40
1.0
 40
1.0
 40
1.0
 40
1.0
 10
206.1313409529132
 20
815.8957693444512
 30
0.0
 10
205.6282799961823
 20
815.8957693444512
 30
0.0
 10
205.1309324515975
 20
815.8333101275156
 30
0.0
 10
204.3933168823539
 20
815.649804511481
 30
0.0
 10
204.1488599476858
 20
815.5735583455603
 30
0.0
 10
203.662918403007
 20
815.3902683651047
 30
0.0
 10
203.4202227846876
 20
815.28251788513
 30
0.0
 10
202.7100307329781
 20
814.9179367070661
 30
0.0
 10
202.2580146024394
 20
814.6200408566698
 30
0.0
 10
201.6128009451562
 20
814.0915179147379
 30
0.0
 10
201.4032373328735
 20
813.9016368246463
 30
0.0
 10
200.9957471992607
 20
813.4933531829378
 30
0.0
 10
200.7991151753284
 20
813.2760358729893
 30
0.0
 10
200.2395757226133
 20
812.5950201175959
 30
0.0
 10
199.9029740270331
 20
812.0988613903039
 30
0.0
 10
199.4550930208569
 20
811.2899036897261
 30
0.0
 10
199.3146622529028
 20
811.0077217717493
 30
0.0
 10
199.0579682043461
 20
810.4291479285542
 30
0.0
 10
198.9419343337271
 20
810.1337273373782
 30
0.0
 10
198.6302515382708
 20
809.2294341409784
 30
0.0
 10
198.470665271782
 20
808.6027115440089
 30
0.0
 10
198.3077685211209
 20
807.6250997070483
 30
0.0
 10
198.2667119672787
 20
807.294649978134
 30
0.0
 10
198.2121370958634
 20
806.632707530765
 30
0.0
 10
198.1984067202816
 20
806.3000168129023
 30
0.0
 10
198.1984394043505
 20
805.9655819474308
 30
0.0
  0
LINE
  5
86
330
1F
100
AcDbEntity
  8
0
  6
Continuous
 62
     7
370
    15
100
AcDbLine
 10
206.1313409529
 20
815.8957693445
 30
0.0
 11
218.0531877816
 21
815.8957693445
 31
0.0
  0
LINE
  5
87
330
1F
100
AcDbEntity
  8
0
  6
Continuous
 62
     7
370
    15
100
AcDbLine
 10
202.5327366468
 20
815.8957693445
 30
0.0
 11
206.1313409529
 21
815.8957693445
 31
0.0
  0
SPLINE
  5
88
330
1F
100
AcDbEntity
  8
0
  6
Continuous
 62
     7
370
    15
100
AcDbSpline
210
0.0
220
0.0
230
1.0
 70
     8
 71
     3
 72
    28
 73
    24
 74
     0
 42
0.00000001
 43
0.00000001
 12
1.0
 22
0.0
 32
0.0
 13
1.0
 23
0.0
 33
0.0
 40
0.0
 40
0.0
 40
0.0
 40
0.0
 40
0.1250000000000092
 40
0.1250000000000092
 40
0.1875000000000136
 40
0.1875000000000136
 40
0.250000000000018
 40
0.250000000000018
 40
0.3750000000000223
 40
0.3750000000000223
 40
0.4375000000000227
 40
0.4375000000000227
 40
0.5000000000000231
 40
0.5000000000000231
 40
0.6250000000000185
 40
0.6250000000000185
 40
0.7500000000000138
 40
0.7500000000000138
 40
0.8125000000000113
 40
0.8125000000000113
 40
0.8750000000000088
 40
0.8750000000000088
 40
1.0
 40
1.0
 40
1.0
 40
1.0
 10
194.2149719830603
 20
805.9655819474308
 30
0.0
 10
194.2226566716674
 20
806.6342353388586
 30
0.0
 10
194.2863512992255
 20
807.2904345394752
 30
0.0
 10
194.4617817871516
 20
808.2569279230127
 30
0.0
 10
194.5336718365276
 20
808.5761021620094
 30
0.0
 10
194.7047477178997
 20
809.2083491690698
 30
0.0
 10
194.8040726111502
 20
809.5211438493517
 30
0.0
 10
195.1358951908016
 20
810.4292055281547
 30
0.0
 10
195.4037384239095
 20
811.0018117084286
 30
0.0
 10
195.8734605147128
 20
811.8124292505732
 30
0.0
 10
196.0424524052985
 20
812.0758458870464
 30
0.0
 10
196.3974321726582
 20
812.5771833683173
 30
0.0
 10
196.5834846954845
 20
812.8155731957845
 30
0.0
 10
197.1662699143305
 20
813.4951064497743
 30
0.0
 10
197.5874262507768
 20
813.9009690481387
 30
0.0
 10
198.4950152249271
 20
814.6163040250991
 30
0.0
 10
198.9672077497162
 20
814.9145857750151
 30
0.0
 10
199.7009605254075
 20
815.2774964418423
 30
0.0
 10
199.949824146549
 20
815.3842755099423
 30
0.0
 10
200.4561590261117
 20
815.5689827326719
 30
0.0
 10
200.7144575402431
 20
815.6469979791464
 30
0.0
 10
201.4892764306227
 20
815.8332252217219
 30
0.0
 10
202.0092974158113
 20
815.8957693444513
 30
0.0
 10
202.5327366467695
 20
815.8957693444512
 30
0.0
  0
LINE
  5
89
330
1F
100
AcDbEntity
  8
0
  6
Continuous
 62
     7
370
    15
100
AcDbLine
 10
319.0631345245
 20
815.8957693445
 30
0.0
 11
308.7547955516
 21
815.8957693445
 31
0.0
  0
SPLINE
  5
8A
330
1F
100
AcDbEntity
  8
0
  6
Continuous
 62
     7
370
    15
100
AcDbSpline
210
0.0
220
0.0
230
1.0
 70
     8
 71
     3
 72
    28
 73
    24
 74
     0
 42
0.00000001
 43
0.00000001
 12
1.0
 22
0.0
 32
0.0
 13
1.0
 23
0.0
 33
0.0
 40
0.0
 40
0.0
 40
0.0
 40
0.0
 40
0.1249999999999993
 40
0.1249999999999993
 40
0.1874999999999988
 40
0.1874999999999988
 40
0.2499999999999982
 40
0.2499999999999982
 40
0.3750000000000019
 40
0.3750000000000019
 40
0.4375000000000028
 40
0.4375000000000028
 40
0.5000000000000036
 40
0.5000000000000036
 40
0.625000000000004
 40
0.625000000000004
 40
0.7500000000000046
 40
0.7500000000000046
 40
0.8125000000000043
 40
0.8125000000000043
 40
0.8750000000000041
 40
0.8750000000000041
 40
1.0
 40
1.0
 40
1.0
 40
1.0
 10
324.3147155952352
 20
805.9655819474308
 30
0.0
 10
324.3157903453371
 20
806.6342353388586
 30
0.0
 10
324.2831507556364
 20
807.2904345394753
 30
0.0
 10
324.1856868793078
 20
808.2569279230129
 30
0.0
 10
324.1450479780038
 20
808.5761021620094
 30
0.0
 10
324.0470190356839
 20
809.2083491690698
 30
0.0
 10
323.9895398913741
 20
809.5211438493517
 30
0.0
 10
323.7957695477548
 20
810.4292055281547
 30
0.0
 10
323.6373312202996
 20
811.0018117084286
 30
0.0
 10
323.355397772411
 20
811.8124292505731
 30
0.0
 10
323.253368429478
 20
812.0758458870465
 30
0.0
 10
323.0376326483644
 20
812.5771833683174
 30
0.0
 10
322.9238954958919
 20
812.8155731957845
 30
0.0
 10
322.5653215294753
 20
813.4951064497743
 30
0.0
 10
322.3032703385775
 20
813.9009690481389
 30
0.0
 10
321.7305808109904
 20
814.6163040250991
 30
0.0
 10
321.4289092113729
 20
814.9145857750151
 30
0.0
 10
320.9535685124105
 20
815.2774964418423
 30
0.0
 10
320.791292417157
 20
815.3842755099424
 30
0.0
 10
320.4588239738019
 20
815.5689827326719
 30
0.0
 10
320.2880726133568
 20
815.6469979791464
 30
0.0
 10
319.7722695722341
 20
815.8332252217219
 30
0.0
 10
319.4213543780619
 20
815.8957693444513
 30
0.0
 10
319.0631345244745
 20
815.8957693444512
 30
0.0
  0
LINE
  5
8B
330
1F
100
AcDbEntity
  8
0
  6
Continuous
 62
     7
370
    15
100
AcDbLine
 10
324.3147155952
 20
805.9655819474
 30
0.0
 11
324.1112095682
 21
682.8957693445
 31
0.0
  0
LINE
  5
8C
330
1F
100
AcDbEntity
  8
0
  6
Continuous
 62
     7
370
    15
100
AcDbLine
 10
327.8180702219
 20
805.9655819474
 30
0.0
 11
324.3147155952
 21
805.9655819474
 31
0.0
  0
LINE
  5
8D
330
1F
100
AcDbEntity
  8
0
  6
Continuous
 62
     7
370
    15
100
AcDbLine
 10
327.8180702219
 20
805.9655819474
 30
0.0
 11
328.8883014286
 21
682.8957693445
 31
0.0
  0
LINE
  5
8E
330
1F
100
AcDbEntity
  8
0
  6
Continuous
 62
     7
370
    15
100
AcDbLine
 10
319.0631345245
 20
815.8957693445
 30
0.0
 11
322.0677727598
 21
815.8957693445
 31
0.0
  0
SPLINE
  5
8F
330
1F
100
AcDbEntity
  8
0
  6
Continuous
 62
     7
370
    15
100
AcDbSpline
210
0.0
220
0.0
230
1.0
 70
     8
 71
     3
 72
    30
 73
    26
 74
     0
 42
0.00000001
 43
0.00000001
 12
1.0
 22
0.0
 32
0.0
 13
1.0
 23
0.0
 33
0.0
 40
0.0
 40
0.0
 40
0.0
 40
0.0
 40
0.1250000000000016
 40
0.1250000000000016
 40
0.1875000000000029
 40
0.1875000000000029
 40
0.2500000000000042
 40
0.2500000000000042
 40
0.3750000000000063
 40
0.3750000000000063
 40
0.4375000000000055
 40
0.4375000000000055
 40
0.5000000000000056
 40
0.5000000000000056
 40
0.625000000000003
 40
0.625000000000003
 40
0.6875000000000039
 40
0.6875000000000039
 40
0.7500000000000048
 40
0.7500000000000048
 40
0.875000000000005
 40
0.875000000000005
 40
0.9375000000000026
 40
0.9375000000000026
 40
1.0
 40
1.0
 40
1.0
 40
1.0
 10
322.0677727597961
 20
815.8957693444512
 30
0.0
 10
322.4526460154426
 20
815.8957693444513
 30
0.0
 10
322.8285741001308
 20
815.8333101275156
 30
0.0
 10
323.3798427203087
 20
815.649804511481
 30
0.0
 10
323.5614846580598
 20
815.5735583455603
 30
0.0
 10
323.9205537166902
 20
815.3902683651048
 30
0.0
 10
324.0988605070172
 20
815.28251788513
 30
0.0
 10
324.6178633324147
 20
814.9179367070661
 30
0.0
 10
324.9444727257487
 20
814.6200408566697
 30
0.0
 10
325.4066385450697
 20
814.0915179147379
 30
0.0
 10
325.5560393878686
 20
813.9016368246464
 30
0.0
 10
325.8453861329069
 20
813.4933531829378
 30
0.0
 10
325.9844089216466
 20
813.2760358729893
 30
0.0
 10
326.3787237483281
 20
812.5950201175959
 30
0.0
 10
326.614147508015
 20
812.0988613903039
 30
0.0
 10
326.9265807233265
 20
811.2899036897261
 30
0.0
 10
327.0243843080892
 20
811.0077217717492
 30
0.0
 10
327.2031602391019
 20
810.4291479285541
 30
0.0
 10
327.2839749639368
 20
810.1337273373782
 30
0.0
 10
327.5015107492764
 20
809.2294341409784
 30
0.0
 10
327.6135877480239
 20
808.6027115440089
 30
0.0
 10
327.730776206519
 20
807.6250997070483
 30
0.0
 10
327.7609992453376
 20
807.2946499781339
 30
0.0
 10
327.8031134569976
 20
806.632707530765
 30
0.0
 10
327.815156435606
 20
806.3000168129021
 30
0.0
 10
327.8180702218632
 20
805.9655819474308
 30
0.0
  0
SPLINE
  5
90
330
1F
100
AcDbEntity
  8
0
  6
Continuous
 62
     7
370
    15
100
AcDbSpline
210
0.0
220
0.0
230
1.0
 70
     8
 71
     3
 72
    30
 73
    26
 74
     0
 42
0.00000001
 43
0.00000001
 12
1.0
 22
0.0
 32
0.0
 13
1.0
 23
0.0
 33
0.0
 40
0.0
 40
0.0
 40
0.0
 40
0.0
 40
0.1249999999999981
 40
0.1249999999999981
 40
0.1874999999999983
 40
0.1874999999999983
 40
0.2499999999999986
 40
0.2499999999999986
 40
0.3749999999999948
 40
0.3749999999999948
 40
0.4374999999999949
 40
0.4374999999999949
 40
0.499999999999995
 40
0.499999999999995
 40
0.6249999999999959
 40
0.6249999999999959
 40
0.6874999999999976
 40
0.6874999999999976
 40
0.7499999999999991
 40
0.7499999999999991
 40
0.8750000000000023
 40
0.8750000000000023
 40
0.9375000000000011
 40
0.9375000000000011
 40
1.0
 40
1.0
 40
1.0
 40
1.0
 10
192.3195544093862
 20
815.8957693444512
 30
0.0
 10
191.7360330327242
 20
815.8957693444513
 30
0.0
 10
191.1600951181561
 20
815.8333101275156
 30
0.0
 10
190.3072330254828
 20
815.649804511481
 30
0.0
 10
190.0248025855786
 20
815.5735583455603
 30
0.0
 10
189.4637951670885
 20
815.3902683651048
 30
0.0
 10
189.1838232792031
 20
815.28251788513
 30
0.0
 10
188.3651300919528
 20
814.9179367070661
 30
0.0
 10
187.8448340054661
 20
814.6200408566698
 30
0.0
 10
187.103001382446
 20
814.0915179147379
 30
0.0
 10
186.8622044891459
 20
813.9016368246464
 30
0.0
 10
186.3942244143124
 20
813.4933531829378
 30
0.0
 10
186.1685287134478
 20
813.2760358729893
 30
0.0
 10
185.5265550149794
 20
812.595020117596
 30
0.0
 10
185.1407363517657
 20
812.0988613903039
 30
0.0
 10
184.6275390178489
 20
811.2899036897261
 30
0.0
 10
184.4666617330602
 20
811.0077217717493
 30
0.0
 10
184.1725933378275
 20
810.4291479285542
 30
0.0
 10
184.0396645892158
 20
810.1337273373781
 30
0.0
 10
183.6825044310649
 20
809.2294341409784
 30
0.0
 10
183.4994876916826
 20
808.6027115440089
 30
0.0
 10
183.3120918820631
 20
807.6250997070483
 30
0.0
 10
183.2647169926149
 20
807.2946499781339
 30
0.0
 10
183.2013378535466
 20
806.632707530765
 30
0.0
 10
183.1850898098706
 20
806.3000168129021
 30
0.0
 10
183.18451334674
 20
805.9655819474308
 30
0.0
  0
LINE
  5
91
330
1F
100
AcDbEntity
  8
0
  6
Continuous
 62
     7
370
    15
100
AcDbLine
 10
192.3195544094
 20
815.8957693445
 30
0.0
 11
202.5327366468
 21
815.8957693445
 31
0.0
  0
LINE
  5
92
330
1F
100
AcDbEntity
  8
0
  6
Continuous
 62
     7
370
    15
100
AcDbLine
 10
183.1845133467
 20
805.9655819474
 30
0.0
 11
182.97354842
 21
682.8957693445
 31
0.0
  0
LINE
  5
93
330
1F
100
AcDbEntity
  8
0
  6
Continuous
 62
     7
370
    15
100
AcDbLine
 10
183.1845133467
 20
805.9655819474
 30
0.0
 11
179.9334464763
 21
805.9655819474
 31
0.0
  0
LINE
  5
94
330
1F
100
AcDbEntity
  8
0
  6
Continuous
 62
     7
370
    15
100
AcDbLine
 10
179.9334464763
 20
805.9655819474
 30
0.0
 11
178.5644238615
 21
682.8957693445
 31
0.0
  0
LINE
  5
95
330
1F
100
AcDbEntity
  8
0
  6
Continuous
 62
     7
370
    15
100
AcDbLine
 10
189.3490905381
 20
815.8957693445
 30
0.0
 11
192.3195544094
 21
815.8957693445
 31
0.0
  0
SPLINE
  5
96
330
1F
100
AcDbEntity
  8
0
  6
Continuous
 62
     7
370
    15
100
AcDbSpline
210
0.0
220
0.0
230
1.0
 70
     8
 71
     3
 72
    28
 73
    24
 74
     0
 42
0.00000001
 43
0.00000001
 12
1.0
 22
0.0
 32
0.0
 13
1.0
 23
0.0
 33
0.0
 40
0.0
 40
0.0
 40
0.0
 40
0.0
 40
0.1250000000000074
 40
0.1250000000000074
 40
0.1875000000000112
 40
0.1875000000000112
 40
0.2500000000000149
 40
0.2500000000000149
 40
0.3750000000000173
 40
0.3750000000000173
 40
0.4375000000000166
 40
0.4375000000000166
 40
0.5000000000000159
 40
0.5000000000000159
 40
0.6250000000000125
 40
0.6250000000000125
 40
0.7500000000000092
 40
0.7500000000000092
 40
0.8125000000000066
 40
0.8125000000000066
 40
0.875000000000004
 40
0.875000000000004
 40
1.0
 40
1.0
 40
1.0
 40
1.0
 10
179.9334464762559
 20
805.9655819474308
 30
0.0
 10
179.9409064809098
 20
806.6342353388585
 30
0.0
 10
180.0114246407741
 20
807.2904345394752
 30
0.0
 10
180.2072306271338
 20
808.2569279230127
 30
0.0
 10
180.2876165203141
 20
808.5761021620094
 30
0.0
 10
180.4791860310791
 20
809.2083491690696
 30
0.0
 10
180.5905273375789
 20
809.5211438493517
 30
0.0
 10
180.9628589497212
 20
810.4292055281547
 30
0.0
 10
181.2638248126121
 20
811.0018117084286
 30
0.0
 10
181.7924870435185
 20
811.8124292505731
 30
0.0
 10
181.9828088749543
 20
812.0758458870464
 30
0.0
 10
182.3828897016572
 20
812.5771833683174
 30
0.0
 10
182.5927197640122
 20
812.8155731957845
 30
0.0
 10
183.250467354213
 20
813.4951064497744
 30
0.0
 10
183.7264073072232
 20
813.9009690481389
 30
0.0
 10
184.7537209938698
 20
814.6163040250991
 30
0.0
 10
185.288980056098
 20
814.9145857750151
 30
0.0
 10
186.1221060973714
 20
815.2774964418423
 30
0.0
 10
186.4048946602368
 20
815.3842755099424
 30
0.0
 10
186.9807343707373
 20
815.568982732672
 30
0.0
 10
187.274729639485
 20
815.6469979791464
 30
0.0
 10
188.1573807283393
 20
815.8332252217219
 30
0.0
 10
188.7507629654961
 20
815.8957693444513
 30
0.0
 10
189.3490905380692
 20
815.8957693444512
 30
0.0
  0
LINE
  5
97
330
1F
100
AcDbEntity
  8
0
  6
Continuous
 62
     7
370
    15
100
AcDbLine
 10
345.3911667745
 20
712.8957693445
 30
0.0
 11
349.6611054647
 21
712.8957693445
 31
0.0
  0
LINE
  5
98
330
1F
100
AcDbEntity
  8
0
  6
Continuous
 62
     7
370
    15
100
AcDbLine
 10
341.1212280844
 20
712.8957693445
 30
0.0
 11
345.3911667745
 21
712.8957693445
 31
0.0
  0
LINE
  5
99
330
1F
100
AcDbEntity
  8
0
  6
Continuous
 62
     7
370
    15
100
AcDbLine
 10
166.6101627453
 20
712.8957693445
 30
0.0
 11
170.8801014354
 21
712.8957693445
 31
0.0
  0
LINE
  5
9A
330
1F
100
AcDbEntity
  8
0
  6
Continuous
 62
     7
370
    15
100
AcDbLine
 10
162.3402240552
 20
712.8957693445
 30
0.0
 11
166.6101627453
 21
712.8957693445
 31
0.0
  0
LINE
  5
9B
330
1F
100
AcDbEntity
  8
0
  6
Continuous
 62
     7
370
    15
100
AcDbLine
 10
339.9020258016
 20
805.9655819474
 30
0.0
 11
337.231442631
 21
805.9655819474
 31
0.0
  0
LINE
  5
9C
330
1F
100
AcDbEntity
  8
0
  6
Continuous
 62
     7
370
    15
100
AcDbLine
 10
339.9020258016
 20
805.9655819474
 30
0.0
 11
340.9695864483
 21
682.8957693445
 31
0.0
  0
LINE
  5
9D
330
1F
100
AcDbEntity
  8
0
  6
Continuous
 62
     7
370
    15
100
AcDbLine
 10
337.231442631
 20
805.9655819474
 30
0.0
 11
337.3230344541
 21
682.8957693445
 31
0.0
  0
LINE
  5
9E
330
1F
100
AcDbEntity
  8
0
  6
Continuous
 62
     7
370
    15
100
AcDbLine
 10
330.240975244
 20
815.8957693445
 30
0.0
 11
322.0677727598
 21
815.8957693445
 31
0.0
  0
SPLINE
  5
9F
330
1F
100
AcDbEntity
  8
0
  6
Continuous
 62
     7
370
    15
100
AcDbSpline
210
0.0
220
0.0
230
1.0
 70
     8
 71
     3
 72
    28
 73
    24
 74
     0
 42
0.00000001
 43
0.00000001
 12
1.0
 22
0.0
 32
0.0
 13
1.0
 23
0.0
 33
0.0
 40
0.0
 40
0.0
 40
0.0
 40
0.0
 40
0.1250000000000074
 40
0.1250000000000074
 40
0.1875000000000113
 40
0.1875000000000113
 40
0.2500000000000152
 40
0.2500000000000152
 40
0.3750000000000175
 40
0.3750000000000175
 40
0.4375000000000169
 40
0.4375000000000169
 40
0.5000000000000162
 40
0.5000000000000162
 40
0.6250000000000132
 40
0.6250000000000132
 40
0.7500000000000102
 40
0.7500000000000102
 40
0.8125000000000081
 40
0.8125000000000081
 40
0.8750000000000061
 40
0.8750000000000061
 40
1.0
 40
1.0
 40
1.0
 40
1.0
 10
337.2314426310234
 20
805.9655819474308
 30
0.0
 10
337.2309108437436
 20
806.6342353388585
 30
0.0
 10
337.1849554509689
 20
807.2904345394752
 30
0.0
 10
337.0508166160138
 20
808.2569279230127
 30
0.0
 10
336.9951486019389
 20
808.5761021620094
 30
0.0
 10
336.861355061655
 20
809.2083491690696
 30
0.0
 10
336.7831113604338
 20
809.5211438493517
 30
0.0
 10
336.5199712081575
 20
810.4292055281547
 30
0.0
 10
336.3055383975956
 20
811.0018117084286
 30
0.0
 10
335.9254062930779
 20
811.8124292505732
 30
0.0
 10
335.7880480248896
 20
812.0758458870464
 30
0.0
 10
335.4981012646297
 20
812.5771833683174
 30
0.0
 10
335.3454685435609
 20
812.8155731957845
 30
0.0
 10
334.8650592904622
 20
813.4951064497743
 30
0.0
 10
334.5149624502761
 20
813.9009690481389
 30
0.0
 10
333.7525351611957
 20
814.6163040250991
 30
0.0
 10
333.3521484436127
 20
814.9145857750151
 30
0.0
 10
332.7234116445277
 20
815.2774964418423
 30
0.0
 10
332.5091088855119
 20
815.3842755099424
 30
0.0
 10
332.0707876284379
 20
815.5689827326719
 30
0.0
 10
331.8460371744998
 20
815.6469979791464
 30
0.0
 10
331.1682528775328
 20
815.8332252217218
 30
0.0
 10
330.7086236944633
 20
815.8957693444513
 30
0.0
 10
330.2409752440237
 20
815.8957693444512
 30
0.0
  0
LINE
  5
A0
330
1F
100
AcDbEntity
  8
0
  6
Continuous
 62
     7
370
    15
100
AcDbLine
 10
330.240975244
 20
815.8957693445
 30
0.0
 11
332.4933003233
 21
815.8957693445
 31
0.0
  0
SPLINE
  5
A1
330
1F
100
AcDbEntity
  8
0
  6
Continuous
 62
     7
370
    15
100
AcDbSpline
210
0.0
220
0.0
230
1.0
 70
     8
 71
     3
 72
    30
 73
    26
 74
     0
 42
0.00000001
 43
0.00000001
 12
1.0
 22
0.0
 32
0.0
 13
1.0
 23
0.0
 33
0.0
 40
0.0
 40
0.0
 40
0.0
 40
0.0
 40
0.1249999999999998
 40
0.1249999999999998
 40
0.1874999999999993
 40
0.1874999999999993
 40
0.2499999999999987
 40
0.2499999999999987
 40
0.3749999999999949
 40
0.3749999999999949
 40
0.4374999999999923
 40
0.4374999999999923
 40
0.4999999999999898
 40
0.4999999999999898
 40
0.624999999999989
 40
0.624999999999989
 40
0.6874999999999902
 40
0.6874999999999902
 40
0.7499999999999916
 40
0.7499999999999916
 40
0.8749999999999936
 40
0.8749999999999936
 40
0.9374999999999968
 40
0.9374999999999968
 40
1.0
 40
1.0
 40
1.0
 40
1.0
 10
332.4933003232861
 20
815.8957693444512
 30
0.0
 10
332.9833419564066
 20
815.8957693444512
 30
0.0
 10
333.4632439901857
 20
815.8333101275156
 30
0.0
 10
334.1687162542341
 20
815.6498045114809
 30
0.0
 10
334.4014636074173
 20
815.5735583455603
 30
0.0
 10
334.8621221118542
 20
815.3902683651048
 30
0.0
 10
335.0911661022304
 20
815.28251788513
 30
0.0
 10
335.7586394952082
 20
814.9179367070661
 30
0.0
 10
336.179745991537
 20
814.6200408566698
 30
0.0
 10
336.7767981950082
 20
814.0915179147379
 30
0.0
 10
336.9700097625046
 20
813.9016368246464
 30
0.0
 10
337.3445451424695
 20
813.4933531829378
 30
0.0
 10
337.524675217791
 20
813.2760358729893
 30
0.0
 10
338.0359656427322
 20
812.595020117596
 30
0.0
 10
338.3417583183637
 20
812.0988613903038
 30
0.0
 10
338.7478241602799
 20
811.2899036897261
 30
0.0
 10
338.874985769782
 20
811.0077217717492
 30
0.0
 10
339.1074253696459
 20
810.4291479285542
 30
0.0
 10
339.2124977788465
 20
810.1337273373782
 30
0.0
 10
339.495193011458
 20
809.2294341409784
 30
0.0
 10
339.640632624595
 20
808.6027115440089
 30
0.0
 10
339.7918757771259
 20
807.6250997070483
 30
0.0
 10
339.8306819729049
 20
807.2946499781339
 30
0.0
 10
339.8842054394489
 20
806.632707530765
 30
0.0
 10
339.8991188481767
 20
806.3000168129021
 30
0.0
 10
339.9020258016029
 20
805.9655819474308
 30
0.0
  0
LINE
  5
A2
330
1F
100
AcDbEntity
  8
0
  6
Continuous
 62
     7
370
    15
100
AcDbLine
 10
171.3530025165
 20
805.9655819474
 30
0.0
 11
168.9764234195
 21
805.9655819474
 31
0.0
  0
LINE
  5
A3
330
1F
100
AcDbEntity
  8
0
  6
Continuous
 62
     7
370
    15
100
AcDbLine
 10
171.3530025165
 20
805.9655819474
 30
0.0
 11
170.9275185227
 21
682.8957693445
 31
0.0
  0
LINE
  5
A4
330
1F
100
AcDbEntity
  8
0
  6
Continuous
 62
     7
370
    15
100
AcDbLine
 10
168.9764234195
 20
805.9655819474
 30
0.0
 11
168.0185406642
 21
712.8957693445
 31
0.0
  0
SPLINE
  5
A5
330
1F
100
AcDbEntity
  8
0
  6
Continuous
 62
     7
370
    15
100
AcDbSpline
210
0.0
220
0.0
230
1.0
 70
     8
 71
     3
 72
    30
 73
    26
 74
     0
 42
0.00000001
 43
0.00000001
 12
1.0
 22
0.0
 32
0.0
 13
1.0
 23
0.0
 33
0.0
 40
0.0
 40
0.0
 40
0.0
 40
0.0
 40
0.1249999999999957
 40
0.1249999999999957
 40
0.1874999999999948
 40
0.1874999999999948
 40
0.2499999999999939
 40
0.2499999999999939
 40
0.3749999999999903
 40
0.3749999999999903
 40
0.437499999999987
 40
0.437499999999987
 40
0.4999999999999838
 40
0.4999999999999838
 40
0.6249999999999827
 40
0.6249999999999827
 40
0.6874999999999845
 40
0.6874999999999845
 40
0.7499999999999862
 40
0.7499999999999862
 40
0.8749999999999906
 40
0.8749999999999906
 40
0.9374999999999953
 40
0.9374999999999953
 40
1.0
 40
1.0
 40
1.0
 40
1.0
 10
181.2909379640488
 20
815.8957693444512
 30
0.0
 10
180.6524588516621
 20
815.8957693444512
 30
0.0
 10
180.0231018176341
 20
815.8333101275156
 30
0.0
 10
179.0922673674673
 20
815.649804511481
 30
0.0
 10
178.7842069878022
 20
815.5735583455603
 30
0.0
 10
178.1726524117013
 20
815.3902683651048
 30
0.0
 10
177.8676403692045
 20
815.28251788513
 30
0.0
 10
176.976226867222
 20
814.9179367070661
 30
0.0
 10
176.4103902604245
 20
814.6200408566698
 30
0.0
 10
175.6043603170014
 20
814.0915179147379
 30
0.0
 10
175.3428541223928
 20
813.9016368246463
 30
0.0
 10
174.8348370812264
 20
813.4933531829378
 30
0.0
 10
174.5899416885654
 20
813.2760358729893
 30
0.0
 10
173.8935910754983
 20
812.595020117596
 30
0.0
 10
173.4754175715969
 20
812.0988613903039
 30
0.0
 10
172.9193330960257
 20
811.2899036897261
 30
0.0
 10
172.7450404037225
 20
811.0077217717493
 30
0.0
 10
172.4264498617822
 20
810.4291479285542
 30
0.0
 10
172.2824358593549
 20
810.1337273373782
 30
0.0
 10
171.8954079512653
 20
809.2294341409784
 30
0.0
 10
171.6969594487123
 20
808.6027115440089
 30
0.0
 10
171.4932546762396
 20
807.6250997070483
 30
0.0
 10
171.4416319611843
 20
807.2946499781339
 30
0.0
 10
171.372218526967
 20
806.6327075307652
 30
0.0
 10
171.3541629326722
 20
806.3000168129021
 30
0.0
 10
171.3530025165471
 20
805.9655819474308
 30
0.0
  0
LINE
  5
A6
330
1F
100
AcDbEntity
  8
0
  6
Continuous
 62
     7
370
    15
100
AcDbLine
 10
181.290937964
 20
815.8957693445
 30
0.0
 11
189.3490905381
 21
815.8957693445
 31
0.0
  0
LINE
  5
A7
330
1F
100
AcDbEntity
  8
0
  6
Continuous
 62
     7
370
    15
100
AcDbLine
 10
179.0784380526
 20
815.8957693445
 30
0.0
 11
181.290937964
 21
815.8957693445
 31
0.0
  0
SPLINE
  5
A8
330
1F
100
AcDbEntity
  8
0
  6
Continuous
 62
     7
370
    15
100
AcDbSpline
210
0.0
220
0.0
230
1.0
 70
     8
 71
     3
 72
    28
 73
    24
 74
     0
 42
0.00000001
 43
0.00000001
 12
1.0
 22
0.0
 32
0.0
 13
1.0
 23
0.0
 33
0.0
 40
0.0
 40
0.0
 40
0.0
 40
0.0
 40
0.1250000000000095
 40
0.1250000000000095
 40
0.187500000000014
 40
0.187500000000014
 40
0.2500000000000185
 40
0.2500000000000185
 40
0.3750000000000228
 40
0.3750000000000228
 40
0.4375000000000234
 40
0.4375000000000234
 40
0.500000000000024
 40
0.500000000000024
 40
0.6250000000000198
 40
0.6250000000000198
 40
0.7500000000000155
 40
0.7500000000000155
 40
0.8125000000000113
 40
0.8125000000000113
 40
0.8750000000000071
 40
0.8750000000000071
 40
1.0
 40
1.0
 40
1.0
 40
1.0
 10
168.9764234194589
 20
805.9655819474308
 30
0.0
 10
168.9833327021593
 20
806.6342353388586
 30
0.0
 10
169.05759241236
 20
807.2904345394753
 30
0.0
 10
169.2652162359679
 20
808.2569279230129
 30
0.0
 10
169.3505847236863
 20
808.5761021620094
 30
0.0
 10
169.5542753569713
 20
809.2083491690698
 30
0.0
 10
169.6727669273515
 20
809.5211438493517
 30
0.0
 10
170.0693348938885
 20
810.4292055281547
 30
0.0
 10
170.3902697341599
 20
811.0018117084286
 30
0.0
 10
170.954767028876
 20
811.8124292505731
 30
0.0
 10
171.1581008238625
 20
812.0758458870464
 30
0.0
 10
171.5857972579809
 20
812.5771833683174
 30
0.0
 10
171.8102342792635
 20
812.8155731957845
 30
0.0
 10
172.514197514904
 20
813.4951064497743
 30
0.0
 10
173.0241202247184
 20
813.9009690481387
 30
0.0
 10
174.126260086157
 20
814.6163040250991
 30
0.0
 10
174.7011922963468
 20
814.9145857750151
 30
0.0
 10
175.5972799974165
 20
815.2774964418423
 30
0.0
 10
175.9016342848385
 20
815.3842755099424
 30
0.0
 10
176.5218118677423
 20
815.5689827326719
 30
0.0
 10
176.8386548871164
 20
815.6469979791464
 30
0.0
 10
177.7905620864326
 20
815.8332252217219
 30
0.0
 10
178.43137192443
 20
815.8957693444513
 30
0.0
 10
179.0784380526023
 20
815.8957693444512
 30
0.0
  0
LINE
  5
A9
330
1F
100
AcDbEntity
  8
0
  6
Continuous
 62
     7
370
    15
100
AcDbLine
 10
348.3190893004
 20
805.9655819474
 30
0.0
 11
346.5979948853
 21
805.9655819474
 31
0.0
  0
LINE
  5
AA
330
1F
100
AcDbEntity
  8
0
  6
Continuous
 62
     7
370
    15
100
AcDbLine
 10
348.3190893004
 20
805.9655819474
 30
0.0
 11
349.089113337
 21
712.8957693445
 31
0.0
  0
LINE
  5
AB
330
1F
100
AcDbEntity
  8
0
  6
Continuous
 62
     7
370
    15
100
AcDbLine
 10
346.5979948853
 20
805.9655819474
 30
0.0
 11
346.887396291
 21
712.8957693445
 31
0.0
  0
LINE
  5
AC
330
1F
100
AcDbEntity
  8
0
  6
Continuous
 62
     7
370
    15
100
AcDbLine
 10
338.1741581509
 20
815.8957693445
 30
0.0
 11
332.4933003233
 21
815.8957693445
 31
0.0
  0
SPLINE
  5
AD
330
1F
100
AcDbEntity
  8
0
  6
Continuous
 62
     7
370
    15
100
AcDbSpline
210
0.0
220
0.0
230
1.0
 70
     8
 71
     3
 72
    28
 73
    24
 74
     0
 42
0.00000001
 43
0.00000001
 12
1.0
 22
0.0
 32
0.0
 13
1.0
 23
0.0
 33
0.0
 40
0.0
 40
0.0
 40
0.0
 40
0.0
 40
0.1250000000000042
 40
0.1250000000000042
 40
0.1875000000000064
 40
0.1875000000000064
 40
0.2500000000000087
 40
0.2500000000000087
 40
0.3750000000000095
 40
0.3750000000000095
 40
0.4375000000000099
 40
0.4375000000000099
 40
0.5000000000000103
 40
0.5000000000000103
 40
0.6250000000000082
 40
0.6250000000000082
 40
0.750000000000006
 40
0.750000000000006
 40
0.8125000000000042
 40
0.8125000000000042
 40
0.8750000000000024
 40
0.8750000000000024
 40
1.0
 40
1.0
 40
1.0
 40
1.0
 10
346.5979948853265
 20
805.9655819474308
 30
0.0
 10
346.5958798023211
 20
806.6342353388586
 30
0.0
 10
346.5386170776549
 20
807.2904345394753
 30
0.0
 10
346.3736657948305
 20
808.2569279230127
 30
0.0
 10
346.3054016273243
 20
808.5761021620094
 30
0.0
 10
346.1416909087995
 20
809.2083491690696
 30
0.0
 10
346.0461022758653
 20
809.5211438493517
 30
0.0
 10
345.725092802273
 20
810.4292055281547
 30
0.0
 10
345.4640372513886
 20
811.0018117084286
 30
0.0
 10
345.0023200872855
 20
811.8124292505732
 30
0.0
 10
344.83563610928
 20
812.0758458870465
 30
0.0
 10
344.4841504346159
 20
812.5771833683174
 30
0.0
 10
344.2992929272747
 20
812.8155731957845
 30
0.0
 10
343.7180445771135
 20
813.4951064497744
 30
0.0
 10
343.2952029995063
 20
813.9009690481389
 30
0.0
 10
342.3763596799975
 20
814.6163040250991
 30
0.0
 10
341.8947566652762
 20
814.9145857750151
 30
0.0
 10
341.1401025812023
 20
815.2774964418423
 30
0.0
 10
340.8831392173319
 20
815.3842755099423
 30
0.0
 10
340.3581218887718
 20
815.5689827326719
 30
0.0
 10
340.0891950146502
 20
815.6469979791462
 30
0.0
 10
339.2790518879863
 20
815.8332252217219
 30
0.0
 10
338.730796716865
 20
815.8957693444513
 30
0.0
 10
338.1741581508838
 20
815.8957693444512
 30
0.0
  0
LINE
  5
AE
330
1F
100
AcDbEntity
  8
0
  6
Continuous
 62
     7
370
    15
100
AcDbLine
 10
338.1741581509
 20
815.8957693445
 30
0.0
 11
339.5757326603
 21
815.8957693445
 31
0.0
  0
SPLINE
  5
AF
330
1F
100
AcDbEntity
  8
0
  6
Continuous
 62
     7
370
    15
100
AcDbSpline
210
0.0
220
0.0
230
1.0
 70
     8
 71
     3
 72
    30
 73
    26
 74
     0
 42
0.00000001
 43
0.00000001
 12
1.0
 22
0.0
 32
0.0
 13
1.0
 23
0.0
 33
0.0
 40
0.0
 40
0.0
 40
0.0
 40
0.0
 40
0.1249999999999987
 40
0.1249999999999987
 40
0.187499999999998
 40
0.187499999999998
 40
0.2499999999999973
 40
0.2499999999999973
 40
0.3749999999999917
 40
0.3749999999999917
 40
0.4374999999999902
 40
0.4374999999999902
 40
0.4999999999999886
 40
0.4999999999999886
 40
0.6249999999999871
 40
0.6249999999999871
 40
0.6874999999999887
 40
0.6874999999999887
 40
0.7499999999999902
 40
0.7499999999999902
 40
0.8749999999999923
 40
0.8749999999999923
 40
0.9374999999999961
 40
0.9374999999999961
 40
1.0
 40
1.0
 40
1.0
 40
1.0
 10
339.5757326602684
 20
815.8957693444512
 30
0.0
 10
340.149525500015
 20
815.8957693444512
 30
0.0
 10
340.7124274611833
 20
815.8333101275156
 30
0.0
 10
341.541270845932
 20
815.649804511481
 30
0.0
 10
341.8149514383674
 20
815.5735583455603
 30
0.0
 10
342.3570664014819
 20
815.3902683651048
 30
0.0
 10
342.6268372704531
 20
815.28251788513
 30
0.0
 10
343.4136094408453
 20
814.9179367070661
 30
0.0
 10
343.9108086655862
 20
814.6200408566698
 30
0.0
 10
344.6166532069415
 20
814.0915179147379
 30
0.0
 10
344.8452312265039
 20
813.9016368246464
 30
0.0
 10
345.2885862480707
 20
813.4933531829378
 30
0.0
 10
345.5019510613222
 20
813.2760358729893
 30
0.0
 10
346.1078712395098
 20
812.595020117596
 30
0.0
 10
346.4706682238048
 20
812.0988613903038
 30
0.0
 10
346.9526196665139
 20
811.2899036897261
 30
0.0
 10
347.1035817282311
 20
811.0077217717492
 30
0.0
 10
347.3795262710631
 20
810.4291479285542
 30
0.0
 10
347.5042641961538
 20
810.1337273373781
 30
0.0
 10
347.8397637378501
 20
809.2294341409784
 30
0.0
 10
348.0122095563858
 20
808.6027115440089
 30
0.0
 10
348.1908973514417
 20
807.6250997070483
 30
0.0
 10
348.2365906872126
 20
807.294649978134
 30
0.0
 10
348.2991841763188
 20
806.632707530765
 30
0.0
 10
348.3163162276419
 20
806.300016812902
 30
0.0
 10
348.3190893004233
 20
805.9655819474308
 30
0.0
  0
LINE
  5
B0
330
1F
100
AcDbEntity
  8
0
  6
Continuous
 62
     7
370
    15
100
AcDbLine
 10
163.2210007109
 20
805.9655819474
 30
0.0
 11
161.8227772979
 21
805.9655819474
 31
0.0
  0
LINE
  5
B1
330
1F
100
AcDbEntity
  8
0
  6
Continuous
 62
     7
370
    15
100
AcDbLine
 10
163.2210007109
 20
805.9655819474
 30
0.0
 11
162.7510701395
 21
712.8957693445
 31
0.0
  0
LINE
  5
B2
330
1F
100
AcDbEntity
  8
0
  6
Continuous
 62
     7
370
    15
100
AcDbLine
 10
161.8227772979
 20
805.9655819474
 30
0.0
 11
160.7138675699
 21
682.8957693445
 31
0.0
  0
SPLINE
  5
B3
330
1F
100
AcDbEntity
  8
0
  6
Continuous
 62
     7
370
    15
100
AcDbSpline
210
0.0
220
0.0
230
1.0
 70
     8
 71
     3
 72
    30
 73
    26
 74
     0
 42
0.00000001
 43
0.00000001
 12
1.0
 22
0.0
 32
0.0
 13
1.0
 23
0.0
 33
0.0
 40
0.0
 40
0.0
 40
0.0
 40
0.0
 40
0.1250000000000022
 40
0.1250000000000022
 40
0.187500000000002
 40
0.187500000000002
 40
0.2500000000000018
 40
0.2500000000000018
 40
0.3749999999999971
 40
0.3749999999999971
 40
0.4374999999999962
 40
0.4374999999999962
 40
0.4999999999999952
 40
0.4999999999999952
 40
0.6249999999999915
 40
0.6249999999999915
 40
0.6874999999999917
 40
0.6874999999999917
 40
0.7499999999999918
 40
0.7499999999999918
 40
0.8749999999999933
 40
0.8749999999999933
 40
0.9374999999999967
 40
0.9374999999999967
 40
1.0
 40
1.0
 40
1.0
 40
1.0
 10
173.5274950767354
 20
815.8957693444512
 30
0.0
 10
172.861962829598
 20
815.8957693444512
 30
0.0
 10
172.2066925984872
 20
815.8333101275156
 30
0.0
 10
171.2385677229384
 20
815.649804511481
 30
0.0
 10
170.9183411203418
 20
815.5735583455603
 30
0.0
 10
170.2829672561698
 20
815.3902683651048
 30
0.0
 10
169.966245548929
 20
815.28251788513
 30
0.0
 10
169.0410707797276
 20
814.9179367070661
 30
0.0
 10
168.4544234275216
 20
814.6200408566698
 30
0.0
 10
167.6194235399837
 20
814.0915179147379
 30
0.0
 10
167.3486371196171
 20
813.9016368246464
 30
0.0
 10
166.822785894553
 20
813.4933531829378
 30
0.0
 10
166.5693939138933
 20
813.2760358729893
 30
0.0
 10
165.8491002494795
 20
812.595020117596
 30
0.0
 10
165.41684809363
 20
812.0988613903039
 30
0.0
 10
164.8421800363763
 20
811.2899036897261
 30
0.0
 10
164.6620893635614
 20
811.0077217717492
 30
0.0
 10
164.3329006103633
 20
810.4291479285542
 30
0.0
 10
164.1840954570823
 20
810.1337273373782
 30
0.0
 10
163.7841147758034
 20
809.2294341409784
 30
0.0
 10
163.5789076619029
 20
808.6027115440089
 30
0.0
 10
163.367796802618
 20
807.6250997070483
 30
0.0
 10
163.3141824223167
 20
807.2946499781339
 30
0.0
 10
163.2417683931084
 20
806.6327075307652
 30
0.0
 10
163.2226943643059
 20
806.3000168129021
 30
0.0
 10
163.2210007109392
 20
805.9655819474308
 30
0.0
  0
LINE
  5
B4
330
1F
100
AcDbEntity
  8
0
  6
Continuous
 62
     7
370
    15
100
AcDbLine
 10
173.5274950767
 20
815.8957693445
 30
0.0
 11
179.0784380526
 21
815.8957693445
 31
0.0
  0
LINE
  5
B5
330
1F
100
AcDbEntity
  8
0
  6
Continuous
 62
     7
370
    15
100
AcDbLine
 10
172.169655988
 20
815.8957693445
 30
0.0
 11
173.5274950767
 21
815.8957693445
 31
0.0
  0
SPLINE
  5
B6
330
1F
100
AcDbEntity
  8
0
  6
Continuous
 62
     7
370
    15
100
AcDbSpline
210
0.0
220
0.0
230
1.0
 70
     8
 71
     3
 72
    28
 73
    24
 74
     0
 42
0.00000001
 43
0.00000001
 12
1.0
 22
0.0
 32
0.0
 13
1.0
 23
0.0
 33
0.0
 40
0.0
 40
0.0
 40
0.0
 40
0.0
 40
0.125000000000008
 40
0.125000000000008
 40
0.187500000000012
 40
0.187500000000012
 40
0.250000000000016
 40
0.250000000000016
 40
0.3750000000000192
 40
0.3750000000000192
 40
0.4375000000000187
 40
0.4375000000000187
 40
0.5000000000000182
 40
0.5000000000000182
 40
0.6250000000000155
 40
0.6250000000000155
 40
0.7500000000000129
 40
0.7500000000000129
 40
0.8125000000000105
 40
0.8125000000000105
 40
0.8750000000000082
 40
0.8750000000000082
 40
1.0
 40
1.0
 40
1.0
 40
1.0
 10
161.8227772978815
 20
805.9655819474308
 30
0.0
 10
161.8288338898199
 20
806.6342353388585
 30
0.0
 10
161.9035896446837
 20
807.2904345394752
 30
0.0
 10
162.1139571481584
 20
808.2569279230129
 30
0.0
 10
162.2005772178582
 20
808.5761021620094
 30
0.0
 10
162.4074867155725
 20
809.2083491690696
 30
0.0
 10
162.5279498996218
 20
809.5211438493517
 30
0.0
 10
162.9314222974718
 20
810.4292055281547
 30
0.0
 10
163.2582997225875
 20
811.0018117084286
 30
0.0
 10
163.8339608405755
 20
811.8124292505731
 30
0.0
 10
164.0414199365681
 20
812.0758458870464
 30
0.0
 10
164.478039591616
 20
812.5771833683174
 30
0.0
 10
164.7072745970277
 20
812.8155731957845
 30
0.0
 10
165.42668690672
 20
813.4951064497743
 30
0.0
 10
165.9483063040391
 20
813.9009690481389
 30
0.0
 10
167.0771035396708
 20
814.6163040250992
 30
0.0
 10
167.6665816014063
 20
814.9145857750151
 30
0.0
 10
168.5864676298296
 20
815.2774964418423
 30
0.0
 10
168.8990858989939
 20
815.3842755099424
 30
0.0
 10
169.5364966179861
 20
815.5689827326719
 30
0.0
 10
169.8623398276583
 20
815.6469979791464
 30
0.0
 10
170.8419002250687
 20
815.8332252217218
 30
0.0
 10
171.5021311990394
 20
815.8957693444512
 30
0.0
 10
172.169655988042
 20
815.8957693444512
 30
0.0
  0
LINE
  5
B7
330
1F
100
AcDbEntity
  8
0
  6
Continuous
 62
     7
370
    15
100
AcDbLine
 10
352.7013946539
 20
805.9655819474
 30
0.0
 11
352.0050090789
 21
805.9655819474
 31
0.0
  0
LINE
  5
B8
330
1F
100
AcDbEntity
  8
0
  6
Continuous
 62
     7
370
    15
100
AcDbLine
 10
352.7013946539
 20
805.9655819474
 30
0.0
 11
353.6257974853
 21
682.8957693445
 31
0.0
  0
LINE
  5
B9
330
1F
100
AcDbEntity
  8
0
  6
Continuous
 62
     7
370
    15
100
AcDbLine
 10
352.0050090789
 20
805.9655819474
 30
0.0
 11
352.662065354
 21
682.8957693445
 31
0.0
  0
LINE
  5
BA
330
1F
100
AcDbEntity
  8
0
  6
Continuous
 62
     7
370
    15
100
AcDbLine
 10
342.5159650844
 20
815.8957693445
 30
0.0
 11
339.5757326603
 21
815.8957693445
 31
0.0
  0
SPLINE
  5
BB
330
1F
100
AcDbEntity
  8
0
  6
Continuous
 62
     7
370
    15
100
AcDbSpline
210
0.0
220
0.0
230
1.0
 70
     8
 71
     3
 72
    28
 73
    24
 74
     0
 42
0.00000001
 43
0.00000001
 12
1.0
 22
0.0
 32
0.0
 13
1.0
 23
0.0
 33
0.0
 40
0.0
 40
0.0
 40
0.0
 40
0.0
 40
0.1250000000000086
 40
0.1250000000000086
 40
0.1875000000000127
 40
0.1875000000000127
 40
0.2500000000000167
 40
0.2500000000000167
 40
0.3750000000000199
 40
0.3750000000000199
 40
0.43750000000002
 40
0.43750000000002
 40
0.5000000000000202
 40
0.5000000000000202
 40
0.6250000000000169
 40
0.6250000000000169
 40
0.7500000000000137
 40
0.7500000000000137
 40
0.8125000000000111
 40
0.8125000000000111
 40
0.8750000000000084
 40
0.8750000000000084
 40
1.0
 40
1.0
 40
1.0
 40
1.0
 10
352.005009078927
 20
805.9655819474308
 30
0.0
 10
352.0014031394726
 20
806.6342353388585
 30
0.0
 10
351.93533573876
 20
807.2904345394752
 30
0.0
 10
351.7467811706497
 20
808.2569279230129
 30
0.0
 10
351.6689043214002
 20
808.5761021620094
 30
0.0
 10
351.4824313686053
 20
809.2083491690696
 30
0.0
 10
351.3736754859023
 20
809.5211438493517
 30
0.0
 10
351.0088263453644
 20
810.4292055281547
 30
0.0
 10
350.7125574344147
 20
811.0018117084286
 30
0.0
 10
350.1894344663622
 20
811.8124292505731
 30
0.0
 10
350.0007096682166
 20
812.0758458870464
 30
0.0
 10
349.6030466897466
 20
812.5771833683174
 30
0.0
 10
349.3940435562485
 20
812.8155731957845
 30
0.0
 10
348.7373594510661
 20
813.4951064497743
 30
0.0
 10
348.260253341998
 20
813.9009690481389
 30
0.0
 10
347.225151854223
 20
814.6163040250991
 30
0.0
 10
346.6833809050943
 20
814.9145857750151
 30
0.0
 10
345.8357915407377
 20
815.2774964418423
 30
0.0
 10
345.5473981040608
 20
815.3842755099424
 30
0.0
 10
344.9586304805853
 20
815.5689827326719
 30
0.0
 10
344.6572805811337
 20
815.6469979791464
 30
0.0
 10
343.7501857669061
 20
815.8332252217219
 30
0.0
 10
343.1372659895313
 20
815.8957693444513
 30
0.0
 10
342.51596508439
 20
815.8957693444512
 30
0.0
  0
LINE
  5
BC
330
1F
100
AcDbEntity
  8
0
  6
Continuous
 62
     7
370
    15
100
AcDbLine
 10
342.5159650844
 20
815.8957693445
 30
0.0
 11
343.0055334923
 21
815.8957693445
 31
0.0
  0
SPLINE
  5
BD
330
1F
100
AcDbEntity
  8
0
  6
Continuous
 62
     7
370
    15
100
AcDbSpline
210
0.0
220
0.0
230
1.0
 70
     8
 71
     3
 72
    30
 73
    26
 74
     0
 42
0.00000001
 43
0.00000001
 12
1.0
 22
0.0
 32
0.0
 13
1.0
 23
0.0
 33
0.0
 40
0.0
 40
0.0
 40
0.0
 40
0.0
 40
0.1249999999999991
 40
0.1249999999999991
 40
0.1874999999999998
 40
0.1874999999999998
 40
0.2500000000000006
 40
0.2500000000000006
 40
0.3750000000000001
 40
0.3750000000000001
 40
0.4374999999999989
 40
0.4374999999999989
 40
0.4999999999999977
 40
0.4999999999999977
 40
0.6249999999999933
 40
0.6249999999999933
 40
0.687499999999994
 40
0.687499999999994
 40
0.7499999999999946
 40
0.7499999999999946
 40
0.8749999999999947
 40
0.8749999999999947
 40
0.9374999999999973
 40
0.9374999999999973
 40
1.0
 40
1.0
 40
1.0
 40
1.0
 10
343.005533492336
 20
815.8957693444512
 30
0.0
 10
343.6380000382482
 20
815.8957693444512
 30
0.0
 10
344.2593004099994
 20
815.8333101275156
 30
0.0
 10
345.175290482303
 20
815.649804511481
 30
0.0
 10
345.4779431588358
 20
815.5735583455603
 30
0.0
 10
346.0778215553837
 20
815.3902683651048
 30
0.0
 10
346.3765290214717
 20
815.28251788513
 30
0.0
 10
347.2482142500803
 20
814.9179367070661
 30
0.0
 10
347.7997762112856
 20
814.6200408566698
 30
0.0
 10
348.58356429705
 20
814.0915179147379
 30
0.0
 10
348.8375188123844
 20
813.9016368246463
 30
0.0
 10
349.3303167336571
 20
813.4933531829378
 30
0.0
 10
349.5675912186618
 20
813.2760358729893
 30
0.0
 10
350.2416595307812
 20
812.595020117596
 30
0.0
 10
350.6456048546328
 20
812.0988613903038
 30
0.0
 10
351.1823783074289
 20
811.2899036897261
 30
0.0
 10
351.3505430548679
 20
811.0077217717492
 30
0.0
 10
351.6579324400174
 20
810.4291479285542
 30
0.0
 10
351.7968842351129
 20
810.1337273373781
 30
0.0
 10
352.1705251460163
 20
809.2294341409784
 30
0.0
 10
352.3624404601937
 20
808.6027115440089
 30
0.0
 10
352.5607633836916
 20
807.6250997070483
 30
0.0
 10
352.6113468414205
 20
807.2946499781339
 30
0.0
 10
352.6802747172578
 20
806.6327075307652
 30
0.0
 10
352.6988766583249
 20
806.3000168129021
 30
0.0
 10
352.7013946538742
 20
805.9655819474308
 30
0.0
  0
SPLINE
  5
BE
330
1F
100
AcDbEntity
  8
0
  6
Continuous
 62
     7
370
    15
100
AcDbSpline
210
0.0
220
0.0
230
1.0
 70
     8
 71
     3
 72
    30
 73
    26
 74
     0
 42
0.00000001
 43
0.00000001
 12
1.0
 22
0.0
 32
0.0
 13
1.0
 23
0.0
 33
0.0
 40
0.0
 40
0.0
 40
0.0
 40
0.0
 40
0.125000000000004
 40
0.125000000000004
 40
0.187500000000006
 40
0.187500000000006
 40
0.250000000000008
 40
0.250000000000008
 40
0.3750000000000101
 40
0.3750000000000101
 40
0.4375000000000087
 40
0.4375000000000087
 40
0.5000000000000072
 40
0.5000000000000072
 40
0.6250000000000024
 40
0.6250000000000024
 40
0.6875000000000029
 40
0.6875000000000029
 40
0.7500000000000032
 40
0.7500000000000032
 40
0.8750000000000042
 40
0.8750000000000042
 40
0.9375000000000021
 40
0.9375000000000021
 40
1.0
 40
1.0
 40
1.0
 40
1.0
 10
169.3685254547538
 20
815.8957693444512
 30
0.0
 10
168.7050270256436
 20
815.8957693444512
 30
0.0
 10
168.052482050885
 20
815.8333101275156
 30
0.0
 10
167.0893784525943
 20
815.649804511481
 30
0.0
 10
166.7709810662171
 20
815.5735583455603
 30
0.0
 10
166.1395568007008
 20
815.3902683651048
 30
0.0
 10
165.8249676871216
 20
815.28251788513
 30
0.0
 10
164.9064662275966
 20
814.9179367070661
 30
0.0
 10
164.3246474343197
 20
814.6200408566698
 30
0.0
 10
163.4971711045265
 20
814.0915179147379
 30
0.0
 10
163.2289391243492
 20
813.9016368246464
 30
0.0
 10
162.7082359372368
 20
813.4933531829378
 30
0.0
 10
162.457421814043
 20
813.2760358729893
 30
0.0
 10
161.7446653877699
 20
812.595020117596
 30
0.0
 10
161.3172260733588
 20
812.0988613903039
 30
0.0
 10
160.7490901860878
 20
811.2899036897261
 30
0.0
 10
160.5710723593341
 20
811.0077217717493
 30
0.0
 10
160.2456725230159
 20
810.4291479285541
 30
0.0
 10
160.0985797181261
 20
810.1337273373782
 30
0.0
 10
159.70312733875
 20
809.2294341409784
 30
0.0
 10
159.5001301490723
 20
808.6027115440089
 30
0.0
 10
159.2908397605484
 20
807.6250997070483
 30
0.0
 10
159.2375769206907
 20
807.2946499781339
 30
0.0
 10
159.1653271370488
 20
806.632707530765
 30
0.0
 10
159.1460683003244
 20
806.3000168129021
 30
0.0
 10
159.1439154304954
 20
805.9655819474308
 30
0.0
  0
LINE
  5
BF
330
1F
100
AcDbEntity
  8
0
  6
Continuous
 62
     7
370
    15
100
AcDbLine
 10
169.3685254548
 20
815.8957693445
 30
0.0
 11
172.169655988
 21
815.8957693445
 31
0.0
  0
LINE
  5
C0
330
1F
100
AcDbEntity
  8
0
  6
Continuous
 62
     7
370
    15
100
AcDbLine
 10
159.1439154305
 20
805.9655819474
 30
0.0
 11
158.3537431707
 21
682.8957693445
 31
0.0
  0
LINE
  5
C1
330
1F
100
AcDbEntity
  8
0
  6
Continuous
 62
     7
370
    15
100
AcDbLine
 10
159.1439154305
 20
805.9655819474
 30
0.0
 11
158.785156774
 21
805.9655819474
 31
0.0
  0
SPLINE
  5
C2
330
1F
100
AcDbEntity
  8
0
  6
Continuous
 62
     7
370
    15
100
AcDbSpline
210
0.0
220
0.0
230
1.0
 70
     8
 71
     3
 72
    28
 73
    24
 74
     0
 42
0.00000001
 43
0.00000001
 12
1.0
 22
0.0
 32
0.0
 13
1.0
 23
0.0
 33
0.0
 40
0.0
 40
0.0
 40
0.0
 40
0.0
 40
0.125000000000009
 40
0.125000000000009
 40
0.1875000000000135
 40
0.1875000000000135
 40
0.250000000000018
 40
0.250000000000018
 40
0.3750000000000222
 40
0.3750000000000222
 40
0.4375000000000221
 40
0.4375000000000221
 40
0.5000000000000221
 40
0.5000000000000221
 40
0.6250000000000165
 40
0.6250000000000165
 40
0.750000000000011
 40
0.750000000000011
 40
0.8125000000000084
 40
0.8125000000000084
 40
0.875000000000006
 40
0.875000000000006
 40
1.0
 40
1.0
 40
1.0
 40
1.0
 10
158.7851567740391
 20
805.9655819474308
 30
0.0
 10
158.7900959730851
 20
806.6342353388585
 30
0.0
 10
158.8620805874064
 20
807.2904345394752
 30
0.0
 10
159.065997701391
 20
808.2569279230129
 30
0.0
 10
159.150083640377
 20
808.5761021620094
 30
0.0
 10
159.3511690646085
 20
809.2083491690696
 30
0.0
 10
159.4683390431376
 20
809.5211438493517
 30
0.0
 10
159.861082192439
 20
810.4292055281547
 30
0.0
 10
160.1796160903895
 20
811.0018117084286
 30
0.0
 10
160.741281878465
 20
811.8124292505732
 30
0.0
 10
160.9437993174696
 20
812.0758458870464
 30
0.0
 10
161.3702598193877
 20
812.5771833683174
 30
0.0
 10
161.5942741392005
 20
812.8155731957845
 30
0.0
 10
162.2976937528879
 20
813.4951064497743
 30
0.0
 10
162.8082125670412
 20
813.9009690481387
 30
0.0
 10
163.9143333210989
 20
814.6163040250991
 30
0.0
 10
164.4925942144526
 20
814.9145857750151
 30
0.0
 10
165.3960751366845
 20
815.2774964418423
 30
0.0
 10
165.7032944691198
 20
815.3842755099424
 30
0.0
 10
166.3300804171444
 20
815.5689827326719
 30
0.0
 10
166.6506829052827
 20
815.6469979791464
 30
0.0
 10
167.6150850109684
 20
815.8332252217218
 30
0.0
 10
168.2658818592101
 20
815.8957693444513
 30
0.0
 10
168.9246912726243
 20
815.8957693444512
 30
0.0
  0
LINE
  5
C3
330
1F
100
AcDbEntity
  8
0
  6
Continuous
 62
     7
370
    15
100
AcDbLine
 10
168.9246912726
 20
815.8957693445
 30
0.0
 11
169.3685254548
 21
815.8957693445
 31
0.0
  0
LINE
  5
C4
330
1F
100
AcDbEntity
  8
0
  6
Continuous
 62
     7
370
    15
100
AcDbLine
 10
158.785156774
 20
805.9655819474
 30
0.0
 11
157.882447407
 21
682.8957693445
 31
0.0
  0
SPLINE
  5
C5
330
1F
100
AcDbEntity
  8
0
  6
Continuous
 62
     7
370
    15
100
AcDbSpline
210
0.0
220
0.0
230
1.0
 70
     8
 71
     3
 72
    11
 73
     7
 74
     0
 42
0.00000001
 43
0.00000001
 12
1.0
 22
0.0
 32
0.0
 13
1.0
 23
0.0
 33
0.0
 40
0.0
 40
0.0
 40
0.0
 40
0.0
 40
0.2687555104562615
 40
0.537341076852496
 40
0.810614937081352
 40
0.9999999999999999
 40
0.9999999999999999
 40
0.9999999999999999
 40
0.9999999999999999
 10
353.216172745832
 20
805.9655819474308
 30
0.0
 10
353.1020043664859
 20
807.0642984988726
 30
0.0
 10
352.8737398006871
 20
809.2610368426007
 30
0.0
 10
351.1829853286297
 20
812.1488044586106
 30
0.0
 10
349.0245630848482
 20
814.2587291719501
 30
0.0
 10
347.2708861649916
 20
814.8968123537098
 30
0.0
 10
346.5530350716924
 20
815.1580056809729
 30
0.0
  0
LINE
  5
C6
330
1F
100
AcDbEntity
  8
0
  6
Continuous
 62
     7
370
    15
100
AcDbLine
 10
353.2161727458
 20
805.9655819474
 30
0.0
 11
354.1188821129
 21
682.8957693445
 31
0.0
  0
LINE
  5
C7
330
1F
100
AcDbEntity
  8
0
  6
Continuous
 62
     7
370
    15
100
AcDbLine
 10
264.4256643912
 20
815.8957693445
 30
0.0
 11
262.0731688372
 21
815.8957693445
 31
0.0
  0
CIRCLE
  5
C8
330
1F
100
AcDbEntity
  8
0
  6
Continuous
 62
     7
100
AcDbCircle
 10
256.0006647599
 20
464.5943319504
 30
0.0
 40
122.72
  0
CIRCLE
  5
C9
330
1F
100
AcDbEntity
  8
0
  6
Continuous
 62
     7
370
    15
100
AcDbCircle
 10
256.0006647599
 20
464.5943319504
 30
0.0
 40
122.72
  0
CIRCLE
  5
CA
330
1F
100
AcDbEntity
  8
0
  6
Continuous
 62
     7
370
    15
100
AcDbCircle
 10
256.0006647599
 20
464.5943319504
 30
0.0
 40
129.9994046853241
  0
CIRCLE
  5
CB
330
1F
100
AcDbEntity
  8
0
  6
Continuous
 62
     7
370
    15
100
AcDbCircle
 10
256.0006647599
 20
464.5943319504
 30
0.0
 40
100.3178110204657
  0
CIRCLE
  5
CC
330
1F
100
AcDbEntity
  8
0
  6
Continuous
 62
     7
370
    15
100
AcDbCircle
 10
167.4877966865
 20
530.8448725993
 30
0.0
 40
4.291532997502145
  0
CIRCLE
  5
CD
330
1F
100
AcDbEntity
  8
0
  6
Continuous
 62
     7
370
    15
100
AcDbCircle
 10
357.6317500131
 20
508.1234539394
 30
0.0
 40
4.291532997502145
  0
CIRCLE
  5
CE
330
1F
100
AcDbEntity
  8
0
  6
Continuous
 62
     7
370
    15
100
AcDbCircle
 10
242.8824475802
 20
354.8146693125
 30
0.0
 40
4.291532997502202
  0
CIRCLE
  5
CF
330
1F
100
AcDbEntity
  8
0
  6
Continuous
 62
     7
370
    15
100
AcDbCircle
 10
256.0006647599
 20
464.5943319504
 30
0.0
 40
69.78124122244628
  0
CIRCLE
  5
D0
330
1F
100
AcDbEntity
  8
0
  6
Continuous
 62
     7
370
    15
100
AcDbCircle
 10
256.0006647599
 20
549.0838878387
 30
0.0
 40
3.755091372809829
  0
CIRCLE
  5
D1
330
1F
100
AcDbEntity
  8
0
  6
Continuous
 62
     7
370
    15
100
AcDbCircle
 10
329.1707665137
 20
422.3495540062
 30
0.0
 40
3.755091372814434
  0
CIRCLE
  5
D2
330
1F
100
AcDbEntity
  8
0
  6
Continuous
 62
     7
370
    15
100
AcDbCircle
 10
182.8305630062
 20
422.3495540062
 30
0.0
 40
3.755091372816537
  0
CIRCLE
  5
D3
330
1F
100
AcDbEntity
  8
0
  6
Continuous
 62
     7
370
    15
100
AcDbCircle
 10
256.0006647599
 20
464.5943319504
 30
0.0
 40
96.6536963041774
  0
ENDSEC
  0
SECTION
  2
OBJECTS
  0
DICTIONARY
  5
C
330
0
100
AcDbDictionary
281
     1
  3
ACAD_GROUP
350
D
  3
ACAD_LAYOUT
350
1A
  3
ACAD_MLINESTYLE
350
17
  3
ACAD_PLOTSETTINGS
350
19
  3
ACAD_PLOTSTYLENAME
350
E
  0
DICTIONARY
  5
D
102
{ACAD_REACTORS
330
C
102
}
330
C
100
AcDbDictionary
281
     1
  0
DICTIONARY
  5
1A
102
{ACAD_REACTORS
330
C
102
}
330
C
100
AcDbDictionary
281
     1
  3
Layout1
350
1E
  3
Layout2
350
26
  3
Model
350
22
  0
DICTIONARY
  5
17
102
{ACAD_REACTORS
330
C
102
}
330
C
100
AcDbDictionary
281
     1
  3
Standard
350
18
  0
DICTIONARY
  5
19
102
{ACAD_REACTORS
330
C
102
}
330
C
100
AcDbDictionary
281
     1
  0
ACDBDICTIONARYWDFLT
  5
E
102
{ACAD_REACTORS
330
C
102
}
330
C
100
AcDbDictionary
281
     1
  3
Normal
350
F
100
AcDbDictionaryWithDefault
340
F
  0
LAYOUT
  5
1E
102
{ACAD_REACTORS
330
1A
102
}
330
1A
100
AcDbPlotSettings
  1

  2
none_device
  4

  6

 40
0.0
 41
0.0
 42
0.0
 43
0.0
 44
0.0
 45
0.0
 46
0.0
 47
0.0
 48
0.0
 49
0.0
140
0.0
141
0.0
142
1.0
143
1.0
 70
   688
 72
     0
 73
     0
 74
     5
  7

 75
    16
147
1.0
148
0.0
149
0.0
100
AcDbLayout
  1
Layout1
 70
     1
 71
     1
 10
0.0
 20
0.0
 11
420.0
 21
297.0
 12
0.0
 22
0.0
 32
0.0
 14
1.0000000000E+20
 24
1.0000000000E+20
 34
1.0000000000E+20
 15
-1.0000000000E+20
 25
-1.0000000000E+20
 35
-1.0000000000E+20
146
0.0
 13
0.0
 23
0.0
 33
0.0
 16
1.0
 26
0.0
 36
0.0
 17
0.0
 27
1.0
 37
0.0
 76
     0
330
1B
  0
LAYOUT
  5
26
102
{ACAD_REACTORS
330
1A
102
}
330
1A
100
AcDbPlotSettings
  1

  2
none_device
  4

  6

 40
0.0
 41
0.0
 42
0.0
 43
0.0
 44
0.0
 45
0.0
 46
0.0
 47
0.0
 48
0.0
 49
0.0
140
0.0
141
0.0
142
1.0
143
1.0
 70
   688
 72
     0
 73
     0
 74
     5
  7

 75
    16
147
1.0
148
0.0
149
0.0
100
AcDbLayout
  1
Layout2
 70
     1
 71
     2
 10
0.0
 20
0.0
 11
0.0
 21
0.0
 12
0.0
 22
0.0
 32
0.0
 14
0.0
 24
0.0
 34
0.0
 15
0.0
 25
0.0
 35
0.0
146
0.0
 13
0.0
 23
0.0
 33
0.0
 16
1.0
 26
0.0
 36
0.0
 17
0.0
 27
1.0
 37
0.0
 76
     0
330
23
  0
LAYOUT
  5
22
102
{ACAD_REACTORS
330
1A
102
}
330
1A
100
AcDbPlotSettings
  1

  2
none_device
  4

  6

 40
0.0
 41
0.0
 42
0.0
 43
0.0
 44
0.0
 45
0.0
 46
0.0
 47
0.0
 48
0.0
 49
0.0
140
0.0
141
0.0
142
1.0
143
1.0
 70
  1712
 72
     0
 73
     0
 74
     0
  7

 75
     0
147
1.0
148
0.0
149
0.0
100
AcDbLayout
  1
Model
 70
     1
 71
     0
 10
0.0
 20
0.0
 11
1397.0
 21
1079.5
 12
0.0
 22
0.0
 32
0.0
 14
0.0
 24
0.0
 34
0.0
 15
1397.0
 25
1079.5
 35
0.0
146
0.0
 13
0.0
 23
0.0
 33
0.0
 16
1.0
 26
0.0
 36
0.0
 17
0.0
 27
1.0
 37
0.0
 76
     0
330
1F
331
29
  0
MLINESTYLE
  5
18
102
{ACAD_REACTORS
330
17
102
}
330
17
100
AcDbMlineStyle
  2
Standard
 70
     0
  3

 62
   256
 51
90.0
 52
90.0
 71
     2
 49
0.5
 62
   256
  6
BYLAYER
 49
-0.5
 62
   256
  6
BYLAYER
  0
ACDBPLACEHOLDER
  5
F
102
{ACAD_REACTORS
330
E
102
}
330
E
  0
ENDSEC
  0
EOF
