  0
SECTION
  2
HEADER
  9
$ACADVER
  1
AC1015
  9
$ACADMAINTVER
 70
     6
  9
$DWGCODEPAGE
  3
ANSI_1251
  9
$INSBASE
 10
0.0
 20
0.0
 30
0.0
  9
$EXTMIN
 10
0.0
 20
0.0
 30
0.0
  9
$EXTMAX
 10
558.8
 20
431.8
 30
0.0
  9
$LIMMIN
 10
0.0
 20
0.0
  9
$LIMMAX
 10
558.8
 20
431.8
  9
$ORTHOMODE
 70
     0
  9
$REGENMODE
 70
     1
  9
$FILLMODE
 70
     1
  9
$QTEXTMODE
 70
     0
  9
$MIRRTEXT
 70
     1
  9
$LTSCALE
 40
2.0
  9
$ATTMODE
 70
     1
  9
$TEXTSIZE
 40
7.0
  9
$TRACEWID
 40
1.0
  9
$TEXTSTYLE
  7
Standard
  9
$CLAYER
  8
0
  9
$CELTYPE
  6
ByLayer
  9
$CECOLOR
 62
   256
  9
$CELTSCALE
 40
1.0
  9
$DISPSILH
 70
     0
  9
$DIMSCALE
 40
1.0
  9
$DIMASZ
 40
7.0
  9
$DIMEXO
 40
0.02
  9
$DIMDLI
 40
3.75
  9
$DIMRND
 40
0.0
  9
$DIMDLE
 40
0.0
  9
$DIMEXE
 40
2.0
  9
$DIMTP
 40
0.0
  9
$DIMTM
 40
0.0
  9
$DIMTXT
 40
7.0
  9
$DIMCEN
 40
2.5
  9
$DIMTSZ
 40
0.0
  9
$DIMTOL
 70
     0
  9
$DIMLIM
 70
     0
  9
$DIMTIH
 70
     1
  9
$DIMTOH
 70
     1
  9
$DIMSE1
 70
     0
  9
$DIMSE2
 70
     0
  9
$DIMTAD
 70
     1
  9
$DIMZIN
 70
     0
  9
$DIMBLK
  1

  9
$DIMASO
 70
     1
  9
$DIMSHO
 70
     1
  9
$DIMPOST
  1

  9
$DIMAPOST
  1

  9
$DIMALT
 70
     0
  9
$DIMALTD
 70
     3
  9
$DIMALTF
 40
0.0393700787
  9
$DIMLFAC
 40
1.0
  9
$DIMTOFL
 70
     1
  9
$DIMTVP
 40
0.0
  9
$DIMTIX
 70
     0
  9
$DIMSOXD
 70
     0
  9
$DIMSAH
 70
     0
  9
$DIMBLK1
  1

  9
$DIMBLK2
  1

  9
$DIMSTYLE
  2
ISO-25
  9
$DIMCLRD
 70
     0
  9
$DIMCLRE
 70
     0
  9
$DIMCLRT
 70
     0
  9
$DIMTFAC
 40
1.0
  9
$DIMGAP
 40
6.0
  9
$DIMJUST
 70
     0
  9
$DIMSD1
 70
     0
  9
$DIMSD2
 70
     0
  9
$DIMTOLJ
 70
     0
  9
$DIMTZIN
 70
     0
  9
$DIMALTZ
 70
     0
  9
$DIMALTTZ
 70
     0
  9
$DIMUPT
 70
     0
  9
$DIMDEC
 70
     2
  9
$DIMTDEC
 70
     3
  9
$DIMALTU
 70
     2
  9
$DIMALTTD
 70
     3
  9
$DIMTXSTY
  7
Standard
  9
$DIMAUNIT
 70
     0
  9
$DIMADEC
 70
     2
  9
$DIMALTRND
 40
0.0
  9
$DIMAZIN
 70
     0
  9
$DIMDSEP
 70
    44
  9
$DIMATFIT
 70
     3
  9
$DIMFRAC
 70
     0
  9
$DIMLDRBLK
  1

  9
$DIMLUNIT
 70
     2
  9
$DIMLWD
 70
    -2
  9
$DIMLWE
 70
    -2
  9
$DIMTMOVE
 70
     0
  9
$LUNITS
 70
     2
  9
$LUPREC
 70
     2
  9
$SKETCHINC
 40
1.0
  9
$FILLETRAD
 40
10.0
  9
$AUNITS
 70
     0
  9
$AUPREC
 70
     2
  9
$MENU
  1
.
  9
$ELEVATION
 40
0.0
  9
$PELEVATION
 40
0.0
  9
$THICKNESS
 40
0.0
  9
$LIMCHECK
 70
     0
  9
$CHAMFERA
 40
10.0
  9
$CHAMFERB
 40
10.0
  9
$CHAMFERC
 40
20.0
  9
$CHAMFERD
 40
0.0
  9
$SKPOLY
 70
     0
  9
$TDCREATE
 40
2458092.929075208
  9
$TDUCREATE
 40
2458092.845741875
  9
$TDUPDATE
 40
2458092.929075567
  9
$TDUUPDATE
 40
2458092.845742234
  9
$TDINDWG
 40
0.0000000116
  9
$TDUSRTIMER
 40
0.0000000116
  9
$USRTIMER
 70
     1
  9
$ANGBASE
 50
0.0
  9
$ANGDIR
 70
     0
  9
$PDMODE
 70
     0
  9
$PDSIZE
 40
-1.0
  9
$PLINEWID
 40
0.0
  9
$SPLFRAME
 70
     0
  9
$SPLINETYPE
 70
     6
  9
$SPLINESEGS
 70
     8
  9
$HANDSEED
  5
62
  9
$SURFTAB1
 70
     6
  9
$SURFTAB2
 70
     6
  9
$SURFTYPE
 70
     6
  9
$SURFU
 70
     6
  9
$SURFV
 70
     6
  9
$UCSBASE
  2

  9
$UCSNAME
  2

  9
$UCSORG
 10
0.0
 20
0.0
 30
0.0
  9
$UCSXDIR
 10
1.0
 20
0.0
 30
0.0
  9
$UCSYDIR
 10
0.0
 20
1.0
 30
0.0
  9
$UCSORTHOREF
  2

  9
$UCSORTHOVIEW
 70
     0
  9
$UCSORGTOP
 10
0.0
 20
0.0
 30
0.0
  9
$UCSORGBOTTOM
 10
0.0
 20
0.0
 30
0.0
  9
$UCSORGLEFT
 10
0.0
 20
0.0
 30
0.0
  9
$UCSORGRIGHT
 10
0.0
 20
0.0
 30
0.0
  9
$UCSORGFRONT
 10
0.0
 20
0.0
 30
0.0
  9
$UCSORGBACK
 10
0.0
 20
0.0
 30
0.0
  9
$PUCSBASE
  2

  9
$PUCSNAME
  2

  9
$PUCSORG
 10
0.0
 20
0.0
 30
0.0
  9
$PUCSXDIR
 10
1.0
 20
0.0
 30
0.0
  9
$PUCSYDIR
 10
0.0
 20
1.0
 30
0.0
  9
$PUCSORTHOREF
  2

  9
$PUCSORTHOVIEW
 70
     0
  9
$PUCSORGTOP
 10
0.0
 20
0.0
 30
0.0
  9
$PUCSORGBOTTOM
 10
0.0
 20
0.0
 30
0.0
  9
$PUCSORGLEFT
 10
0.0
 20
0.0
 30
0.0
  9
$PUCSORGRIGHT
 10
0.0
 20
0.0
 30
0.0
  9
$PUCSORGFRONT
 10
0.0
 20
0.0
 30
0.0
  9
$PUCSORGBACK
 10
0.0
 20
0.0
 30
0.0
  9
$USERI1
 70
     0
  9
$USERI2
 70
     0
  9
$USERI3
 70
     0
  9
$USERI4
 70
     0
  9
$USERI5
 70
     0
  9
$USERR1
 40
0.0
  9
$USERR2
 40
0.0
  9
$USERR3
 40
0.0
  9
$USERR4
 40
0.0
  9
$USERR5
 40
0.0
  9
$WORLDVIEW
 70
     1
  9
$SHADEDGE
 70
     3
  9
$SHADEDIF
 70
    70
  9
$TILEMODE
 70
     1
  9
$MAXACTVP
 70
    64
  9
$PINSBASE
 10
0.0
 20
0.0
 30
0.0
  9
$PLIMCHECK
 70
     0
  9
$PEXTMIN
 10
1.0000000000E+20
 20
1.0000000000E+20
 30
1.0000000000E+20
  9
$PEXTMAX
 10
-1.0000000000E+20
 20
-1.0000000000E+20
 30
-1.0000000000E+20
  9
$PLIMMIN
 10
0.0
 20
0.0
  9
$PLIMMAX
 10
420.0
 20
297.0
  9
$UNITMODE
 70
     0
  9
$VISRETAIN
 70
     1
  9
$PLINEGEN
 70
     0
  9
$PSLTSCALE
 70
     1
  9
$TREEDEPTH
 70
  3020
  9
$CMLSTYLE
  2
Standard
  9
$CMLJUST
 70
     0
  9
$CMLSCALE
 40
20.0
  9
$PROXYGRAPHICS
 70
     1
  9
$MEASUREMENT
 70
     1
  9
$CELWEIGHT
370
    -1
  9
$ENDCAPS
280
     0
  9
$JOINSTYLE
280
     0
  9
$LWDISPLAY
290
     1
  9
$INSUNITS
 70
     4
  9
$HYPERLINKBASE
  1

  9
$STYLESHEET
  1

  9
$XEDIT
290
     1
  9
$CEPSNTYPE
380
     0
  9
$PSTYLEMODE
290
     1
  9
$FINGERPRINTGUID
  2
{B9848145-D89A-48E0-8236-0857261D5D9E}
  9
$VERSIONGUID
  2
{FAEB1C32-E019-11D5-929B-00C0DF256EC4}
  9
$EXTNAMES
290
     1
  9
$PSVPSCALE
 40
0.0
  9
$OLESTARTUP
290
     0
  0
ENDSEC
  0
SECTION
  2
CLASSES
  0
CLASS
  1
ACDBDICTIONARYWDFLT
  2
AcDbDictionaryWithDefault
  3
ObjectDBX Classes
 90
        0
280
     0
281
     0
  0
CLASS
  1
VISUALSTYLE
  2
AcDbVisualStyle
  3
ObjectDBX Classes
 90
     4095
280
     0
281
     0
  0
CLASS
  1
MATERIAL
  2
AcDbMaterial
  3
ObjectDBX Classes
 90
     1153
280
     0
281
     0
  0
CLASS
  1
ACDBPLACEHOLDER
  2
AcDbPlaceHolder
  3
ObjectDBX Classes
 90
        0
280
     0
281
     0
  0
CLASS
  1
LAYOUT
  2
AcDbLayout
  3
ObjectDBX Classes
 90
        0
280
     0
281
     0
  0
ENDSEC
  0
SECTION
  2
TABLES
  0
TABLE
  2
VPORT
  5
8
330
0
100
AcDbSymbolTable
 70
     1
  0
VPORT
  5
29
330
8
100
AcDbSymbolTableRecord
100
AcDbViewportTableRecord
  2
*Active
 70
     0
 10
0.0
 20
0.0
 11
1.0
 21
1.0
 12
279.4
 22
215.9
 13
0.0
 23
0.0
 14
10.0
 24
10.0
 15
10.0
 25
10.0
 16
0.0
 26
0.0
 36
1.0
 17
0.0
 27
0.0
 37
0.0
 40
431.8
 41
1.2941176471
 42
50.0
 43
0.0
 44
0.0
 50
0.0
 51
0.0
 71
     0
 72
  2000
 73
     1
 74
     3
 75
     0
 76
     0
 77
     0
 78
     0
281
     0
 65
     1
110
0.0
120
0.0
130
0.0
111
1.0
121
0.0
131
0.0
112
0.0
122
1.0
132
0.0
 79
     0
146
0.0
  0
ENDTAB
  0
TABLE
  2
LTYPE
  5
5
330
0
100
AcDbSymbolTable
 70
     6
  0
LTYPE
  5
14
330
5
100
AcDbSymbolTableRecord
100
AcDbLinetypeTableRecord
  2
ByBlock
 70
     0
  3

 72
    65
 73
     0
 40
0.0
  0
LTYPE
  5
15
330
5
100
AcDbSymbolTableRecord
100
AcDbLinetypeTableRecord
  2
ByLayer
 70
     0
  3

 72
    65
 73
     0
 40
0.0
  0
LTYPE
  5
16
330
5
100
AcDbSymbolTableRecord
100
AcDbLinetypeTableRecord
  2
Continuous
 70
     0
  3
Solid line
 72
    65
 73
     0
 40
0.0
  0
LTYPE
  5
3F
330
5
100
AcDbSymbolTableRecord
100
AcDbLinetypeTableRecord
  2
HIDDEN
 70
     0
  3
Hidden __ __ __ __ __ __ __ __ __ __ __ __ __ __
 72
    65
 73
     2
 40
1.905
 49
1.27
 74
     0
 49
-0.635
 74
     0
  0
LTYPE
  5
40
330
5
100
AcDbSymbolTableRecord
100
AcDbLinetypeTableRecord
  2
PHANTOM
 70
     0
  3
Phantom ______  __  __  ______  __  __  ______
 72
    65
 73
     6
 40
12.7
 49
6.35
 74
     0
 49
-1.27
 74
     0
 49
1.27
 74
     0
 49
-1.27
 74
     0
 49
1.27
 74
     0
 49
-1.27
 74
     0
  0
LTYPE
  5
41
330
5
100
AcDbSymbolTableRecord
100
AcDbLinetypeTableRecord
  2
CENTER
 70
     0
  3
Center ____ _ ____ _ ____ _ ____ _ ____ _ ____
 72
    65
 73
     4
 40
10.16
 49
6.35
 74
     0
 49
-1.27
 74
     0
 49
1.27
 74
     0
 49
-1.27
 74
     0
  0
LTYPE
  5
42
330
5
100
AcDbSymbolTableRecord
100
AcDbLinetypeTableRecord
  2
CENTERX2
 70
     0
  3
Center (2x) ________  __  ________  __  _____
 72
    65
 73
     4
 40
20.32
 49
12.7
 74
     0
 49
-2.54
 74
     0
 49
2.54
 74
     0
 49
-2.54
 74
     0
  0
LTYPE
  5
43
330
5
100
AcDbSymbolTableRecord
100
AcDbLinetypeTableRecord
  2
DOT2
 70
     0
  3
Dot (.5x) ........................................
 72
    65
 73
     2
 40
0.635
 49
0.0
 74
     0
 49
-0.635
 74
     0
  0
ENDTAB
  0
TABLE
  2
LAYER
  5
2
330
0
100
AcDbSymbolTable
 70
     1
  0
LAYER
  5
10
330
2
100
AcDbSymbolTableRecord
100
AcDbLayerTableRecord
  2
0
 70
     0
 62
     7
  6
Continuous
370
    -3
390
F
  0
ENDTAB
  0
TABLE
  2
STYLE
  5
3
330
0
100
AcDbSymbolTable
 70
     1
  0
STYLE
  5
11
330
3
100
AcDbSymbolTableRecord
100
AcDbTextStyleTableRecord
  2
Standard
 70
     0
 40
0.0
 41
1.0
 50
0.0
 71
     0
 42
7.0
  3
txt
  4

  0
ENDTAB
  0
TABLE
  2
VIEW
  5
6
330
0
100
AcDbSymbolTable
 70
     0
  0
ENDTAB
  0
TABLE
  2
UCS
  5
7
330
0
100
AcDbSymbolTable
 70
     0
  0
ENDTAB
  0
TABLE
  2
APPID
  5
9
330
0
100
AcDbSymbolTable
 70
     1
  0
APPID
  5
12
330
9
100
AcDbSymbolTableRecord
100
AcDbRegAppTableRecord
  2
ACAD
 70
     0
  0
ENDTAB
  0
TABLE
  2
DIMSTYLE
  5
A
330
0
100
AcDbSymbolTable
 70
     1
100
AcDbDimStyleTable
  0
DIMSTYLE
105
27
330
A
100
AcDbSymbolTableRecord
100
AcDbDimStyleTableRecord
  2
ISO-25
 70
     0
 41
2.5
 42
0.625
 43
3.75
 44
1.25
 73
     0
 74
     0
 77
     1
 78
     8
140
2.5
141
2.5
143
0.0393700787
147
0.625
171
     3
172
     1
178
     0
271
     2
272
     2
274
     3
278
    44
283
     0
284
     8
340
11
  0
ENDTAB
  0
TABLE
  2
BLOCK_RECORD
  5
1
330
0
100
AcDbSymbolTable
 70
     1
  0
BLOCK_RECORD
  5
1F
330
1
100
AcDbSymbolTableRecord
100
AcDbBlockTableRecord
  2
*Model_Space
340
22
  0
BLOCK_RECORD
  5
1B
330
1
100
AcDbSymbolTableRecord
100
AcDbBlockTableRecord
  2
*Paper_Space
340
1E
  0
BLOCK_RECORD
  5
23
330
1
100
AcDbSymbolTableRecord
100
AcDbBlockTableRecord
  2
*Paper_Space0
340
26
  0
ENDTAB
  0
ENDSEC
  0
SECTION
  2
BLOCKS
  0
BLOCK
  5
20
330
1F
100
AcDbEntity
  8
0
100
AcDbBlockBegin
  2
*Model_Space
 70
     0
 10
0.0
 20
0.0
 30
0.0
  3
*Model_Space
  1

  0
ENDBLK
  5
21
330
1F
100
AcDbEntity
  8
0
100
AcDbBlockEnd
  0
BLOCK
  5
1C
330
1B
100
AcDbEntity
 67
     1
  8
0
100
AcDbBlockBegin
  2
*Paper_Space
 70
     0
 10
0.0
 20
0.0
 30
0.0
  3
*Paper_Space
  1

  0
ENDBLK
  5
1D
330
1B
100
AcDbEntity
 67
     1
  8
0
100
AcDbBlockEnd
  0
BLOCK
  5
24
330
23
100
AcDbEntity
  8
0
100
AcDbBlockBegin
  2
*Paper_Space0
 70
     0
 10
0.0
 20
0.0
 30
0.0
  3
*Paper_Space0
  1

  0
ENDBLK
  5
25
330
23
100
AcDbEntity
  8
0
100
AcDbBlockEnd
  0
ENDSEC
  0
SECTION
  2
ENTITIES
  0
LINE
  5
44
330
1F
100
AcDbEntity
  8
0
  6
Continuous
 62
     7
370
    15
100
AcDbLine
 10
51.4075446438
 20
279.9403566679
 30
0.0
 11
51.4075456108
 21
278.9403566679
 31
0.0
  0
LINE
  5
45
330
1F
100
AcDbEntity
  8
0
  6
Continuous
 62
     7
370
    15
100
AcDbLine
 10
133.4082017759
 20
278.940435962
 30
0.0
 11
133.4082008089
 21
279.940435962
 31
0.0
  0
LINE
  5
46
330
1F
100
AcDbEntity
  8
0
  6
Continuous
 62
     7
370
    15
100
AcDbLine
 10
130.9081976331
 20
279.9404311727
 30
0.0
 11
109.4080969719
 21
328.9403899853
 31
0.0
  0
LINE
  5
47
330
1F
100
AcDbEntity
  8
0
  6
Continuous
 62
     7
370
    15
100
AcDbLine
 10
75.4075537155
 20
328.940357107
 30
0.0
 11
53.9075478197
 21
279.9403567137
 31
0.0
  0
LINE
  5
48
330
1F
100
AcDbEntity
  8
0
  6
Continuous
 62
     7
370
    15
100
AcDbLine
 10
69.4075528486
 20
338.9403646266
 30
0.0
 11
69.4075528913
 21
328.9403569972
 31
0.0
  0
LINE
  5
49
330
1F
100
AcDbEntity
  8
0
  6
Continuous
 62
     7
370
    15
100
AcDbLine
 10
115.4080977962
 20
328.9404014794
 30
0.0
 11
115.408078499
 21
338.9404091088
 31
0.0
  0
LINE
  5
4A
330
1F
100
AcDbEntity
  8
0
  6
Continuous
 62
     7
370
    15
100
AcDbLine
 10
111.4080548794
 20
350.940401446
 30
0.0
 11
111.4079722126
 21
393.9404014459
 31
0.0
  0
LINE
  5
4B
330
1F
100
AcDbEntity
  8
0
  6
Continuous
 62
     7
370
    15
100
AcDbLine
 10
73.4075527658
 20
393.9403646998
 30
0.0
 11
73.4075532603
 21
350.9403646998
 31
0.0
  0
LINE
  5
4C
330
1F
100
AcDbEntity
  8
0
  6
Continuous
 62
     7
370
    15
100
AcDbLine
 10
109.4080776748
 20
338.9403976146
 30
0.0
 11
109.4080546164
 21
350.9403976146
 31
0.0
  0
LINE
  5
4D
330
1F
100
AcDbEntity
  8
0
  6
Continuous
 62
     7
370
    15
100
AcDbLine
 10
75.4075535234
 20
350.9403647364
 30
0.0
 11
75.4075536728
 21
338.9403647364
 31
0.0
  0
LWPOLYLINE
  5
4E
330
1F
100
AcDbEntity
  8
0
  6
Continuous
 62
     7
370
    15
100
AcDbPolyline
 90
       50
 70
   128
 43
0.0
 10
54.9075450989
 20
278.9403567319
 10
54.9280481282
 20
278.9403565793
 10
55.0919378692
 20
278.9403563935
 10
55.4190007029
 20
278.9403563677
 10
55.9078064668
 20
278.9403565021
 10
56.5562177377
 20
278.9403567961
 10
57.3613991781
 20
278.9403572484
 10
58.3198299345
 20
278.9403578569
 10
59.4273190329
 20
278.9403586192
 10
60.6790237053
 20
278.9403595317
 10
62.0694705658
 20
278.9403605906
 10
63.5925795439
 20
278.9403617911
 10
65.2416904716
 20
278.9403631281
 10
67.0095922064
 20
278.9403645957
 10
68.8885541639
 20
278.9403661875
 10
70.8703601215
 20
278.9403678965
 10
72.946344146
 20
278.9403697152
 10
75.1074284875
 20
278.9403716358
 10
77.344163274
 20
278.9403736497
 10
79.6467678333
 20
278.9403757482
 10
82.0051734617
 20
278.9403779222
 10
84.4090674514
 20
278.940380162
 10
86.8479381856
 20
278.940382458
 10
89.311121103
 20
278.9403848
 10
91.7878453317
 20
278.9403871779
 10
94.2672807866
 20
278.9403895812
 10
96.7385855273
 20
278.9403919994
 10
99.1909531672
 20
278.940394422
 10
101.6136601263
 20
278.9403968383
 10
103.9961125237
 20
278.9403992379
 10
106.3278925012
 20
278.9404016101
 10
108.5988037782
 20
278.9404039446
 10
110.7989162375
 20
278.9404062313
 10
112.9186093471
 20
278.9404084601
 10
114.9486142284
 20
278.9404106213
 10
116.8800541866
 20
278.9404127053
 10
118.7044835261
 20
278.9404147032
 10
120.4139244817
 20
278.9404166062
 10
122.000902103
 20
278.9404184059
 10
123.4584769406
 20
278.9404200945
 10
124.7802753906
 20
278.9404216646
 10
125.9605175648
 20
278.9404231094
 10
126.9940425643
 20
278.9404244224
 10
127.8763310475
 20
278.940425598
 10
128.6035249911
 20
278.9404266311
 10
129.1724445611
 20
278.9404275171
 10
129.580602017
 20
278.9404282521
 10
129.8262125901
 20
278.9404288329
 10
129.9082022879
 20
278.940429257
 10
129.9082022879
 20
278.940429257
  0
LWPOLYLINE
  5
4F
330
1F
100
AcDbEntity
  8
0
  6
Continuous
 62
     7
370
    15
100
AcDbPolyline
 90
        8
 70
   128
 43
0.0
 10
133.4082022503
 20
278.940435962
 10
133.3256553241
 20
278.940436244
 10
133.078346933
 20
278.9404363652
 10
132.6672729006
 20
278.9404363251
 10
132.0940884769
 20
278.940436124
 10
131.3611016732
 20
278.9404357625
 10
130.4712639687
 20
278.9404352422
 10
129.908199819
 20
278.9404348838
  0
LWPOLYLINE
  5
50
330
1F
100
AcDbEntity
  8
0
  6
Continuous
 62
     7
370
    15
100
AcDbPolyline
 90
       59
 70
   128
 43
0.0
 10
54.9075475678
 20
278.9403623587
 10
54.8471259449
 20
278.9403622812
 10
53.8801674986
 20
278.9403610101
 10
53.0683465271
 20
278.9403598811
 10
52.4149319468
 20
278.9403588989
 10
51.9225548277
 20
278.9403580673
 10
51.5931977987
 20
278.9403573897
 10
51.4281870641
 20
278.9403568689
 10
51.4281870641
 20
278.9403565069
 10
51.5931977987
 20
278.9403563052
 10
51.9225548277
 20
278.9403562646
 10
52.4149319468
 20
278.9403563852
 10
53.0683465271
 20
278.9403566667
 10
53.8801674986
 20
278.9403571078
 10
54.8471259449
 20
278.9403577068
 10
55.9653282655
 20
278.9403584612
 10
57.2302718543
 20
278.9403593681
 10
58.6368632301
 20
278.9403604237
 10
60.1794385457
 20
278.9403616238
 10
61.8517863949
 20
278.9403629637
 10
63.647172823
 20
278.9403644378
 10
65.5583684426
 20
278.9403660403
 10
67.5776775435
 20
278.9403677647
 10
69.6969690806
 20
278.9403696041
 10
71.9077094149
 20
278.940371551
 10
74.2009966754
 20
278.9403735976
 10
76.5675966036
 20
278.9403757357
 10
78.9979797369
 20
278.9403779567
 10
81.4823597803
 20
278.9403802516
 10
84.010733012
 20
278.9403826112
 10
86.5729185656
 20
278.9403850259
 10
89.1585994241
 20
278.9403874861
 10
91.7573639633
 20
278.9403899819
 10
94.3587478755
 20
278.9403925031
 10
96.952276306
 20
278.9403950398
 10
99.527506031
 20
278.9403975815
 10
102.0740675095
 20
278.9404001181
 10
104.5817066371
 20
278.9404026395
 10
107.0403260361
 20
278.9404051353
 10
109.4400257139
 20
278.9404075957
 10
111.771142927
 20
278.9404100106
 10
114.024291089
 20
278.9404123704
 10
116.1903975675
 20
278.9404146655
 10
118.2607402163
 20
278.9404168868
 10
120.2269824962
 20
278.9404190252
 10
122.0812070435
 20
278.9404210721
 10
123.8159475504
 20
278.9404230194
 10
125.4242188293
 20
278.9404248591
 10
126.8995449391
 20
278.9404265839
 10
128.2359852625
 20
278.9404281868
 10
129.4281584259
 20
278.9404296614
 10
130.4712639687
 20
278.9404310017
 10
131.3611016732
 20
278.9404322024
 10
132.0940884769
 20
278.9404332585
 10
132.6672729006
 20
278.9404341659
 10
133.078346933
 20
278.9404349208
 10
133.3256553241
 20
278.9404355203
 10
133.4082022503
 20
278.940435962
 10
133.4082022503
 20
278.940435962
  0
LWPOLYLINE
  5
51
330
1F
100
AcDbEntity
  8
0
  6
Continuous
 62
     7
370
    15
100
AcDbPolyline
 90
        8
 70
   128
 43
0.0
 10
133.4082003346
 20
279.940435962
 10
133.3256534104
 20
279.940436244
 10
133.078345025
 20
279.9404363652
 10
132.6672710021
 20
279.9404363251
 10
132.0940865916
 20
279.940436124
 10
131.3610998049
 20
279.9404357625
 10
130.471262121
 20
279.9404352422
 10
129.4694219551
 20
279.940434593
  0
LWPOLYLINE
  5
52
330
1F
100
AcDbEntity
  8
0
  6
Continuous
 62
     7
370
    15
100
AcDbPolyline
 90
       59
 70
   128
 43
0.0
 10
55.3463234976
 20
279.9403629165
 10
54.847125847
 20
279.9403622812
 10
53.8801674231
 20
279.9403610101
 10
53.0683464704
 20
279.9403598811
 10
52.4149319052
 20
279.9403588989
 10
51.9225547975
 20
279.9403580673
 10
51.5931977761
 20
279.9403573897
 10
51.4281870454
 20
279.9403568689
 10
51.4281870454
 20
279.9403565069
 10
51.5931977761
 20
279.9403563052
 10
51.9225547975
 20
279.9403562646
 10
52.4149319052
 20
279.9403563852
 10
53.0683464704
 20
279.9403566667
 10
53.8801674231
 20
279.9403571078
 10
54.847125847
 20
279.9403577068
 10
55.9653281417
 20
279.9403584612
 10
57.2302717013
 20
279.9403593681
 10
58.6368630445
 20
279.9403604237
 10
60.1794383245
 20
279.9403616238
 10
61.8517861349
 20
279.9403629637
 10
63.6471725215
 20
279.9403644378
 10
65.5583680968
 20
279.9403660403
 10
67.577677151
 20
279.9403677647
 10
69.6969686391
 20
279.9403696041
 10
71.9077089223
 20
279.940371551
 10
74.2009961297
 20
279.9403735976
 10
76.5675960031
 20
279.9403757357
 10
78.9979790802
 20
279.9403779567
 10
81.4823590661
 20
279.9403802516
 10
84.0107322393
 20
279.9403826112
 10
86.5729177337
 20
279.9403850259
 10
89.1585985323
 20
279.9403874861
 10
91.7573630113
 20
279.9403899819
 10
94.3587468634
 20
279.9403925031
 10
96.9522752338
 20
279.9403950398
 10
99.5275048993
 20
279.9403975815
 10
102.0740663188
 20
279.9404001181
 10
104.5817053884
 20
279.9404026395
 10
107.0403247305
 20
279.9404051353
 10
109.4400243528
 20
279.9404075957
 10
111.7711415119
 20
279.9404100106
 10
114.0242896218
 20
279.9404123704
 10
116.1903960502
 20
279.9404146655
 10
118.2607386511
 20
279.9404168868
 10
120.2269808855
 20
279.9404190252
 10
122.0812053899
 20
279.9404210721
 10
123.8159458567
 20
279.9404230194
 10
125.4242170983
 20
279.9404248591
 10
126.899543174
 20
279.9404265839
 10
128.2359834665
 20
279.9404281868
 10
129.4281566023
 20
279.9404296614
 10
130.471262121
 20
279.9404310017
 10
131.3610998049
 20
279.9404322024
 10
132.0940865916
 20
279.9404332585
 10
132.6672710021
 20
279.9404341659
 10
133.078345025
 20
279.9404349208
 10
133.3256534104
 20
279.9404355203
 10
133.4082003346
 20
279.940435962
 10
133.4082003346
 20
279.940435962
  0
LWPOLYLINE
  5
53
330
1F
100
AcDbEntity
  8
0
  6
Continuous
 62
     7
370
    15
100
AcDbPolyline
 90
        6
 70
   128
 43
0.0
 10
130.9081976331
 20
279.9404311727
 10
130.8257654821
 20
279.9404314434
 10
130.5788220163
 20
279.9404315534
 10
130.1684246856
 20
279.9404315025
 10
129.5963308743
 20
279.9404312906
 10
129.4694234298
 20
279.9404312322
  0
LWPOLYLINE
  5
54
330
1F
100
AcDbEntity
  8
0
  6
Continuous
 62
     7
370
    15
100
AcDbPolyline
 90
       55
 70
   128
 43
0.0
 10
55.346322023
 20
279.9403595557
 10
55.2194145785
 20
279.9403593687
 10
54.6473207671
 20
279.9403584741
 10
54.2369234364
 20
279.9403577314
 10
53.9899799706
 20
279.9403571437
 10
53.9075478197
 20
279.9403567137
 10
53.9899799706
 20
279.940356443
 10
54.2369234364
 20
279.9403563329
 10
54.6473207671
 20
279.9403563839
 10
55.2194145785
 20
279.9403565958
 10
55.9507550769
 20
279.9403569675
 10
56.83821055
 20
279.9403574976
 10
57.8779807774
 20
279.9403581837
 10
59.0656133032
 20
279.940359023
 10
60.3960225027
 20
279.9403600118
 10
61.8635113593
 20
279.9403611459
 10
63.4617958606
 20
279.9403624205
 10
65.184031907
 20
279.94036383
 10
67.0228446191
 20
279.9403653685
 10
68.9703599189
 20
279.9403670294
 10
71.0182382466
 20
279.9403688055
 10
73.157710273
 20
279.9403706892
 10
75.3796144504
 20
279.9403726725
 10
77.6744362439
 20
279.9403747469
 10
80.0323488744
 20
279.9403769035
 10
82.4432553979
 20
279.9403791331
 10
84.8968319426
 20
279.9403814261
 10
87.3825719171
 20
279.9403837727
 10
89.8898310011
 20
279.9403861628
 10
92.4078727264
 20
279.9403885863
 10
94.9259144516
 20
279.9403910327
 10
97.4331735357
 20
279.9403934916
 10
99.9189135101
 20
279.9403959524
 10
102.3724900549
 20
279.9403984045
 10
104.7833965784
 20
279.9404008376
 10
107.1413092088
 20
279.9404032412
 10
109.4361310024
 20
279.9404056049
 10
111.6580351797
 20
279.9404079188
 10
113.7975072061
 20
279.9404101727
 10
115.8453855339
 20
279.9404123572
 10
117.7929008336
 20
279.9404144628
 10
119.6317135458
 20
279.9404164806
 10
121.3539495921
 20
279.9404184018
 10
122.9522340934
 20
279.9404202183
 10
124.4197229501
 20
279.9404219223
 10
125.7501321495
 20
279.9404235065
 10
126.9377646753
 20
279.9404249641
 10
127.9775349027
 20
279.9404262888
 10
128.8649903759
 20
279.940427475
 10
129.5963308743
 20
279.9404285177
 10
130.1684246856
 20
279.9404294123
 10
130.5788220163
 20
279.940430155
 10
130.8257654821
 20
279.9404307427
 10
130.9081976331
 20
279.9404311727
 10
130.9081976331
 20
279.9404311727
  0
LWPOLYLINE
  5
55
330
1F
100
AcDbEntity
  8
0
  6
Continuous
 62
     7
370
    15
100
AcDbPolyline
 90
       33
 70
   128
 43
0.0
 10
75.4075537155
 20
328.940357107
 10
75.4894146701
 20
328.9403569543
 10
75.7342091679
 20
328.9403569614
 10
76.1395797043
 20
328.9403571282
 10
76.7016223393
 20
328.9403574531
 10
77.4149242951
 20
328.9403579331
 10
78.272616084
 20
328.9403585633
 10
79.2664376651
 20
328.9403593379
 10
80.3868179934
 20
328.9403602493
 10
81.6229671938
 20
328.9403612888
 10
82.9629804739
 20
328.9403624463
 10
84.393952773
 20
328.9403637107
 10
85.9021030459
 20
328.9403650698
 10
87.4729069809
 20
328.9403665105
 10
89.0912368774
 20
328.9403680191
 10
90.7415073339
 20
328.9403695808
 10
92.4078253437
 20
328.9403711807
 10
94.0741433536
 20
328.9403728034
 10
95.72441381
 20
328.9403744333
 10
97.3427437066
 20
328.9403760546
 10
98.9135476416
 20
328.9403776518
 10
100.4216979144
 20
328.9403792094
 10
101.8526702136
 20
328.9403807125
 10
103.1926834936
 20
328.9403821465
 10
104.4288326941
 20
328.9403834978
 10
105.5492130224
 20
328.9403847532
 10
106.5430346035
 20
328.9403859006
 10
107.4007263924
 20
328.9403869291
 10
108.1140283482
 20
328.9403878287
 10
108.6760709832
 20
328.9403885908
 10
109.0814415195
 20
328.9403892079
 10
109.3262360174
 20
328.9403896743
 10
109.4080969719
 20
328.9403899853
  0
LWPOLYLINE
  5
56
330
1F
100
AcDbEntity
  8
0
  6
Continuous
 62
     7
370
    15
100
AcDbPolyline
 90
       10
 70
   128
 43
0.0
 10
115.4080977962
 20
328.9404014794
 10
115.3252390511
 20
328.9404016707
 10
115.0772598152
 20
328.9404017003
 10
114.6659467844
 20
328.9404015681
 10
114.0942634786
 20
328.9404012751
 10
113.3663288891
 20
328.9404008232
 10
112.4873878012
 20
328.9404002158
 10
111.4637730058
 20
328.9403994573
 10
110.3028596708
 20
328.9403985531
 10
109.4080935285
 20
328.940397833
  0
LWPOLYLINE
  5
57
330
1F
100
AcDbEntity
  8
0
  6
Continuous
 62
     7
370
    15
100
AcDbPolyline
 90
       48
 70
   128
 43
0.0
 10
75.4075571589
 20
328.9403649547
 10
74.5127910167
 20
328.9403639444
 10
73.3518776817
 20
328.9403626034
 10
72.3282628862
 20
328.9403613823
 10
71.4493217984
 20
328.9403602898
 10
70.7213872089
 20
328.9403593338
 10
70.1497039031
 20
328.9403585213
 10
69.7383908723
 20
328.940357858
 10
69.4904116363
 20
328.9403573487
 10
69.4075528913
 20
328.9403569972
 10
69.4904116363
 20
328.9403568059
 10
69.7383908723
 20
328.9403567763
 10
70.1497039031
 20
328.9403569085
 10
70.7213872089
 20
328.9403572016
 10
71.4493217984
 20
328.9403576534
 10
72.3282628862
 20
328.9403582608
 10
73.3518776817
 20
328.9403590193
 10
74.5127910167
 20
328.9403599235
 10
75.8026384841
 20
328.9403609669
 10
77.2121267033
 20
328.9403621419
 10
78.7311002795
 20
328.94036344
 10
80.3486149731
 20
328.9403648521
 10
82.0530165538
 20
328.9403663677
 10
83.8320247691
 20
328.9403679761
 10
85.6728218241
 20
328.9403696657
 10
87.5621447338
 20
328.9403714242
 10
89.4863808832
 20
328.940373239
 10
91.431666107
 20
328.940375097
 10
93.3839845805
 20
328.9403769849
 10
95.3292698042
 20
328.940378889
 10
97.2535059537
 20
328.9403807956
 10
99.1428288634
 20
328.9403826911
 10
100.9836259183
 20
328.9403845616
 10
102.7626341336
 20
328.9403863938
 10
104.4670357143
 20
328.9403881744
 10
106.084550408
 20
328.9403898906
 10
107.6035239841
 20
328.9403915301
 10
109.0130122034
 20
328.940393081
 10
110.3028596708
 20
328.9403945322
 10
111.4637730058
 20
328.9403958732
 10
112.4873878013
 20
328.9403970944
 10
113.3663288891
 20
328.9403981869
 10
114.0942634786
 20
328.9403991428
 10
114.6659467844
 20
328.9403999554
 10
115.0772598152
 20
328.9404006187
 10
115.3252390511
 20
328.9404011279
 10
115.4080977962
 20
328.9404014794
 10
115.4080977962
 20
328.9404014794
  0
LWPOLYLINE
  5
58
330
1F
100
AcDbEntity
  8
0
  6
Continuous
 62
     7
370
    15
100
AcDbPolyline
 90
       75
 70
   128
 43
0.0
 10
115.408078499
 20
338.9404091088
 10
115.3252197887
 20
338.9404093001
 10
115.0772406565
 20
338.9404093297
 10
114.6659277979
 20
338.9404091975
 10
114.0942447314
 20
338.9404089044
 10
113.3663104465
 20
338.9404084526
 10
112.4873697266
 20
338.9404078452
 10
111.4637553596
 20
338.9404070867
 10
110.3028425105
 20
338.9404061825
 10
109.012995583
 20
338.9404051392
 10
107.6035079537
 20
338.9404039641
 10
106.0845350134
 20
338.940402666
 10
104.4670209968
 20
338.940401254
 10
102.7626201295
 20
338.9403997383
 10
100.9836126588
 20
338.9403981299
 10
99.1428163744
 20
338.9403964403
 10
97.2534942555
 20
338.9403946818
 10
95.3292589115
 20
338.940392867
 10
93.3839745019
 20
338.940391009
 10
91.4316568457
 20
338.9403891211
 10
89.4863724361
 20
338.940387217
 10
87.5621370921
 20
338.9403853104
 10
85.6728149732
 20
338.940383415
 10
83.8320186888
 20
338.9403815444
 10
82.0530112181
 20
338.9403797122
 10
80.3486103508
 20
338.9403779316
 10
78.7310963342
 20
338.9403762154
 10
77.2121233938
 20
338.9403745759
 10
75.8026357646
 20
338.940373025
 10
74.5127888371
 20
338.9403715738
 10
73.351875988
 20
338.9403702328
 10
72.328261621
 20
338.9403690116
 10
71.449320901
 20
338.9403679192
 10
70.7213866162
 20
338.9403669632
 10
70.1497035497
 20
338.9403661507
 10
69.7383906911
 20
338.9403654874
 10
69.4904115589
 20
338.9403649781
 10
69.4075528486
 20
338.9403646266
 10
69.4904115589
 20
338.9403644353
 10
69.7383906911
 20
338.9403644057
 10
70.1497035497
 20
338.9403645379
 10
70.7213866162
 20
338.940364831
 10
71.449320901
 20
338.9403652828
 10
72.328261621
 20
338.9403658902
 10
73.351875988
 20
338.9403666487
 10
74.5127888371
 20
338.9403675529
 10
75.8026357646
 20
338.9403685962
 10
77.2121233939
 20
338.9403697712
 10
78.7310963342
 20
338.9403710694
 10
80.3486103508
 20
338.9403724814
 10
82.0530112181
 20
338.9403739971
 10
83.8320186888
 20
338.9403756055
 10
85.6728149732
 20
338.940377295
 10
87.5621370921
 20
338.9403790536
 10
89.4863724361
 20
338.9403808684
 10
91.4316568457
 20
338.9403827264
 10
93.3839745019
 20
338.9403846143
 10
95.3292589115
 20
338.9403865184
 10
97.2534942555
 20
338.940388425
 10
99.1428163744
 20
338.9403903204
 10
100.9836126588
 20
338.940392191
 10
102.7626201295
 20
338.9403940231
 10
104.4670209968
 20
338.9403958038
 10
106.0845350134
 20
338.94039752
 10
107.6035079537
 20
338.9403991595
 10
109.012995583
 20
338.9404007104
 10
110.3028425105
 20
338.9404021616
 10
111.4637553596
 20
338.9404035026
 10
112.4873697266
 20
338.9404047237
 10
113.3663104465
 20
338.9404058162
 10
114.0942447314
 20
338.9404067722
 10
114.6659277979
 20
338.9404075847
 10
115.0772406565
 20
338.940408248
 10
115.3252197887
 20
338.9404087573
 10
115.408078499
 20
338.9404091088
  0
LWPOLYLINE
  5
59
330
1F
100
AcDbEntity
  8
0
  6
Continuous
 62
     7
370
    15
100
AcDbPolyline
 90
       65
 70
   128
 43
0.0
 10
109.4080776748
 20
338.9403976146
 10
109.3262167666
 20
338.9403977673
 10
109.0814224074
 20
338.9403977602
 10
108.6760521006
 20
338.9403975934
 10
108.1140097839
 20
338.9403972685
 10
107.400708232
 20
338.9403967886
 10
106.5430169288
 20
338.9403961583
 10
105.5491959105
 20
338.9403953837
 10
104.4288162167
 20
338.9403944723
 10
103.1926677163
 20
338.9403934329
 10
101.8526551951
 20
338.9403922754
 10
100.4216837063
 20
338.940391011
 10
98.9135342874
 20
338.9403896518
 10
97.342731242
 20
338.9403882111
 10
95.7244022619
 20
338.9403867026
 10
94.07413274
 20
338.9403851408
 10
92.4078156738
 20
338.9403835409
 10
90.7414986076
 20
338.9403819182
 10
89.0912290857
 20
338.9403802883
 10
87.4729001056
 20
338.940378667
 10
85.9020970602
 20
338.9403770699
 10
84.3939476413
 20
338.9403755122
 10
82.9629761525
 20
338.9403740092
 10
81.6229636313
 20
338.9403725751
 10
80.3868151309
 20
338.9403712239
 10
79.2664354371
 20
338.9403699685
 10
78.2726144188
 20
338.940368821
 10
77.4149231156
 20
338.9403677925
 10
76.7016215637
 20
338.9403668929
 10
76.139579247
 20
338.9403661309
 10
75.7342089402
 20
338.9403655137
 10
75.489414581
 20
338.9403650474
 10
75.4075536728
 20
338.9403647364
 10
75.489414581
 20
338.9403645837
 10
75.7342089402
 20
338.9403645908
 10
76.139579247
 20
338.9403647576
 10
76.7016215637
 20
338.9403650825
 10
77.4149231156
 20
338.9403655624
 10
78.2726144188
 20
338.9403661927
 10
79.2664354371
 20
338.9403669673
 10
80.3868151309
 20
338.9403678787
 10
81.6229636313
 20
338.9403689182
 10
82.9629761525
 20
338.9403700757
 10
84.3939476413
 20
338.9403713401
 10
85.9020970602
 20
338.9403726992
 10
87.4729001056
 20
338.9403741399
 10
89.0912290857
 20
338.9403756484
 10
90.7414986076
 20
338.9403772102
 10
92.4078156738
 20
338.9403788101
 10
94.07413274
 20
338.9403804328
 10
95.7244022619
 20
338.9403820627
 10
97.342731242
 20
338.940383684
 10
98.9135342875
 20
338.9403852811
 10
100.4216837063
 20
338.9403868388
 10
101.8526551951
 20
338.9403883418
 10
103.1926677163
 20
338.9403897759
 10
104.4288162167
 20
338.9403911271
 10
105.5491959105
 20
338.9403923825
 10
106.5430169288
 20
338.94039353
 10
107.400708232
 20
338.9403945585
 10
108.1140097839
 20
338.9403954581
 10
108.6760521006
 20
338.9403962201
 10
109.0814224074
 20
338.9403968373
 10
109.3262167666
 20
338.9403973036
 10
109.4080776748
 20
338.9403976146
  0
LWPOLYLINE
  5
5A
330
1F
100
AcDbEntity
  8
0
  6
Continuous
 62
     7
370
    15
100
AcDbPolyline
 90
       36
 70
   128
 43
0.0
 10
73.4075532603
 20
350.9403646998
 10
73.4284365978
 20
350.9403645961
 10
73.5952279615
 20
350.9403645106
 10
73.9273449206
 20
350.9403645883
 10
74.4218688191
 20
350.9403648284
 10
75.0744537633
 20
350.9403652288
 10
75.8793648133
 20
350.9403657861
 10
76.8295283817
 20
350.9403664953
 10
77.9165943971
 20
350.9403673501
 10
79.131009684
 20
350.9403683432
 10
80.4621019175
 20
350.9403694657
 10
81.8981734109
 20
350.9403707077
 10
83.4266039165
 20
350.9403720585
 10
85.033961532
 20
350.940373506
 10
86.7061207408
 20
350.9403750376
 10
88.4283865477
 20
350.9403766398
 10
90.1856236189
 20
350.9403782985
 10
91.9623892918
 20
350.9403799992
 10
93.7430692858
 20
350.9403817269
 10
95.512014921
 20
350.9403834665
 10
97.2536806397
 20
350.9403852026
 10
98.9527606209
 20
350.9403869199
 10
100.5943232885
 20
350.9403886035
 10
102.1639425309
 20
350.9403902385
 10
103.6478244777
 20
350.9403918104
 10
105.032928721
 20
350.9403933056
 10
106.307082915
 20
350.9403947109
 10
107.4590897466
 20
350.9403960139
 10
108.4788253386
 20
350.9403972032
 10
109.3573282178
 20
350.9403982683
 10
110.0868780693
 20
350.9403991998
 10
110.6610635829
 20
350.9403999897
 10
111.0748387955
 20
350.9404006308
 10
111.3245674358
 20
350.9404011177
 10
111.4080548794
 20
350.940401446
 10
111.4080548794
 20
350.940401446
  0
LWPOLYLINE
  5
5B
330
1F
100
AcDbEntity
  8
0
  6
Continuous
 62
     7
370
    15
100
AcDbPolyline
 90
       68
 70
   128
 43
0.0
 10
111.4079722126
 20
393.9404014459
 10
111.3244849495
 20
393.9404016127
 10
111.0747568492
 20
393.9404016166
 10
110.6609825313
 20
393.9404014576
 10
110.0867982594
 20
393.9404011369
 10
109.3572499854
 20
393.9404006576
 10
108.4787490059
 20
393.9404000236
 10
107.459015619
 20
393.9403992408
 10
106.3070112784
 20
393.9403983158
 10
105.0328598397
 20
393.9403972569
 10
103.6477585916
 20
393.9403960733
 10
102.1638798535
 20
393.9403947755
 10
100.5942640053
 20
393.9403933748
 10
98.9527048874
 20
393.9403918836
 10
97.2536285803
 20
393.940390315
 10
95.5119666278
 20
393.9403886827
 10
93.7430248177
 20
393.9403870012
 10
91.9623486743
 20
393.9403852851
 10
90.1855868435
 20
393.9403835495
 10
88.4283535721
 20
393.9403818098
 10
86.7060914894
 20
393.9403800812
 10
85.0339358965
 20
393.9403783789
 10
83.4265817568
 20
393.9403767178
 10
81.8981545563
 20
393.9403751126
 10
80.4620861682
 20
393.9403735773
 10
79.1309968131
 20
393.9403721255
 10
77.9165841522
 20
393.9403707698
 10
76.8295204875
 20
393.9403695223
 10
75.8793589737
 20
393.9403683939
 10
75.0744496643
 20
393.9403673945
 10
74.4218661312
 20
393.9403665328
 10
73.9273433021
 20
393.9403658166
 10
73.5952270612
 20
393.9403652519
 10
73.4284360581
 20
393.9403648439
 10
73.4284360581
 20
393.9403645961
 10
73.5952270612
 20
393.9403645106
 10
73.9273433021
 20
393.9403645883
 10
74.4218661312
 20
393.9403648284
 10
75.0744496643
 20
393.9403652288
 10
75.8793589737
 20
393.9403657861
 10
76.8295204875
 20
393.9403664953
 10
77.9165841522
 20
393.9403673501
 10
79.1309968131
 20
393.9403683432
 10
80.4620861682
 20
393.9403694657
 10
81.8981545563
 20
393.9403707077
 10
83.4265817568
 20
393.9403720584
 10
85.0339358965
 20
393.940373506
 10
86.7060914894
 20
393.9403750375
 10
88.4283535721
 20
393.9403766398
 10
90.1855868435
 20
393.9403782985
 10
91.9623486743
 20
393.9403799992
 10
93.7430248177
 20
393.9403817269
 10
95.5119666278
 20
393.9403834664
 10
97.2536285803
 20
393.9403852025
 10
98.9527048874
 20
393.9403869199
 10
100.5942640053
 20
393.9403886034
 10
102.1638798535
 20
393.9403902384
 10
103.6477585916
 20
393.9403918104
 10
105.0328598397
 20
393.9403933056
 10
106.3070112784
 20
393.9403947109
 10
107.459015619
 20
393.9403960138
 10
108.4787490059
 20
393.9403972031
 10
109.3572499854
 20
393.9403982682
 10
110.0867982594
 20
393.9403991998
 10
110.6609825313
 20
393.9403999896
 10
111.0747568492
 20
393.9404006308
 10
111.3244849495
 20
393.9404011176
 10
111.4079722126
 20
393.9404014459
  0
CIRCLE
  5
5C
330
1F
100
AcDbEntity
  8
0
  6
Continuous
 62
     7
370
    15
100
AcDbCircle
 10
92.4077624892
 20
209.7184261043
 30
0.0
 40
19.00020972342725
  0
CIRCLE
  5
5D
330
1F
100
AcDbEntity
  8
0
  6
Continuous
 62
     7
370
    15
100
AcDbCircle
 10
92.4078156738
 20
209.7184337569
 30
0.0
 40
23.00026282525561
  0
ARC
  5
5E
330
1F
100
AcDbEntity
  8
0
  6
Continuous
 62
     7
370
    15
100
AcDbCircle
 10
92.4078253437
 20
209.7184351483
 30
0.0
 40
23.00027245246491
100
AcDbArc
 50
0.0001108092
 51
98.1879901013
  0
ARC
  5
5F
330
1F
100
AcDbEntity
  8
0
  6
Continuous
 62
     7
370
    15
100
AcDbCircle
 10
92.4078253437
 20
209.7184351483
 30
0.0
 40
23.00027245246491
100
AcDbArc
 50
278.1879901013
 51
0.0001108092
  0
CIRCLE
  5
60
330
1F
100
AcDbEntity
  8
0
  6
Continuous
 62
     7
370
    15
100
AcDbCircle
 10
92.4078727264
 20
209.7184419661
 30
0.0
 40
38.50032490677705
  0
CIRCLE
  5
61
330
1F
100
AcDbEntity
  8
0
  6
Continuous
 62
     7
370
    15
100
AcDbCircle
 10
92.4078727264
 20
209.7184419661
 30
0.0
 40
41.0003276083034
  0
ENDSEC
  0
SECTION
  2
OBJECTS
  0
DICTIONARY
  5
C
330
0
100
AcDbDictionary
281
     1
  3
ACAD_GROUP
350
D
  3
ACAD_LAYOUT
350
1A
  3
ACAD_MLINESTYLE
350
17
  3
ACAD_PLOTSETTINGS
350
19
  3
ACAD_PLOTSTYLENAME
350
E
  0
DICTIONARY
  5
D
102
{ACAD_REACTORS
330
C
102
}
330
C
100
AcDbDictionary
281
     1
  0
DICTIONARY
  5
1A
102
{ACAD_REACTORS
330
C
102
}
330
C
100
AcDbDictionary
281
     1
  3
Layout1
350
1E
  3
Layout2
350
26
  3
Model
350
22
  0
DICTIONARY
  5
17
102
{ACAD_REACTORS
330
C
102
}
330
C
100
AcDbDictionary
281
     1
  3
Standard
350
18
  0
DICTIONARY
  5
19
102
{ACAD_REACTORS
330
C
102
}
330
C
100
AcDbDictionary
281
     1
  0
ACDBDICTIONARYWDFLT
  5
E
102
{ACAD_REACTORS
330
C
102
}
330
C
100
AcDbDictionary
281
     1
  3
Normal
350
F
100
AcDbDictionaryWithDefault
340
F
  0
LAYOUT
  5
1E
102
{ACAD_REACTORS
330
1A
102
}
330
1A
100
AcDbPlotSettings
  1

  2
none_device
  4

  6

 40
0.0
 41
0.0
 42
0.0
 43
0.0
 44
0.0
 45
0.0
 46
0.0
 47
0.0
 48
0.0
 49
0.0
140
0.0
141
0.0
142
1.0
143
1.0
 70
   688
 72
     0
 73
     0
 74
     5
  7

 75
    16
147
1.0
148
0.0
149
0.0
100
AcDbLayout
  1
Layout1
 70
     1
 71
     1
 10
0.0
 20
0.0
 11
420.0
 21
297.0
 12
0.0
 22
0.0
 32
0.0
 14
1.0000000000E+20
 24
1.0000000000E+20
 34
1.0000000000E+20
 15
-1.0000000000E+20
 25
-1.0000000000E+20
 35
-1.0000000000E+20
146
0.0
 13
0.0
 23
0.0
 33
0.0
 16
1.0
 26
0.0
 36
0.0
 17
0.0
 27
1.0
 37
0.0
 76
     0
330
1B
  0
LAYOUT
  5
26
102
{ACAD_REACTORS
330
1A
102
}
330
1A
100
AcDbPlotSettings
  1

  2
none_device
  4

  6

 40
0.0
 41
0.0
 42
0.0
 43
0.0
 44
0.0
 45
0.0
 46
0.0
 47
0.0
 48
0.0
 49
0.0
140
0.0
141
0.0
142
1.0
143
1.0
 70
   688
 72
     0
 73
     0
 74
     5
  7

 75
    16
147
1.0
148
0.0
149
0.0
100
AcDbLayout
  1
Layout2
 70
     1
 71
     2
 10
0.0
 20
0.0
 11
0.0
 21
0.0
 12
0.0
 22
0.0
 32
0.0
 14
0.0
 24
0.0
 34
0.0
 15
0.0
 25
0.0
 35
0.0
146
0.0
 13
0.0
 23
0.0
 33
0.0
 16
1.0
 26
0.0
 36
0.0
 17
0.0
 27
1.0
 37
0.0
 76
     0
330
23
  0
LAYOUT
  5
22
102
{ACAD_REACTORS
330
1A
102
}
330
1A
100
AcDbPlotSettings
  1

  2
none_device
  4

  6

 40
0.0
 41
0.0
 42
0.0
 43
0.0
 44
0.0
 45
0.0
 46
0.0
 47
0.0
 48
0.0
 49
0.0
140
0.0
141
0.0
142
1.0
143
1.0
 70
  1712
 72
     0
 73
     0
 74
     0
  7

 75
     0
147
1.0
148
0.0
149
0.0
100
AcDbLayout
  1
Model
 70
     1
 71
     0
 10
0.0
 20
0.0
 11
558.8
 21
431.8
 12
0.0
 22
0.0
 32
0.0
 14
0.0
 24
0.0
 34
0.0
 15
558.8
 25
431.8
 35
0.0
146
0.0
 13
0.0
 23
0.0
 33
0.0
 16
1.0
 26
0.0
 36
0.0
 17
0.0
 27
1.0
 37
0.0
 76
     0
330
1F
331
29
  0
MLINESTYLE
  5
18
102
{ACAD_REACTORS
330
17
102
}
330
17
100
AcDbMlineStyle
  2
Standard
 70
     0
  3

 62
   256
 51
90.0
 52
90.0
 71
     2
 49
0.5
 62
   256
  6
BYLAYER
 49
-0.5
 62
   256
  6
BYLAYER
  0
ACDBPLACEHOLDER
  5
F
102
{ACAD_REACTORS
330
E
102
}
330
E
  0
ENDSEC
  0
EOF
