  0
SECTION
  2
HEADER
  9
$ACADVER
  1
AC1021
  9
$ACADMAINTVER
 70
    50
  9
$DWGCODEPAGE
  3
ANSI_1251
  9
$LASTSAVEDBY
  1
Игорь
  9
$INSBASE
 10
0.0
 20
0.0
 30
0.0
  9
$EXTMIN
 10
-623.6686810324397
 20
57.36658766774016
 30
0.0
  9
$EXTMAX
 10
602.2870425774394
 20
406.4615904495598
 30
0.0
  9
$LIMMIN
 10
0.0
 20
0.0
  9
$LIMMAX
 10
279.4
 20
215.9
  9
$ORTHOMODE
 70
     0
  9
$REGENMODE
 70
     1
  9
$FILLMODE
 70
     1
  9
$QTEXTMODE
 70
     0
  9
$MIRRTEXT
 70
     1
  9
$LTSCALE
 40
1.0
  9
$ATTMODE
 70
     1
  9
$TEXTSIZE
 40
3.5
  9
$TRACEWID
 40
1.0
  9
$TEXTSTYLE
  7
Standard
  9
$CLAYER
  8
0
  9
$CELTYPE
  6
ByLayer
  9
$CECOLOR
 62
   256
  9
$CELTSCALE
 40
1.0
  9
$DISPSILH
 70
     0
  9
$DIMSCALE
 40
1.0
  9
$DIMASZ
 40
3.5
  9
$DIMEXO
 40
0.01
  9
$DIMDLI
 40
3.75
  9
$DIMRND
 40
0.0
  9
$DIMDLE
 40
0.0
  9
$DIMEXE
 40
1.0
  9
$DIMTP
 40
0.0
  9
$DIMTM
 40
0.0
  9
$DIMTXT
 40
3.5
  9
$DIMCEN
 40
2.5
  9
$DIMTSZ
 40
0.0
  9
$DIMTOL
 70
     0
  9
$DIMLIM
 70
     0
  9
$DIMTIH
 70
     1
  9
$DIMTOH
 70
     1
  9
$DIMSE1
 70
     0
  9
$DIMSE2
 70
     0
  9
$DIMTAD
 70
     1
  9
$DIMZIN
 70
     0
  9
$DIMBLK
  1

  9
$DIMASO
 70
     1
  9
$DIMSHO
 70
     1
  9
$DIMPOST
  1

  9
$DIMAPOST
  1

  9
$DIMALT
 70
     0
  9
$DIMALTD
 70
     3
  9
$DIMALTF
 40
0.0393700787401575
  9
$DIMLFAC
 40
1.0
  9
$DIMTOFL
 70
     1
  9
$DIMTVP
 40
0.0
  9
$DIMTIX
 70
     0
  9
$DIMSOXD
 70
     0
  9
$DIMSAH
 70
     0
  9
$DIMBLK1
  1

  9
$DIMBLK2
  1

  9
$DIMSTYLE
  2
ISO-25
  9
$DIMCLRD
 70
     0
  9
$DIMCLRE
 70
     0
  9
$DIMCLRT
 70
     0
  9
$DIMTFAC
 40
1.0
  9
$DIMGAP
 40
3.0
  9
$DIMJUST
 70
     0
  9
$DIMSD1
 70
     0
  9
$DIMSD2
 70
     0
  9
$DIMTOLJ
 70
     0
  9
$DIMTZIN
 70
     0
  9
$DIMALTZ
 70
     0
  9
$DIMALTTZ
 70
     0
  9
$DIMUPT
 70
     0
  9
$DIMDEC
 70
     2
  9
$DIMTDEC
 70
     3
  9
$DIMALTU
 70
     2
  9
$DIMALTTD
 70
     3
  9
$DIMTXSTY
  7
Standard
  9
$DIMAUNIT
 70
     0
  9
$DIMADEC
 70
     2
  9
$DIMALTRND
 40
0.0
  9
$DIMAZIN
 70
     0
  9
$DIMDSEP
 70
    44
  9
$DIMATFIT
 70
     3
  9
$DIMFRAC
 70
     0
  9
$DIMLDRBLK
  1

  9
$DIMLUNIT
 70
     2
  9
$DIMLWD
 70
    -2
  9
$DIMLWE
 70
    -2
  9
$DIMTMOVE
 70
     0
  9
$DIMFXL
 40
1.0
  9
$DIMFXLON
 70
     0
  9
$DIMJOGANG
 40
0.7853981633974483
  9
$DIMTFILL
 70
     0
  9
$DIMTFILLCLR
 70
     0
  9
$DIMARCSYM
 70
     0
  9
$DIMLTYPE
  6

  9
$DIMLTEX1
  6

  9
$DIMLTEX2
  6

  9
$LUNITS
 70
     2
  9
$LUPREC
 70
     2
  9
$SKETCHINC
 40
1.0
  9
$FILLETRAD
 40
10.0
  9
$AUNITS
 70
     0
  9
$AUPREC
 70
     2
  9
$MENU
  1
.
  9
$ELEVATION
 40
0.0
  9
$PELEVATION
 40
0.0
  9
$THICKNESS
 40
0.0
  9
$LIMCHECK
 70
     0
  9
$CHAMFERA
 40
10.0
  9
$CHAMFERB
 40
10.0
  9
$CHAMFERC
 40
20.0
  9
$CHAMFERD
 40
0.0
  9
$SKPOLY
 70
     0
  9
$TDCREATE
 40
2458072.870407292
  9
$TDUCREATE
 40
2458072.787073958
  9
$TDUPDATE
 40
2458072.871052014
  9
$TDUUPDATE
 40
2458072.787718681
  9
$TDINDWG
 40
0.0003501505
  9
$TDUSRTIMER
 40
0.0003501505
  9
$USRTIMER
 70
     1
  9
$ANGBASE
 50
0.0
  9
$ANGDIR
 70
     0
  9
$PDMODE
 70
     0
  9
$PDSIZE
 40
-1.0
  9
$PLINEWID
 40
0.0
  9
$SPLFRAME
 70
     0
  9
$SPLINETYPE
 70
     6
  9
$SPLINESEGS
 70
     8
  9
$HANDSEED
  5
2FF
  9
$SURFTAB1
 70
     6
  9
$SURFTAB2
 70
     6
  9
$SURFTYPE
 70
     6
  9
$SURFU
 70
     6
  9
$SURFV
 70
     6
  9
$UCSBASE
  2

  9
$UCSNAME
  2

  9
$UCSORG
 10
0.0
 20
0.0
 30
0.0
  9
$UCSXDIR
 10
1.0
 20
0.0
 30
0.0
  9
$UCSYDIR
 10
0.0
 20
1.0
 30
0.0
  9
$UCSORTHOREF
  2

  9
$UCSORTHOVIEW
 70
     0
  9
$UCSORGTOP
 10
0.0
 20
0.0
 30
0.0
  9
$UCSORGBOTTOM
 10
0.0
 20
0.0
 30
0.0
  9
$UCSORGLEFT
 10
0.0
 20
0.0
 30
0.0
  9
$UCSORGRIGHT
 10
0.0
 20
0.0
 30
0.0
  9
$UCSORGFRONT
 10
0.0
 20
0.0
 30
0.0
  9
$UCSORGBACK
 10
0.0
 20
0.0
 30
0.0
  9
$PUCSBASE
  2

  9
$PUCSNAME
  2

  9
$PUCSORG
 10
0.0
 20
0.0
 30
0.0
  9
$PUCSXDIR
 10
1.0
 20
0.0
 30
0.0
  9
$PUCSYDIR
 10
0.0
 20
1.0
 30
0.0
  9
$PUCSORTHOREF
  2

  9
$PUCSORTHOVIEW
 70
     0
  9
$PUCSORGTOP
 10
0.0
 20
0.0
 30
0.0
  9
$PUCSORGBOTTOM
 10
0.0
 20
0.0
 30
0.0
  9
$PUCSORGLEFT
 10
0.0
 20
0.0
 30
0.0
  9
$PUCSORGRIGHT
 10
0.0
 20
0.0
 30
0.0
  9
$PUCSORGFRONT
 10
0.0
 20
0.0
 30
0.0
  9
$PUCSORGBACK
 10
0.0
 20
0.0
 30
0.0
  9
$USERI1
 70
     0
  9
$USERI2
 70
     0
  9
$USERI3
 70
     0
  9
$USERI4
 70
     0
  9
$USERI5
 70
     0
  9
$USERR1
 40
0.0
  9
$USERR2
 40
0.0
  9
$USERR3
 40
0.0
  9
$USERR4
 40
0.0
  9
$USERR5
 40
0.0
  9
$WORLDVIEW
 70
     1
  9
$SHADEDGE
 70
     3
  9
$SHADEDIF
 70
    70
  9
$TILEMODE
 70
     1
  9
$MAXACTVP
 70
    64
  9
$PINSBASE
 10
0.0
 20
0.0
 30
0.0
  9
$PLIMCHECK
 70
     0
  9
$PEXTMIN
 10
1.000000000000000E+20
 20
1.000000000000000E+20
 30
1.000000000000000E+20
  9
$PEXTMAX
 10
-1.000000000000000E+20
 20
-1.000000000000000E+20
 30
-1.000000000000000E+20
  9
$PLIMMIN
 10
0.0
 20
0.0
  9
$PLIMMAX
 10
420.0
 20
297.0
  9
$UNITMODE
 70
     0
  9
$VISRETAIN
 70
     1
  9
$PLINEGEN
 70
     0
  9
$PSLTSCALE
 70
     1
  9
$TREEDEPTH
 70
  3020
  9
$CMLSTYLE
  2
Standard
  9
$CMLJUST
 70
     0
  9
$CMLSCALE
 40
20.0
  9
$PROXYGRAPHICS
 70
     1
  9
$MEASUREMENT
 70
     1
  9
$CELWEIGHT
370
    -1
  9
$ENDCAPS
280
     0
  9
$JOINSTYLE
280
     0
  9
$LWDISPLAY
290
     1
  9
$INSUNITS
 70
     4
  9
$HYPERLINKBASE
  1

  9
$STYLESHEET
  1

  9
$XEDIT
290
     1
  9
$CEPSNTYPE
380
     0
  9
$PSTYLEMODE
290
     1
  9
$FINGERPRINTGUID
  2
{390EAF28-DD61-43E5-A668-49D7CF94C75A}
  9
$VERSIONGUID
  2
{1E54E4BF-C363-4289-AEFE-AA7B7CC8C467}
  9
$EXTNAMES
290
     1
  9
$PSVPSCALE
 40
0.0
  9
$OLESTARTUP
290
     0
  9
$SORTENTS
280
   127
  9
$INDEXCTL
280
     0
  9
$HIDETEXT
280
     0
  9
$XCLIPFRAME
290
     0
  9
$HALOGAP
280
     0
  9
$OBSCOLOR
 70
   257
  9
$OBSLTYPE
280
     0
  9
$INTERSECTIONDISPLAY
280
     0
  9
$INTERSECTIONCOLOR
 70
   257
  9
$DIMASSOC
280
     1
  9
$PROJECTNAME
  1

  9
$CAMERADISPLAY
290
     0
  9
$LENSLENGTH
 40
50.0
  9
$CAMERAHEIGHT
 40
0.0
  9
$STEPSPERSEC
 40
2.0
  9
$STEPSIZE
 40
6.0
  9
$3DDWFPREC
 40
2.0
  9
$PSOLWIDTH
 40
0.25
  9
$PSOLHEIGHT
 40
4.0
  9
$LOFTANG1
 40
1.570796326794896
  9
$LOFTANG2
 40
1.570796326794896
  9
$LOFTMAG1
 40
0.0
  9
$LOFTMAG2
 40
0.0
  9
$LOFTPARAM
 70
     7
  9
$LOFTNORMALS
280
     1
  9
$LATITUDE
 40
37.795
  9
$LONGITUDE
 40
-122.394
  9
$NORTHDIRECTION
 40
0.0
  9
$TIMEZONE
 70
 -8000
  9
$LIGHTGLYPHDISPLAY
280
     1
  9
$TILEMODELIGHTSYNCH
280
     1
  9
$CMATERIAL
347
298
  9
$SOLIDHIST
280
     1
  9
$SHOWHIST
280
     1
  9
$DWFFRAME
280
     2
  9
$DGNFRAME
280
     0
  9
$REALWORLDSCALE
290
     1
  9
$INTERFERECOLOR
 62
     1
  9
$INTERFEREOBJVS
345
2BA
  9
$INTERFEREVPVS
346
2B7
  9
$CSHADOW
280
     0
  9
$SHADOWPLANELOCATION
 40
0.0
  0
ENDSEC
  0
SECTION
  2
CLASSES
  0
CLASS
  1
ACDBDICTIONARYWDFLT
  2
AcDbDictionaryWithDefault
  3
ObjectDBX Classes
 90
        0
 91
        1
280
     0
281
     0
  0
CLASS
  1
VISUALSTYLE
  2
AcDbVisualStyle
  3
ObjectDBX Classes
 90
     4095
 91
       16
280
     0
281
     0
  0
CLASS
  1
MATERIAL
  2
AcDbMaterial
  3
ObjectDBX Classes
 90
     1153
 91
        3
280
     0
281
     0
  0
CLASS
  1
TABLESTYLE
  2
AcDbTableStyle
  3
ObjectDBX Classes
 90
     4095
 91
        1
280
     0
281
     0
  0
CLASS
  1
SCALE
  2
AcDbScale
  3
ObjectDBX Classes
 90
     1153
 91
       17
280
     0
281
     0
  0
CLASS
  1
MLEADERSTYLE
  2
AcDbMLeaderStyle
  3
ACDB_MLEADERSTYLE_CLASS
 90
     4095
 91
        1
280
     0
281
     0
  0
CLASS
  1
DICTIONARYVAR
  2
AcDbDictionaryVar
  3
ObjectDBX Classes
 90
        0
 91
        7
280
     0
281
     0
  0
CLASS
  1
CELLSTYLEMAP
  2
AcDbCellStyleMap
  3
ObjectDBX Classes
 90
     1152
 91
        1
280
     0
281
     0
  0
ENDSEC
  0
SECTION
  2
TABLES
  0
TABLE
  2
VPORT
  5
8
330
0
100
AcDbSymbolTable
 70
     1
  0
VPORT
  5
29
330
8
100
AcDbSymbolTableRecord
100
AcDbViewportTableRecord
  2
*Active
 70
     0
 10
0.0
 20
0.0
 11
1.0
 21
1.0
 12
-10.69081922750013
 22
231.91408905865
 13
0.0
 23
0.0
 14
10.0
 24
10.0
 15
10.0
 25
10.0
 16
0.0
 26
0.0
 36
1.0
 17
0.0
 27
0.0
 37
0.0
 40
473.0066211369883
 41
2.604123711340206
 42
50.0
 43
0.0
 44
0.0
 50
0.0
 51
0.0
 71
     0
 72
  2000
 73
     1
 74
     3
 75
     0
 76
     0
 77
     0
 78
     0
281
     0
 65
     1
110
0.0
120
0.0
130
0.0
111
1.0
121
0.0
131
0.0
112
0.0
122
1.0
132
0.0
 79
     0
146
0.0
348
2B6
 60
     3
 61
     5
292
     1
282
     1
141
0.0
142
0.0
 63
   250
421
  3355443
  0
ENDTAB
  0
TABLE
  2
LTYPE
  5
5
330
0
100
AcDbSymbolTable
 70
     6
  0
LTYPE
  5
14
330
5
100
AcDbSymbolTableRecord
100
AcDbLinetypeTableRecord
  2
ByBlock
 70
     0
  3

 72
    65
 73
     0
 40
0.0
  0
LTYPE
  5
15
330
5
100
AcDbSymbolTableRecord
100
AcDbLinetypeTableRecord
  2
ByLayer
 70
     0
  3

 72
    65
 73
     0
 40
0.0
  0
LTYPE
  5
16
330
5
100
AcDbSymbolTableRecord
100
AcDbLinetypeTableRecord
  2
Continuous
 70
     0
  3
Solid line
 72
    65
 73
     0
 40
0.0
  0
LTYPE
  5
3F
330
5
100
AcDbSymbolTableRecord
100
AcDbLinetypeTableRecord
  2
HIDDEN
 70
     0
  3
Hidden __ __ __ __ __ __ __ __ __ __ __ __ __ __
 72
    65
 73
     2
 40
1.905
 49
1.27
 74
     0
 49
-0.635
 74
     0
  0
LTYPE
  5
40
330
5
100
AcDbSymbolTableRecord
100
AcDbLinetypeTableRecord
  2
PHANTOM
 70
     0
  3
Phantom ______  __  __  ______  __  __  ______
 72
    65
 73
     6
 40
12.7
 49
6.349999999999999
 74
     0
 49
-1.27
 74
     0
 49
1.27
 74
     0
 49
-1.27
 74
     0
 49
1.27
 74
     0
 49
-1.27
 74
     0
  0
LTYPE
  5
41
330
5
100
AcDbSymbolTableRecord
100
AcDbLinetypeTableRecord
  2
CENTER
 70
     0
  3
Center ____ _ ____ _ ____ _ ____ _ ____ _ ____
 72
    65
 73
     4
 40
10.16
 49
6.349999999999999
 74
     0
 49
-1.27
 74
     0
 49
1.27
 74
     0
 49
-1.27
 74
     0
  0
LTYPE
  5
42
330
5
100
AcDbSymbolTableRecord
100
AcDbLinetypeTableRecord
  2
CENTERX2
 70
     0
  3
Center (2x) ________  __  ________  __  _____
 72
    65
 73
     4
 40
20.32
 49
12.7
 74
     0
 49
-2.54
 74
     0
 49
2.54
 74
     0
 49
-2.54
 74
     0
  0
LTYPE
  5
43
330
5
100
AcDbSymbolTableRecord
100
AcDbLinetypeTableRecord
  2
DOT2
 70
     0
  3
Dot (.5x) ........................................
 72
    65
 73
     2
 40
0.635
 49
0.0
 74
     0
 49
-0.635
 74
     0
  0
ENDTAB
  0
TABLE
  2
LAYER
  5
2
330
0
100
AcDbSymbolTable
 70
     2
  0
LAYER
  5
10
102
{ACAD_XDICTIONARY
360
2F2
102
}
330
2
100
AcDbSymbolTableRecord
100
AcDbLayerTableRecord
  2
0
 70
     0
 62
     7
  6
Continuous
370
    -3
390
F
347
2A8
  0
LAYER
  5
2DC
330
2
100
AcDbSymbolTableRecord
100
AcDbLayerTableRecord
  2
Defpoints
 70
     0
 62
     7
  6
Continuous
290
     0
370
    -3
390
F
347
2A8
  0
ENDTAB
  0
TABLE
  2
STYLE
  5
3
330
0
100
AcDbSymbolTable
 70
     1
  0
STYLE
  5
11
330
3
100
AcDbSymbolTableRecord
100
AcDbTextStyleTableRecord
  2
Standard
 70
     0
 40
0.0
 41
1.0
 50
0.0
 71
     0
 42
3.5
  3
txt
  4

  0
ENDTAB
  0
TABLE
  2
VIEW
  5
6
330
0
100
AcDbSymbolTable
 70
     0
  0
ENDTAB
  0
TABLE
  2
UCS
  5
7
330
0
100
AcDbSymbolTable
 70
     0
  0
ENDTAB
  0
TABLE
  2
APPID
  5
9
330
0
100
AcDbSymbolTable
 70
     2
  0
APPID
  5
12
330
9
100
AcDbSymbolTableRecord
100
AcDbRegAppTableRecord
  2
ACAD
 70
     0
  0
APPID
  5
2D8
330
9
100
AcDbSymbolTableRecord
100
AcDbRegAppTableRecord
  2
ACAD_MLEADERVER
 70
     0
  0
ENDTAB
  0
TABLE
  2
DIMSTYLE
  5
A
330
0
100
AcDbSymbolTable
 70
     1
100
AcDbDimStyleTable
 71
     1
340
27
  0
DIMSTYLE
105
27
330
A
100
AcDbSymbolTableRecord
100
AcDbDimStyleTableRecord
  2
ISO-25
 70
     0
 41
2.5
 42
0.625
 43
3.75
 44
1.25
 73
     0
 74
     0
 77
     1
 78
     8
140
2.5
141
2.5
143
0.03937007874016
147
0.625
171
     3
172
     1
271
     2
272
     2
274
     3
278
    44
283
     0
284
     8
340
11
  0
ENDTAB
  0
TABLE
  2
BLOCK_RECORD
  5
1
330
0
100
AcDbSymbolTable
 70
     2
  0
BLOCK_RECORD
  5
1F
330
1
100
AcDbSymbolTableRecord
100
AcDbBlockTableRecord
  2
*Model_Space
340
22
 70
     0
280
     1
281
     0
  0
BLOCK_RECORD
  5
1B
330
1
100
AcDbSymbolTableRecord
100
AcDbBlockTableRecord
  2
*Paper_Space
340
1E
 70
     0
280
     1
281
     0
  0
BLOCK_RECORD
  5
23
330
1
100
AcDbSymbolTableRecord
100
AcDbBlockTableRecord
  2
*Paper_Space0
340
26
 70
     0
280
     1
281
     0
  0
BLOCK_RECORD
  5
2DD
330
1
100
AcDbSymbolTableRecord
100
AcDbBlockTableRecord
  2
*D1
340
0
 70
     0
280
     1
281
     0
  0
ENDTAB
  0
ENDSEC
  0
SECTION
  2
BLOCKS
  0
BLOCK
  5
20
330
1F
100
AcDbEntity
  8
0
100
AcDbBlockBegin
  2
*Model_Space
 70
     0
 10
0.0
 20
0.0
 30
0.0
  3
*Model_Space
  1

  0
ENDBLK
  5
21
330
1F
100
AcDbEntity
  8
0
100
AcDbBlockEnd
  0
BLOCK
  5
1C
330
1B
100
AcDbEntity
 67
     1
  8
0
100
AcDbBlockBegin
  2
*Paper_Space
 70
     0
 10
0.0
 20
0.0
 30
0.0
  3
*Paper_Space
  1

  0
ENDBLK
  5
1D
330
1B
100
AcDbEntity
 67
     1
  8
0
100
AcDbBlockEnd
  0
BLOCK
  5
24
330
23
100
AcDbEntity
 67
     1
  8
0
100
AcDbBlockBegin
  2
*Paper_Space0
 70
     0
 10
0.0
 20
0.0
 30
0.0
  3
*Paper_Space0
  1

  0
ENDBLK
  5
25
330
23
100
AcDbEntity
 67
     1
  8
0
100
AcDbBlockEnd
  0
BLOCK
  5
2DE
330
2DD
100
AcDbEntity
  8
0
100
AcDbBlockBegin
  2
*D1
 70
     1
 10
0.0
 20
0.0
 30
0.0
  3
*D1
  1

  0
LINE
  5
2E9
330
2DD
100
AcDbEntity
  8
0
 62
     0
370
    -2
100
AcDbLine
 10
-623.6686775174425
 20
67.35658766774019
 30
0.0
 11
-623.6686775174425
 21
-12.5425678326917
 31
0.0
  0
LINE
  5
2EA
330
2DD
100
AcDbEntity
  8
0
 62
     0
370
    -2
100
AcDbLine
 10
329.3313224825574
 20
67.35658766774019
 30
0.0
 11
329.3313224825574
 21
-12.5425678326917
 31
0.0
  0
LINE
  5
2EB
330
2DD
100
AcDbEntity
  8
0
 62
     0
370
    -2
100
AcDbLine
 10
-620.1686775174425
 20
-11.5425678326917
 30
0.0
 11
325.8313224825574
 21
-11.5425678326917
 31
0.0
  0
SOLID
  5
2EC
330
2DD
100
AcDbEntity
  8
0
 62
     0
100
AcDbTrace
 10
-620.1686775174425
 20
-10.95923449935837
 30
0.0
 11
-620.1686775174425
 21
-12.12590116602503
 31
0.0
 12
-623.6686775174425
 22
-11.5425678326917
 32
0.0
 13
-623.6686775174425
 23
-11.5425678326917
 33
0.0
  0
SOLID
  5
2ED
330
2DD
100
AcDbEntity
  8
0
 62
     0
100
AcDbTrace
 10
325.8313224825574
 20
-10.95923449935837
 30
0.0
 11
325.8313224825574
 21
-12.12590116602503
 31
0.0
 12
329.3313224825574
 22
-11.5425678326917
 32
0.0
 13
329.3313224825574
 23
-11.5425678326917
 33
0.0
  0
MTEXT
  5
2EE
330
2DD
100
AcDbEntity
  8
0
 62
     0
100
AcDbMText
 10
-147.1686775174426
 20
-6.500901166025036
 30
0.0
 40
3.5
 41
0.0
 46
0.0
 71
     5
 72
     1
  1
953,00
 73
     1
 44
1.0
  0
POINT
  5
2EF
330
2DD
100
AcDbEntity
  8
Defpoints
 62
     0
100
AcDbPoint
 10
-623.6686775174425
 20
67.36658766774019
 30
0.0
  0
POINT
  5
2F0
330
2DD
100
AcDbEntity
  8
Defpoints
 62
     0
100
AcDbPoint
 10
329.3313224825574
 20
67.36658766774019
 30
0.0
  0
POINT
  5
2F1
330
2DD
100
AcDbEntity
  8
Defpoints
 62
     0
100
AcDbPoint
 10
329.3313224825574
 20
-11.5425678326917
 30
0.0
  0
ENDBLK
  5
2DF
330
2DD
100
AcDbEntity
  8
0
100
AcDbBlockEnd
  0
ENDSEC
  0
SECTION
  2
ENTITIES
  0
LINE
  5
44
330
1F
100
AcDbEntity
  8
0
  6
Continuous
 62
     7
370
    15
100
AcDbLine
 10
-275.2769767711368
 20
391.461597304094
 30
0.0
 11
-275.2769767711368
 21
406.4615904495598
 31
0.0
  0
LINE
  5
45
330
1F
100
AcDbEntity
  8
0
  6
Continuous
 62
     7
370
    15
100
AcDbLine
 10
-309.0603827903477
 20
406.4615904495598
 30
0.0
 11
-309.0603827903477
 21
391.461597304094
 31
0.0
  0
LINE
  5
46
330
1F
100
AcDbEntity
  8
0
  6
Continuous
 62
     7
370
    15
100
AcDbLine
 10
24.72302024863097
 20
391.461597304094
 30
0.0
 11
24.72302024863097
 21
406.4615904495598
 31
0.0
  0
LINE
  5
47
330
1F
100
AcDbEntity
  8
0
  6
Continuous
 62
     7
370
    15
100
AcDbLine
 10
-9.060385770579841
 20
406.4615904495598
 30
0.0
 11
-9.060385770579841
 21
391.461597304094
 31
0.0
  0
LINE
  5
48
330
1F
100
AcDbEntity
  8
0
  6
Continuous
 62
     7
370
    15
100
AcDbLine
 10
-445.3297025928702
 20
384.0673058435799
 30
0.0
 11
-454.3927825460639
 21
388.2934837744118
 31
0.0
  0
LINE
  5
49
330
1F
100
AcDbEntity
  8
0
  6
Continuous
 62
     7
370
    15
100
AcDbLine
 10
-468.1333891520706
 20
358.8266573057057
 30
0.0
 11
-463.0614883671012
 21
356.4615934297921
 31
0.0
  0
LINE
  5
4A
330
1F
100
AcDbEntity
  8
0
  6
Continuous
 62
     7
370
    15
100
AcDbLine
 10
-437.1118649313656
 20
378.0285059616447
 30
0.0
 11
-446.1749411592689
 21
382.2546838924767
 31
0.0
  0
LINE
  5
4B
330
1F
100
AcDbEntity
  8
0
  6
Continuous
 62
     7
370
    15
100
AcDbLine
 10
-459.9831580589023
 20
376.3048811957718
 30
0.0
 11
-469.046238012096
 21
380.5310665771843
 31
0.0
  0
LINE
  5
4C
330
1F
100
AcDbEntity
  8
0
  6
Continuous
 62
     7
370
    15
100
AcDbLine
 10
-469.6672141025271
 20
379.1993796036126
 30
0.0
 11
-460.6041341493336
 21
374.9731942222001
 31
0.0
  0
LINE
  5
4D
330
1F
100
AcDbEntity
  8
0
  6
Continuous
 62
     7
370
    15
100
AcDbLine
 10
-461.6725101540295
 20
372.6820587322594
 30
0.0
 11
-470.735590107223
 21
376.9082366630912
 31
0.0
  0
LINE
  5
4E
330
1F
100
AcDbEntity
  8
0
  6
Continuous
 62
     7
370
    15
100
AcDbLine
 10
-471.3565661976543
 20
375.5765496895195
 30
0.0
 11
-462.2934862444606
 21
371.3503643081069
 31
0.0
  0
LINE
  5
4F
330
1F
100
AcDbEntity
  8
0
  6
Continuous
 62
     7
370
    15
100
AcDbLine
 10
-460.8045100639072
 20
374.5434894368531
 30
0.0
 11
-469.8675862918106
 21
378.769667367685
 31
0.0
  0
LINE
  5
50
330
1F
100
AcDbEntity
  8
0
  6
Continuous
 62
     7
370
    15
100
AcDbLine
 10
-470.4885623822417
 20
377.4379803941132
 30
0.0
 11
-461.4254861543384
 21
373.2118024632813
 31
0.0
  0
LINE
  5
51
330
1F
100
AcDbEntity
  8
0
  6
Continuous
 62
     7
370
    15
100
AcDbLine
 10
-462.4938621590343
 20
370.92065952276
 30
0.0
 11
-471.5569383869376
 21
375.1468449041724
 31
0.0
  0
LINE
  5
52
330
1F
100
AcDbEntity
  8
0
  6
Continuous
 62
     7
370
    15
100
AcDbLine
 10
-472.1779144773689
 20
373.8151579306008
 30
0.0
 11
-463.1148382494655
 21
369.5889725491881
 31
0.0
  0
LINE
  5
53
330
1F
100
AcDbEntity
  8
0
  6
Continuous
 62
     7
370
    15
100
AcDbLine
 10
-463.2822267184463
 20
369.2300110266091
 30
0.0
 11
-472.3453029463496
 21
373.456188957441
 31
0.0
  0
LINE
  5
54
330
1F
100
AcDbEntity
  8
0
  6
Continuous
 62
     7
370
    15
100
AcDbLine
 10
-472.9662790367809
 20
372.1245019838692
 30
0.0
 11
-463.9032028088775
 21
367.8983240530372
 31
0.0
  0
LINE
  5
55
330
1F
100
AcDbEntity
  8
0
  6
Continuous
 62
     7
370
    15
100
AcDbLine
 10
-459.1947934994903
 20
377.9955371425033
 30
0.0
 11
-468.257873452684
 21
382.2217150733353
 31
0.0
  0
LINE
  5
56
330
1F
100
AcDbEntity
  8
0
  6
Continuous
 62
     7
370
    15
100
AcDbLine
 10
-468.8788495431151
 20
380.8900280997635
 30
0.0
 11
-459.8157695899216
 21
376.6638501689316
 31
0.0
  0
LINE
  5
57
330
1F
100
AcDbEntity
  8
0
  6
Continuous
 62
     7
370
    15
100
AcDbLine
 10
-458.3734414944855
 20
379.756928901422
 30
0.0
 11
-467.4365214476791
 21
383.9831142828347
 31
0.0
  0
LINE
  5
58
330
1F
100
AcDbEntity
  8
0
  6
Continuous
 62
     7
370
    15
100
AcDbLine
 10
-468.0574975381103
 20
382.6514273092629
 30
0.0
 11
-458.9944175849167
 21
378.4252419278504
 31
0.0
  0
LINE
  5
59
330
1F
100
AcDbEntity
  8
0
  6
Continuous
 62
     7
370
    15
100
AcDbLine
 10
-464.1035787234512
 20
367.4686118171096
 30
0.0
 11
-473.1666549513545
 21
371.6947971985222
 31
0.0
  0
LINE
  5
5A
330
1F
100
AcDbEntity
  8
0
  6
Continuous
 62
     7
370
    15
100
AcDbLine
 10
-473.7876310417858
 20
370.3631102249504
 30
0.0
 11
-464.7245548138823
 21
366.1369248435379
 31
0.0
  0
LINE
  5
5B
330
1F
100
AcDbEntity
  8
0
  6
Continuous
 62
     7
370
    15
100
AcDbLine
 10
319.3313152124679
 20
336.4615938768269
 30
0.0
 11
319.3313152124679
 21
356.4615934297921
 31
0.0
  0
LINE
  5
5C
330
1F
100
AcDbEntity
  8
0
  6
Continuous
 62
     7
370
    15
100
AcDbLine
 10
1.864162140110579
 20
331.461593057263
 30
0.0
 11
1.864162140110579
 21
336.4615938768269
 31
0.0
  0
LINE
  5
5D
330
1F
100
AcDbEntity
  8
0
  6
Continuous
 62
     7
370
    15
100
AcDbLine
 10
-278.1358539531437
 20
331.461593057263
 30
0.0
 11
-278.1358539531437
 21
336.4615938768269
 31
0.0
  0
LINE
  5
5E
330
1F
100
AcDbEntity
  8
0
  6
Continuous
 62
     7
370
    15
100
AcDbLine
 10
-284.3624829719272
 20
331.461593057263
 30
0.0
 11
-284.3624829719272
 21
336.4615938768269
 31
0.0
  0
LINE
  5
5F
330
1F
100
AcDbEntity
  8
0
  6
Continuous
 62
     7
370
    15
100
AcDbLine
 10
-564.3624878893104
 20
331.461593057263
 30
0.0
 11
-564.3624878893104
 21
336.4615938768269
 31
0.0
  0
LINE
  5
60
330
1F
100
AcDbEntity
  8
0
  6
Continuous
 62
     7
370
    15
100
AcDbLine
 10
-613.6686756680217
 20
356.4615934297921
 30
0.0
 11
-613.6686756680217
 21
336.4615938768269
 31
0.0
  0
LINE
  5
61
330
1F
100
AcDbEntity
  8
0
  6
Continuous
 62
     7
370
    15
100
AcDbLine
 10
281.8641335298811
 20
331.461593057263
 30
0.0
 11
275.6375343134199
 21
331.461593057263
 31
0.0
  0
LINE
  5
62
330
1F
100
AcDbEntity
  8
0
  6
Continuous
 62
     7
370
    15
100
AcDbLine
 10
275.6375343134199
 20
331.461593057263
 30
0.0
 11
275.6375343134199
 21
336.4615938768269
 31
0.0
  0
LINE
  5
63
330
1F
100
AcDbEntity
  8
0
  6
Continuous
 62
     7
370
    15
100
AcDbLine
 10
281.8641335298811
 20
331.461593057263
 30
0.0
 11
281.8641335298811
 21
336.4615938768269
 31
0.0
  0
LINE
  5
64
330
1F
100
AcDbEntity
  8
0
  6
Continuous
 62
     7
370
    15
100
AcDbLine
 10
1.864162140110579
 20
331.461593057263
 30
0.0
 11
-4.362496680995491
 21
331.461593057263
 31
0.0
  0
LINE
  5
65
330
1F
100
AcDbEntity
  8
0
  6
Continuous
 62
     7
370
    15
100
AcDbLine
 10
-4.362496680995491
 20
331.461593057263
 30
0.0
 11
-4.362496680995491
 21
336.4615938768269
 31
0.0
  0
LINE
  5
66
330
1F
100
AcDbEntity
  8
0
  6
Continuous
 62
     7
370
    15
100
AcDbLine
 10
-278.1358539531437
 20
331.461593057263
 30
0.0
 11
-284.3624829719272
 21
331.461593057263
 31
0.0
  0
LINE
  5
67
330
1F
100
AcDbEntity
  8
0
  6
Continuous
 62
     7
370
    15
100
AcDbLine
 10
-558.1358588705268
 20
336.4615938768269
 30
0.0
 11
-284.3624829719272
 21
336.4615938768269
 31
0.0
  0
LINE
  5
68
330
1F
100
AcDbEntity
  8
0
  6
Continuous
 62
     7
370
    15
100
AcDbLine
 10
-278.1358539531437
 20
336.4615938768269
 30
0.0
 11
-4.362496680995491
 21
336.4615938768269
 31
0.0
  0
LINE
  5
69
330
1F
100
AcDbEntity
  8
0
  6
Continuous
 62
     7
370
    15
100
AcDbLine
 10
1.864162140110579
 20
336.4615938768269
 30
0.0
 11
275.6375343134199
 21
336.4615938768269
 31
0.0
  0
LINE
  5
6A
330
1F
100
AcDbEntity
  8
0
  6
Continuous
 62
     7
370
    15
100
AcDbLine
 10
-558.1358588705268
 20
331.461593057263
 30
0.0
 11
-564.3624878893104
 21
331.461593057263
 31
0.0
  0
LINE
  5
6B
330
1F
100
AcDbEntity
  8
0
  6
Continuous
 62
     7
370
    15
100
AcDbLine
 10
-558.1358588705268
 20
331.461593057263
 30
0.0
 11
-558.1358588705268
 21
336.4615938768269
 31
0.0
  0
LINE
  5
6C
330
1F
100
AcDbEntity
  8
0
  6
Continuous
 62
     7
370
    15
100
AcDbLine
 10
281.8641335298811
 20
336.4615938768269
 30
0.0
 11
319.3313152124679
 21
336.4615938768269
 31
0.0
  0
LINE
  5
6D
330
1F
100
AcDbEntity
  8
0
  6
Continuous
 62
     7
370
    15
100
AcDbLine
 10
-613.6686756680217
 20
336.4615938768269
 30
0.0
 11
-564.3624878893104
 21
336.4615938768269
 31
0.0
  0
LINE
  5
6E
330
1F
100
AcDbEntity
  8
0
  6
Continuous
 62
     7
370
    15
100
AcDbLine
 10
-613.6686756680217
 20
356.4615934297921
 30
0.0
 11
319.3313152124679
 21
356.4615934297921
 31
0.0
  0
LINE
  5
6F
330
1F
100
AcDbEntity
  8
0
  6
Continuous
 62
     7
370
    15
100
AcDbLine
 10
-623.6686810324397
 20
336.4615938768269
 30
0.0
 11
-623.6686810324397
 21
356.4615934297921
 31
0.0
  0
LINE
  5
70
330
1F
100
AcDbEntity
  8
0
  6
Continuous
 62
     7
370
    15
100
AcDbLine
 10
-613.6686756680217
 20
336.4615938768269
 30
0.0
 11
-623.6686810324397
 21
336.4615938768269
 31
0.0
  0
LINE
  5
71
330
1F
100
AcDbEntity
  8
0
  6
Continuous
 62
     7
370
    15
100
AcDbLine
 10
-623.6686810324397
 20
356.4615934297921
 30
0.0
 11
-613.6686756680217
 21
356.4615934297921
 31
0.0
  0
LINE
  5
72
330
1F
100
AcDbEntity
  8
0
  6
Continuous
 62
     7
370
    15
100
AcDbLine
 10
329.3313056757245
 20
356.4615934297921
 30
0.0
 11
329.3313056757245
 21
336.4615938768269
 31
0.0
  0
LINE
  5
73
330
1F
100
AcDbEntity
  8
0
  6
Continuous
 62
     7
370
    15
100
AcDbLine
 10
329.3313056757245
 20
336.4615938768269
 30
0.0
 11
319.3313152124679
 21
336.4615938768269
 31
0.0
  0
LINE
  5
74
330
1F
100
AcDbEntity
  8
0
  6
Continuous
 62
     7
370
    15
100
AcDbLine
 10
319.3313152124679
 20
356.4615934297921
 30
0.0
 11
329.3313056757245
 21
356.4615934297921
 31
0.0
  0
LINE
  5
75
330
1F
100
AcDbEntity
  8
0
  6
Continuous
 62
     7
370
    15
100
AcDbLine
 10
148.2997805406842
 20
356.4615934297921
 30
0.0
 11
131.9790155222211
 21
391.461597304094
 31
0.0
  0
LINE
  5
76
330
1F
100
AcDbEntity
  8
0
  6
Continuous
 62
     7
370
    15
100
AcDbLine
 10
-426.3163685271945
 20
391.461597304094
 30
0.0
 11
-442.6371409962383
 21
356.4615934297921
 31
0.0
  0
LINE
  5
77
330
1F
100
AcDbEntity
  8
0
  6
Continuous
 62
     7
370
    15
100
AcDbLine
 10
-426.3163685271945
 20
391.461597304094
 30
0.0
 11
131.9790155222211
 21
391.461597304094
 31
0.0
  0
LINE
  5
78
330
1F
100
AcDbEntity
  8
0
  6
Continuous
 62
     7
370
    15
100
AcDbLine
 10
-249.8084634015766
 20
377.4615912840247
 30
0.0
 11
-249.8084634015766
 21
371.0140823528647
 31
0.0
  0
LINE
  5
79
330
1F
100
AcDbEntity
  8
0
  6
Continuous
 62
     7
370
    15
100
AcDbLine
 10
-251.757088250896
 20
377.4615912840247
 30
0.0
 11
-249.8084634015766
 21
377.4615912840247
 31
0.0
  0
LINE
  5
7A
330
1F
100
AcDbEntity
  8
0
  6
Continuous
 62
     7
370
    15
100
AcDbLine
 10
-251.757088250896
 20
371.0140823528647
 30
0.0
 11
-251.757088250896
 21
377.4615912840247
 31
0.0
  0
LINE
  5
7B
330
1F
100
AcDbEntity
  8
0
  6
Continuous
 62
     7
370
    15
100
AcDbLine
 10
-249.8084634015766
 20
371.0140823528647
 30
0.0
 11
-251.757088250896
 21
371.0140823528647
 31
0.0
  0
LINE
  5
7C
330
1F
100
AcDbEntity
  8
0
  6
Continuous
 62
     7
370
    15
100
AcDbLine
 10
-224.8084574411121
 20
377.4615912840247
 30
0.0
 11
-224.8084574411121
 21
371.0140823528647
 31
0.0
  0
LINE
  5
7D
330
1F
100
AcDbEntity
  8
0
  6
Continuous
 62
     7
370
    15
100
AcDbLine
 10
-226.7570822904315
 20
377.4615912840247
 30
0.0
 11
-224.8084574411121
 21
377.4615912840247
 31
0.0
  0
LINE
  5
7E
330
1F
100
AcDbEntity
  8
0
  6
Continuous
 62
     7
370
    15
100
AcDbLine
 10
-226.7570822904315
 20
371.0140823528647
 30
0.0
 11
-226.7570822904315
 21
377.4615912840247
 31
0.0
  0
LINE
  5
7F
330
1F
100
AcDbEntity
  8
0
  6
Continuous
 62
     7
370
    15
100
AcDbLine
 10
-224.8084574411121
 20
371.0140823528647
 30
0.0
 11
-226.7570822904315
 21
371.0140823528647
 31
0.0
  0
LINE
  5
80
330
1F
100
AcDbEntity
  8
0
  6
Continuous
 62
     7
370
    15
100
AcDbLine
 10
-199.8084812829699
 20
377.4615912840247
 30
0.0
 11
-199.8084812829699
 21
371.0140823528647
 31
0.0
  0
LINE
  5
81
330
1F
100
AcDbEntity
  8
0
  6
Continuous
 62
     7
370
    15
100
AcDbLine
 10
-201.7570763299671
 20
377.4615912840247
 30
0.0
 11
-199.8084812829699
 21
377.4615912840247
 31
0.0
  0
LINE
  5
82
330
1F
100
AcDbEntity
  8
0
  6
Continuous
 62
     7
370
    15
100
AcDbLine
 10
-201.7570763299671
 20
371.0140823528647
 30
0.0
 11
-201.7570763299671
 21
377.4615912840247
 31
0.0
  0
LINE
  5
83
330
1F
100
AcDbEntity
  8
0
  6
Continuous
 62
     7
370
    15
100
AcDbLine
 10
-199.8084812829699
 20
371.0140823528647
 30
0.0
 11
-201.7570763299671
 21
371.0140823528647
 31
0.0
  0
LINE
  5
84
330
1F
100
AcDbEntity
  8
0
  6
Continuous
 62
     7
370
    15
100
AcDbLine
 10
-174.8084753225055
 20
377.4615912840247
 30
0.0
 11
-174.8084753225055
 21
371.0140823528647
 31
0.0
  0
LINE
  5
85
330
1F
100
AcDbEntity
  8
0
  6
Continuous
 62
     7
370
    15
100
AcDbLine
 10
-176.7570703695026
 20
377.4615912840247
 30
0.0
 11
-174.8084753225055
 21
377.4615912840247
 31
0.0
  0
LINE
  5
86
330
1F
100
AcDbEntity
  8
0
  6
Continuous
 62
     7
370
    15
100
AcDbLine
 10
-176.7570703695026
 20
371.0140823528647
 30
0.0
 11
-176.7570703695026
 21
377.4615912840247
 31
0.0
  0
LINE
  5
87
330
1F
100
AcDbEntity
  8
0
  6
Continuous
 62
     7
370
    15
100
AcDbLine
 10
-174.8084753225055
 20
371.0140823528647
 30
0.0
 11
-176.7570703695026
 21
371.0140823528647
 31
0.0
  0
LINE
  5
88
330
1F
100
AcDbEntity
  8
0
  6
Continuous
 62
     7
370
    15
100
AcDbLine
 10
-149.8084693620411
 20
377.4615912840247
 30
0.0
 11
-149.8084693620411
 21
371.0140823528647
 31
0.0
  0
LINE
  5
89
330
1F
100
AcDbEntity
  8
0
  6
Continuous
 62
     7
370
    15
100
AcDbLine
 10
-151.7570942113606
 20
377.4615912840247
 30
0.0
 11
-149.8084693620411
 21
377.4615912840247
 31
0.0
  0
LINE
  5
8A
330
1F
100
AcDbEntity
  8
0
  6
Continuous
 62
     7
370
    15
100
AcDbLine
 10
-151.7570942113606
 20
371.0140823528647
 30
0.0
 11
-151.7570942113606
 21
377.4615912840247
 31
0.0
  0
LINE
  5
8B
330
1F
100
AcDbEntity
  8
0
  6
Continuous
 62
     7
370
    15
100
AcDbLine
 10
-149.8084693620411
 20
371.0140823528647
 30
0.0
 11
-151.7570942113606
 21
371.0140823528647
 31
0.0
  0
LINE
  5
8C
330
1F
100
AcDbEntity
  8
0
  6
Continuous
 62
     7
370
    15
100
AcDbLine
 10
-124.8084634015765
 20
377.4615912840247
 30
0.0
 11
-124.8084634015765
 21
371.0140823528647
 31
0.0
  0
LINE
  5
8D
330
1F
100
AcDbEntity
  8
0
  6
Continuous
 62
     7
370
    15
100
AcDbLine
 10
-126.757088250896
 20
377.4615912840247
 30
0.0
 11
-124.8084634015765
 21
377.4615912840247
 31
0.0
  0
LINE
  5
8E
330
1F
100
AcDbEntity
  8
0
  6
Continuous
 62
     7
370
    15
100
AcDbLine
 10
-126.757088250896
 20
371.0140823528647
 30
0.0
 11
-126.757088250896
 21
377.4615912840247
 31
0.0
  0
LINE
  5
8F
330
1F
100
AcDbEntity
  8
0
  6
Continuous
 62
     7
370
    15
100
AcDbLine
 10
-124.8084634015765
 20
371.0140823528647
 30
0.0
 11
-126.757088250896
 21
371.0140823528647
 31
0.0
  0
LINE
  5
90
330
1F
100
AcDbEntity
  8
0
  6
Continuous
 62
     7
370
    15
100
AcDbLine
 10
-99.80845744111206
 20
377.4615912840247
 30
0.0
 11
-99.80845744111206
 21
371.0140823528647
 31
0.0
  0
LINE
  5
91
330
1F
100
AcDbEntity
  8
0
  6
Continuous
 62
     7
370
    15
100
AcDbLine
 10
-101.7570822904315
 20
377.4615912840247
 30
0.0
 11
-99.80845744111206
 21
377.4615912840247
 31
0.0
  0
LINE
  5
92
330
1F
100
AcDbEntity
  8
0
  6
Continuous
 62
     7
370
    15
100
AcDbLine
 10
-101.7570822904315
 20
371.0140823528647
 30
0.0
 11
-101.7570822904315
 21
377.4615912840247
 31
0.0
  0
LINE
  5
93
330
1F
100
AcDbEntity
  8
0
  6
Continuous
 62
     7
370
    15
100
AcDbLine
 10
-99.80845744111206
 20
371.0140823528647
 30
0.0
 11
-101.7570822904315
 21
371.0140823528647
 31
0.0
  0
LINE
  5
94
330
1F
100
AcDbEntity
  8
0
  6
Continuous
 62
     7
370
    15
100
AcDbLine
 10
-74.80848128296997
 20
377.4615912840247
 30
0.0
 11
-74.80848128296997
 21
371.0140823528647
 31
0.0
  0
LINE
  5
95
330
1F
100
AcDbEntity
  8
0
  6
Continuous
 62
     7
370
    15
100
AcDbLine
 10
-76.75707632996704
 20
377.4615912840247
 30
0.0
 11
-74.80848128296997
 21
377.4615912840247
 31
0.0
  0
LINE
  5
96
330
1F
100
AcDbEntity
  8
0
  6
Continuous
 62
     7
370
    15
100
AcDbLine
 10
-76.75707632996704
 20
371.0140823528647
 30
0.0
 11
-76.75707632996704
 21
377.4615912840247
 31
0.0
  0
LINE
  5
97
330
1F
100
AcDbEntity
  8
0
  6
Continuous
 62
     7
370
    15
100
AcDbLine
 10
-74.80848128296997
 20
371.0140823528647
 30
0.0
 11
-76.75707632996704
 21
371.0140823528647
 31
0.0
  0
LINE
  5
98
330
1F
100
AcDbEntity
  8
0
  6
Continuous
 62
     7
370
    15
100
AcDbLine
 10
-49.8084753225055
 20
377.4615912840247
 30
0.0
 11
-49.8084753225055
 21
371.0140823528647
 31
0.0
  0
LINE
  5
99
330
1F
100
AcDbEntity
  8
0
  6
Continuous
 62
     7
370
    15
100
AcDbLine
 10
-51.75707036950257
 20
377.4615912840247
 30
0.0
 11
-49.8084753225055
 21
377.4615912840247
 31
0.0
  0
LINE
  5
9A
330
1F
100
AcDbEntity
  8
0
  6
Continuous
 62
     7
370
    15
100
AcDbLine
 10
-51.75707036950257
 20
371.0140823528647
 30
0.0
 11
-51.75707036950257
 21
377.4615912840247
 31
0.0
  0
LINE
  5
9B
330
1F
100
AcDbEntity
  8
0
  6
Continuous
 62
     7
370
    15
100
AcDbLine
 10
-49.8084753225055
 20
371.0140823528647
 30
0.0
 11
-51.75707036950257
 21
371.0140823528647
 31
0.0
  0
LINE
  5
9C
330
1F
100
AcDbEntity
  8
0
  6
Continuous
 62
     7
370
    15
100
AcDbLine
 10
-24.80846936204091
 20
377.4615912840247
 30
0.0
 11
-24.80846936204091
 21
371.0140823528647
 31
0.0
  0
LINE
  5
9D
330
1F
100
AcDbEntity
  8
0
  6
Continuous
 62
     7
370
    15
100
AcDbLine
 10
-26.75709421136037
 20
377.4615912840247
 30
0.0
 11
-24.80846936204091
 21
377.4615912840247
 31
0.0
  0
LINE
  5
9E
330
1F
100
AcDbEntity
  8
0
  6
Continuous
 62
     7
370
    15
100
AcDbLine
 10
-26.75709421136037
 20
371.0140823528647
 30
0.0
 11
-26.75709421136037
 21
377.4615912840247
 31
0.0
  0
LINE
  5
9F
330
1F
100
AcDbEntity
  8
0
  6
Continuous
 62
     7
370
    15
100
AcDbLine
 10
-24.80846936204091
 20
371.0140823528647
 30
0.0
 11
-26.75709421136037
 21
371.0140823528647
 31
0.0
  0
LINE
  5
A0
330
1F
100
AcDbEntity
  8
0
  6
Continuous
 62
     7
370
    15
100
AcDbLine
 10
-447.1686772475448
 20
356.4615934297921
 30
0.0
 11
-432.1940943072047
 21
388.5746835873009
 31
0.0
  0
ARC
  5
A1
330
1F
100
AcDbEntity
  8
0
  6
Continuous
 62
     7
370
    15
100
AcDbCircle
 10
-427.6625581779801
 20
386.4615937278153
 30
0.0
 40
4.999999999999938
100
AcDbArc
 50
90.0
 51
155.0000000000001
  0
LINE
  5
A2
330
1F
100
AcDbEntity
  8
0
  6
Continuous
 62
     7
370
    15
100
AcDbLine
 10
-427.6625617811886
 20
391.461597304094
 30
0.0
 11
-426.3163685271945
 21
391.461597304094
 31
0.0
  0
LINE
  5
A3
330
1F
100
AcDbEntity
  8
0
  6
Continuous
 62
     7
370
    15
100
AcDbLine
 10
131.9790155222211
 20
391.461597304094
 30
0.0
 11
133.3251864244733
 21
391.461597304094
 31
0.0
  0
ARC
  5
A4
330
1F
100
AcDbEntity
  8
0
  6
Continuous
 62
     7
370
    15
100
AcDbCircle
 10
133.325203143095
 20
386.4615937278152
 30
0.0
 40
5.000000000000126
100
AcDbArc
 50
25.00000000000108
 51
90.0
  0
LINE
  5
A5
330
1F
100
AcDbEntity
  8
0
  6
Continuous
 62
     7
370
    15
100
AcDbLine
 10
137.8567487528119
 20
388.5746835873009
 30
0.0
 11
152.8313428690228
 21
356.4615934297921
 31
0.0
  0
ARC
  5
A6
330
1F
100
AcDbEntity
  8
0
  6
Continuous
 62
     7
370
    15
100
AcDbCircle
 10
282.0820621340022
 20
344.4615937278153
 30
0.0
 40
43.00000000000006
100
AcDbArc
 50
270.0000000000013
 51
349.2778475844615
  0
LINE
  5
A7
330
1F
100
AcDbEntity
  8
0
  6
Continuous
 62
     7
370
    15
100
AcDbLine
 10
282.0820481111798
 20
301.4615937278153
 30
0.0
 11
282.0820481111798
 21
311.4615935042979
 31
0.0
  0
ARC
  5
A8
330
1F
100
AcDbEntity
  8
0
  6
Continuous
 62
     7
370
    15
100
AcDbCircle
 10
282.0820621340022
 20
344.4615937278153
 30
0.0
 40
32.99999999999999
100
AcDbArc
 50
270.0000000000013
 51
345.970334598712
  0
ARC
  5
A9
330
1F
100
AcDbEntity
  8
0
  6
Continuous
 62
     7
370
    15
100
AcDbCircle
 10
-576.4194171688873
 20
344.4615937278153
 30
0.0
 40
32.99999999999999
100
AcDbArc
 50
194.0296654012899
 51
270.0000000000013
  0
LINE
  5
AA
330
1F
100
AcDbEntity
  8
0
  6
Continuous
 62
     7
370
    15
100
AcDbLine
 10
-576.4194160173144
 20
301.4615937278153
 30
0.0
 11
-576.4194160173144
 21
311.4615935042979
 31
0.0
  0
ARC
  5
AB
330
1F
100
AcDbEntity
  8
0
  6
Continuous
 62
     7
370
    15
100
AcDbCircle
 10
-576.4194171688873
 20
344.4615937278153
 30
0.0
 40
43.00000000000003
100
AcDbArc
 50
190.7221524155404
 51
270.0000000000013
  0
LINE
  5
AC
330
1F
100
AcDbEntity
  8
0
  6
Continuous
 62
     7
370
    15
100
AcDbLine
 10
282.0820481111798
 20
301.4615937278153
 30
0.0
 11
-576.4194160173144
 21
301.4615937278153
 31
0.0
  0
LINE
  5
AD
330
1F
100
AcDbEntity
  8
0
  6
Continuous
 62
     7
370
    15
100
AcDbLine
 10
-576.4194160173144
 20
311.4615935042979
 30
0.0
 11
282.0820481111798
 21
311.4615935042979
 31
0.0
  0
LINE
  5
AE
330
1F
100
AcDbEntity
  8
0
  6
Continuous
 62
     7
370
    15
100
AcDbLine
 10
-292.1686797807422
 20
406.4615904495598
 30
0.0
 11
-275.2769767711368
 21
406.4615904495598
 31
0.0
  0
LINE
  5
AF
330
1F
100
AcDbEntity
  8
0
  6
Continuous
 62
     7
370
    15
100
AcDbLine
 10
-309.0603827903477
 20
406.4615904495598
 30
0.0
 11
-292.1686797807422
 21
406.4615904495598
 31
0.0
  0
LINE
  5
B0
330
1F
100
AcDbEntity
  8
0
  6
Continuous
 62
     7
370
    15
100
AcDbLine
 10
7.831302337864372
 20
406.4615904495598
 30
0.0
 11
-9.060385770579841
 21
406.4615904495598
 31
0.0
  0
LINE
  5
B1
330
1F
100
AcDbEntity
  8
0
  6
Continuous
 62
     7
370
    15
100
AcDbLine
 10
24.72302024863097
 20
406.4615904495598
 30
0.0
 11
7.831302337864372
 21
406.4615904495598
 31
0.0
  0
LWPOLYLINE
  5
B2
330
1F
100
AcDbEntity
  8
0
  6
Continuous
 62
     7
370
    15
100
AcDbPolyline
 90
       22
 70
   128
 43
0.0
 10
-468.1333891520706
 20
358.8266573057057
 10
-468.0566518972126
 20
358.9912182793499
 10
-467.8281612167564
 20
359.4812243387581
 10
-467.4530133078303
 20
360.2857268557431
 10
-466.9395937988963
 20
361.386755029905
 10
-466.2993728587833
 20
362.7597144946933
 10
-465.5466481516566
 20
364.3739386603713
 10
-464.6982356379237
 20
366.1933629915596
 10
-463.7730895946232
 20
368.177348296392
 10
-462.79187048175
 20
370.2815785214782
 10
-461.776501632711
 20
372.4590405032517
 10
-460.7496663401332
 20
374.661104302156
 10
-459.7342974910942
 20
376.8385662839295
 10
-458.7530821035113
 20
378.9427890584351
 10
-457.8279323349205
 20
380.926781813848
 10
-456.9795198211876
 20
382.7462061450363
 10
-456.2267951140609
 20
384.3604265854241
 10
-455.5865741739479
 20
385.7333897755028
 10
-455.0731546650139
 20
386.8344216749549
 10
-454.6980104813781
 20
387.6389204666497
 10
-454.4695160756316
 20
388.1289228007674
 10
-454.3927825460639
 20
388.2934837744118
  0
LWPOLYLINE
  5
B3
330
1F
100
AcDbEntity
  8
0
  6
Continuous
 62
     7
370
    15
100
AcDbPolyline
 90
       19
 70
   128
 43
0.0
 10
-458.2024581203667
 20
356.4615934297921
 10
-457.6335280606953
 20
357.6816632554413
 10
-456.9417826304642
 20
359.1651148304821
 10
-456.142856873056
 20
360.8784168169381
 10
-455.2548109958377
 20
362.7828410968663
 10
-454.2977131376471
 20
364.8353382155777
 10
-453.2932035098282
 20
366.9895245835663
 10
-452.2639803061691
 20
369.1966994807601
 10
-451.2333116898743
 20
371.4069738194825
 10
-450.2244919011798
 20
373.5703914568306
 10
-449.2603308925834
 20
375.6380467817665
 10
-448.3626141617504
 20
377.5632097527863
 10
-447.5516333649363
 20
379.3023540780426
 10
-446.8457243809906
 20
380.8161853954674
 10
-446.2608389029708
 20
382.0704757377983
 10
-445.8102017114368
 20
383.0368681952835
 10
-445.5039940247742
 20
383.693532566774
 10
-445.3491411576477
 20
384.0256123945595
 10
-445.3297025928702
 20
384.0673058435799
  0
LWPOLYLINE
  5
B4
330
1F
100
AcDbEntity
  8
0
  6
Continuous
 62
     7
370
    15
100
AcDbPolyline
 90
       10
 70
   128
 43
0.0
 10
-469.6672141025271
 20
379.1993796036126
 10
-469.6435771355834
 20
379.2500584528328
 10
-469.5762723157612
 20
379.394398550737
 10
-469.475544191381
 20
379.6104132339835
 10
-469.3567260573115
 20
379.8652230903983
 10
-469.2379041979519
 20
380.1200254962326
 10
-469.1371760735717
 20
380.3360401794792
 10
-469.0698712537495
 20
380.4803802773833
 10
-469.046238012096
 20
380.5310665771843
 10
-469.046238012096
 20
380.5310665771843
  0
LWPOLYLINE
  5
B5
330
1F
100
AcDbEntity
  8
0
  6
Continuous
 62
     7
370
    15
100
AcDbPolyline
 90
       10
 70
   128
 43
0.0
 10
-471.3565661976543
 20
375.5765496895195
 10
-471.3329292307106
 20
375.6272359893204
 10
-471.2656244108882
 20
375.771568636644
 10
-471.1648962865082
 20
375.9875833198906
 10
-471.0460781524387
 20
376.2423931763054
 10
-470.9272562930789
 20
376.4972030327202
 10
-470.8265281686989
 20
376.7132177159667
 10
-470.7592233488765
 20
376.8575503632904
 10
-470.735590107223
 20
376.9082366630912
 10
-470.735590107223
 20
376.9082366630912
  0
LWPOLYLINE
  5
B6
330
1F
100
AcDbEntity
  8
0
  6
Continuous
 62
     7
370
    15
100
AcDbPolyline
 90
       10
 70
   128
 43
0.0
 10
-470.4885623822417
 20
377.4379803941132
 10
-470.4649291405883
 20
377.4886666939141
 10
-470.3976243207661
 20
377.6330067918183
 10
-470.2968961963859
 20
377.8490214750648
 10
-470.1780743370262
 20
378.1038238808991
 10
-470.0592562029568
 20
378.3586337373139
 10
-469.9585280785766
 20
378.5746484205605
 10
-469.8912232587543
 20
378.7189885184646
 10
-469.8675862918106
 20
378.769667367685
 10
-469.8675862918106
 20
378.769667367685
  0
LWPOLYLINE
  5
B7
330
1F
100
AcDbEntity
  8
0
  6
Continuous
 62
     7
370
    15
100
AcDbPolyline
 90
       10
 70
   128
 43
0.0
 10
-472.1779144773689
 20
373.8151579306008
 10
-472.1542812357155
 20
373.8658442304017
 10
-472.0869764158931
 20
374.0101768777253
 10
-471.986248291513
 20
374.2261915609719
 10
-471.8674264321532
 20
374.4810014173867
 10
-471.7486082980838
 20
374.7358038232209
 10
-471.6478801737038
 20
374.9518259570479
 10
-471.5805753538814
 20
375.0961586043717
 10
-471.5569383869376
 20
375.1468449041724
 10
-471.5569383869376
 20
375.1468449041724
  0
LWPOLYLINE
  5
B8
330
1F
100
AcDbEntity
  8
0
  6
Continuous
 62
     7
370
    15
100
AcDbPolyline
 90
       10
 70
   128
 43
0.0
 10
-472.9662790367809
 20
372.1245019838692
 10
-472.9426457951275
 20
372.1751882836701
 10
-472.8753409753051
 20
372.3195283815743
 10
-472.7746091256347
 20
372.5355430648209
 10
-472.6557909915652
 20
372.7903454706551
 10
-472.5369728574958
 20
373.0451553270699
 10
-472.4362447331158
 20
373.2611700103165
 10
-472.3689399132934
 20
373.4055101082207
 10
-472.3453029463496
 20
373.456188957441
 10
-472.3453029463496
 20
373.456188957441
  0
LWPOLYLINE
  5
B9
330
1F
100
AcDbEntity
  8
0
  6
Continuous
 62
     7
370
    15
100
AcDbPolyline
 90
       10
 70
   128
 43
0.0
 10
-468.8788495431151
 20
380.8900280997635
 10
-468.8552125761714
 20
380.9407143995643
 10
-468.7879077563492
 20
381.0850544974686
 10
-468.687179631969
 20
381.3010691807152
 10
-468.5683614978995
 20
381.5558715865493
 10
-468.4495433638301
 20
381.8106814429641
 10
-468.3488115141597
 20
382.0266961262108
 10
-468.2815066943375
 20
382.171036224115
 10
-468.257873452684
 20
382.2217150733353
 10
-468.257873452684
 20
382.2217150733353
  0
LWPOLYLINE
  5
BA
330
1F
100
AcDbEntity
  8
0
  6
Continuous
 62
     7
370
    15
100
AcDbPolyline
 90
       10
 70
   128
 43
0.0
 10
-468.0574975381103
 20
382.6514273092629
 10
-468.0338605711665
 20
382.702106158483
 10
-467.9665557513443
 20
382.8464462563874
 10
-467.8658276269641
 20
383.062460939634
 10
-467.7470094928946
 20
383.3172707960488
 10
-467.6281913588252
 20
383.5720732018828
 10
-467.5274595091548
 20
383.7880878851296
 10
-467.4601546893326
 20
383.9324279830338
 10
-467.4365214476791
 20
383.9831142828347
 10
-467.4365214476791
 20
383.9831142828347
  0
LWPOLYLINE
  5
BB
330
1F
100
AcDbEntity
  8
0
  6
Continuous
 62
     7
370
    15
100
AcDbPolyline
 90
       10
 70
   128
 43
0.0
 10
-473.7876310417858
 20
370.3631102249504
 10
-473.7639978001324
 20
370.4137965247513
 10
-473.69669298031
 20
370.5581291720749
 10
-473.5959611306395
 20
370.7741438553215
 10
-473.4771429965701
 20
371.0289537117363
 10
-473.3583248625007
 20
371.2837635681511
 10
-473.2575967381206
 20
371.4997782513977
 10
-473.1902919182982
 20
371.6441108987214
 10
-473.1666549513545
 20
371.6947971985222
 10
-473.1666549513545
 20
371.6947971985222
  0
LINE
  5
BC
330
1F
100
AcDbEntity
  8
0
  6
Continuous
 62
     7
370
    15
100
AcDbLine
 10
-452.2000058958736
 20
126.7091586808458
 30
0.0
 11
-461.2630858490672
 21
126.7091586808458
 31
0.0
  0
LINE
  5
BD
330
1F
100
AcDbEntity
  8
0
  6
Continuous
 62
     7
370
    15
100
AcDbLine
 10
-461.2630858490672
 20
94.19611297499091
 30
0.0
 11
-452.2000058958736
 21
94.19611297499091
 31
0.0
  0
LINE
  5
BE
330
1F
100
AcDbEntity
  8
0
  6
Continuous
 62
     7
370
    15
100
AcDbLine
 10
-458.6839295397011
 20
114.0066666151181
 30
0.0
 11
-467.7470094928946
 21
114.0066666151181
 31
0.0
  0
LINE
  5
BF
330
1F
100
AcDbEntity
  8
0
  6
Continuous
 62
     7
370
    15
100
AcDbLine
 10
-467.7470094928946
 20
112.5373120042279
 30
0.0
 11
-458.6839295397011
 21
112.5373120042279
 31
0.0
  0
LINE
  5
C0
330
1F
100
AcDbEntity
  8
0
  6
Continuous
 62
     7
370
    15
100
AcDbLine
 10
-458.6839295397011
 20
110.196104654555
 30
0.0
 11
-467.7470094928946
 21
110.196104654555
 31
0.0
  0
LINE
  5
C1
330
1F
100
AcDbEntity
  8
0
  6
Continuous
 62
     7
370
    15
100
AcDbLine
 10
-467.7470094928946
 20
108.7267502764954
 30
0.0
 11
-458.6839295397011
 21
108.7267502764954
 31
0.0
  0
LINE
  5
C2
330
1F
100
AcDbEntity
  8
0
  6
Continuous
 62
     7
370
    15
100
AcDbLine
 10
-458.6839295397011
 20
112.0086518670216
 30
0.0
 11
-467.7470094928946
 21
112.0086518670216
 31
0.0
  0
LINE
  5
C3
330
1F
100
AcDbEntity
  8
0
  6
Continuous
 62
     7
370
    15
100
AcDbLine
 10
-467.7470094928946
 20
110.5392972561314
 30
0.0
 11
-458.6839295397011
 21
110.5392972561314
 31
0.0
  0
LINE
  5
C4
330
1F
100
AcDbEntity
  8
0
  6
Continuous
 62
     7
370
    15
100
AcDbLine
 10
-458.6839295397011
 20
108.1980900228739
 30
0.0
 11
-467.7470094928946
 21
108.1980900228739
 31
0.0
  0
LINE
  5
C5
330
1F
100
AcDbEntity
  8
0
  6
Continuous
 62
     7
370
    15
100
AcDbLine
 10
-467.7470094928946
 20
106.7287356157105
 30
0.0
 11
-458.6839295397011
 21
106.7287356157105
 31
0.0
  0
LINE
  5
C6
330
1F
100
AcDbEntity
  8
0
  6
Continuous
 62
     7
370
    15
100
AcDbLine
 10
-443.1369296679702
 20
124.7091583530202
 30
0.0
 11
-448.898545599958
 21
124.7091583530202
 31
0.0
  0
LINE
  5
C7
330
1F
100
AcDbEntity
  8
0
  6
Continuous
 62
     7
370
    15
100
AcDbLine
 10
-448.898545599958
 20
96.19611330281646
 30
0.0
 11
-443.1369296679702
 21
96.19611330281646
 31
0.0
  0
LINE
  5
C8
330
1F
100
AcDbEntity
  8
0
  6
Continuous
 62
     7
370
    15
100
AcDbLine
 10
-459.505281544706
 20
115.9663974861398
 30
0.0
 11
-468.5683614978995
 21
115.9663974861398
 31
0.0
  0
LINE
  5
C9
330
1F
100
AcDbEntity
  8
0
  6
Continuous
 62
     7
370
    15
100
AcDbLine
 10
-468.5683614978995
 20
114.4970433409109
 30
0.0
 11
-459.505281544706
 21
114.4970433409109
 31
0.0
  0
LINE
  5
CA
330
1F
100
AcDbEntity
  8
0
  6
Continuous
 62
     7
370
    15
100
AcDbLine
 10
-467.7470094928946
 20
114.0066666151181
 30
0.0
 11
-468.5683614978995
 21
114.0066666151181
 31
0.0
  0
LINE
  5
CB
330
1F
100
AcDbEntity
  8
0
  6
Continuous
 62
     7
370
    15
100
AcDbLine
 10
-468.5683614978995
 20
112.5373120042279
 30
0.0
 11
-467.7470094928946
 21
112.5373120042279
 31
0.0
  0
LINE
  5
CC
330
1F
100
AcDbEntity
  8
0
  6
Continuous
 62
     7
370
    15
100
AcDbLine
 10
-467.7470094928946
 20
112.0086518670216
 30
0.0
 11
-468.5683614978995
 21
112.0086518670216
 31
0.0
  0
LINE
  5
CD
330
1F
100
AcDbEntity
  8
0
  6
Continuous
 62
     7
370
    15
100
AcDbLine
 10
-468.5683614978995
 20
110.5392972561314
 30
0.0
 11
-467.7470094928946
 21
110.5392972561314
 31
0.0
  0
LINE
  5
CE
330
1F
100
AcDbEntity
  8
0
  6
Continuous
 62
     7
370
    15
100
AcDbLine
 10
-467.7470094928946
 20
110.196104654555
 30
0.0
 11
-468.5683614978995
 21
110.196104654555
 31
0.0
  0
LINE
  5
CF
330
1F
100
AcDbEntity
  8
0
  6
Continuous
 62
     7
370
    15
100
AcDbLine
 10
-468.5683614978995
 20
108.7267502764954
 30
0.0
 11
-467.7470094928946
 21
108.7267502764954
 31
0.0
  0
LINE
  5
D0
330
1F
100
AcDbEntity
  8
0
  6
Continuous
 62
     7
370
    15
100
AcDbLine
 10
-467.7470094928946
 20
108.1980900228739
 30
0.0
 11
-468.5683614978995
 21
108.1980900228739
 31
0.0
  0
LINE
  5
D1
330
1F
100
AcDbEntity
  8
0
  6
Continuous
 62
     7
370
    15
100
AcDbLine
 10
-468.5683614978995
 20
106.7287356157105
 30
0.0
 11
-467.7470094928946
 21
106.7287356157105
 31
0.0
  0
LINE
  5
D2
330
1F
100
AcDbEntity
  8
0
  6
Continuous
 62
     7
370
    15
100
AcDbLine
 10
-459.505281544706
 20
106.2383587735023
 30
0.0
 11
-468.5683614978995
 21
106.2383587735023
 31
0.0
  0
LINE
  5
D3
330
1F
100
AcDbEntity
  8
0
  6
Continuous
 62
     7
370
    15
100
AcDbLine
 10
-468.5683614978995
 20
104.7690043081313
 30
0.0
 11
-459.505281544706
 21
104.7690043081313
 31
0.0
  0
LINE
  5
D4
330
1F
100
AcDbEntity
  8
0
  6
Continuous
 62
     7
370
    15
100
AcDbLine
 10
-460.293646104118
 20
117.9644122342362
 30
0.0
 11
-469.3567260573115
 21
117.9644122342362
 31
0.0
  0
LINE
  5
D5
330
1F
100
AcDbEntity
  8
0
  6
Continuous
 62
     7
370
    15
100
AcDbLine
 10
-469.3567260573115
 20
116.4950580890074
 30
0.0
 11
-460.293646104118
 21
116.4950580890074
 31
0.0
  0
LINE
  5
D6
330
1F
100
AcDbEntity
  8
0
  6
Continuous
 62
     7
370
    15
100
AcDbLine
 10
-468.5683614978995
 20
115.9663974861398
 30
0.0
 11
-469.3567260573115
 21
115.9663974861398
 31
0.0
  0
LINE
  5
D7
330
1F
100
AcDbEntity
  8
0
  6
Continuous
 62
     7
370
    15
100
AcDbLine
 10
-469.3567260573115
 20
114.4970433409109
 30
0.0
 11
-468.5683614978995
 21
114.4970433409109
 31
0.0
  0
LINE
  5
D8
330
1F
100
AcDbEntity
  8
0
  6
Continuous
 62
     7
370
    15
100
AcDbLine
 10
-468.5683614978995
 20
114.0066666151181
 30
0.0
 11
-469.3567260573115
 21
114.0066666151181
 31
0.0
  0
LINE
  5
D9
330
1F
100
AcDbEntity
  8
0
  6
Continuous
 62
     7
370
    15
100
AcDbLine
 10
-469.3567260573115
 20
112.5373120042279
 30
0.0
 11
-468.5683614978995
 21
112.5373120042279
 31
0.0
  0
LINE
  5
DA
330
1F
100
AcDbEntity
  8
0
  6
Continuous
 62
     7
370
    15
100
AcDbLine
 10
-468.5683614978995
 20
110.196104654555
 30
0.0
 11
-469.3567260573115
 21
110.196104654555
 31
0.0
  0
LINE
  5
DB
330
1F
100
AcDbEntity
  8
0
  6
Continuous
 62
     7
370
    15
100
AcDbLine
 10
-469.3567260573115
 20
108.7267502764954
 30
0.0
 11
-468.5683614978995
 21
108.7267502764954
 31
0.0
  0
LINE
  5
DC
330
1F
100
AcDbEntity
  8
0
  6
Continuous
 62
     7
370
    15
100
AcDbLine
 10
-468.5683614978995
 20
112.0086518670216
 30
0.0
 11
-469.3567260573115
 21
112.0086518670216
 31
0.0
  0
LINE
  5
DD
330
1F
100
AcDbEntity
  8
0
  6
Continuous
 62
     7
370
    15
100
AcDbLine
 10
-469.3567260573115
 20
110.5392972561314
 30
0.0
 11
-468.5683614978995
 21
110.5392972561314
 31
0.0
  0
LINE
  5
DE
330
1F
100
AcDbEntity
  8
0
  6
Continuous
 62
     7
370
    15
100
AcDbLine
 10
-468.5683614978995
 20
108.1980900228739
 30
0.0
 11
-469.3567260573115
 21
108.1980900228739
 31
0.0
  0
LINE
  5
DF
330
1F
100
AcDbEntity
  8
0
  6
Continuous
 62
     7
370
    15
100
AcDbLine
 10
-469.3567260573115
 20
106.7287356157105
 30
0.0
 11
-468.5683614978995
 21
106.7287356157105
 31
0.0
  0
LINE
  5
E0
330
1F
100
AcDbEntity
  8
0
  6
Continuous
 62
     7
370
    15
100
AcDbLine
 10
-468.5683614978995
 20
106.2383587735023
 30
0.0
 11
-469.3567260573115
 21
106.2383587735023
 31
0.0
  0
LINE
  5
E1
330
1F
100
AcDbEntity
  8
0
  6
Continuous
 62
     7
370
    15
100
AcDbLine
 10
-469.3567260573115
 20
104.7690043081313
 30
0.0
 11
-468.5683614978995
 21
104.7690043081313
 31
0.0
  0
LINE
  5
E2
330
1F
100
AcDbEntity
  8
0
  6
Continuous
 62
     7
370
    15
100
AcDbLine
 10
-460.293646104118
 20
104.2403442873403
 30
0.0
 11
-469.3567260573115
 21
104.2403442873403
 31
0.0
  0
LINE
  5
E3
330
1F
100
AcDbEntity
  8
0
  6
Continuous
 62
     7
370
    15
100
AcDbLine
 10
-469.3567260573115
 20
102.7709896764502
 30
0.0
 11
-460.293646104118
 21
102.7709896764502
 31
0.0
  0
LINE
  5
E4
330
1F
100
AcDbEntity
  8
0
  6
Continuous
 62
     7
370
    15
100
AcDbLine
 10
-469.3567260573115
 20
117.9644122342362
 30
0.0
 11
-470.1780743370262
 21
117.9644122342362
 31
0.0
  0
LINE
  5
E5
330
1F
100
AcDbEntity
  8
0
  6
Continuous
 62
     7
370
    15
100
AcDbLine
 10
-470.1780743370262
 20
116.4950580890074
 30
0.0
 11
-469.3567260573115
 21
116.4950580890074
 31
0.0
  0
LINE
  5
E6
330
1F
100
AcDbEntity
  8
0
  6
Continuous
 62
     7
370
    15
100
AcDbLine
 10
-469.3567260573115
 20
114.0066666151181
 30
0.0
 11
-470.1780743370262
 21
114.0066666151181
 31
0.0
  0
LINE
  5
E7
330
1F
100
AcDbEntity
  8
0
  6
Continuous
 62
     7
370
    15
100
AcDbLine
 10
-470.1780743370262
 20
112.5373120042279
 30
0.0
 11
-469.3567260573115
 21
112.5373120042279
 31
0.0
  0
LINE
  5
E8
330
1F
100
AcDbEntity
  8
0
  6
Continuous
 62
     7
370
    15
100
AcDbLine
 10
-469.3567260573115
 20
115.9663974861398
 30
0.0
 11
-470.1780743370262
 21
115.9663974861398
 31
0.0
  0
LINE
  5
E9
330
1F
100
AcDbEntity
  8
0
  6
Continuous
 62
     7
370
    15
100
AcDbLine
 10
-470.1780743370262
 20
114.4970433409109
 30
0.0
 11
-469.3567260573115
 21
114.4970433409109
 31
0.0
  0
LINE
  5
EA
330
1F
100
AcDbEntity
  8
0
  6
Continuous
 62
     7
370
    15
100
AcDbLine
 10
-469.3567260573115
 20
110.196104654555
 30
0.0
 11
-470.1780743370262
 21
110.196104654555
 31
0.0
  0
LINE
  5
EB
330
1F
100
AcDbEntity
  8
0
  6
Continuous
 62
     7
370
    15
100
AcDbLine
 10
-470.1780743370262
 20
108.7267502764954
 30
0.0
 11
-469.3567260573115
 21
108.7267502764954
 31
0.0
  0
LINE
  5
EC
330
1F
100
AcDbEntity
  8
0
  6
Continuous
 62
     7
370
    15
100
AcDbLine
 10
-469.3567260573115
 20
112.0086518670216
 30
0.0
 11
-470.1780743370262
 21
112.0086518670216
 31
0.0
  0
LINE
  5
ED
330
1F
100
AcDbEntity
  8
0
  6
Continuous
 62
     7
370
    15
100
AcDbLine
 10
-470.1780743370262
 20
110.5392972561314
 30
0.0
 11
-469.3567260573115
 21
110.5392972561314
 31
0.0
  0
LINE
  5
EE
330
1F
100
AcDbEntity
  8
0
  6
Continuous
 62
     7
370
    15
100
AcDbLine
 10
-469.3567260573115
 20
106.2383587735023
 30
0.0
 11
-470.1780743370262
 21
106.2383587735023
 31
0.0
  0
LINE
  5
EF
330
1F
100
AcDbEntity
  8
0
  6
Continuous
 62
     7
370
    15
100
AcDbLine
 10
-470.1780743370262
 20
104.7690043081313
 30
0.0
 11
-469.3567260573115
 21
104.7690043081313
 31
0.0
  0
LINE
  5
F0
330
1F
100
AcDbEntity
  8
0
  6
Continuous
 62
     7
370
    15
100
AcDbLine
 10
-469.3567260573115
 20
108.1980900228739
 30
0.0
 11
-470.1780743370262
 21
108.1980900228739
 31
0.0
  0
LINE
  5
F1
330
1F
100
AcDbEntity
  8
0
  6
Continuous
 62
     7
370
    15
100
AcDbLine
 10
-470.1780743370262
 20
106.7287356157105
 30
0.0
 11
-469.3567260573115
 21
106.7287356157105
 31
0.0
  0
LINE
  5
F2
330
1F
100
AcDbEntity
  8
0
  6
Continuous
 62
     7
370
    15
100
AcDbLine
 10
-469.3567260573115
 20
104.2403442873403
 30
0.0
 11
-470.1780743370262
 21
104.2403442873403
 31
0.0
  0
LINE
  5
F3
330
1F
100
AcDbEntity
  8
0
  6
Continuous
 62
     7
370
    15
100
AcDbLine
 10
-470.1780743370262
 20
102.7709896764502
 30
0.0
 11
-469.3567260573115
 21
102.7709896764502
 31
0.0
  0
LINE
  5
F4
330
1F
100
AcDbEntity
  8
0
  6
Continuous
 62
     7
370
    15
100
AcDbLine
 10
-470.1780743370262
 20
117.9644122342362
 30
0.0
 11
-471.0460781524387
 21
117.9644122342362
 31
0.0
  0
LINE
  5
F5
330
1F
100
AcDbEntity
  8
0
  6
Continuous
 62
     7
370
    15
100
AcDbLine
 10
-471.0460781524387
 20
116.4950580890074
 30
0.0
 11
-470.1780743370262
 21
116.4950580890074
 31
0.0
  0
LINE
  5
F6
330
1F
100
AcDbEntity
  8
0
  6
Continuous
 62
     7
370
    15
100
AcDbLine
 10
-470.1780743370262
 20
115.9663974861398
 30
0.0
 11
-471.0460781524387
 21
115.9663974861398
 31
0.0
  0
LINE
  5
F7
330
1F
100
AcDbEntity
  8
0
  6
Continuous
 62
     7
370
    15
100
AcDbLine
 10
-471.0460781524387
 20
114.4970433409109
 30
0.0
 11
-470.1780743370262
 21
114.4970433409109
 31
0.0
  0
LINE
  5
F8
330
1F
100
AcDbEntity
  8
0
  6
Continuous
 62
     7
370
    15
100
AcDbLine
 10
-470.1780743370262
 20
114.0066666151181
 30
0.0
 11
-471.0460781524387
 21
114.0066666151181
 31
0.0
  0
LINE
  5
F9
330
1F
100
AcDbEntity
  8
0
  6
Continuous
 62
     7
370
    15
100
AcDbLine
 10
-471.0460781524387
 20
112.5373120042279
 30
0.0
 11
-470.1780743370262
 21
112.5373120042279
 31
0.0
  0
LINE
  5
FA
330
1F
100
AcDbEntity
  8
0
  6
Continuous
 62
     7
370
    15
100
AcDbLine
 10
-470.1780743370262
 20
110.196104654555
 30
0.0
 11
-471.0460781524387
 21
110.196104654555
 31
0.0
  0
LINE
  5
FB
330
1F
100
AcDbEntity
  8
0
  6
Continuous
 62
     7
370
    15
100
AcDbLine
 10
-471.0460781524387
 20
108.7267502764954
 30
0.0
 11
-470.1780743370262
 21
108.7267502764954
 31
0.0
  0
LINE
  5
FC
330
1F
100
AcDbEntity
  8
0
  6
Continuous
 62
     7
370
    15
100
AcDbLine
 10
-470.1780743370262
 20
112.0086518670216
 30
0.0
 11
-471.0460781524387
 21
112.0086518670216
 31
0.0
  0
LINE
  5
FD
330
1F
100
AcDbEntity
  8
0
  6
Continuous
 62
     7
370
    15
100
AcDbLine
 10
-471.0460781524387
 20
110.5392972561314
 30
0.0
 11
-470.1780743370262
 21
110.5392972561314
 31
0.0
  0
LINE
  5
FE
330
1F
100
AcDbEntity
  8
0
  6
Continuous
 62
     7
370
    15
100
AcDbLine
 10
-470.1780743370262
 20
108.1980900228739
 30
0.0
 11
-471.0460781524387
 21
108.1980900228739
 31
0.0
  0
LINE
  5
FF
330
1F
100
AcDbEntity
  8
0
  6
Continuous
 62
     7
370
    15
100
AcDbLine
 10
-471.0460781524387
 20
106.7287356157105
 30
0.0
 11
-470.1780743370262
 21
106.7287356157105
 31
0.0
  0
LINE
  5
100
330
1F
100
AcDbEntity
  8
0
  6
Continuous
 62
     7
370
    15
100
AcDbLine
 10
-470.1780743370262
 20
106.2383587735023
 30
0.0
 11
-471.0460781524387
 21
106.2383587735023
 31
0.0
  0
LINE
  5
101
330
1F
100
AcDbEntity
  8
0
  6
Continuous
 62
     7
370
    15
100
AcDbLine
 10
-471.0460781524387
 20
104.7690043081313
 30
0.0
 11
-470.1780743370262
 21
104.7690043081313
 31
0.0
  0
LINE
  5
102
330
1F
100
AcDbEntity
  8
0
  6
Continuous
 62
     7
370
    15
100
AcDbLine
 10
-470.1780743370262
 20
104.2403442873403
 30
0.0
 11
-471.0460781524387
 21
104.2403442873403
 31
0.0
  0
LINE
  5
103
330
1F
100
AcDbEntity
  8
0
  6
Continuous
 62
     7
370
    15
100
AcDbLine
 10
-471.0460781524387
 20
102.7709896764502
 30
0.0
 11
-470.1780743370262
 21
102.7709896764502
 31
0.0
  0
LINE
  5
104
330
1F
100
AcDbEntity
  8
0
  6
Continuous
 62
     7
370
    15
100
AcDbLine
 10
-471.0460781524387
 20
117.9644122342362
 30
0.0
 11
-471.8674264321532
 21
117.9644122342362
 31
0.0
  0
LINE
  5
105
330
1F
100
AcDbEntity
  8
0
  6
Continuous
 62
     7
370
    15
100
AcDbLine
 10
-471.8674264321532
 20
116.4950580890074
 30
0.0
 11
-471.0460781524387
 21
116.4950580890074
 31
0.0
  0
LINE
  5
106
330
1F
100
AcDbEntity
  8
0
  6
Continuous
 62
     7
370
    15
100
AcDbLine
 10
-471.0460781524387
 20
115.9663974861398
 30
0.0
 11
-471.8674264321532
 21
115.9663974861398
 31
0.0
  0
LINE
  5
107
330
1F
100
AcDbEntity
  8
0
  6
Continuous
 62
     7
370
    15
100
AcDbLine
 10
-471.8674264321532
 20
114.4970433409109
 30
0.0
 11
-471.0460781524387
 21
114.4970433409109
 31
0.0
  0
LINE
  5
108
330
1F
100
AcDbEntity
  8
0
  6
Continuous
 62
     7
370
    15
100
AcDbLine
 10
-471.0460781524387
 20
114.0066666151181
 30
0.0
 11
-471.8674264321532
 21
114.0066666151181
 31
0.0
  0
LINE
  5
109
330
1F
100
AcDbEntity
  8
0
  6
Continuous
 62
     7
370
    15
100
AcDbLine
 10
-471.8674264321532
 20
112.5373120042279
 30
0.0
 11
-471.0460781524387
 21
112.5373120042279
 31
0.0
  0
LINE
  5
10A
330
1F
100
AcDbEntity
  8
0
  6
Continuous
 62
     7
370
    15
100
AcDbLine
 10
-471.0460781524387
 20
110.196104654555
 30
0.0
 11
-471.8674264321532
 21
110.196104654555
 31
0.0
  0
LINE
  5
10B
330
1F
100
AcDbEntity
  8
0
  6
Continuous
 62
     7
370
    15
100
AcDbLine
 10
-471.8674264321532
 20
108.7267502764954
 30
0.0
 11
-471.0460781524387
 21
108.7267502764954
 31
0.0
  0
LINE
  5
10C
330
1F
100
AcDbEntity
  8
0
  6
Continuous
 62
     7
370
    15
100
AcDbLine
 10
-471.0460781524387
 20
112.0086518670216
 30
0.0
 11
-471.8674264321532
 21
112.0086518670216
 31
0.0
  0
LINE
  5
10D
330
1F
100
AcDbEntity
  8
0
  6
Continuous
 62
     7
370
    15
100
AcDbLine
 10
-471.8674264321532
 20
110.5392972561314
 30
0.0
 11
-471.0460781524387
 21
110.5392972561314
 31
0.0
  0
LINE
  5
10E
330
1F
100
AcDbEntity
  8
0
  6
Continuous
 62
     7
370
    15
100
AcDbLine
 10
-471.0460781524387
 20
108.1980900228739
 30
0.0
 11
-471.8674264321532
 21
108.1980900228739
 31
0.0
  0
LINE
  5
10F
330
1F
100
AcDbEntity
  8
0
  6
Continuous
 62
     7
370
    15
100
AcDbLine
 10
-471.8674264321532
 20
106.7287356157105
 30
0.0
 11
-471.0460781524387
 21
106.7287356157105
 31
0.0
  0
LINE
  5
110
330
1F
100
AcDbEntity
  8
0
  6
Continuous
 62
     7
370
    15
100
AcDbLine
 10
-471.0460781524387
 20
106.2383587735023
 30
0.0
 11
-471.8674264321532
 21
106.2383587735023
 31
0.0
  0
LINE
  5
111
330
1F
100
AcDbEntity
  8
0
  6
Continuous
 62
     7
370
    15
100
AcDbLine
 10
-471.8674264321532
 20
104.7690043081313
 30
0.0
 11
-471.0460781524387
 21
104.7690043081313
 31
0.0
  0
LINE
  5
112
330
1F
100
AcDbEntity
  8
0
  6
Continuous
 62
     7
370
    15
100
AcDbLine
 10
-471.0460781524387
 20
104.2403442873403
 30
0.0
 11
-471.8674264321532
 21
104.2403442873403
 31
0.0
  0
LINE
  5
113
330
1F
100
AcDbEntity
  8
0
  6
Continuous
 62
     7
370
    15
100
AcDbLine
 10
-471.8674264321532
 20
102.7709896764502
 30
0.0
 11
-471.0460781524387
 21
102.7709896764502
 31
0.0
  0
LINE
  5
114
330
1F
100
AcDbEntity
  8
0
  6
Continuous
 62
     7
370
    15
100
AcDbLine
 10
-471.8674264321532
 20
114.0066666151181
 30
0.0
 11
-472.6557909915652
 21
114.0066666151181
 31
0.0
  0
LINE
  5
115
330
1F
100
AcDbEntity
  8
0
  6
Continuous
 62
     7
370
    15
100
AcDbLine
 10
-472.6557909915652
 20
112.5373120042279
 30
0.0
 11
-471.8674264321532
 21
112.5373120042279
 31
0.0
  0
LINE
  5
116
330
1F
100
AcDbEntity
  8
0
  6
Continuous
 62
     7
370
    15
100
AcDbLine
 10
-471.8674264321532
 20
115.9663974861398
 30
0.0
 11
-472.6557909915652
 21
115.9663974861398
 31
0.0
  0
LINE
  5
117
330
1F
100
AcDbEntity
  8
0
  6
Continuous
 62
     7
370
    15
100
AcDbLine
 10
-472.6557909915652
 20
114.4970433409109
 30
0.0
 11
-471.8674264321532
 21
114.4970433409109
 31
0.0
  0
LINE
  5
118
330
1F
100
AcDbEntity
  8
0
  6
Continuous
 62
     7
370
    15
100
AcDbLine
 10
-471.8674264321532
 20
112.0086518670216
 30
0.0
 11
-472.6557909915652
 21
112.0086518670216
 31
0.0
  0
LINE
  5
119
330
1F
100
AcDbEntity
  8
0
  6
Continuous
 62
     7
370
    15
100
AcDbLine
 10
-472.6557909915652
 20
110.5392972561314
 30
0.0
 11
-471.8674264321532
 21
110.5392972561314
 31
0.0
  0
LINE
  5
11A
330
1F
100
AcDbEntity
  8
0
  6
Continuous
 62
     7
370
    15
100
AcDbLine
 10
-471.8674264321532
 20
110.196104654555
 30
0.0
 11
-472.6557909915652
 21
110.196104654555
 31
0.0
  0
LINE
  5
11B
330
1F
100
AcDbEntity
  8
0
  6
Continuous
 62
     7
370
    15
100
AcDbLine
 10
-472.6557909915652
 20
108.7267502764954
 30
0.0
 11
-471.8674264321532
 21
108.7267502764954
 31
0.0
  0
LINE
  5
11C
330
1F
100
AcDbEntity
  8
0
  6
Continuous
 62
     7
370
    15
100
AcDbLine
 10
-471.8674264321532
 20
106.2383587735023
 30
0.0
 11
-472.6557909915652
 21
106.2383587735023
 31
0.0
  0
LINE
  5
11D
330
1F
100
AcDbEntity
  8
0
  6
Continuous
 62
     7
370
    15
100
AcDbLine
 10
-472.6557909915652
 20
104.7690043081313
 30
0.0
 11
-471.8674264321532
 21
104.7690043081313
 31
0.0
  0
LINE
  5
11E
330
1F
100
AcDbEntity
  8
0
  6
Continuous
 62
     7
370
    15
100
AcDbLine
 10
-471.8674264321532
 20
108.1980900228739
 30
0.0
 11
-472.6557909915652
 21
108.1980900228739
 31
0.0
  0
LINE
  5
11F
330
1F
100
AcDbEntity
  8
0
  6
Continuous
 62
     7
370
    15
100
AcDbLine
 10
-472.6557909915652
 20
106.7287356157105
 30
0.0
 11
-471.8674264321532
 21
106.7287356157105
 31
0.0
  0
LINE
  5
120
330
1F
100
AcDbEntity
  8
0
  6
Continuous
 62
     7
370
    15
100
AcDbLine
 10
-472.6557909915652
 20
114.0066666151181
 30
0.0
 11
-473.4771429965701
 21
114.0066666151181
 31
0.0
  0
LINE
  5
121
330
1F
100
AcDbEntity
  8
0
  6
Continuous
 62
     7
370
    15
100
AcDbLine
 10
-473.4771429965701
 20
112.5373120042279
 30
0.0
 11
-472.6557909915652
 21
112.5373120042279
 31
0.0
  0
LINE
  5
122
330
1F
100
AcDbEntity
  8
0
  6
Continuous
 62
     7
370
    15
100
AcDbLine
 10
-472.6557909915652
 20
110.196104654555
 30
0.0
 11
-473.4771429965701
 21
110.196104654555
 31
0.0
  0
LINE
  5
123
330
1F
100
AcDbEntity
  8
0
  6
Continuous
 62
     7
370
    15
100
AcDbLine
 10
-473.4771429965701
 20
108.7267502764954
 30
0.0
 11
-472.6557909915652
 21
108.7267502764954
 31
0.0
  0
LINE
  5
124
330
1F
100
AcDbEntity
  8
0
  6
Continuous
 62
     7
370
    15
100
AcDbLine
 10
-472.6557909915652
 20
112.0086518670216
 30
0.0
 11
-473.4771429965701
 21
112.0086518670216
 31
0.0
  0
LINE
  5
125
330
1F
100
AcDbEntity
  8
0
  6
Continuous
 62
     7
370
    15
100
AcDbLine
 10
-473.4771429965701
 20
110.5392972561314
 30
0.0
 11
-472.6557909915652
 21
110.5392972561314
 31
0.0
  0
LINE
  5
126
330
1F
100
AcDbEntity
  8
0
  6
Continuous
 62
     7
370
    15
100
AcDbLine
 10
-472.6557909915652
 20
108.1980900228739
 30
0.0
 11
-473.4771429965701
 21
108.1980900228739
 31
0.0
  0
LINE
  5
127
330
1F
100
AcDbEntity
  8
0
  6
Continuous
 62
     7
370
    15
100
AcDbLine
 10
-473.4771429965701
 20
106.7287356157105
 30
0.0
 11
-472.6557909915652
 21
106.7287356157105
 31
0.0
  0
CIRCLE
  5
128
330
1F
100
AcDbEntity
  8
0
  6
Continuous
 62
     7
370
    15
100
AcDbCircle
 10
7.831322482557197
 20
110.1622540480016
 30
0.0
 40
8.947674576447752
  0
CIRCLE
  5
129
330
1F
100
AcDbEntity
  8
0
  6
Continuous
 62
     7
370
    15
100
AcDbCircle
 10
7.831322482557197
 20
110.1622540480016
 30
0.0
 40
16.89169938599747
  0
CIRCLE
  5
12A
330
1F
100
AcDbEntity
  8
0
  6
Continuous
 62
     7
370
    15
100
AcDbCircle
 10
-292.1686775174428
 20
110.1622540480016
 30
0.0
 40
8.947674576447752
  0
CIRCLE
  5
12B
330
1F
100
AcDbEntity
  8
0
  6
Continuous
 62
     7
370
    15
100
AcDbCircle
 10
-292.1686775174428
 20
110.1622540480016
 30
0.0
 40
16.89169938599754
  0
ELLIPSE
  5
12C
330
1F
100
AcDbEntity
  8
0
  6
Continuous
 62
     7
370
    15
100
AcDbEllipse
 10
130.9936648523201
 20
130.307745472115
 30
0.0
 11
4.23509985730547
 21
4.23509985730554
 31
0.0
210
0.0
220
0.0
230
1.0
 40
0.8348171294790061
 41
0.438850693402982
 42
0.6956133203932989
  0
LINE
  5
12D
330
1F
100
AcDbEntity
  8
0
  6
Continuous
 62
     7
370
    15
100
AcDbLine
 10
131.9790155222211
 20
135.8246348420873
 30
0.0
 11
148.2997805406842
 21
152.1454017231956
 31
0.0
  0
ELLIPSE
  5
12E
330
1F
100
AcDbEntity
  8
0
  6
Continuous
 62
     7
370
    15
100
AcDbEllipse
 10
147.3144328877451
 20
146.62851350754
 30
0.0
 11
4.235099857305613
 21
4.235099857305542
 31
0.0
210
0.0
220
0.0
230
1.0
 40
0.8348171294790002
 41
5.58757198678629
 42
6.978798627572905
  0
LINE
  5
12F
330
1F
100
AcDbEntity
  8
0
  6
Continuous
 62
     7
370
    15
100
AcDbLine
 10
152.8313428690228
 20
147.6138654718891
 30
0.0
 11
137.8567487528119
 21
132.6392843941942
 31
0.0
  0
ELLIPSE
  5
130
330
1F
100
AcDbEntity
  8
0
  6
Continuous
 62
     7
370
    15
100
AcDbEllipse
 10
133.325203143095
 20
132.63928376289
 30
0.0
 11
4.880113472814429
 21
-2.021409186359477
 31
0.0
210
0.0
220
0.0
230
0.9999999999999998
 40
0.5384085168399748
 41
0.6557576597000577
 42
1.79022167349641
  0
LINE
  5
131
330
1F
100
AcDbEntity
  8
0
  6
Continuous
 62
     7
370
    15
100
AcDbLine
 10
131.9790155222211
 20
135.8246348420873
 30
0.0
 11
-426.3163685271945
 21
135.8246348420873
 31
0.0
  0
LINE
  5
132
330
1F
100
AcDbEntity
  8
0
  6
Continuous
 62
     7
370
    15
100
AcDbLine
 10
-442.6371409962383
 20
152.1454017231956
 30
0.0
 11
-426.3163685271945
 21
135.8246348420873
 31
0.0
  0
LINE
  5
133
330
1F
100
AcDbEntity
  8
0
  6
Continuous
 62
     7
370
    15
100
AcDbLine
 10
148.2997805406842
 20
152.1454017231956
 30
0.0
 11
-442.6371409962383
 21
152.1454017231956
 31
0.0
  0
ELLIPSE
  5
134
330
1F
100
AcDbEntity
  8
0
  6
Continuous
 62
     7
370
    15
100
AcDbEllipse
 10
-427.6625581779801
 20
132.6392837628899
 30
0.0
 11
4.880113472814464
 21
2.021409186359406
 31
0.0
210
0.0
220
0.0
230
0.9999999999999998
 40
0.5384085168399593
 41
1.351370980093398
 42
2.48583499388972
  0
LINE
  5
135
330
1F
100
AcDbEntity
  8
0
  6
Continuous
 62
     7
370
    15
100
AcDbLine
 10
-432.1940943072047
 20
132.6392843941942
 30
0.0
 11
-447.1686772475448
 21
147.6138654718891
 31
0.0
  0
ELLIPSE
  5
136
330
1F
100
AcDbEntity
  8
0
  6
Continuous
 62
     7
370
    15
100
AcDbEllipse
 10
-441.6517879226301
 20
146.6285135075398
 30
0.0
 11
-4.235099857305685
 21
4.235099857305614
 31
0.0
210
0.0
220
0.0
230
1.0
 40
0.8348171294789823
 41
5.587571986786268
 42
6.978798627572901
  0
ELLIPSE
  5
137
330
1F
100
AcDbEntity
  8
0
  6
Continuous
 62
     7
370
    15
100
AcDbEllipse
 10
-425.331019887205
 20
130.3077454721149
 30
0.0
 11
-4.235099857305648
 21
4.235099857305611
 31
0.0
210
0.0
220
0.0
230
1.0
 40
0.8348171294789898
 41
5.587571986786283
 42
5.844334613776611
  0
LINE
  5
138
330
1F
100
AcDbEntity
  8
0
  6
Continuous
 62
     7
370
    15
100
AcDbLine
 10
-432.1940943072047
 20
80.48596899907739
 30
0.0
 11
-432.1940943072047
 21
132.6392843941942
 31
0.0
  0
LINE
  5
139
330
1F
100
AcDbEntity
  8
0
  6
Continuous
 62
     7
370
    15
100
AcDbLine
 10
-427.6625617811886
 20
135.6437757233873
 30
0.0
 11
-427.6625617811886
 21
77.48147766988421
 31
0.0
  0
ELLIPSE
  5
13A
330
1F
100
AcDbEntity
  8
0
  6
Continuous
 62
     7
370
    15
100
AcDbEllipse
 10
-427.6625581779801
 20
80.48596963038164
 30
0.0
 11
4.880113472814464
 21
-2.021409186359406
 31
0.0
210
0.0
220
0.0
230
0.9999999999999998
 40
0.5384085168399443
 41
3.797350313289897
 42
4.93181432708619
  0
LINE
  5
13B
330
1F
100
AcDbEntity
  8
0
  6
Continuous
 62
     7
370
    15
100
AcDbLine
 10
133.3251864244733
 20
77.48147766988421
 30
0.0
 11
133.3251864244733
 21
135.6437757233873
 31
0.0
  0
ELLIPSE
  5
13C
330
1F
100
AcDbEntity
  8
0
  6
Continuous
 62
     7
370
    15
100
AcDbEllipse
 10
130.9936648523201
 20
82.81750792115667
 30
0.0
 11
4.23509985730547
 21
-4.23509985730554
 31
0.0
210
0.0
220
0.0
230
1.0
 40
0.8348171294790144
 41
5.587571986786303
 42
5.844334613776624
  0
LINE
  5
13D
330
1F
100
AcDbEntity
  8
0
  6
Continuous
 62
     7
370
    15
100
AcDbLine
 10
-426.3163685271945
 20
77.30061855118425
 30
0.0
 11
131.9790155222211
 21
77.30061855118425
 31
0.0
  0
ELLIPSE
  5
13E
330
1F
100
AcDbEntity
  8
0
  6
Continuous
 62
     7
370
    15
100
AcDbEllipse
 10
-425.3310198872052
 20
82.81750792115657
 30
0.0
 11
-4.235099857305685
 21
-4.235099857305614
 31
0.0
210
0.0
220
0.0
230
1.0
 40
0.8348171294789739
 41
0.4388506934030158
 42
0.695613320393351
  0
LINE
  5
13F
330
1F
100
AcDbEntity
  8
0
  6
Continuous
 62
     7
370
    15
100
AcDbLine
 10
137.8567487528119
 20
132.6392843941942
 30
0.0
 11
137.8567487528119
 21
80.48596899907739
 31
0.0
  0
ELLIPSE
  5
140
330
1F
100
AcDbEntity
  8
0
  6
Continuous
 62
     7
370
    15
100
AcDbEllipse
 10
133.325203143095
 20
80.48596963038164
 30
0.0
 11
4.880113472814429
 21
2.021409186359406
 31
0.0
210
0.0
220
0.0
230
1.0
 40
0.5384085168399652
 41
4.492963633683196
 42
5.627427647479533
  0
ELLIPSE
  5
141
330
1F
100
AcDbEntity
  8
0
  6
Continuous
 62
     7
370
    15
100
AcDbEllipse
 10
-441.6517879226301
 20
66.49673988573169
 30
0.0
 11
-4.235099857305647
 21
-4.235099857305685
 31
0.0
210
0.0
220
0.0
230
1.0
 40
0.8348171294789745
 41
5.587571986786283
 42
6.978798627572903
  0
LINE
  5
142
330
1F
100
AcDbEntity
  8
0
  6
Continuous
 62
     7
370
    15
100
AcDbLine
 10
-447.1686772475448
 20
65.5113879213825
 30
0.0
 11
-432.1940943072047
 21
80.48596899907739
 31
0.0
  0
LINE
  5
143
330
1F
100
AcDbEntity
  8
0
  6
Continuous
 62
     7
370
    15
100
AcDbLine
 10
-426.3163685271945
 20
77.30061855118425
 30
0.0
 11
-442.6371409962383
 21
60.97985167007596
 31
0.0
  0
LINE
  5
144
330
1F
100
AcDbEntity
  8
0
  6
Continuous
 62
     7
370
    15
100
AcDbLine
 10
148.2997805406842
 20
60.97985167007596
 30
0.0
 11
131.9790155222211
 21
77.30061855118425
 31
0.0
  0
LINE
  5
145
330
1F
100
AcDbEntity
  8
0
  6
Continuous
 62
     7
370
    15
100
AcDbLine
 10
137.8567487528119
 20
80.48596899907739
 30
0.0
 11
152.8313428690228
 21
65.5113879213825
 31
0.0
  0
ELLIPSE
  5
146
330
1F
100
AcDbEntity
  8
0
  6
Continuous
 62
     7
370
    15
100
AcDbEllipse
 10
147.3144328877449
 20
66.49673988573176
 30
0.0
 11
4.235099857305614
 21
-4.235099857305685
 31
0.0
210
0.0
220
0.0
230
1.0
 40
0.8348171294789864
 41
5.587571986786311
 42
6.978798627572901
  0
LINE
  5
147
330
1F
100
AcDbEntity
  8
0
  6
Continuous
 62
     7
370
    15
100
AcDbLine
 10
-442.6371409962383
 20
60.97985167007596
 30
0.0
 11
148.2997805406842
 21
60.97985167007596
 31
0.0
  0
LINE
  5
148
330
1F
100
AcDbEntity
  8
0
  6
Continuous
 62
     7
370
    15
100
AcDbLine
 10
-249.8084634015766
 20
70.77230993609572
 30
0.0
 11
-249.8084634015766
 21
67.76578832369001
 31
0.0
  0
LINE
  5
149
330
1F
100
AcDbEntity
  8
0
  6
Continuous
 62
     7
370
    15
100
AcDbLine
 10
-251.757088250896
 20
70.77230993609572
 30
0.0
 11
-249.8084634015766
 21
70.77230993609572
 31
0.0
  0
LINE
  5
14A
330
1F
100
AcDbEntity
  8
0
  6
Continuous
 62
     7
370
    15
100
AcDbLine
 10
-251.757088250896
 20
67.76578832369001
 30
0.0
 11
-251.757088250896
 21
70.77230993609572
 31
0.0
  0
LINE
  5
14B
330
1F
100
AcDbEntity
  8
0
  6
Continuous
 62
     7
370
    15
100
AcDbLine
 10
-249.8084634015766
 20
67.76578832369001
 30
0.0
 11
-251.757088250896
 21
67.76578832369001
 31
0.0
  0
LINE
  5
14C
330
1F
100
AcDbEntity
  8
0
  6
Continuous
 62
     7
370
    15
100
AcDbLine
 10
-224.8084574411121
 20
70.77230993609572
 30
0.0
 11
-224.8084574411121
 21
67.76578832369001
 31
0.0
  0
LINE
  5
14D
330
1F
100
AcDbEntity
  8
0
  6
Continuous
 62
     7
370
    15
100
AcDbLine
 10
-226.7570822904315
 20
70.77230993609572
 30
0.0
 11
-224.8084574411121
 21
70.77230993609572
 31
0.0
  0
LINE
  5
14E
330
1F
100
AcDbEntity
  8
0
  6
Continuous
 62
     7
370
    15
100
AcDbLine
 10
-226.7570822904315
 20
67.76578832369001
 30
0.0
 11
-226.7570822904315
 21
70.77230993609572
 31
0.0
  0
LINE
  5
14F
330
1F
100
AcDbEntity
  8
0
  6
Continuous
 62
     7
370
    15
100
AcDbLine
 10
-224.8084574411121
 20
67.76578832369001
 30
0.0
 11
-226.7570822904315
 21
67.76578832369001
 31
0.0
  0
LINE
  5
150
330
1F
100
AcDbEntity
  8
0
  6
Continuous
 62
     7
370
    15
100
AcDbLine
 10
-199.8084812829699
 20
70.77230993609572
 30
0.0
 11
-199.8084812829699
 21
67.76578832369001
 31
0.0
  0
LINE
  5
151
330
1F
100
AcDbEntity
  8
0
  6
Continuous
 62
     7
370
    15
100
AcDbLine
 10
-201.7570763299671
 20
70.77230993609572
 30
0.0
 11
-199.8084812829699
 21
70.77230993609572
 31
0.0
  0
LINE
  5
152
330
1F
100
AcDbEntity
  8
0
  6
Continuous
 62
     7
370
    15
100
AcDbLine
 10
-201.7570763299671
 20
67.76578832369001
 30
0.0
 11
-201.7570763299671
 21
70.77230993609572
 31
0.0
  0
LINE
  5
153
330
1F
100
AcDbEntity
  8
0
  6
Continuous
 62
     7
370
    15
100
AcDbLine
 10
-199.8084812829699
 20
67.76578832369001
 30
0.0
 11
-201.7570763299671
 21
67.76578832369001
 31
0.0
  0
LINE
  5
154
330
1F
100
AcDbEntity
  8
0
  6
Continuous
 62
     7
370
    15
100
AcDbLine
 10
-174.8084753225055
 20
70.77230993609572
 30
0.0
 11
-174.8084753225055
 21
67.76578832369001
 31
0.0
  0
LINE
  5
155
330
1F
100
AcDbEntity
  8
0
  6
Continuous
 62
     7
370
    15
100
AcDbLine
 10
-176.7570703695026
 20
70.77230993609572
 30
0.0
 11
-174.8084753225055
 21
70.77230993609572
 31
0.0
  0
LINE
  5
156
330
1F
100
AcDbEntity
  8
0
  6
Continuous
 62
     7
370
    15
100
AcDbLine
 10
-176.7570703695026
 20
67.76578832369001
 30
0.0
 11
-176.7570703695026
 21
70.77230993609572
 31
0.0
  0
LINE
  5
157
330
1F
100
AcDbEntity
  8
0
  6
Continuous
 62
     7
370
    15
100
AcDbLine
 10
-174.8084753225055
 20
67.76578832369001
 30
0.0
 11
-176.7570703695026
 21
67.76578832369001
 31
0.0
  0
LINE
  5
158
330
1F
100
AcDbEntity
  8
0
  6
Continuous
 62
     7
370
    15
100
AcDbLine
 10
-149.8084693620411
 20
70.77230993609572
 30
0.0
 11
-149.8084693620411
 21
67.76578832369001
 31
0.0
  0
LINE
  5
159
330
1F
100
AcDbEntity
  8
0
  6
Continuous
 62
     7
370
    15
100
AcDbLine
 10
-151.7570942113606
 20
70.77230993609572
 30
0.0
 11
-149.8084693620411
 21
70.77230993609572
 31
0.0
  0
LINE
  5
15A
330
1F
100
AcDbEntity
  8
0
  6
Continuous
 62
     7
370
    15
100
AcDbLine
 10
-151.7570942113606
 20
67.76578832369001
 30
0.0
 11
-151.7570942113606
 21
70.77230993609572
 31
0.0
  0
LINE
  5
15B
330
1F
100
AcDbEntity
  8
0
  6
Continuous
 62
     7
370
    15
100
AcDbLine
 10
-149.8084693620411
 20
67.76578832369001
 30
0.0
 11
-151.7570942113606
 21
67.76578832369001
 31
0.0
  0
LINE
  5
15C
330
1F
100
AcDbEntity
  8
0
  6
Continuous
 62
     7
370
    15
100
AcDbLine
 10
-124.8084634015765
 20
70.77230993609572
 30
0.0
 11
-124.8084634015765
 21
67.76578832369001
 31
0.0
  0
LINE
  5
15D
330
1F
100
AcDbEntity
  8
0
  6
Continuous
 62
     7
370
    15
100
AcDbLine
 10
-126.757088250896
 20
70.77230993609572
 30
0.0
 11
-124.8084634015765
 21
70.77230993609572
 31
0.0
  0
LINE
  5
15E
330
1F
100
AcDbEntity
  8
0
  6
Continuous
 62
     7
370
    15
100
AcDbLine
 10
-126.757088250896
 20
67.76578832369001
 30
0.0
 11
-126.757088250896
 21
70.77230993609572
 31
0.0
  0
LINE
  5
15F
330
1F
100
AcDbEntity
  8
0
  6
Continuous
 62
     7
370
    15
100
AcDbLine
 10
-124.8084634015765
 20
67.76578832369001
 30
0.0
 11
-126.757088250896
 21
67.76578832369001
 31
0.0
  0
LINE
  5
160
330
1F
100
AcDbEntity
  8
0
  6
Continuous
 62
     7
370
    15
100
AcDbLine
 10
-99.80845744111206
 20
70.77230993609572
 30
0.0
 11
-99.80845744111206
 21
67.76578832369001
 31
0.0
  0
LINE
  5
161
330
1F
100
AcDbEntity
  8
0
  6
Continuous
 62
     7
370
    15
100
AcDbLine
 10
-101.7570822904315
 20
70.77230993609572
 30
0.0
 11
-99.80845744111206
 21
70.77230993609572
 31
0.0
  0
LINE
  5
162
330
1F
100
AcDbEntity
  8
0
  6
Continuous
 62
     7
370
    15
100
AcDbLine
 10
-101.7570822904315
 20
67.76578832369001
 30
0.0
 11
-101.7570822904315
 21
70.77230993609572
 31
0.0
  0
LINE
  5
163
330
1F
100
AcDbEntity
  8
0
  6
Continuous
 62
     7
370
    15
100
AcDbLine
 10
-99.80845744111206
 20
67.76578832369001
 30
0.0
 11
-101.7570822904315
 21
67.76578832369001
 31
0.0
  0
LINE
  5
164
330
1F
100
AcDbEntity
  8
0
  6
Continuous
 62
     7
370
    15
100
AcDbLine
 10
-74.80848128296997
 20
70.77230993609572
 30
0.0
 11
-74.80848128296997
 21
67.76578832369001
 31
0.0
  0
LINE
  5
165
330
1F
100
AcDbEntity
  8
0
  6
Continuous
 62
     7
370
    15
100
AcDbLine
 10
-76.75707632996704
 20
70.77230993609572
 30
0.0
 11
-74.80848128296997
 21
70.77230993609572
 31
0.0
  0
LINE
  5
166
330
1F
100
AcDbEntity
  8
0
  6
Continuous
 62
     7
370
    15
100
AcDbLine
 10
-76.75707632996704
 20
67.76578832369001
 30
0.0
 11
-76.75707632996704
 21
70.77230993609572
 31
0.0
  0
LINE
  5
167
330
1F
100
AcDbEntity
  8
0
  6
Continuous
 62
     7
370
    15
100
AcDbLine
 10
-74.80848128296997
 20
67.76578832369001
 30
0.0
 11
-76.75707632996704
 21
67.76578832369001
 31
0.0
  0
LINE
  5
168
330
1F
100
AcDbEntity
  8
0
  6
Continuous
 62
     7
370
    15
100
AcDbLine
 10
-49.8084753225055
 20
70.77230993609572
 30
0.0
 11
-49.8084753225055
 21
67.76578832369001
 31
0.0
  0
LINE
  5
169
330
1F
100
AcDbEntity
  8
0
  6
Continuous
 62
     7
370
    15
100
AcDbLine
 10
-51.75707036950257
 20
70.77230993609572
 30
0.0
 11
-49.8084753225055
 21
70.77230993609572
 31
0.0
  0
LINE
  5
16A
330
1F
100
AcDbEntity
  8
0
  6
Continuous
 62
     7
370
    15
100
AcDbLine
 10
-51.75707036950257
 20
67.76578832369001
 30
0.0
 11
-51.75707036950257
 21
70.77230993609572
 31
0.0
  0
LINE
  5
16B
330
1F
100
AcDbEntity
  8
0
  6
Continuous
 62
     7
370
    15
100
AcDbLine
 10
-49.8084753225055
 20
67.76578832369001
 30
0.0
 11
-51.75707036950257
 21
67.76578832369001
 31
0.0
  0
LINE
  5
16C
330
1F
100
AcDbEntity
  8
0
  6
Continuous
 62
     7
370
    15
100
AcDbLine
 10
-24.80846936204091
 20
70.77230993609572
 30
0.0
 11
-24.80846936204091
 21
67.76578832369001
 31
0.0
  0
LINE
  5
16D
330
1F
100
AcDbEntity
  8
0
  6
Continuous
 62
     7
370
    15
100
AcDbLine
 10
-26.75709421136037
 20
70.77230993609572
 30
0.0
 11
-24.80846936204091
 21
70.77230993609572
 31
0.0
  0
LINE
  5
16E
330
1F
100
AcDbEntity
  8
0
  6
Continuous
 62
     7
370
    15
100
AcDbLine
 10
-26.75709421136037
 20
67.76578832369001
 30
0.0
 11
-26.75709421136037
 21
70.77230993609572
 31
0.0
  0
LINE
  5
16F
330
1F
100
AcDbEntity
  8
0
  6
Continuous
 62
     7
370
    15
100
AcDbLine
 10
-24.80846936204091
 20
67.76578832369001
 30
0.0
 11
-26.75709421136037
 21
67.76578832369001
 31
0.0
  0
LINE
  5
170
330
1F
100
AcDbEntity
  8
0
  6
Continuous
 62
     7
370
    15
100
AcDbLine
 10
-447.1686772475448
 20
96.19611330281646
 30
0.0
 11
-447.1686772475448
 21
65.5113879213825
 31
0.0
  0
LWPOLYLINE
  5
171
330
1F
100
AcDbEntity
  8
0
  6
Continuous
 62
     7
370
    15
100
AcDbPolyline
 90
       22
 70
   128
 43
0.0
 10
-443.1369296679702
 20
96.19611330281646
 10
-442.7674665520396
 20
96.22294191222341
 10
-441.8206244180408
 20
96.54050148974802
 10
-440.9069448182788
 20
97.2085410351649
 10
-440.0494425962177
 20
98.21022968690545
 10
-439.2697244355884
 20
99.52033419113309
 10
-438.5874300668445
 20
101.1058489414647
 10
-438.0197405288424
 20
102.9268313753202
 10
-437.5809758374896
 20
104.9374067545652
 10
-437.28217030265
 20
107.08692358758
 10
-437.1308639118877
 20
109.3212307053402
 10
-437.1308639118877
 20
111.5840404848352
 10
-437.28217030265
 20
113.8183476025954
 10
-437.5809758374896
 20
115.9678643191948
 10
-438.0197405288424
 20
117.9784398148551
 10
-438.5874300668445
 20
119.7994222487107
 10
-439.2697244355884
 20
121.384936533381
 10
-440.0494425962177
 20
122.6950410376087
 10
-440.9069448182788
 20
123.6967306206717
 10
-441.8206244180408
 20
124.3647701660886
 10
-442.7674665520396
 20
124.6823288122907
 10
-443.1369296679702
 20
124.7091583530202
  0
LINE
  5
172
330
1F
100
AcDbEntity
  8
0
  6
Continuous
 62
     7
370
    15
100
AcDbLine
 10
-447.1686772475448
 20
147.6138654718891
 30
0.0
 11
-447.1686772475448
 21
124.7091583530202
 31
0.0
  0
LINE
  5
173
330
1F
100
AcDbEntity
  8
0
  6
Continuous
 62
     7
370
    15
100
AcDbLine
 10
152.8313428690228
 20
65.5113879213825
 30
0.0
 11
152.8313428690228
 21
147.6138654718891
 31
0.0
  0
LINE
  5
174
330
1F
100
AcDbEntity
  8
0
  6
Continuous
 62
     7
370
    15
100
AcDbLine
 10
-468.1333891520706
 20
110.4526355950876
 30
0.0
 11
-468.132532335302
 21
110.196104654555
 31
0.0
  0
LINE
  5
175
330
1F
100
AcDbEntity
  8
0
  6
Continuous
 62
     7
370
    15
100
AcDbLine
 10
-468.0945604512896
 20
108.7267502764954
 30
0.0
 11
-468.0669970283713
 21
108.1980900228739
 31
0.0
  0
LINE
  5
176
330
1F
100
AcDbEntity
  8
0
  6
Continuous
 62
     7
370
    15
100
AcDbLine
 10
-467.9507046411243
 20
106.7287356157105
 30
0.0
 11
-467.8985207746234
 21
106.2383587735023
 31
0.0
  0
LINE
  5
177
330
1F
100
AcDbEntity
  8
0
  6
Continuous
 62
     7
370
    15
100
AcDbLine
 10
-467.6998100648131
 20
104.7690043081313
 30
0.0
 11
-467.6119565437046
 21
104.2403442873403
 31
0.0
  0
LWPOLYLINE
  5
178
330
1F
100
AcDbEntity
  8
0
  6
Continuous
 62
     7
370
    15
100
AcDbPolyline
 90
       37
 70
   128
 43
0.0
 10
-467.317993886253
 20
102.7709896764502
 10
-466.9395937988963
 20
101.2950103352561
 10
-466.2993728587833
 20
99.39539214547426
 10
-465.5466481516566
 20
97.742774672319
 10
-464.6982356379237
 20
96.37407414566423
 10
-463.7730895946232
 20
95.31986541997344
 10
-462.79187048175
 20
94.60369791786821
 10
-461.776501632711
 20
94.24156989853532
 10
-460.7496663401332
 20
94.24156989853532
 10
-459.7342974910942
 20
94.60369791786821
 10
-458.7530821035113
 20
95.31986541997344
 10
-457.8279323349205
 20
96.37407414566423
 10
-456.9795198211876
 20
97.742774672319
 10
-456.2267951140609
 20
99.39539214547426
 10
-455.5865741739479
 20
101.2950103352561
 10
-455.0731546650139
 20
103.3991949255362
 10
-454.6980104813781
 20
105.6609414838969
 10
-454.4695160756316
 20
108.0297266919881
 10
-454.3927825460639
 20
110.4526355950876
 10
-454.4695160756316
 20
112.8755446146026
 10
-454.6980104813781
 20
115.2443300555244
 10
-455.0731546650139
 20
117.5060767303004
 10
-455.5865741739479
 20
119.6102613205805
 10
-456.2267951140609
 20
121.5098790447011
 10
-456.9795198211876
 20
123.1624960521951
 10
-457.8279323349205
 20
124.5311975101724
 10
-458.7530821035113
 20
125.5854062358632
 10
-459.7342974910942
 20
126.3015728066459
 10
-460.7496663401332
 20
126.6637008259788
 10
-461.776501632711
 20
126.6637008259788
 10
-462.79187048175
 20
126.3015728066459
 10
-463.7730895946232
 20
125.5854062358632
 10
-464.6982356379237
 20
124.5311975101724
 10
-465.5466481516566
 20
123.1624960521951
 10
-466.2993728587833
 20
121.5098790447011
 10
-466.9395937988963
 20
119.6102613205805
 10
-467.3559396932331
 20
117.9644122342362
  0
LINE
  5
179
330
1F
100
AcDbEntity
  8
0
  6
Continuous
 62
     7
370
    15
100
AcDbLine
 10
-467.6411702702251
 20
116.4950580890074
 30
0.0
 11
-467.726144141933
 21
115.9663974861398
 31
0.0
  0
LINE
  5
17A
330
1F
100
AcDbEntity
  8
0
  6
Continuous
 62
     7
370
    15
100
AcDbLine
 10
-467.917374468824
 20
114.4970433409109
 30
0.0
 11
-467.9671927759852
 21
114.0066666151181
 31
0.0
  0
LINE
  5
17B
330
1F
100
AcDbEntity
  8
0
  6
Continuous
 62
     7
370
    15
100
AcDbLine
 10
-468.0766641566958
 20
112.5373120042279
 30
0.0
 11
-468.1018433938231
 21
112.0086518670216
 31
0.0
  0
LWPOLYLINE
  5
17C
330
1F
100
AcDbEntity
  8
0
  6
Continuous
 62
     7
370
    15
100
AcDbPolyline
 90
       22
 70
   128
 43
0.0
 10
-452.2000058958736
 20
94.19611297499091
 10
-451.2333116898743
 20
94.35784272800834
 10
-450.2244919011798
 20
94.88266628186853
 10
-449.2603308925834
 20
95.75942546080501
 10
-448.3626141617504
 20
96.96830172042997
 10
-447.5516333649363
 20
98.48197098772676
 10
-446.8457243809906
 20
100.2662192652717
 10
-446.2608389029708
 20
102.2807151633098
 10
-445.8102017114368
 20
104.4799253898456
 10
-445.5039940247742
 20
106.8141394383058
 10
-445.3491411576477
 20
109.2305960221931
 10
-445.3491411576477
 20
111.6746749351516
 10
-445.5039940247742
 20
114.0911319847002
 10
-445.8102017114368
 20
116.4253458003297
 10
-446.2608389029708
 20
118.6245560268655
 10
-446.8457243809906
 20
120.639052390565
 10
-447.5516333649363
 20
122.4232997367874
 10
-448.3626141617504
 20
123.9369690040841
 10
-449.2603308925834
 20
125.1458461950316
 10
-450.2244919011798
 20
126.0226044426456
 10
-451.2333116898743
 20
126.5474289278283
 10
-452.2000058958736
 20
126.7091586808458
  0
LWPOLYLINE
  5
17D
330
1F
100
AcDbEntity
  8
0
  6
Continuous
 62
     7
370
    15
100
AcDbPolyline
 90
       10
 70
   128
 43
0.0
 10
-458.6839295397011
 20
110.5392972561314
 10
-458.5651114056316
 20
110.595221314092
 10
-458.4643832812515
 20
110.7544793369963
 10
-458.3970784614292
 20
110.9928257385983
 10
-458.3734414944855
 20
111.2739747944071
 10
-458.3970784614292
 20
111.5551233845546
 10
-458.4643832812515
 20
111.7934697861566
 10
-458.5651114056316
 20
111.9527278090611
 10
-458.6839295397011
 20
112.0086518670216
 10
-458.6839295397011
 20
112.0086518670216
  0
LWPOLYLINE
  5
17E
330
1F
100
AcDbEntity
  8
0
  6
Continuous
 62
     7
370
    15
100
AcDbPolyline
 90
       10
 70
   128
 43
0.0
 10
-458.6839295397011
 20
112.5373120042279
 10
-458.5651114056316
 20
112.5932360621884
 10
-458.4643832812515
 20
112.7524940850928
 10
-458.3970784614292
 20
112.9908404866948
 10
-458.3734414944855
 20
113.2719890768423
 10
-458.3970784614292
 20
113.5531381326511
 10
-458.4643832812515
 20
113.7914845342532
 10
-458.5651114056316
 20
113.9507425571575
 10
-458.6839295397011
 20
114.0066666151181
 10
-458.6839295397011
 20
114.0066666151181
  0
LWPOLYLINE
  5
17F
330
1F
100
AcDbEntity
  8
0
  6
Continuous
 62
     7
370
    15
100
AcDbPolyline
 90
       10
 70
   128
 43
0.0
 10
-460.293646104118
 20
116.4950580890074
 10
-460.1748279700485
 20
116.5509821469679
 10
-460.0740998456684
 20
116.7102401698723
 10
-460.0067913005557
 20
116.948586105813
 10
-459.9831580589023
 20
117.2297346959605
 10
-460.0067913005557
 20
117.5108842174306
 10
-460.0740998456684
 20
117.7492301533713
 10
-460.1748279700485
 20
117.9084881762758
 10
-460.293646104118
 20
117.9644122342362
 10
-460.293646104118
 20
117.9644122342362
  0
LWPOLYLINE
  5
180
330
1F
100
AcDbEntity
  8
0
  6
Continuous
 62
     7
370
    15
100
AcDbPolyline
 90
       10
 70
   128
 43
0.0
 10
-460.293646104118
 20
102.7709896764502
 10
-460.1748279700485
 20
102.8269137344106
 10
-460.0740998456684
 20
102.9861717573151
 10
-460.0067913005557
 20
103.2245181589171
 10
-459.9831580589023
 20
103.5056669818952
 10
-460.0067913005557
 20
103.7868158048734
 10
-460.0740998456684
 20
104.0251622064754
 10
-460.1748279700485
 20
104.1844202293798
 10
-460.293646104118
 20
104.2403442873403
 10
-460.293646104118
 20
104.2403442873403
  0
LWPOLYLINE
  5
181
330
1F
100
AcDbEntity
  8
0
  6
Continuous
 62
     7
370
    15
100
AcDbPolyline
 90
       10
 70
   128
 43
0.0
 10
-458.6839295397011
 20
106.7287356157105
 10
-458.5651114056316
 20
106.7846595863595
 10
-458.4643832812515
 20
106.9439175801601
 10
-458.3970784614292
 20
107.182264010866
 10
-458.3734414944855
 20
107.4634128338441
 10
-458.3970784614292
 20
107.7445616568222
 10
-458.4643832812515
 20
107.9829080584243
 10
-458.5651114056316
 20
108.1421660813286
 10
-458.6839295397011
 20
108.1980900228739
 10
-458.6839295397011
 20
108.1980900228739
  0
LWPOLYLINE
  5
182
330
1F
100
AcDbEntity
  8
0
  6
Continuous
 62
     7
370
    15
100
AcDbPolyline
 90
       10
 70
   128
 43
0.0
 10
-458.6839295397011
 20
108.7267502764954
 10
-458.5651114056316
 20
108.7826741016253
 10
-458.4643832812515
 20
108.9419321245298
 10
-458.3970784614292
 20
109.1802785261318
 10
-458.3734414944855
 20
109.4614273491099
 10
-458.3970784614292
 20
109.7425761720881
 10
-458.4643832812515
 20
109.9809225736901
 10
-458.5651114056316
 20
110.1401805965945
 10
-458.6839295397011
 20
110.196104654555
 10
-458.6839295397011
 20
110.196104654555
  0
LWPOLYLINE
  5
183
330
1F
100
AcDbEntity
  8
0
  6
Continuous
 62
     7
370
    15
100
AcDbPolyline
 90
       10
 70
   128
 43
0.0
 10
-459.505281544706
 20
104.7690043081313
 10
-459.3864634106365
 20
104.8249283660918
 10
-459.2857352862564
 20
104.9841862725809
 10
-459.2184304664341
 20
105.2225327905982
 10
-459.1947934994903
 20
105.5036816135764
 10
-459.2184304664341
 20
105.7848303783469
 10
-459.2857352862564
 20
106.0231767799489
 10
-459.3864634106365
 20
106.1824348028533
 10
-459.505281544706
 20
106.2383587735023
 10
-459.505281544706
 20
106.2383587735023
  0
LWPOLYLINE
  5
184
330
1F
100
AcDbEntity
  8
0
  6
Continuous
 62
     7
370
    15
100
AcDbPolyline
 90
       10
 70
   128
 43
0.0
 10
-459.505281544706
 20
114.4970433409109
 10
-459.3864634106365
 20
114.5529673988715
 10
-459.2857352862564
 20
114.7122254217758
 10
-459.2184304664341
 20
114.9505713577166
 10
-459.1947934994903
 20
115.2317208791866
 10
-459.2184304664341
 20
115.5128694693341
 10
-459.2857352862564
 20
115.7512154052749
 10
-459.3864634106365
 20
115.9104734281793
 10
-459.505281544706
 20
115.9663974861398
 10
-459.505281544706
 20
115.9663974861398
  0
LWPOLYLINE
  5
185
330
1F
100
AcDbEntity
  8
0
  6
Continuous
 62
     7
370
    15
100
AcDbPolyline
 90
       17
 70
   128
 43
0.0
 10
-468.0574975381103
 20
113.2719890768423
 10
-468.0338605711665
 20
112.9908404866948
 10
-467.9665557513443
 20
112.7524940850928
 10
-467.8658276269641
 20
112.5932360621884
 10
-467.7470094928946
 20
112.5373120042279
 10
-467.6281913588252
 20
112.5932360621884
 10
-467.5274595091548
 20
112.7524940850928
 10
-467.4601546893326
 20
112.9908404866948
 10
-467.4365214476791
 20
113.2719890768423
 10
-467.4601546893326
 20
113.5531381326511
 10
-467.5274595091548
 20
113.7914845342532
 10
-467.6281913588252
 20
113.9507425571575
 10
-467.7470094928946
 20
114.0066666151181
 10
-467.8658276269641
 20
113.9507425571575
 10
-467.9665557513443
 20
113.7914845342532
 10
-468.0338605711665
 20
113.5531381326511
 10
-468.0574975381103
 20
113.2719890768423
  0
LWPOLYLINE
  5
186
330
1F
100
AcDbEntity
  8
0
  6
Continuous
 62
     7
370
    15
100
AcDbPolyline
 90
       17
 70
   128
 43
0.0
 10
-468.0574975381103
 20
109.4614273491099
 10
-468.0338605711665
 20
109.1802785261318
 10
-467.9665557513443
 20
108.9419321245298
 10
-467.8658276269641
 20
108.7826741016253
 10
-467.7470094928946
 20
108.7267502764954
 10
-467.6281913588252
 20
108.7826741016253
 10
-467.5274595091548
 20
108.9419321245298
 10
-467.4601546893326
 20
109.1802785261318
 10
-467.4365214476791
 20
109.4614273491099
 10
-467.4601546893326
 20
109.7425761720881
 10
-467.5274595091548
 20
109.9809225736901
 10
-467.6281913588252
 20
110.1401805965945
 10
-467.7470094928946
 20
110.196104654555
 10
-467.8658276269641
 20
110.1401805965945
 10
-467.9665557513443
 20
109.9809225736901
 10
-468.0338605711665
 20
109.7425761720881
 10
-468.0574975381103
 20
109.4614273491099
  0
LWPOLYLINE
  5
187
330
1F
100
AcDbEntity
  8
0
  6
Continuous
 62
     7
370
    15
100
AcDbPolyline
 90
       17
 70
   128
 43
0.0
 10
-468.0574975381103
 20
111.2739747944071
 10
-468.0338605711665
 20
110.9928257385983
 10
-467.9665557513443
 20
110.7544793369963
 10
-467.8658276269641
 20
110.595221314092
 10
-467.7470094928946
 20
110.5392972561314
 10
-467.6281913588252
 20
110.595221314092
 10
-467.5274595091548
 20
110.7544793369963
 10
-467.4601546893326
 20
110.9928257385983
 10
-467.4365214476791
 20
111.2739747944071
 10
-467.4601546893326
 20
111.5551233845546
 10
-467.5274595091548
 20
111.7934697861566
 10
-467.6281913588252
 20
111.9527278090611
 10
-467.7470094928946
 20
112.0086518670216
 10
-467.8658276269641
 20
111.9527278090611
 10
-467.9665557513443
 20
111.7934697861566
 10
-468.0338605711665
 20
111.5551233845546
 10
-468.0574975381103
 20
111.2739747944071
  0
LWPOLYLINE
  5
188
330
1F
100
AcDbEntity
  8
0
  6
Continuous
 62
     7
370
    15
100
AcDbPolyline
 90
       17
 70
   128
 43
0.0
 10
-468.0574975381103
 20
107.4634128338441
 10
-468.0338605711665
 20
107.182264010866
 10
-467.9665557513443
 20
106.9439175801601
 10
-467.8658276269641
 20
106.7846595863595
 10
-467.7470094928946
 20
106.7287356157105
 10
-467.6281913588252
 20
106.7846595863595
 10
-467.5274595091548
 20
106.9439175801601
 10
-467.4601546893326
 20
107.182264010866
 10
-467.4365214476791
 20
107.4634128338441
 10
-467.4601546893326
 20
107.7445616568222
 10
-467.5274595091548
 20
107.9829080584243
 10
-467.6281913588252
 20
108.1421660813286
 10
-467.7470094928946
 20
108.1980900228739
 10
-467.8658276269641
 20
108.1421660813286
 10
-467.9665557513443
 20
107.9829080584243
 10
-468.0338605711665
 20
107.7445616568222
 10
-468.0574975381103
 20
107.4634128338441
  0
LWPOLYLINE
  5
189
330
1F
100
AcDbEntity
  8
0
  6
Continuous
 62
     7
370
    15
100
AcDbPolyline
 90
       17
 70
   128
 43
0.0
 10
-468.8788495431151
 20
115.2317208791866
 10
-468.8552125761714
 20
114.9505713577166
 10
-468.7879077563492
 20
114.7122254217758
 10
-468.687179631969
 20
114.5529673988715
 10
-468.5683614978995
 20
114.4970433409109
 10
-468.4495433638301
 20
114.5529673988715
 10
-468.3488115141597
 20
114.7122254217758
 10
-468.2815066943375
 20
114.9505713577166
 10
-468.257873452684
 20
115.2317208791866
 10
-468.2815066943375
 20
115.5128694693341
 10
-468.3488115141597
 20
115.7512154052749
 10
-468.4495433638301
 20
115.9104734281793
 10
-468.5683614978995
 20
115.9663974861398
 10
-468.687179631969
 20
115.9104734281793
 10
-468.7879077563492
 20
115.7512154052749
 10
-468.8552125761714
 20
115.5128694693341
 10
-468.8788495431151
 20
115.2317208791866
  0
LWPOLYLINE
  5
18A
330
1F
100
AcDbEntity
  8
0
  6
Continuous
 62
     7
370
    15
100
AcDbPolyline
 90
       17
 70
   128
 43
0.0
 10
-468.8788495431151
 20
113.2719890768423
 10
-468.8552125761714
 20
112.9908404866948
 10
-468.7879077563492
 20
112.7524940850928
 10
-468.687179631969
 20
112.5932360621884
 10
-468.5683614978995
 20
112.5373120042279
 10
-468.4495433638301
 20
112.5932360621884
 10
-468.3488115141597
 20
112.7524940850928
 10
-468.2815066943375
 20
112.9908404866948
 10
-468.257873452684
 20
113.2719890768423
 10
-468.2815066943375
 20
113.5531381326511
 10
-468.3488115141597
 20
113.7914845342532
 10
-468.4495433638301
 20
113.9507425571575
 10
-468.5683614978995
 20
114.0066666151181
 10
-468.687179631969
 20
113.9507425571575
 10
-468.7879077563492
 20
113.7914845342532
 10
-468.8552125761714
 20
113.5531381326511
 10
-468.8788495431151
 20
113.2719890768423
  0
LWPOLYLINE
  5
18B
330
1F
100
AcDbEntity
  8
0
  6
Continuous
 62
     7
370
    15
100
AcDbPolyline
 90
       17
 70
   128
 43
0.0
 10
-468.8788495431151
 20
111.2739747944071
 10
-468.8552125761714
 20
110.9928257385983
 10
-468.7879077563492
 20
110.7544793369963
 10
-468.687179631969
 20
110.595221314092
 10
-468.5683614978995
 20
110.5392972561314
 10
-468.4495433638301
 20
110.595221314092
 10
-468.3488115141597
 20
110.7544793369963
 10
-468.2815066943375
 20
110.9928257385983
 10
-468.257873452684
 20
111.2739747944071
 10
-468.2815066943375
 20
111.5551233845546
 10
-468.3488115141597
 20
111.7934697861566
 10
-468.4495433638301
 20
111.9527278090611
 10
-468.5683614978995
 20
112.0086518670216
 10
-468.687179631969
 20
111.9527278090611
 10
-468.7879077563492
 20
111.7934697861566
 10
-468.8552125761714
 20
111.5551233845546
 10
-468.8788495431151
 20
111.2739747944071
  0
LWPOLYLINE
  5
18C
330
1F
100
AcDbEntity
  8
0
  6
Continuous
 62
     7
370
    15
100
AcDbPolyline
 90
       17
 70
   128
 43
0.0
 10
-468.8788495431151
 20
109.4614273491099
 10
-468.8552125761714
 20
109.1802785261318
 10
-468.7879077563492
 20
108.9419321245298
 10
-468.687179631969
 20
108.7826741016253
 10
-468.5683614978995
 20
108.7267502764954
 10
-468.4495433638301
 20
108.7826741016253
 10
-468.3488115141597
 20
108.9419321245298
 10
-468.2815066943375
 20
109.1802785261318
 10
-468.257873452684
 20
109.4614273491099
 10
-468.2815066943375
 20
109.7425761720881
 10
-468.3488115141597
 20
109.9809225736901
 10
-468.4495433638301
 20
110.1401805965945
 10
-468.5683614978995
 20
110.196104654555
 10
-468.687179631969
 20
110.1401805965945
 10
-468.7879077563492
 20
109.9809225736901
 10
-468.8552125761714
 20
109.7425761720881
 10
-468.8788495431151
 20
109.4614273491099
  0
LWPOLYLINE
  5
18D
330
1F
100
AcDbEntity
  8
0
  6
Continuous
 62
     7
370
    15
100
AcDbPolyline
 90
       17
 70
   128
 43
0.0
 10
-468.8788495431151
 20
107.4634128338441
 10
-468.8552125761714
 20
107.182264010866
 10
-468.7879077563492
 20
106.9439175801601
 10
-468.687179631969
 20
106.7846595863595
 10
-468.5683614978995
 20
106.7287356157105
 10
-468.4495433638301
 20
106.7846595863595
 10
-468.3488115141597
 20
106.9439175801601
 10
-468.2815066943375
 20
107.182264010866
 10
-468.257873452684
 20
107.4634128338441
 10
-468.2815066943375
 20
107.7445616568222
 10
-468.3488115141597
 20
107.9829080584243
 10
-468.4495433638301
 20
108.1421660813286
 10
-468.5683614978995
 20
108.1980900228739
 10
-468.687179631969
 20
108.1421660813286
 10
-468.7879077563492
 20
107.9829080584243
 10
-468.8552125761714
 20
107.7445616568222
 10
-468.8788495431151
 20
107.4634128338441
  0
LWPOLYLINE
  5
18E
330
1F
100
AcDbEntity
  8
0
  6
Continuous
 62
     7
370
    15
100
AcDbPolyline
 90
       17
 70
   128
 43
0.0
 10
-468.8788495431151
 20
105.5036816135764
 10
-468.8552125761714
 20
105.2225327905982
 10
-468.7879077563492
 20
104.9841862725809
 10
-468.687179631969
 20
104.8249283660918
 10
-468.5683614978995
 20
104.7690043081313
 10
-468.4495433638301
 20
104.8249283660918
 10
-468.3488115141597
 20
104.9841862725809
 10
-468.2815066943375
 20
105.2225327905982
 10
-468.257873452684
 20
105.5036816135764
 10
-468.2815066943375
 20
105.7848303783469
 10
-468.3488115141597
 20
106.0231767799489
 10
-468.4495433638301
 20
106.1824348028533
 10
-468.5683614978995
 20
106.2383587735023
 10
-468.687179631969
 20
106.1824348028533
 10
-468.7879077563492
 20
106.0231767799489
 10
-468.8552125761714
 20
105.7848303783469
 10
-468.8788495431151
 20
105.5036816135764
  0
LWPOLYLINE
  5
18F
330
1F
100
AcDbEntity
  8
0
  6
Continuous
 62
     7
370
    15
100
AcDbPolyline
 90
       17
 70
   128
 43
0.0
 10
-469.6672141025271
 20
117.2297346959605
 10
-469.6435771355834
 20
116.948586105813
 10
-469.5762723157612
 20
116.7102401698723
 10
-469.475544191381
 20
116.5509821469679
 10
-469.3567260573115
 20
116.4950580890074
 10
-469.2379041979519
 20
116.5509821469679
 10
-469.1371760735717
 20
116.7102401698723
 10
-469.0698712537495
 20
116.948586105813
 10
-469.046238012096
 20
117.2297346959605
 10
-469.0698712537495
 20
117.5108842174306
 10
-469.1371760735717
 20
117.7492301533713
 10
-469.2379041979519
 20
117.9084881762758
 10
-469.3567260573115
 20
117.9644122342362
 10
-469.475544191381
 20
117.9084881762758
 10
-469.5762723157612
 20
117.7492301533713
 10
-469.6435771355834
 20
117.5108842174306
 10
-469.6672141025271
 20
117.2297346959605
  0
LWPOLYLINE
  5
190
330
1F
100
AcDbEntity
  8
0
  6
Continuous
 62
     7
370
    15
100
AcDbPolyline
 90
       17
 70
   128
 43
0.0
 10
-469.6672141025271
 20
115.2317208791866
 10
-469.6435771355834
 20
114.9505713577166
 10
-469.5762723157612
 20
114.7122254217758
 10
-469.475544191381
 20
114.5529673988715
 10
-469.3567260573115
 20
114.4970433409109
 10
-469.2379041979519
 20
114.5529673988715
 10
-469.1371760735717
 20
114.7122254217758
 10
-469.0698712537495
 20
114.9505713577166
 10
-469.046238012096
 20
115.2317208791866
 10
-469.0698712537495
 20
115.5128694693341
 10
-469.1371760735717
 20
115.7512154052749
 10
-469.2379041979519
 20
115.9104734281793
 10
-469.3567260573115
 20
115.9663974861398
 10
-469.475544191381
 20
115.9104734281793
 10
-469.5762723157612
 20
115.7512154052749
 10
-469.6435771355834
 20
115.5128694693341
 10
-469.6672141025271
 20
115.2317208791866
  0
LWPOLYLINE
  5
191
330
1F
100
AcDbEntity
  8
0
  6
Continuous
 62
     7
370
    15
100
AcDbPolyline
 90
       17
 70
   128
 43
0.0
 10
-469.6672141025271
 20
113.2719890768423
 10
-469.6435771355834
 20
112.9908404866948
 10
-469.5762723157612
 20
112.7524940850928
 10
-469.475544191381
 20
112.5932360621884
 10
-469.3567260573115
 20
112.5373120042279
 10
-469.2379041979519
 20
112.5932360621884
 10
-469.1371760735717
 20
112.7524940850928
 10
-469.0698712537495
 20
112.9908404866948
 10
-469.046238012096
 20
113.2719890768423
 10
-469.0698712537495
 20
113.5531381326511
 10
-469.1371760735717
 20
113.7914845342532
 10
-469.2379041979519
 20
113.9507425571575
 10
-469.3567260573115
 20
114.0066666151181
 10
-469.475544191381
 20
113.9507425571575
 10
-469.5762723157612
 20
113.7914845342532
 10
-469.6435771355834
 20
113.5531381326511
 10
-469.6672141025271
 20
113.2719890768423
  0
LWPOLYLINE
  5
192
330
1F
100
AcDbEntity
  8
0
  6
Continuous
 62
     7
370
    15
100
AcDbPolyline
 90
       17
 70
   128
 43
0.0
 10
-469.6672141025271
 20
109.4614273491099
 10
-469.6435771355834
 20
109.1802785261318
 10
-469.5762723157612
 20
108.9419321245298
 10
-469.475544191381
 20
108.7826741016253
 10
-469.3567260573115
 20
108.7267502764954
 10
-469.2379041979519
 20
108.7826741016253
 10
-469.1371760735717
 20
108.9419321245298
 10
-469.0698712537495
 20
109.1802785261318
 10
-469.046238012096
 20
109.4614273491099
 10
-469.0698712537495
 20
109.7425761720881
 10
-469.1371760735717
 20
109.9809225736901
 10
-469.2379041979519
 20
110.1401805965945
 10
-469.3567260573115
 20
110.196104654555
 10
-469.475544191381
 20
110.1401805965945
 10
-469.5762723157612
 20
109.9809225736901
 10
-469.6435771355834
 20
109.7425761720881
 10
-469.6672141025271
 20
109.4614273491099
  0
LWPOLYLINE
  5
193
330
1F
100
AcDbEntity
  8
0
  6
Continuous
 62
     7
370
    15
100
AcDbPolyline
 90
       17
 70
   128
 43
0.0
 10
-469.6672141025271
 20
111.2739747944071
 10
-469.6435771355834
 20
110.9928257385983
 10
-469.5762723157612
 20
110.7544793369963
 10
-469.475544191381
 20
110.595221314092
 10
-469.3567260573115
 20
110.5392972561314
 10
-469.2379041979519
 20
110.595221314092
 10
-469.1371760735717
 20
110.7544793369963
 10
-469.0698712537495
 20
110.9928257385983
 10
-469.046238012096
 20
111.2739747944071
 10
-469.0698712537495
 20
111.5551233845546
 10
-469.1371760735717
 20
111.7934697861566
 10
-469.2379041979519
 20
111.9527278090611
 10
-469.3567260573115
 20
112.0086518670216
 10
-469.475544191381
 20
111.9527278090611
 10
-469.5762723157612
 20
111.7934697861566
 10
-469.6435771355834
 20
111.5551233845546
 10
-469.6672141025271
 20
111.2739747944071
  0
LWPOLYLINE
  5
194
330
1F
100
AcDbEntity
  8
0
  6
Continuous
 62
     7
370
    15
100
AcDbPolyline
 90
       17
 70
   128
 43
0.0
 10
-469.6672141025271
 20
107.4634128338441
 10
-469.6435771355834
 20
107.182264010866
 10
-469.5762723157612
 20
106.9439175801601
 10
-469.475544191381
 20
106.7846595863595
 10
-469.3567260573115
 20
106.7287356157105
 10
-469.2379041979519
 20
106.7846595863595
 10
-469.1371760735717
 20
106.9439175801601
 10
-469.0698712537495
 20
107.182264010866
 10
-469.046238012096
 20
107.4634128338441
 10
-469.0698712537495
 20
107.7445616568222
 10
-469.1371760735717
 20
107.9829080584243
 10
-469.2379041979519
 20
108.1421660813286
 10
-469.3567260573115
 20
108.1980900228739
 10
-469.475544191381
 20
108.1421660813286
 10
-469.5762723157612
 20
107.9829080584243
 10
-469.6435771355834
 20
107.7445616568222
 10
-469.6672141025271
 20
107.4634128338441
  0
LWPOLYLINE
  5
195
330
1F
100
AcDbEntity
  8
0
  6
Continuous
 62
     7
370
    15
100
AcDbPolyline
 90
       17
 70
   128
 43
0.0
 10
-469.6672141025271
 20
105.5036816135764
 10
-469.6435771355834
 20
105.2225327905982
 10
-469.5762723157612
 20
104.9841862725809
 10
-469.475544191381
 20
104.8249283660918
 10
-469.3567260573115
 20
104.7690043081313
 10
-469.2379041979519
 20
104.8249283660918
 10
-469.1371760735717
 20
104.9841862725809
 10
-469.0698712537495
 20
105.2225327905982
 10
-469.046238012096
 20
105.5036816135764
 10
-469.0698712537495
 20
105.7848303783469
 10
-469.1371760735717
 20
106.0231767799489
 10
-469.2379041979519
 20
106.1824348028533
 10
-469.3567260573115
 20
106.2383587735023
 10
-469.475544191381
 20
106.1824348028533
 10
-469.5762723157612
 20
106.0231767799489
 10
-469.6435771355834
 20
105.7848303783469
 10
-469.6672141025271
 20
105.5036816135764
  0
LWPOLYLINE
  5
196
330
1F
100
AcDbEntity
  8
0
  6
Continuous
 62
     7
370
    15
100
AcDbPolyline
 90
       17
 70
   128
 43
0.0
 10
-469.6672141025271
 20
103.5056669818952
 10
-469.6435771355834
 20
103.2245181589171
 10
-469.5762723157612
 20
102.9861717573151
 10
-469.475544191381
 20
102.8269137344106
 10
-469.3567260573115
 20
102.7709896764502
 10
-469.2379041979519
 20
102.8269137344106
 10
-469.1371760735717
 20
102.9861717573151
 10
-469.0698712537495
 20
103.2245181589171
 10
-469.046238012096
 20
103.5056669818952
 10
-469.0698712537495
 20
103.7868158048734
 10
-469.1371760735717
 20
104.0251622064754
 10
-469.2379041979519
 20
104.1844202293798
 10
-469.3567260573115
 20
104.2403442873403
 10
-469.475544191381
 20
104.1844202293798
 10
-469.5762723157612
 20
104.0251622064754
 10
-469.6435771355834
 20
103.7868158048734
 10
-469.6672141025271
 20
103.5056669818952
  0
LWPOLYLINE
  5
197
330
1F
100
AcDbEntity
  8
0
  6
Continuous
 62
     7
370
    15
100
AcDbPolyline
 90
       17
 70
   128
 43
0.0
 10
-470.4885623822417
 20
117.2297346959605
 10
-470.4649291405883
 20
116.948586105813
 10
-470.3976243207661
 20
116.7102401698723
 10
-470.2968961963859
 20
116.5509821469679
 10
-470.1780743370262
 20
116.4950580890074
 10
-470.0592562029568
 20
116.5509821469679
 10
-469.9585280785766
 20
116.7102401698723
 10
-469.8912232587543
 20
116.948586105813
 10
-469.8675862918106
 20
117.2297346959605
 10
-469.8912232587543
 20
117.5108842174306
 10
-469.9585280785766
 20
117.7492301533713
 10
-470.0592562029568
 20
117.9084881762758
 10
-470.1780743370262
 20
117.9644122342362
 10
-470.2968961963859
 20
117.9084881762758
 10
-470.3976243207661
 20
117.7492301533713
 10
-470.4649291405883
 20
117.5108842174306
 10
-470.4885623822417
 20
117.2297346959605
  0
LWPOLYLINE
  5
198
330
1F
100
AcDbEntity
  8
0
  6
Continuous
 62
     7
370
    15
100
AcDbPolyline
 90
       17
 70
   128
 43
0.0
 10
-470.4885623822417
 20
113.2719890768423
 10
-470.4649291405883
 20
112.9908404866948
 10
-470.3976243207661
 20
112.7524940850928
 10
-470.2968961963859
 20
112.5932360621884
 10
-470.1780743370262
 20
112.5373120042279
 10
-470.0592562029568
 20
112.5932360621884
 10
-469.9585280785766
 20
112.7524940850928
 10
-469.8912232587543
 20
112.9908404866948
 10
-469.8675862918106
 20
113.2719890768423
 10
-469.8912232587543
 20
113.5531381326511
 10
-469.9585280785766
 20
113.7914845342532
 10
-470.0592562029568
 20
113.9507425571575
 10
-470.1780743370262
 20
114.0066666151181
 10
-470.2968961963859
 20
113.9507425571575
 10
-470.3976243207661
 20
113.7914845342532
 10
-470.4649291405883
 20
113.5531381326511
 10
-470.4885623822417
 20
113.2719890768423
  0
LWPOLYLINE
  5
199
330
1F
100
AcDbEntity
  8
0
  6
Continuous
 62
     7
370
    15
100
AcDbPolyline
 90
       17
 70
   128
 43
0.0
 10
-470.4885623822417
 20
115.2317208791866
 10
-470.4649291405883
 20
114.9505713577166
 10
-470.3976243207661
 20
114.7122254217758
 10
-470.2968961963859
 20
114.5529673988715
 10
-470.1780743370262
 20
114.4970433409109
 10
-470.0592562029568
 20
114.5529673988715
 10
-469.9585280785766
 20
114.7122254217758
 10
-469.8912232587543
 20
114.9505713577166
 10
-469.8675862918106
 20
115.2317208791866
 10
-469.8912232587543
 20
115.5128694693341
 10
-469.9585280785766
 20
115.7512154052749
 10
-470.0592562029568
 20
115.9104734281793
 10
-470.1780743370262
 20
115.9663974861398
 10
-470.2968961963859
 20
115.9104734281793
 10
-470.3976243207661
 20
115.7512154052749
 10
-470.4649291405883
 20
115.5128694693341
 10
-470.4885623822417
 20
115.2317208791866
  0
LWPOLYLINE
  5
19A
330
1F
100
AcDbEntity
  8
0
  6
Continuous
 62
     7
370
    15
100
AcDbPolyline
 90
       17
 70
   128
 43
0.0
 10
-470.4885623822417
 20
109.4614273491099
 10
-470.4649291405883
 20
109.1802785261318
 10
-470.3976243207661
 20
108.9419321245298
 10
-470.2968961963859
 20
108.7826741016253
 10
-470.1780743370262
 20
108.7267502764954
 10
-470.0592562029568
 20
108.7826741016253
 10
-469.9585280785766
 20
108.9419321245298
 10
-469.8912232587543
 20
109.1802785261318
 10
-469.8675862918106
 20
109.4614273491099
 10
-469.8912232587543
 20
109.7425761720881
 10
-469.9585280785766
 20
109.9809225736901
 10
-470.0592562029568
 20
110.1401805965945
 10
-470.1780743370262
 20
110.196104654555
 10
-470.2968961963859
 20
110.1401805965945
 10
-470.3976243207661
 20
109.9809225736901
 10
-470.4649291405883
 20
109.7425761720881
 10
-470.4885623822417
 20
109.4614273491099
  0
LWPOLYLINE
  5
19B
330
1F
100
AcDbEntity
  8
0
  6
Continuous
 62
     7
370
    15
100
AcDbPolyline
 90
       17
 70
   128
 43
0.0
 10
-470.4885623822417
 20
111.2739747944071
 10
-470.4649291405883
 20
110.9928257385983
 10
-470.3976243207661
 20
110.7544793369963
 10
-470.2968961963859
 20
110.595221314092
 10
-470.1780743370262
 20
110.5392972561314
 10
-470.0592562029568
 20
110.595221314092
 10
-469.9585280785766
 20
110.7544793369963
 10
-469.8912232587543
 20
110.9928257385983
 10
-469.8675862918106
 20
111.2739747944071
 10
-469.8912232587543
 20
111.5551233845546
 10
-469.9585280785766
 20
111.7934697861566
 10
-470.0592562029568
 20
111.9527278090611
 10
-470.1780743370262
 20
112.0086518670216
 10
-470.2968961963859
 20
111.9527278090611
 10
-470.3976243207661
 20
111.7934697861566
 10
-470.4649291405883
 20
111.5551233845546
 10
-470.4885623822417
 20
111.2739747944071
  0
LWPOLYLINE
  5
19C
330
1F
100
AcDbEntity
  8
0
  6
Continuous
 62
     7
370
    15
100
AcDbPolyline
 90
       17
 70
   128
 43
0.0
 10
-470.4885623822417
 20
105.5036816135764
 10
-470.4649291405883
 20
105.2225327905982
 10
-470.3976243207661
 20
104.9841862725809
 10
-470.2968961963859
 20
104.8249283660918
 10
-470.1780743370262
 20
104.7690043081313
 10
-470.0592562029568
 20
104.8249283660918
 10
-469.9585280785766
 20
104.9841862725809
 10
-469.8912232587543
 20
105.2225327905982
 10
-469.8675862918106
 20
105.5036816135764
 10
-469.8912232587543
 20
105.7848303783469
 10
-469.9585280785766
 20
106.0231767799489
 10
-470.0592562029568
 20
106.1824348028533
 10
-470.1780743370262
 20
106.2383587735023
 10
-470.2968961963859
 20
106.1824348028533
 10
-470.3976243207661
 20
106.0231767799489
 10
-470.4649291405883
 20
105.7848303783469
 10
-470.4885623822417
 20
105.5036816135764
  0
LWPOLYLINE
  5
19D
330
1F
100
AcDbEntity
  8
0
  6
Continuous
 62
     7
370
    15
100
AcDbPolyline
 90
       17
 70
   128
 43
0.0
 10
-470.4885623822417
 20
107.4634128338441
 10
-470.4649291405883
 20
107.182264010866
 10
-470.3976243207661
 20
106.9439175801601
 10
-470.2968961963859
 20
106.7846595863595
 10
-470.1780743370262
 20
106.7287356157105
 10
-470.0592562029568
 20
106.7846595863595
 10
-469.9585280785766
 20
106.9439175801601
 10
-469.8912232587543
 20
107.182264010866
 10
-469.8675862918106
 20
107.4634128338441
 10
-469.8912232587543
 20
107.7445616568222
 10
-469.9585280785766
 20
107.9829080584243
 10
-470.0592562029568
 20
108.1421660813286
 10
-470.1780743370262
 20
108.1980900228739
 10
-470.2968961963859
 20
108.1421660813286
 10
-470.3976243207661
 20
107.9829080584243
 10
-470.4649291405883
 20
107.7445616568222
 10
-470.4885623822417
 20
107.4634128338441
  0
LWPOLYLINE
  5
19E
330
1F
100
AcDbEntity
  8
0
  6
Continuous
 62
     7
370
    15
100
AcDbPolyline
 90
       17
 70
   128
 43
0.0
 10
-470.4885623822417
 20
103.5056669818952
 10
-470.4649291405883
 20
103.2245181589171
 10
-470.3976243207661
 20
102.9861717573151
 10
-470.2968961963859
 20
102.8269137344106
 10
-470.1780743370262
 20
102.7709896764502
 10
-470.0592562029568
 20
102.8269137344106
 10
-469.9585280785766
 20
102.9861717573151
 10
-469.8912232587543
 20
103.2245181589171
 10
-469.8675862918106
 20
103.5056669818952
 10
-469.8912232587543
 20
103.7868158048734
 10
-469.9585280785766
 20
104.0251622064754
 10
-470.0592562029568
 20
104.1844202293798
 10
-470.1780743370262
 20
104.2403442873403
 10
-470.2968961963859
 20
104.1844202293798
 10
-470.3976243207661
 20
104.0251622064754
 10
-470.4649291405883
 20
103.7868158048734
 10
-470.4885623822417
 20
103.5056669818952
  0
LWPOLYLINE
  5
19F
330
1F
100
AcDbEntity
  8
0
  6
Continuous
 62
     7
370
    15
100
AcDbPolyline
 90
       17
 70
   128
 43
0.0
 10
-471.3565661976543
 20
117.2297346959605
 10
-471.3329292307106
 20
116.948586105813
 10
-471.2656244108882
 20
116.7102401698723
 10
-471.1648962865082
 20
116.5509821469679
 10
-471.0460781524387
 20
116.4950580890074
 10
-470.9272562930789
 20
116.5509821469679
 10
-470.8265281686989
 20
116.7102401698723
 10
-470.7592233488765
 20
116.948586105813
 10
-470.735590107223
 20
117.2297346959605
 10
-470.7592233488765
 20
117.5108842174306
 10
-470.8265281686989
 20
117.7492301533713
 10
-470.9272562930789
 20
117.9084881762758
 10
-471.0460781524387
 20
117.9644122342362
 10
-471.1648962865082
 20
117.9084881762758
 10
-471.2656244108882
 20
117.7492301533713
 10
-471.3329292307106
 20
117.5108842174306
 10
-471.3565661976543
 20
117.2297346959605
  0
LWPOLYLINE
  5
1A0
330
1F
100
AcDbEntity
  8
0
  6
Continuous
 62
     7
370
    15
100
AcDbPolyline
 90
       17
 70
   128
 43
0.0
 10
-471.3565661976543
 20
115.2317208791866
 10
-471.3329292307106
 20
114.9505713577166
 10
-471.2656244108882
 20
114.7122254217758
 10
-471.1648962865082
 20
114.5529673988715
 10
-471.0460781524387
 20
114.4970433409109
 10
-470.9272562930789
 20
114.5529673988715
 10
-470.8265281686989
 20
114.7122254217758
 10
-470.7592233488765
 20
114.9505713577166
 10
-470.735590107223
 20
115.2317208791866
 10
-470.7592233488765
 20
115.5128694693341
 10
-470.8265281686989
 20
115.7512154052749
 10
-470.9272562930789
 20
115.9104734281793
 10
-471.0460781524387
 20
115.9663974861398
 10
-471.1648962865082
 20
115.9104734281793
 10
-471.2656244108882
 20
115.7512154052749
 10
-471.3329292307106
 20
115.5128694693341
 10
-471.3565661976543
 20
115.2317208791866
  0
LWPOLYLINE
  5
1A1
330
1F
100
AcDbEntity
  8
0
  6
Continuous
 62
     7
370
    15
100
AcDbPolyline
 90
       17
 70
   128
 43
0.0
 10
-471.3565661976543
 20
113.2719890768423
 10
-471.3329292307106
 20
112.9908404866948
 10
-471.2656244108882
 20
112.7524940850928
 10
-471.1648962865082
 20
112.5932360621884
 10
-471.0460781524387
 20
112.5373120042279
 10
-470.9272562930789
 20
112.5932360621884
 10
-470.8265281686989
 20
112.7524940850928
 10
-470.7592233488765
 20
112.9908404866948
 10
-470.735590107223
 20
113.2719890768423
 10
-470.7592233488765
 20
113.5531381326511
 10
-470.8265281686989
 20
113.7914845342532
 10
-470.9272562930789
 20
113.9507425571575
 10
-471.0460781524387
 20
114.0066666151181
 10
-471.1648962865082
 20
113.9507425571575
 10
-471.2656244108882
 20
113.7914845342532
 10
-471.3329292307106
 20
113.5531381326511
 10
-471.3565661976543
 20
113.2719890768423
  0
LWPOLYLINE
  5
1A2
330
1F
100
AcDbEntity
  8
0
  6
Continuous
 62
     7
370
    15
100
AcDbPolyline
 90
       17
 70
   128
 43
0.0
 10
-471.3565661976543
 20
109.4614273491099
 10
-471.3329292307106
 20
109.1802785261318
 10
-471.2656244108882
 20
108.9419321245298
 10
-471.1648962865082
 20
108.7826741016253
 10
-471.0460781524387
 20
108.7267502764954
 10
-470.9272562930789
 20
108.7826741016253
 10
-470.8265281686989
 20
108.9419321245298
 10
-470.7592233488765
 20
109.1802785261318
 10
-470.735590107223
 20
109.4614273491099
 10
-470.7592233488765
 20
109.7425761720881
 10
-470.8265281686989
 20
109.9809225736901
 10
-470.9272562930789
 20
110.1401805965945
 10
-471.0460781524387
 20
110.196104654555
 10
-471.1648962865082
 20
110.1401805965945
 10
-471.2656244108882
 20
109.9809225736901
 10
-471.3329292307106
 20
109.7425761720881
 10
-471.3565661976543
 20
109.4614273491099
  0
LWPOLYLINE
  5
1A3
330
1F
100
AcDbEntity
  8
0
  6
Continuous
 62
     7
370
    15
100
AcDbPolyline
 90
       17
 70
   128
 43
0.0
 10
-471.3565661976543
 20
111.2739747944071
 10
-471.3329292307106
 20
110.9928257385983
 10
-471.2656244108882
 20
110.7544793369963
 10
-471.1648962865082
 20
110.595221314092
 10
-471.0460781524387
 20
110.5392972561314
 10
-470.9272562930789
 20
110.595221314092
 10
-470.8265281686989
 20
110.7544793369963
 10
-470.7592233488765
 20
110.9928257385983
 10
-470.735590107223
 20
111.2739747944071
 10
-470.7592233488765
 20
111.5551233845546
 10
-470.8265281686989
 20
111.7934697861566
 10
-470.9272562930789
 20
111.9527278090611
 10
-471.0460781524387
 20
112.0086518670216
 10
-471.1648962865082
 20
111.9527278090611
 10
-471.2656244108882
 20
111.7934697861566
 10
-471.3329292307106
 20
111.5551233845546
 10
-471.3565661976543
 20
111.2739747944071
  0
LWPOLYLINE
  5
1A4
330
1F
100
AcDbEntity
  8
0
  6
Continuous
 62
     7
370
    15
100
AcDbPolyline
 90
       17
 70
   128
 43
0.0
 10
-471.3565661976543
 20
107.4634128338441
 10
-471.3329292307106
 20
107.182264010866
 10
-471.2656244108882
 20
106.9439175801601
 10
-471.1648962865082
 20
106.7846595863595
 10
-471.0460781524387
 20
106.7287356157105
 10
-470.9272562930789
 20
106.7846595863595
 10
-470.8265281686989
 20
106.9439175801601
 10
-470.7592233488765
 20
107.182264010866
 10
-470.735590107223
 20
107.4634128338441
 10
-470.7592233488765
 20
107.7445616568222
 10
-470.8265281686989
 20
107.9829080584243
 10
-470.9272562930789
 20
108.1421660813286
 10
-471.0460781524387
 20
108.1980900228739
 10
-471.1648962865082
 20
108.1421660813286
 10
-471.2656244108882
 20
107.9829080584243
 10
-471.3329292307106
 20
107.7445616568222
 10
-471.3565661976543
 20
107.4634128338441
  0
LWPOLYLINE
  5
1A5
330
1F
100
AcDbEntity
  8
0
  6
Continuous
 62
     7
370
    15
100
AcDbPolyline
 90
       17
 70
   128
 43
0.0
 10
-471.3565661976543
 20
105.5036816135764
 10
-471.3329292307106
 20
105.2225327905982
 10
-471.2656244108882
 20
104.9841862725809
 10
-471.1648962865082
 20
104.8249283660918
 10
-471.0460781524387
 20
104.7690043081313
 10
-470.9272562930789
 20
104.8249283660918
 10
-470.8265281686989
 20
104.9841862725809
 10
-470.7592233488765
 20
105.2225327905982
 10
-470.735590107223
 20
105.5036816135764
 10
-470.7592233488765
 20
105.7848303783469
 10
-470.8265281686989
 20
106.0231767799489
 10
-470.9272562930789
 20
106.1824348028533
 10
-471.0460781524387
 20
106.2383587735023
 10
-471.1648962865082
 20
106.1824348028533
 10
-471.2656244108882
 20
106.0231767799489
 10
-471.3329292307106
 20
105.7848303783469
 10
-471.3565661976543
 20
105.5036816135764
  0
LWPOLYLINE
  5
1A6
330
1F
100
AcDbEntity
  8
0
  6
Continuous
 62
     7
370
    15
100
AcDbPolyline
 90
       17
 70
   128
 43
0.0
 10
-471.3565661976543
 20
103.5056669818952
 10
-471.3329292307106
 20
103.2245181589171
 10
-471.2656244108882
 20
102.9861717573151
 10
-471.1648962865082
 20
102.8269137344106
 10
-471.0460781524387
 20
102.7709896764502
 10
-470.9272562930789
 20
102.8269137344106
 10
-470.8265281686989
 20
102.9861717573151
 10
-470.7592233488765
 20
103.2245181589171
 10
-470.735590107223
 20
103.5056669818952
 10
-470.7592233488765
 20
103.7868158048734
 10
-470.8265281686989
 20
104.0251622064754
 10
-470.9272562930789
 20
104.1844202293798
 10
-471.0460781524387
 20
104.2403442873403
 10
-471.1648962865082
 20
104.1844202293798
 10
-471.2656244108882
 20
104.0251622064754
 10
-471.3329292307106
 20
103.7868158048734
 10
-471.3565661976543
 20
103.5056669818952
  0
LWPOLYLINE
  5
1A7
330
1F
100
AcDbEntity
  8
0
  6
Continuous
 62
     7
370
    15
100
AcDbPolyline
 90
       17
 70
   128
 43
0.0
 10
-472.1779144773689
 20
117.2297346959605
 10
-472.1542812357155
 20
116.948586105813
 10
-472.0869764158931
 20
116.7102401698723
 10
-471.986248291513
 20
116.5509821469679
 10
-471.8674264321532
 20
116.4950580890074
 10
-471.7486082980838
 20
116.5509821469679
 10
-471.6478801737038
 20
116.7102401698723
 10
-471.5805753538814
 20
116.948586105813
 10
-471.5569383869376
 20
117.2297346959605
 10
-471.5805753538814
 20
117.5108842174306
 10
-471.6478801737038
 20
117.7492301533713
 10
-471.7486082980838
 20
117.9084881762758
 10
-471.8674264321532
 20
117.9644122342362
 10
-471.986248291513
 20
117.9084881762758
 10
-472.0869764158931
 20
117.7492301533713
 10
-472.1542812357155
 20
117.5108842174306
 10
-472.1779144773689
 20
117.2297346959605
  0
LWPOLYLINE
  5
1A8
330
1F
100
AcDbEntity
  8
0
  6
Continuous
 62
     7
370
    15
100
AcDbPolyline
 90
       17
 70
   128
 43
0.0
 10
-472.1779144773689
 20
115.2317208791866
 10
-472.1542812357155
 20
114.9505713577166
 10
-472.0869764158931
 20
114.7122254217758
 10
-471.986248291513
 20
114.5529673988715
 10
-471.8674264321532
 20
114.4970433409109
 10
-471.7486082980838
 20
114.5529673988715
 10
-471.6478801737038
 20
114.7122254217758
 10
-471.5805753538814
 20
114.9505713577166
 10
-471.5569383869376
 20
115.2317208791866
 10
-471.5805753538814
 20
115.5128694693341
 10
-471.6478801737038
 20
115.7512154052749
 10
-471.7486082980838
 20
115.9104734281793
 10
-471.8674264321532
 20
115.9663974861398
 10
-471.986248291513
 20
115.9104734281793
 10
-472.0869764158931
 20
115.7512154052749
 10
-472.1542812357155
 20
115.5128694693341
 10
-472.1779144773689
 20
115.2317208791866
  0
LWPOLYLINE
  5
1A9
330
1F
100
AcDbEntity
  8
0
  6
Continuous
 62
     7
370
    15
100
AcDbPolyline
 90
       17
 70
   128
 43
0.0
 10
-472.1779144773689
 20
113.2719890768423
 10
-472.1542812357155
 20
112.9908404866948
 10
-472.0869764158931
 20
112.7524940850928
 10
-471.986248291513
 20
112.5932360621884
 10
-471.8674264321532
 20
112.5373120042279
 10
-471.7486082980838
 20
112.5932360621884
 10
-471.6478801737038
 20
112.7524940850928
 10
-471.5805753538814
 20
112.9908404866948
 10
-471.5569383869376
 20
113.2719890768423
 10
-471.5805753538814
 20
113.5531381326511
 10
-471.6478801737038
 20
113.7914845342532
 10
-471.7486082980838
 20
113.9507425571575
 10
-471.8674264321532
 20
114.0066666151181
 10
-471.986248291513
 20
113.9507425571575
 10
-472.0869764158931
 20
113.7914845342532
 10
-472.1542812357155
 20
113.5531381326511
 10
-472.1779144773689
 20
113.2719890768423
  0
LWPOLYLINE
  5
1AA
330
1F
100
AcDbEntity
  8
0
  6
Continuous
 62
     7
370
    15
100
AcDbPolyline
 90
       17
 70
   128
 43
0.0
 10
-472.1779144773689
 20
109.4614273491099
 10
-472.1542812357155
 20
109.1802785261318
 10
-472.0869764158931
 20
108.9419321245298
 10
-471.986248291513
 20
108.7826741016253
 10
-471.8674264321532
 20
108.7267502764954
 10
-471.7486082980838
 20
108.7826741016253
 10
-471.6478801737038
 20
108.9419321245298
 10
-471.5805753538814
 20
109.1802785261318
 10
-471.5569383869376
 20
109.4614273491099
 10
-471.5805753538814
 20
109.7425761720881
 10
-471.6478801737038
 20
109.9809225736901
 10
-471.7486082980838
 20
110.1401805965945
 10
-471.8674264321532
 20
110.196104654555
 10
-471.986248291513
 20
110.1401805965945
 10
-472.0869764158931
 20
109.9809225736901
 10
-472.1542812357155
 20
109.7425761720881
 10
-472.1779144773689
 20
109.4614273491099
  0
LWPOLYLINE
  5
1AB
330
1F
100
AcDbEntity
  8
0
  6
Continuous
 62
     7
370
    15
100
AcDbPolyline
 90
       17
 70
   128
 43
0.0
 10
-472.1779144773689
 20
111.2739747944071
 10
-472.1542812357155
 20
110.9928257385983
 10
-472.0869764158931
 20
110.7544793369963
 10
-471.986248291513
 20
110.595221314092
 10
-471.8674264321532
 20
110.5392972561314
 10
-471.7486082980838
 20
110.595221314092
 10
-471.6478801737038
 20
110.7544793369963
 10
-471.5805753538814
 20
110.9928257385983
 10
-471.5569383869376
 20
111.2739747944071
 10
-471.5805753538814
 20
111.5551233845546
 10
-471.6478801737038
 20
111.7934697861566
 10
-471.7486082980838
 20
111.9527278090611
 10
-471.8674264321532
 20
112.0086518670216
 10
-471.986248291513
 20
111.9527278090611
 10
-472.0869764158931
 20
111.7934697861566
 10
-472.1542812357155
 20
111.5551233845546
 10
-472.1779144773689
 20
111.2739747944071
  0
LWPOLYLINE
  5
1AC
330
1F
100
AcDbEntity
  8
0
  6
Continuous
 62
     7
370
    15
100
AcDbPolyline
 90
       17
 70
   128
 43
0.0
 10
-472.1779144773689
 20
107.4634128338441
 10
-472.1542812357155
 20
107.182264010866
 10
-472.0869764158931
 20
106.9439175801601
 10
-471.986248291513
 20
106.7846595863595
 10
-471.8674264321532
 20
106.7287356157105
 10
-471.7486082980838
 20
106.7846595863595
 10
-471.6478801737038
 20
106.9439175801601
 10
-471.5805753538814
 20
107.182264010866
 10
-471.5569383869376
 20
107.4634128338441
 10
-471.5805753538814
 20
107.7445616568222
 10
-471.6478801737038
 20
107.9829080584243
 10
-471.7486082980838
 20
108.1421660813286
 10
-471.8674264321532
 20
108.1980900228739
 10
-471.986248291513
 20
108.1421660813286
 10
-472.0869764158931
 20
107.9829080584243
 10
-472.1542812357155
 20
107.7445616568222
 10
-472.1779144773689
 20
107.4634128338441
  0
LWPOLYLINE
  5
1AD
330
1F
100
AcDbEntity
  8
0
  6
Continuous
 62
     7
370
    15
100
AcDbPolyline
 90
       17
 70
   128
 43
0.0
 10
-472.1779144773689
 20
105.5036816135764
 10
-472.1542812357155
 20
105.2225327905982
 10
-472.0869764158931
 20
104.9841862725809
 10
-471.986248291513
 20
104.8249283660918
 10
-471.8674264321532
 20
104.7690043081313
 10
-471.7486082980838
 20
104.8249283660918
 10
-471.6478801737038
 20
104.9841862725809
 10
-471.5805753538814
 20
105.2225327905982
 10
-471.5569383869376
 20
105.5036816135764
 10
-471.5805753538814
 20
105.7848303783469
 10
-471.6478801737038
 20
106.0231767799489
 10
-471.7486082980838
 20
106.1824348028533
 10
-471.8674264321532
 20
106.2383587735023
 10
-471.986248291513
 20
106.1824348028533
 10
-472.0869764158931
 20
106.0231767799489
 10
-472.1542812357155
 20
105.7848303783469
 10
-472.1779144773689
 20
105.5036816135764
  0
LWPOLYLINE
  5
1AE
330
1F
100
AcDbEntity
  8
0
  6
Continuous
 62
     7
370
    15
100
AcDbPolyline
 90
       17
 70
   128
 43
0.0
 10
-472.1779144773689
 20
103.5056669818952
 10
-472.1542812357155
 20
103.2245181589171
 10
-472.0869764158931
 20
102.9861717573151
 10
-471.986248291513
 20
102.8269137344106
 10
-471.8674264321532
 20
102.7709896764502
 10
-471.7486082980838
 20
102.8269137344106
 10
-471.6478801737038
 20
102.9861717573151
 10
-471.5805753538814
 20
103.2245181589171
 10
-471.5569383869376
 20
103.5056669818952
 10
-471.5805753538814
 20
103.7868158048734
 10
-471.6478801737038
 20
104.0251622064754
 10
-471.7486082980838
 20
104.1844202293798
 10
-471.8674264321532
 20
104.2403442873403
 10
-471.986248291513
 20
104.1844202293798
 10
-472.0869764158931
 20
104.0251622064754
 10
-472.1542812357155
 20
103.7868158048734
 10
-472.1779144773689
 20
103.5056669818952
  0
LWPOLYLINE
  5
1AF
330
1F
100
AcDbEntity
  8
0
  6
Continuous
 62
     7
370
    15
100
AcDbPolyline
 90
       17
 70
   128
 43
0.0
 10
-472.9662790367809
 20
113.2719890768423
 10
-472.9426457951275
 20
112.9908404866948
 10
-472.8753409753051
 20
112.7524940850928
 10
-472.7746091256347
 20
112.5932360621884
 10
-472.6557909915652
 20
112.5373120042279
 10
-472.5369728574958
 20
112.5932360621884
 10
-472.4362447331158
 20
112.7524940850928
 10
-472.3689399132934
 20
112.9908404866948
 10
-472.3453029463496
 20
113.2719890768423
 10
-472.3689399132934
 20
113.5531381326511
 10
-472.4362447331158
 20
113.7914845342532
 10
-472.5369728574958
 20
113.9507425571575
 10
-472.6557909915652
 20
114.0066666151181
 10
-472.7746091256347
 20
113.9507425571575
 10
-472.8753409753051
 20
113.7914845342532
 10
-472.9426457951275
 20
113.5531381326511
 10
-472.9662790367809
 20
113.2719890768423
  0
LWPOLYLINE
  5
1B0
330
1F
100
AcDbEntity
  8
0
  6
Continuous
 62
     7
370
    15
100
AcDbPolyline
 90
       17
 70
   128
 43
0.0
 10
-472.9662790367809
 20
115.2317208791866
 10
-472.9426457951275
 20
114.9505713577166
 10
-472.8753409753051
 20
114.7122254217758
 10
-472.7746091256347
 20
114.5529673988715
 10
-472.6557909915652
 20
114.4970433409109
 10
-472.5369728574958
 20
114.5529673988715
 10
-472.4362447331158
 20
114.7122254217758
 10
-472.3689399132934
 20
114.9505713577166
 10
-472.3453029463496
 20
115.2317208791866
 10
-472.3689399132934
 20
115.5128694693341
 10
-472.4362447331158
 20
115.7512154052749
 10
-472.5369728574958
 20
115.9104734281793
 10
-472.6557909915652
 20
115.9663974861398
 10
-472.7746091256347
 20
115.9104734281793
 10
-472.8753409753051
 20
115.7512154052749
 10
-472.9426457951275
 20
115.5128694693341
 10
-472.9662790367809
 20
115.2317208791866
  0
LWPOLYLINE
  5
1B1
330
1F
100
AcDbEntity
  8
0
  6
Continuous
 62
     7
370
    15
100
AcDbPolyline
 90
       17
 70
   128
 43
0.0
 10
-472.9662790367809
 20
111.2739747944071
 10
-472.9426457951275
 20
110.9928257385983
 10
-472.8753409753051
 20
110.7544793369963
 10
-472.7746091256347
 20
110.595221314092
 10
-472.6557909915652
 20
110.5392972561314
 10
-472.5369728574958
 20
110.595221314092
 10
-472.4362447331158
 20
110.7544793369963
 10
-472.3689399132934
 20
110.9928257385983
 10
-472.3453029463496
 20
111.2739747944071
 10
-472.3689399132934
 20
111.5551233845546
 10
-472.4362447331158
 20
111.7934697861566
 10
-472.5369728574958
 20
111.9527278090611
 10
-472.6557909915652
 20
112.0086518670216
 10
-472.7746091256347
 20
111.9527278090611
 10
-472.8753409753051
 20
111.7934697861566
 10
-472.9426457951275
 20
111.5551233845546
 10
-472.9662790367809
 20
111.2739747944071
  0
LWPOLYLINE
  5
1B2
330
1F
100
AcDbEntity
  8
0
  6
Continuous
 62
     7
370
    15
100
AcDbPolyline
 90
       17
 70
   128
 43
0.0
 10
-472.9662790367809
 20
109.4614273491099
 10
-472.9426457951275
 20
109.1802785261318
 10
-472.8753409753051
 20
108.9419321245298
 10
-472.7746091256347
 20
108.7826741016253
 10
-472.6557909915652
 20
108.7267502764954
 10
-472.5369728574958
 20
108.7826741016253
 10
-472.4362447331158
 20
108.9419321245298
 10
-472.3689399132934
 20
109.1802785261318
 10
-472.3453029463496
 20
109.4614273491099
 10
-472.3689399132934
 20
109.7425761720881
 10
-472.4362447331158
 20
109.9809225736901
 10
-472.5369728574958
 20
110.1401805965945
 10
-472.6557909915652
 20
110.196104654555
 10
-472.7746091256347
 20
110.1401805965945
 10
-472.8753409753051
 20
109.9809225736901
 10
-472.9426457951275
 20
109.7425761720881
 10
-472.9662790367809
 20
109.4614273491099
  0
LWPOLYLINE
  5
1B3
330
1F
100
AcDbEntity
  8
0
  6
Continuous
 62
     7
370
    15
100
AcDbPolyline
 90
       17
 70
   128
 43
0.0
 10
-472.9662790367809
 20
105.5036816135764
 10
-472.9426457951275
 20
105.2225327905982
 10
-472.8753409753051
 20
104.9841862725809
 10
-472.7746091256347
 20
104.8249283660918
 10
-472.6557909915652
 20
104.7690043081313
 10
-472.5369728574958
 20
104.8249283660918
 10
-472.4362447331158
 20
104.9841862725809
 10
-472.3689399132934
 20
105.2225327905982
 10
-472.3453029463496
 20
105.5036816135764
 10
-472.3689399132934
 20
105.7848303783469
 10
-472.4362447331158
 20
106.0231767799489
 10
-472.5369728574958
 20
106.1824348028533
 10
-472.6557909915652
 20
106.2383587735023
 10
-472.7746091256347
 20
106.1824348028533
 10
-472.8753409753051
 20
106.0231767799489
 10
-472.9426457951275
 20
105.7848303783469
 10
-472.9662790367809
 20
105.5036816135764
  0
LWPOLYLINE
  5
1B4
330
1F
100
AcDbEntity
  8
0
  6
Continuous
 62
     7
370
    15
100
AcDbPolyline
 90
       17
 70
   128
 43
0.0
 10
-472.9662790367809
 20
107.4634128338441
 10
-472.9426457951275
 20
107.182264010866
 10
-472.8753409753051
 20
106.9439175801601
 10
-472.7746091256347
 20
106.7846595863595
 10
-472.6557909915652
 20
106.7287356157105
 10
-472.5369728574958
 20
106.7846595863595
 10
-472.4362447331158
 20
106.9439175801601
 10
-472.3689399132934
 20
107.182264010866
 10
-472.3453029463496
 20
107.4634128338441
 10
-472.3689399132934
 20
107.7445616568222
 10
-472.4362447331158
 20
107.9829080584243
 10
-472.5369728574958
 20
108.1421660813286
 10
-472.6557909915652
 20
108.1980900228739
 10
-472.7746091256347
 20
108.1421660813286
 10
-472.8753409753051
 20
107.9829080584243
 10
-472.9426457951275
 20
107.7445616568222
 10
-472.9662790367809
 20
107.4634128338441
  0
LWPOLYLINE
  5
1B5
330
1F
100
AcDbEntity
  8
0
  6
Continuous
 62
     7
370
    15
100
AcDbPolyline
 90
       17
 70
   128
 43
0.0
 10
-473.7876310417858
 20
113.2719890768423
 10
-473.7639978001324
 20
112.9908404866948
 10
-473.69669298031
 20
112.7524940850928
 10
-473.5959611306395
 20
112.5932360621884
 10
-473.4771429965701
 20
112.5373120042279
 10
-473.3583248625007
 20
112.5932360621884
 10
-473.2575967381206
 20
112.7524940850928
 10
-473.1902919182982
 20
112.9908404866948
 10
-473.1666549513545
 20
113.2719890768423
 10
-473.1902919182982
 20
113.5531381326511
 10
-473.2575967381206
 20
113.7914845342532
 10
-473.3583248625007
 20
113.9507425571575
 10
-473.4771429965701
 20
114.0066666151181
 10
-473.5959611306395
 20
113.9507425571575
 10
-473.69669298031
 20
113.7914845342532
 10
-473.7639978001324
 20
113.5531381326511
 10
-473.7876310417858
 20
113.2719890768423
  0
LWPOLYLINE
  5
1B6
330
1F
100
AcDbEntity
  8
0
  6
Continuous
 62
     7
370
    15
100
AcDbPolyline
 90
       17
 70
   128
 43
0.0
 10
-473.7876310417858
 20
109.4614273491099
 10
-473.7639978001324
 20
109.1802785261318
 10
-473.69669298031
 20
108.9419321245298
 10
-473.5959611306395
 20
108.7826741016253
 10
-473.4771429965701
 20
108.7267502764954
 10
-473.3583248625007
 20
108.7826741016253
 10
-473.2575967381206
 20
108.9419321245298
 10
-473.1902919182982
 20
109.1802785261318
 10
-473.1666549513545
 20
109.4614273491099
 10
-473.1902919182982
 20
109.7425761720881
 10
-473.2575967381206
 20
109.9809225736901
 10
-473.3583248625007
 20
110.1401805965945
 10
-473.4771429965701
 20
110.196104654555
 10
-473.5959611306395
 20
110.1401805965945
 10
-473.69669298031
 20
109.9809225736901
 10
-473.7639978001324
 20
109.7425761720881
 10
-473.7876310417858
 20
109.4614273491099
  0
LWPOLYLINE
  5
1B7
330
1F
100
AcDbEntity
  8
0
  6
Continuous
 62
     7
370
    15
100
AcDbPolyline
 90
       17
 70
   128
 43
0.0
 10
-473.7876310417858
 20
111.2739747944071
 10
-473.7639978001324
 20
110.9928257385983
 10
-473.69669298031
 20
110.7544793369963
 10
-473.5959611306395
 20
110.595221314092
 10
-473.4771429965701
 20
110.5392972561314
 10
-473.3583248625007
 20
110.595221314092
 10
-473.2575967381206
 20
110.7544793369963
 10
-473.1902919182982
 20
110.9928257385983
 10
-473.1666549513545
 20
111.2739747944071
 10
-473.1902919182982
 20
111.5551233845546
 10
-473.2575967381206
 20
111.7934697861566
 10
-473.3583248625007
 20
111.9527278090611
 10
-473.4771429965701
 20
112.0086518670216
 10
-473.5959611306395
 20
111.9527278090611
 10
-473.69669298031
 20
111.7934697861566
 10
-473.7639978001324
 20
111.5551233845546
 10
-473.7876310417858
 20
111.2739747944071
  0
LWPOLYLINE
  5
1B8
330
1F
100
AcDbEntity
  8
0
  6
Continuous
 62
     7
370
    15
100
AcDbPolyline
 90
       17
 70
   128
 43
0.0
 10
-473.7876310417858
 20
107.4634128338441
 10
-473.7639978001324
 20
107.182264010866
 10
-473.69669298031
 20
106.9439175801601
 10
-473.5959611306395
 20
106.7846595863595
 10
-473.4771429965701
 20
106.7287356157105
 10
-473.3583248625007
 20
106.7846595863595
 10
-473.2575967381206
 20
106.9439175801601
 10
-473.1902919182982
 20
107.182264010866
 10
-473.1666549513545
 20
107.4634128338441
 10
-473.1902919182982
 20
107.7445616568222
 10
-473.2575967381206
 20
107.9829080584243
 10
-473.3583248625007
 20
108.1421660813286
 10
-473.4771429965701
 20
108.1980900228739
 10
-473.5959611306395
 20
108.1421660813286
 10
-473.69669298031
 20
107.9829080584243
 10
-473.7639978001324
 20
107.7445616568222
 10
-473.7876310417858
 20
107.4634128338441
  0
LINE
  5
1B9
330
1F
100
AcDbEntity
  8
0
  6
Continuous
 62
     7
370
    15
100
AcDbLine
 10
329.3313056757245
 20
67.36658621530683
 30
0.0
 11
329.3313056757245
 21
143.3665874968067
 31
0.0
  0
ARC
  5
1BA
330
1F
100
AcDbEntity
  8
0
  6
Continuous
 62
     7
370
    15
100
AcDbCircle
 10
319.3313224825574
 20
67.36658766774019
 30
0.0
 40
10.0
100
AcDbArc
 50
270.0000000000013
 51
0.0
  0
LINE
  5
1BB
330
1F
100
AcDbEntity
  8
0
  6
Continuous
 62
     7
370
    15
100
AcDbLine
 10
-613.6686756680217
 20
57.36658830146939
 30
0.0
 11
319.3313152124679
 21
57.36658830146939
 31
0.0
  0
ARC
  5
1BC
330
1F
100
AcDbEntity
  8
0
  6
Continuous
 62
     7
370
    15
100
AcDbCircle
 10
-613.6686775174426
 20
67.36658766774019
 30
0.0
 40
10.00000000000001
100
AcDbArc
 50
180.0
 51
270.0000000000013
  0
LINE
  5
1BD
330
1F
100
AcDbEntity
  8
0
  6
Continuous
 62
     7
370
    15
100
AcDbLine
 10
-623.6686810324397
 20
143.3665874968067
 30
0.0
 11
-623.6686810324397
 21
67.36658621530683
 31
0.0
  0
ARC
  5
1BE
330
1F
100
AcDbEntity
  8
0
  6
Continuous
 62
     7
370
    15
100
AcDbCircle
 10
-613.6686775174426
 20
143.3665876677402
 30
0.0
 40
10.00000000000001
100
AcDbArc
 50
90.0
 51
180.0
  0
LINE
  5
1BF
330
1F
100
AcDbEntity
  8
0
  6
Continuous
 62
     7
370
    15
100
AcDbLine
 10
319.3313152124679
 20
153.3665891359344
 30
0.0
 11
-613.6686756680217
 21
153.3665891359344
 31
0.0
  0
ARC
  5
1C0
330
1F
100
AcDbEntity
  8
0
  6
Continuous
 62
     7
370
    15
100
AcDbCircle
 10
319.3313224825574
 20
143.3665876677402
 30
0.0
 40
10.0
100
AcDbArc
 50
0.0
 51
90.0
  0
LINE
  5
1C1
330
1F
100
AcDbEntity
  8
0
  6
Continuous
 62
     7
370
    15
100
AcDbLine
 10
547.1163188746807
 20
366.8027683303238
 30
0.0
 11
547.1163188746807
 21
371.0289537117363
 31
0.0
  0
LINE
  5
1C2
330
1F
100
AcDbEntity
  8
0
  6
Continuous
 62
     7
370
    15
100
AcDbLine
 10
545.6469642637905
 20
371.0289537117363
 30
0.0
 11
545.6469642637905
 21
366.8027683303238
 31
0.0
  0
LINE
  5
1C3
330
1F
100
AcDbEntity
  8
0
  6
Continuous
 62
     7
370
    15
100
AcDbLine
 10
549.1143336227773
 20
366.8027683303238
 30
0.0
 11
549.1143336227773
 21
371.0289537117363
 31
0.0
  0
LINE
  5
1C4
330
1F
100
AcDbEntity
  8
0
  6
Continuous
 62
     7
370
    15
100
AcDbLine
 10
547.6449790118872
 20
371.0289537117363
 30
0.0
 11
547.6449790118872
 21
366.8027683303238
 31
0.0
  0
LINE
  5
1C5
330
1F
100
AcDbEntity
  8
0
  6
Continuous
 62
     7
370
    15
100
AcDbLine
 10
550.9268806024133
 20
366.8027683303238
 30
0.0
 11
550.9268806024133
 21
371.0289537117363
 31
0.0
  0
LINE
  5
1C6
330
1F
100
AcDbEntity
  8
0
  6
Continuous
 62
     7
370
    15
100
AcDbLine
 10
549.4575262243538
 20
371.0289537117363
 30
0.0
 11
549.4575262243538
 21
366.8027683303238
 31
0.0
  0
LINE
  5
1C7
330
1F
100
AcDbEntity
  8
0
  6
Continuous
 62
     7
370
    15
100
AcDbLine
 10
552.9248952631981
 20
366.8027683303238
 30
0.0
 11
552.9248952631981
 21
371.0289537117363
 31
0.0
  0
LINE
  5
1C8
330
1F
100
AcDbEntity
  8
0
  6
Continuous
 62
     7
370
    15
100
AcDbLine
 10
551.4555408560349
 20
371.0289537117363
 30
0.0
 11
551.4555408560349
 21
366.8027683303238
 31
0.0
  0
LINE
  5
1C9
330
1F
100
AcDbEntity
  8
0
  6
Continuous
 62
     7
370
    15
100
AcDbLine
 10
545.1565875379978
 20
368.5641675398232
 30
0.0
 11
545.1565875379978
 21
372.7903454706551
 31
0.0
  0
LINE
  5
1CA
330
1F
100
AcDbEntity
  8
0
  6
Continuous
 62
     7
370
    15
100
AcDbLine
 10
543.6872333927688
 20
372.7903454706551
 30
0.0
 11
543.6872333927688
 21
368.5641675398232
 31
0.0
  0
LINE
  5
1CB
330
1F
100
AcDbEntity
  8
0
  6
Continuous
 62
     7
370
    15
100
AcDbLine
 10
547.1163188746807
 20
371.0289537117363
 30
0.0
 11
547.1163188746807
 21
372.7903454706551
 31
0.0
  0
LINE
  5
1CC
330
1F
100
AcDbEntity
  8
0
  6
Continuous
 62
     7
370
    15
100
AcDbLine
 10
545.6469642637905
 20
372.7903454706551
 30
0.0
 11
545.6469642637905
 21
371.0289537117363
 31
0.0
  0
LINE
  5
1CD
330
1F
100
AcDbEntity
  8
0
  6
Continuous
 62
     7
370
    15
100
AcDbLine
 10
549.1143336227773
 20
371.0289537117363
 30
0.0
 11
549.1143336227773
 21
372.7903454706551
 31
0.0
  0
LINE
  5
1CE
330
1F
100
AcDbEntity
  8
0
  6
Continuous
 62
     7
370
    15
100
AcDbLine
 10
547.6449790118872
 20
372.7903454706551
 30
0.0
 11
547.6449790118872
 21
371.0289537117363
 31
0.0
  0
LINE
  5
1CF
330
1F
100
AcDbEntity
  8
0
  6
Continuous
 62
     7
370
    15
100
AcDbLine
 10
550.9268806024133
 20
371.0289537117363
 30
0.0
 11
550.9268806024133
 21
372.7903454706551
 31
0.0
  0
LINE
  5
1D0
330
1F
100
AcDbEntity
  8
0
  6
Continuous
 62
     7
370
    15
100
AcDbLine
 10
549.4575262243538
 20
372.7903454706551
 30
0.0
 11
549.4575262243538
 21
371.0289537117363
 31
0.0
  0
LINE
  5
1D1
330
1F
100
AcDbEntity
  8
0
  6
Continuous
 62
     7
370
    15
100
AcDbLine
 10
552.9248952631981
 20
371.0289537117363
 30
0.0
 11
552.9248952631981
 21
372.7903454706551
 31
0.0
  0
LINE
  5
1D2
330
1F
100
AcDbEntity
  8
0
  6
Continuous
 62
     7
370
    15
100
AcDbLine
 10
551.4555408560349
 20
372.7903454706551
 30
0.0
 11
551.4555408560349
 21
371.0289537117363
 31
0.0
  0
LINE
  5
1D3
330
1F
100
AcDbEntity
  8
0
  6
Continuous
 62
     7
370
    15
100
AcDbLine
 10
554.8846265707773
 20
368.5641675398232
 30
0.0
 11
554.8846265707773
 21
372.7903454706551
 31
0.0
  0
LINE
  5
1D4
330
1F
100
AcDbEntity
  8
0
  6
Continuous
 62
     7
370
    15
100
AcDbLine
 10
553.4152721054063
 20
372.7903454706551
 30
0.0
 11
553.4152721054063
 21
368.5641675398232
 31
0.0
  0
LINE
  5
1D5
330
1F
100
AcDbEntity
  8
0
  6
Continuous
 62
     7
370
    15
100
AcDbLine
 10
543.1585727899012
 20
370.2548160359742
 30
0.0
 11
543.1585727899012
 21
374.4810014173867
 31
0.0
  0
LINE
  5
1D6
330
1F
100
AcDbEntity
  8
0
  6
Continuous
 62
     7
370
    15
100
AcDbLine
 10
541.6892186446725
 20
374.4810014173867
 30
0.0
 11
541.6892186446725
 21
370.2548160359742
 31
0.0
  0
LINE
  5
1D7
330
1F
100
AcDbEntity
  8
0
  6
Continuous
 62
     7
370
    15
100
AcDbLine
 10
545.1565875379978
 20
372.7903454706551
 30
0.0
 11
545.1565875379978
 21
374.4810014173867
 31
0.0
  0
LINE
  5
1D8
330
1F
100
AcDbEntity
  8
0
  6
Continuous
 62
     7
370
    15
100
AcDbLine
 10
543.6872333927688
 20
374.4810014173867
 30
0.0
 11
543.6872333927688
 21
372.7903454706551
 31
0.0
  0
LINE
  5
1D9
330
1F
100
AcDbEntity
  8
0
  6
Continuous
 62
     7
370
    15
100
AcDbLine
 10
547.1163188746807
 20
372.7903454706551
 30
0.0
 11
547.1163188746807
 21
374.4810014173867
 31
0.0
  0
LINE
  5
1DA
330
1F
100
AcDbEntity
  8
0
  6
Continuous
 62
     7
370
    15
100
AcDbLine
 10
545.6469642637905
 20
374.4810014173867
 30
0.0
 11
545.6469642637905
 21
372.7903454706551
 31
0.0
  0
LINE
  5
1DB
330
1F
100
AcDbEntity
  8
0
  6
Continuous
 62
     7
370
    15
100
AcDbLine
 10
549.1143336227773
 20
372.7903454706551
 30
0.0
 11
549.1143336227773
 21
374.4810014173867
 31
0.0
  0
LINE
  5
1DC
330
1F
100
AcDbEntity
  8
0
  6
Continuous
 62
     7
370
    15
100
AcDbLine
 10
547.6449790118872
 20
374.4810014173867
 30
0.0
 11
547.6449790118872
 21
372.7903454706551
 31
0.0
  0
LINE
  5
1DD
330
1F
100
AcDbEntity
  8
0
  6
Continuous
 62
     7
370
    15
100
AcDbLine
 10
550.9268806024133
 20
372.7903454706551
 30
0.0
 11
550.9268806024133
 21
374.4810014173867
 31
0.0
  0
LINE
  5
1DE
330
1F
100
AcDbEntity
  8
0
  6
Continuous
 62
     7
370
    15
100
AcDbLine
 10
549.4575262243538
 20
374.4810014173867
 30
0.0
 11
549.4575262243538
 21
372.7903454706551
 31
0.0
  0
LINE
  5
1DF
330
1F
100
AcDbEntity
  8
0
  6
Continuous
 62
     7
370
    15
100
AcDbLine
 10
552.9248952631981
 20
372.7903454706551
 30
0.0
 11
552.9248952631981
 21
374.4810014173867
 31
0.0
  0
LINE
  5
1E0
330
1F
100
AcDbEntity
  8
0
  6
Continuous
 62
     7
370
    15
100
AcDbLine
 10
551.4555408560349
 20
374.4810014173867
 30
0.0
 11
551.4555408560349
 21
372.7903454706551
 31
0.0
  0
LINE
  5
1E1
330
1F
100
AcDbEntity
  8
0
  6
Continuous
 62
     7
370
    15
100
AcDbLine
 10
554.8846265707773
 20
372.7903454706551
 30
0.0
 11
554.8846265707773
 21
374.4810014173867
 31
0.0
  0
LINE
  5
1E2
330
1F
100
AcDbEntity
  8
0
  6
Continuous
 62
     7
370
    15
100
AcDbLine
 10
553.4152721054063
 20
374.4810014173867
 30
0.0
 11
553.4152721054063
 21
372.7903454706551
 31
0.0
  0
LINE
  5
1E3
330
1F
100
AcDbEntity
  8
0
  6
Continuous
 62
     7
370
    15
100
AcDbLine
 10
556.8826412024584
 20
370.2548160359742
 30
0.0
 11
556.8826412024584
 21
374.4810014173867
 31
0.0
  0
LINE
  5
1E4
330
1F
100
AcDbEntity
  8
0
  6
Continuous
 62
     7
370
    15
100
AcDbLine
 10
555.4132865915683
 20
374.4810014173867
 30
0.0
 11
555.4132865915683
 21
370.2548160359742
 31
0.0
  0
LINE
  5
1E5
330
1F
100
AcDbEntity
  8
0
  6
Continuous
 62
     7
370
    15
100
AcDbLine
 10
543.1585727899012
 20
374.4810014173867
 30
0.0
 11
543.1585727899012
 21
376.2423931763054
 31
0.0
  0
LINE
  5
1E6
330
1F
100
AcDbEntity
  8
0
  6
Continuous
 62
     7
370
    15
100
AcDbLine
 10
541.6892186446725
 20
376.2423931763054
 30
0.0
 11
541.6892186446725
 21
374.4810014173867
 31
0.0
  0
LINE
  5
1E7
330
1F
100
AcDbEntity
  8
0
  6
Continuous
 62
     7
370
    15
100
AcDbLine
 10
545.1565875379978
 20
374.4810014173867
 30
0.0
 11
545.1565875379978
 21
376.2423931763054
 31
0.0
  0
LINE
  5
1E8
330
1F
100
AcDbEntity
  8
0
  6
Continuous
 62
     7
370
    15
100
AcDbLine
 10
543.6872333927688
 20
376.2423931763054
 30
0.0
 11
543.6872333927688
 21
374.4810014173867
 31
0.0
  0
LINE
  5
1E9
330
1F
100
AcDbEntity
  8
0
  6
Continuous
 62
     7
370
    15
100
AcDbLine
 10
547.1163188746807
 20
374.4810014173867
 30
0.0
 11
547.1163188746807
 21
376.2423931763054
 31
0.0
  0
LINE
  5
1EA
330
1F
100
AcDbEntity
  8
0
  6
Continuous
 62
     7
370
    15
100
AcDbLine
 10
545.6469642637905
 20
376.2423931763054
 30
0.0
 11
545.6469642637905
 21
374.4810014173867
 31
0.0
  0
LINE
  5
1EB
330
1F
100
AcDbEntity
  8
0
  6
Continuous
 62
     7
370
    15
100
AcDbLine
 10
549.1143336227773
 20
374.4810014173867
 30
0.0
 11
549.1143336227773
 21
376.2423931763054
 31
0.0
  0
LINE
  5
1EC
330
1F
100
AcDbEntity
  8
0
  6
Continuous
 62
     7
370
    15
100
AcDbLine
 10
547.6449790118872
 20
376.2423931763054
 30
0.0
 11
547.6449790118872
 21
374.4810014173867
 31
0.0
  0
LINE
  5
1ED
330
1F
100
AcDbEntity
  8
0
  6
Continuous
 62
     7
370
    15
100
AcDbLine
 10
550.9268806024133
 20
374.4810014173867
 30
0.0
 11
550.9268806024133
 21
376.2423931763054
 31
0.0
  0
LINE
  5
1EE
330
1F
100
AcDbEntity
  8
0
  6
Continuous
 62
     7
370
    15
100
AcDbLine
 10
549.4575262243538
 20
376.2423931763054
 30
0.0
 11
549.4575262243538
 21
374.4810014173867
 31
0.0
  0
LINE
  5
1EF
330
1F
100
AcDbEntity
  8
0
  6
Continuous
 62
     7
370
    15
100
AcDbLine
 10
552.9248952631981
 20
374.4810014173867
 30
0.0
 11
552.9248952631981
 21
376.2423931763054
 31
0.0
  0
LINE
  5
1F0
330
1F
100
AcDbEntity
  8
0
  6
Continuous
 62
     7
370
    15
100
AcDbLine
 10
551.4555408560349
 20
376.2423931763054
 30
0.0
 11
551.4555408560349
 21
374.4810014173867
 31
0.0
  0
LINE
  5
1F1
330
1F
100
AcDbEntity
  8
0
  6
Continuous
 62
     7
370
    15
100
AcDbLine
 10
554.8846265707773
 20
374.4810014173867
 30
0.0
 11
554.8846265707773
 21
376.2423931763054
 31
0.0
  0
LINE
  5
1F2
330
1F
100
AcDbEntity
  8
0
  6
Continuous
 62
     7
370
    15
100
AcDbLine
 10
553.4152721054063
 20
376.2423931763054
 30
0.0
 11
553.4152721054063
 21
374.4810014173867
 31
0.0
  0
LINE
  5
1F3
330
1F
100
AcDbEntity
  8
0
  6
Continuous
 62
     7
370
    15
100
AcDbLine
 10
556.8826412024584
 20
374.4810014173867
 30
0.0
 11
556.8826412024584
 21
376.2423931763054
 31
0.0
  0
LINE
  5
1F4
330
1F
100
AcDbEntity
  8
0
  6
Continuous
 62
     7
370
    15
100
AcDbLine
 10
555.4132865915683
 20
376.2423931763054
 30
0.0
 11
555.4132865915683
 21
374.4810014173867
 31
0.0
  0
LINE
  5
1F5
330
1F
100
AcDbEntity
  8
0
  6
Continuous
 62
     7
370
    15
100
AcDbLine
 10
543.1585727899012
 20
376.2423931763054
 30
0.0
 11
543.1585727899012
 21
378.1038238808991
 31
0.0
  0
LINE
  5
1F6
330
1F
100
AcDbEntity
  8
0
  6
Continuous
 62
     7
370
    15
100
AcDbLine
 10
541.6892186446725
 20
378.1038238808991
 30
0.0
 11
541.6892186446725
 21
376.2423931763054
 31
0.0
  0
LINE
  5
1F7
330
1F
100
AcDbEntity
  8
0
  6
Continuous
 62
     7
370
    15
100
AcDbLine
 10
545.1565875379978
 20
376.2423931763054
 30
0.0
 11
545.1565875379978
 21
378.1038238808991
 31
0.0
  0
LINE
  5
1F8
330
1F
100
AcDbEntity
  8
0
  6
Continuous
 62
     7
370
    15
100
AcDbLine
 10
543.6872333927688
 20
378.1038238808991
 30
0.0
 11
543.6872333927688
 21
376.2423931763054
 31
0.0
  0
LINE
  5
1F9
330
1F
100
AcDbEntity
  8
0
  6
Continuous
 62
     7
370
    15
100
AcDbLine
 10
547.1163188746807
 20
376.2423931763054
 30
0.0
 11
547.1163188746807
 21
378.1038238808991
 31
0.0
  0
LINE
  5
1FA
330
1F
100
AcDbEntity
  8
0
  6
Continuous
 62
     7
370
    15
100
AcDbLine
 10
545.6469642637905
 20
378.1038238808991
 30
0.0
 11
545.6469642637905
 21
376.2423931763054
 31
0.0
  0
LINE
  5
1FB
330
1F
100
AcDbEntity
  8
0
  6
Continuous
 62
     7
370
    15
100
AcDbLine
 10
549.1143336227773
 20
376.2423931763054
 30
0.0
 11
549.1143336227773
 21
378.1038238808991
 31
0.0
  0
LINE
  5
1FC
330
1F
100
AcDbEntity
  8
0
  6
Continuous
 62
     7
370
    15
100
AcDbLine
 10
547.6449790118872
 20
378.1038238808991
 30
0.0
 11
547.6449790118872
 21
376.2423931763054
 31
0.0
  0
LINE
  5
1FD
330
1F
100
AcDbEntity
  8
0
  6
Continuous
 62
     7
370
    15
100
AcDbLine
 10
550.9268806024133
 20
376.2423931763054
 30
0.0
 11
550.9268806024133
 21
378.1038238808991
 31
0.0
  0
LINE
  5
1FE
330
1F
100
AcDbEntity
  8
0
  6
Continuous
 62
     7
370
    15
100
AcDbLine
 10
549.4575262243538
 20
378.1038238808991
 30
0.0
 11
549.4575262243538
 21
376.2423931763054
 31
0.0
  0
LINE
  5
1FF
330
1F
100
AcDbEntity
  8
0
  6
Continuous
 62
     7
370
    15
100
AcDbLine
 10
552.9248952631981
 20
376.2423931763054
 30
0.0
 11
552.9248952631981
 21
378.1038238808991
 31
0.0
  0
LINE
  5
200
330
1F
100
AcDbEntity
  8
0
  6
Continuous
 62
     7
370
    15
100
AcDbLine
 10
551.4555408560349
 20
378.1038238808991
 30
0.0
 11
551.4555408560349
 21
376.2423931763054
 31
0.0
  0
LINE
  5
201
330
1F
100
AcDbEntity
  8
0
  6
Continuous
 62
     7
370
    15
100
AcDbLine
 10
554.8846265707773
 20
376.2423931763054
 30
0.0
 11
554.8846265707773
 21
378.1038238808991
 31
0.0
  0
LINE
  5
202
330
1F
100
AcDbEntity
  8
0
  6
Continuous
 62
     7
370
    15
100
AcDbLine
 10
553.4152721054063
 20
378.1038238808991
 30
0.0
 11
553.4152721054063
 21
376.2423931763054
 31
0.0
  0
LINE
  5
203
330
1F
100
AcDbEntity
  8
0
  6
Continuous
 62
     7
370
    15
100
AcDbLine
 10
556.8826412024584
 20
376.2423931763054
 30
0.0
 11
556.8826412024584
 21
378.1038238808991
 31
0.0
  0
LINE
  5
204
330
1F
100
AcDbEntity
  8
0
  6
Continuous
 62
     7
370
    15
100
AcDbLine
 10
555.4132865915683
 20
378.1038238808991
 30
0.0
 11
555.4132865915683
 21
376.2423931763054
 31
0.0
  0
LINE
  5
205
330
1F
100
AcDbEntity
  8
0
  6
Continuous
 62
     7
370
    15
100
AcDbLine
 10
543.1585727899012
 20
378.1038238808991
 30
0.0
 11
543.1585727899012
 21
379.8652230903983
 31
0.0
  0
LINE
  5
206
330
1F
100
AcDbEntity
  8
0
  6
Continuous
 62
     7
370
    15
100
AcDbLine
 10
541.6892186446725
 20
379.8652230903983
 30
0.0
 11
541.6892186446725
 21
378.1038238808991
 31
0.0
  0
LINE
  5
207
330
1F
100
AcDbEntity
  8
0
  6
Continuous
 62
     7
370
    15
100
AcDbLine
 10
545.1565875379978
 20
378.1038238808991
 30
0.0
 11
545.1565875379978
 21
379.8652230903983
 31
0.0
  0
LINE
  5
208
330
1F
100
AcDbEntity
  8
0
  6
Continuous
 62
     7
370
    15
100
AcDbLine
 10
543.6872333927688
 20
379.8652230903983
 30
0.0
 11
543.6872333927688
 21
378.1038238808991
 31
0.0
  0
LINE
  5
209
330
1F
100
AcDbEntity
  8
0
  6
Continuous
 62
     7
370
    15
100
AcDbLine
 10
547.1163188746807
 20
378.1038238808991
 30
0.0
 11
547.1163188746807
 21
379.8652230903983
 31
0.0
  0
LINE
  5
20A
330
1F
100
AcDbEntity
  8
0
  6
Continuous
 62
     7
370
    15
100
AcDbLine
 10
545.6469642637905
 20
379.8652230903983
 30
0.0
 11
545.6469642637905
 21
378.1038238808991
 31
0.0
  0
LINE
  5
20B
330
1F
100
AcDbEntity
  8
0
  6
Continuous
 62
     7
370
    15
100
AcDbLine
 10
549.1143336227773
 20
378.1038238808991
 30
0.0
 11
549.1143336227773
 21
379.8652230903983
 31
0.0
  0
LINE
  5
20C
330
1F
100
AcDbEntity
  8
0
  6
Continuous
 62
     7
370
    15
100
AcDbLine
 10
547.6449790118872
 20
379.8652230903983
 30
0.0
 11
547.6449790118872
 21
378.1038238808991
 31
0.0
  0
LINE
  5
20D
330
1F
100
AcDbEntity
  8
0
  6
Continuous
 62
     7
370
    15
100
AcDbLine
 10
550.9268806024133
 20
378.1038238808991
 30
0.0
 11
550.9268806024133
 21
379.8652230903983
 31
0.0
  0
LINE
  5
20E
330
1F
100
AcDbEntity
  8
0
  6
Continuous
 62
     7
370
    15
100
AcDbLine
 10
549.4575262243538
 20
379.8652230903983
 30
0.0
 11
549.4575262243538
 21
378.1038238808991
 31
0.0
  0
LINE
  5
20F
330
1F
100
AcDbEntity
  8
0
  6
Continuous
 62
     7
370
    15
100
AcDbLine
 10
552.9248952631981
 20
378.1038238808991
 30
0.0
 11
552.9248952631981
 21
379.8652230903983
 31
0.0
  0
LINE
  5
210
330
1F
100
AcDbEntity
  8
0
  6
Continuous
 62
     7
370
    15
100
AcDbLine
 10
551.4555408560349
 20
379.8652230903983
 30
0.0
 11
551.4555408560349
 21
378.1038238808991
 31
0.0
  0
LINE
  5
211
330
1F
100
AcDbEntity
  8
0
  6
Continuous
 62
     7
370
    15
100
AcDbLine
 10
554.8846265707773
 20
378.1038238808991
 30
0.0
 11
554.8846265707773
 21
379.8652230903983
 31
0.0
  0
LINE
  5
212
330
1F
100
AcDbEntity
  8
0
  6
Continuous
 62
     7
370
    15
100
AcDbLine
 10
553.4152721054063
 20
379.8652230903983
 30
0.0
 11
553.4152721054063
 21
378.1038238808991
 31
0.0
  0
LINE
  5
213
330
1F
100
AcDbEntity
  8
0
  6
Continuous
 62
     7
370
    15
100
AcDbLine
 10
556.8826412024584
 20
378.1038238808991
 30
0.0
 11
556.8826412024584
 21
379.8652230903983
 31
0.0
  0
LINE
  5
214
330
1F
100
AcDbEntity
  8
0
  6
Continuous
 62
     7
370
    15
100
AcDbLine
 10
555.4132865915683
 20
379.8652230903983
 30
0.0
 11
555.4132865915683
 21
378.1038238808991
 31
0.0
  0
LINE
  5
215
330
1F
100
AcDbEntity
  8
0
  6
Continuous
 62
     7
370
    15
100
AcDbLine
 10
545.1565875379978
 20
379.8652230903983
 30
0.0
 11
545.1565875379978
 21
381.5558715865493
 31
0.0
  0
LINE
  5
216
330
1F
100
AcDbEntity
  8
0
  6
Continuous
 62
     7
370
    15
100
AcDbLine
 10
543.6872333927688
 20
381.5558715865493
 30
0.0
 11
543.6872333927688
 21
379.8652230903983
 31
0.0
  0
LINE
  5
217
330
1F
100
AcDbEntity
  8
0
  6
Continuous
 62
     7
370
    15
100
AcDbLine
 10
547.1163188746807
 20
379.8652230903983
 30
0.0
 11
547.1163188746807
 21
381.5558715865493
 31
0.0
  0
LINE
  5
218
330
1F
100
AcDbEntity
  8
0
  6
Continuous
 62
     7
370
    15
100
AcDbLine
 10
545.6469642637905
 20
381.5558715865493
 30
0.0
 11
545.6469642637905
 21
379.8652230903983
 31
0.0
  0
LINE
  5
219
330
1F
100
AcDbEntity
  8
0
  6
Continuous
 62
     7
370
    15
100
AcDbLine
 10
549.1143336227773
 20
379.8652230903983
 30
0.0
 11
549.1143336227773
 21
381.5558715865493
 31
0.0
  0
LINE
  5
21A
330
1F
100
AcDbEntity
  8
0
  6
Continuous
 62
     7
370
    15
100
AcDbLine
 10
547.6449790118872
 20
381.5558715865493
 30
0.0
 11
547.6449790118872
 21
379.8652230903983
 31
0.0
  0
LINE
  5
21B
330
1F
100
AcDbEntity
  8
0
  6
Continuous
 62
     7
370
    15
100
AcDbLine
 10
550.9268806024133
 20
379.8652230903983
 30
0.0
 11
550.9268806024133
 21
381.5558715865493
 31
0.0
  0
LINE
  5
21C
330
1F
100
AcDbEntity
  8
0
  6
Continuous
 62
     7
370
    15
100
AcDbLine
 10
549.4575262243538
 20
381.5558715865493
 30
0.0
 11
549.4575262243538
 21
379.8652230903983
 31
0.0
  0
LINE
  5
21D
330
1F
100
AcDbEntity
  8
0
  6
Continuous
 62
     7
370
    15
100
AcDbLine
 10
552.9248952631981
 20
379.8652230903983
 30
0.0
 11
552.9248952631981
 21
381.5558715865493
 31
0.0
  0
LINE
  5
21E
330
1F
100
AcDbEntity
  8
0
  6
Continuous
 62
     7
370
    15
100
AcDbLine
 10
551.4555408560349
 20
381.5558715865493
 30
0.0
 11
551.4555408560349
 21
379.8652230903983
 31
0.0
  0
LINE
  5
21F
330
1F
100
AcDbEntity
  8
0
  6
Continuous
 62
     7
370
    15
100
AcDbLine
 10
554.8846265707773
 20
379.8652230903983
 30
0.0
 11
554.8846265707773
 21
381.5558715865493
 31
0.0
  0
LINE
  5
220
330
1F
100
AcDbEntity
  8
0
  6
Continuous
 62
     7
370
    15
100
AcDbLine
 10
553.4152721054063
 20
381.5558715865493
 30
0.0
 11
553.4152721054063
 21
379.8652230903983
 31
0.0
  0
LINE
  5
221
330
1F
100
AcDbEntity
  8
0
  6
Continuous
 62
     7
370
    15
100
AcDbLine
 10
565.4575179039177
 20
369.3338870212914
 30
0.0
 11
565.4575179039177
 21
373.5600724027039
 31
0.0
  0
LINE
  5
222
330
1F
100
AcDbEntity
  8
0
  6
Continuous
 62
     7
370
    15
100
AcDbLine
 10
532.944472198063
 20
373.5600724027039
 30
0.0
 11
532.944472198063
 21
369.3338870212914
 31
0.0
  0
LINE
  5
223
330
1F
100
AcDbEntity
  8
0
  6
Continuous
 62
     7
370
    15
100
AcDbLine
 10
547.1163188746807
 20
381.5558715865493
 30
0.0
 11
547.1163188746807
 21
383.3172707960488
 31
0.0
  0
LINE
  5
224
330
1F
100
AcDbEntity
  8
0
  6
Continuous
 62
     7
370
    15
100
AcDbLine
 10
545.6469642637905
 20
383.3172707960488
 30
0.0
 11
545.6469642637905
 21
381.5558715865493
 31
0.0
  0
LINE
  5
225
330
1F
100
AcDbEntity
  8
0
  6
Continuous
 62
     7
370
    15
100
AcDbLine
 10
549.1143336227773
 20
381.5558715865493
 30
0.0
 11
549.1143336227773
 21
383.3172707960488
 31
0.0
  0
LINE
  5
226
330
1F
100
AcDbEntity
  8
0
  6
Continuous
 62
     7
370
    15
100
AcDbLine
 10
547.6449790118872
 20
383.3172707960488
 30
0.0
 11
547.6449790118872
 21
381.5558715865493
 31
0.0
  0
LINE
  5
227
330
1F
100
AcDbEntity
  8
0
  6
Continuous
 62
     7
370
    15
100
AcDbLine
 10
550.9268806024133
 20
381.5558715865493
 30
0.0
 11
550.9268806024133
 21
383.3172707960488
 31
0.0
  0
LINE
  5
228
330
1F
100
AcDbEntity
  8
0
  6
Continuous
 62
     7
370
    15
100
AcDbLine
 10
549.4575262243538
 20
383.3172707960488
 30
0.0
 11
549.4575262243538
 21
381.5558715865493
 31
0.0
  0
LINE
  5
229
330
1F
100
AcDbEntity
  8
0
  6
Continuous
 62
     7
370
    15
100
AcDbLine
 10
552.9248952631981
 20
381.5558715865493
 30
0.0
 11
552.9248952631981
 21
383.3172707960488
 31
0.0
  0
LINE
  5
22A
330
1F
100
AcDbEntity
  8
0
  6
Continuous
 62
     7
370
    15
100
AcDbLine
 10
551.4555408560349
 20
383.3172707960488
 30
0.0
 11
551.4555408560349
 21
381.5558715865493
 31
0.0
  0
LINE
  5
22B
330
1F
100
AcDbEntity
  8
0
  6
Continuous
 62
     7
370
    15
100
AcDbLine
 10
566.3830765231191
 20
391.461597304094
 30
0.0
 11
566.3830765231191
 21
406.4615904495598
 31
0.0
  0
LINE
  5
22C
330
1F
100
AcDbEntity
  8
0
  6
Continuous
 62
     7
370
    15
100
AcDbLine
 10
532.5996779544889
 20
406.4615904495598
 30
0.0
 11
532.5996779544889
 21
391.461597304094
 31
0.0
  0
LINE
  5
22D
330
1F
100
AcDbEntity
  8
0
  6
Continuous
 62
     7
370
    15
100
AcDbLine
 10
516.2870433821021
 20
356.4615934297921
 30
0.0
 11
516.2870433821021
 21
336.4615938768269
 31
0.0
  0
LINE
  5
22E
330
1F
100
AcDbEntity
  8
0
  6
Continuous
 62
     7
370
    15
100
AcDbLine
 10
506.2870417429744
 20
336.4615938768269
 30
0.0
 11
506.2870417429744
 21
356.4615934297921
 31
0.0
  0
LINE
  5
22F
330
1F
100
AcDbEntity
  8
0
  6
Continuous
 62
     7
370
    15
100
AcDbLine
 10
516.2870433821021
 20
336.4615938768269
 30
0.0
 11
506.2870417429744
 21
336.4615938768269
 31
0.0
  0
LINE
  5
230
330
1F
100
AcDbEntity
  8
0
  6
Continuous
 62
     7
370
    15
100
AcDbLine
 10
506.2870417429744
 20
356.4615934297921
 30
0.0
 11
516.2870433821021
 21
356.4615934297921
 31
0.0
  0
LINE
  5
231
330
1F
100
AcDbEntity
  8
0
  6
Continuous
 62
     7
370
    15
100
AcDbLine
 10
592.2870446636018
 20
336.4615938768269
 30
0.0
 11
592.2870446636018
 21
356.4615934297921
 31
0.0
  0
LINE
  5
232
330
1F
100
AcDbEntity
  8
0
  6
Continuous
 62
     7
370
    15
100
AcDbLine
 10
516.2870433821021
 20
336.4615938768269
 30
0.0
 11
592.2870446636018
 21
336.4615938768269
 31
0.0
  0
LINE
  5
233
330
1F
100
AcDbEntity
  8
0
  6
Continuous
 62
     7
370
    15
100
AcDbLine
 10
516.2870433821021
 20
356.4615934297921
 30
0.0
 11
592.2870446636018
 21
356.4615934297921
 31
0.0
  0
LINE
  5
234
330
1F
100
AcDbEntity
  8
0
  6
Continuous
 62
     7
370
    15
100
AcDbLine
 10
602.2870425774394
 20
356.4615934297921
 30
0.0
 11
602.2870425774394
 21
336.4615938768269
 31
0.0
  0
LINE
  5
235
330
1F
100
AcDbEntity
  8
0
  6
Continuous
 62
     7
370
    15
100
AcDbLine
 10
602.2870425774394
 20
336.4615938768269
 30
0.0
 11
592.2870446636018
 21
336.4615938768269
 31
0.0
  0
LINE
  5
236
330
1F
100
AcDbEntity
  8
0
  6
Continuous
 62
     7
370
    15
100
AcDbLine
 10
592.2870446636018
 20
356.4615934297921
 30
0.0
 11
602.2870425774394
 21
356.4615934297921
 31
0.0
  0
LINE
  5
237
330
1F
100
AcDbEntity
  8
0
  6
Continuous
 62
     7
370
    15
100
AcDbLine
 10
511.2870444251834
 20
311.4615935042979
 30
0.0
 11
511.2870444251834
 21
336.4615938768269
 31
0.0
  0
LINE
  5
238
330
1F
100
AcDbEntity
  8
0
  6
Continuous
 62
     7
370
    15
100
AcDbLine
 10
521.2870423390208
 20
336.4615938768269
 30
0.0
 11
521.2870423390208
 21
301.4615937278153
 31
0.0
  0
ARC
  5
239
330
1F
100
AcDbEntity
  8
0
  6
Continuous
 62
     7
370
    15
100
AcDbCircle
 10
521.2870432111685
 20
311.4615937278153
 30
0.0
 40
10.0
100
AcDbArc
 50
180.0
 51
270.0000000000013
  0
LINE
  5
23A
330
1F
100
AcDbEntity
  8
0
  6
Continuous
 62
     7
370
    15
100
AcDbLine
 10
597.2870436205207
 20
336.4615938768269
 30
0.0
 11
597.2870436205207
 21
311.4615935042979
 31
0.0
  0
ARC
  5
23B
330
1F
100
AcDbEntity
  8
0
  6
Continuous
 62
     7
370
    15
100
AcDbCircle
 10
587.2870432111685
 20
311.4615937278153
 30
0.0
 40
10.0
100
AcDbArc
 50
270.0000000000013
 51
0.0
  0
LINE
  5
23C
330
1F
100
AcDbEntity
  8
0
  6
Continuous
 62
     7
370
    15
100
AcDbLine
 10
587.287041981393
 20
301.4615937278153
 30
0.0
 11
587.287041981393
 21
336.4615938768269
 31
0.0
  0
LINE
  5
23D
330
1F
100
AcDbEntity
  8
0
  6
Continuous
 62
     7
370
    15
100
AcDbLine
 10
587.287041981393
 20
301.4615937278153
 30
0.0
 11
521.2870423390208
 21
301.4615937278153
 31
0.0
  0
LINE
  5
23E
330
1F
100
AcDbEntity
  8
0
  6
Continuous
 62
     7
370
    15
100
AcDbLine
 10
506.3462217046557
 20
331.461593057263
 30
0.0
 11
506.3462217046557
 21
336.4615938768269
 31
0.0
  0
LINE
  5
23F
330
1F
100
AcDbEntity
  8
0
  6
Continuous
 62
     7
370
    15
100
AcDbLine
 10
511.2870444251834
 20
331.461593057263
 30
0.0
 11
506.3462217046557
 21
331.461593057263
 31
0.0
  0
LINE
  5
240
330
1F
100
AcDbEntity
  8
0
  6
Continuous
 62
     7
370
    15
100
AcDbLine
 10
602.2870425774394
 20
331.461593057263
 30
0.0
 11
597.2870436205207
 21
331.461593057263
 31
0.0
  0
LINE
  5
241
330
1F
100
AcDbEntity
  8
0
  6
Continuous
 62
     7
370
    15
100
AcDbLine
 10
602.2870425774394
 20
331.461593057263
 30
0.0
 11
602.2870425774394
 21
336.4615938768269
 31
0.0
  0
LWPOLYLINE
  5
242
330
1F
100
AcDbEntity
  8
0
  6
Continuous
 62
     7
370
    15
100
AcDbPolyline
 90
       17
 70
   128
 43
0.0
 10
546.3816418020664
 20
370.3631102249504
 10
546.6627903922137
 20
370.4137965247513
 10
546.9011367938158
 20
370.5581291720749
 10
547.0603948167203
 20
370.7741438553215
 10
547.1163188746807
 20
371.0289537117363
 10
547.0603948167203
 20
371.2837635681511
 10
546.9011367938158
 20
371.4997782513977
 10
546.6627903922137
 20
371.6441108987214
 10
546.3816418020664
 20
371.6947971985222
 10
546.1004927462575
 20
371.6441108987214
 10
545.8621463446554
 20
371.4997782513977
 10
545.7028883217512
 20
371.2837635681511
 10
545.6469642637905
 20
371.0289537117363
 10
545.7028883217512
 20
370.7741438553215
 10
545.8621463446554
 20
370.5581291720749
 10
546.1004927462575
 20
370.4137965247513
 10
546.3816418020664
 20
370.3631102249504
  0
ARC
  5
243
330
1F
100
AcDbEntity
  8
0
  6
Continuous
 62
     7
370
    15
100
AcDbCircle
 10
546.4144391749634
 20
366.838971955701
 30
0.0
 40
0.7028127882769719
100
AcDbArc
 50
267.3252709885716
 51
357.0472458002572
  0
ARC
  5
244
330
1F
100
AcDbEntity
  8
0
  6
Continuous
 62
     7
370
    15
100
AcDbCircle
 10
546.3488439982488
 20
366.8389719710964
 30
0.0
 40
0.7028128237648918
100
AcDbArc
 50
182.9527553072653
 51
272.6747640447753
  0
LWPOLYLINE
  5
245
330
1F
100
AcDbEntity
  8
0
  6
Continuous
 62
     7
370
    15
100
AcDbPolyline
 90
       17
 70
   128
 43
0.0
 10
548.3796560845016
 20
370.3631102249504
 10
548.6608051403104
 20
370.4137965247513
 10
548.8991515419124
 20
370.5581291720749
 10
549.0584095648168
 20
370.7741438553215
 10
549.1143336227773
 20
371.0289537117363
 10
549.0584095648168
 20
371.2837635681511
 10
548.8991515419124
 20
371.4997782513977
 10
548.6608051403104
 20
371.6441108987214
 10
548.3796560845016
 20
371.6947971985222
 10
548.0985074943541
 20
371.6441108987214
 10
547.8601610927521
 20
371.4997782513977
 10
547.7009030698475
 20
371.2837635681511
 10
547.6449790118872
 20
371.0289537117363
 10
547.7009030698475
 20
370.7741438553215
 10
547.8601610927521
 20
370.5581291720749
 10
548.0985074943541
 20
370.4137965247513
 10
548.3796560845016
 20
370.3631102249504
  0
ARC
  5
246
330
1F
100
AcDbEntity
  8
0
  6
Continuous
 62
     7
370
    15
100
AcDbCircle
 10
548.4124538883195
 20
366.838971971096
 30
0.0
 40
0.7028128237645934
100
AcDbArc
 50
267.3252359552247
 51
357.0472446927581
  0
ARC
  5
247
330
1F
100
AcDbEntity
  8
0
  6
Continuous
 62
     7
370
    15
100
AcDbCircle
 10
548.3468587116042
 20
366.8389719557009
 30
0.0
 40
0.702812788276696
100
AcDbArc
 50
182.9527541997342
 51
272.6747290114767
  0
LWPOLYLINE
  5
248
330
1F
100
AcDbEntity
  8
0
  6
Continuous
 62
     7
370
    15
100
AcDbPolyline
 90
       17
 70
   128
 43
0.0
 10
550.1922035297988
 20
370.3631102249504
 10
550.473352352777
 20
370.4137965247513
 10
550.711698754379
 20
370.5581291720749
 10
550.8709567772834
 20
370.7741438553215
 10
550.9268806024133
 20
371.0289537117363
 10
550.8709567772834
 20
371.2837635681511
 10
550.711698754379
 20
371.4997782513977
 10
550.473352352777
 20
371.6441108987214
 10
550.1922035297988
 20
371.6947971985222
 10
549.9110547068207
 20
371.6441108987214
 10
549.6727083052187
 20
371.4997782513977
 10
549.5134502823143
 20
371.2837635681511
 10
549.4575262243538
 20
371.0289537117363
 10
549.5134502823143
 20
370.7741438553215
 10
549.6727083052187
 20
370.5581291720749
 10
549.9110547068207
 20
370.4137965247513
 10
550.1922035297988
 20
370.3631102249504
  0
ARC
  5
249
330
1F
100
AcDbEntity
  8
0
  6
Continuous
 62
     7
370
    15
100
AcDbCircle
 10
550.225001334998
 20
366.838971478709
 30
0.0
 40
0.7028123319783447
100
AcDbArc
 50
267.3252339694928
 51
357.0472828192857
  0
ARC
  5
24A
330
1F
100
AcDbEntity
  8
0
  6
Continuous
 62
     7
370
    15
100
AcDbCircle
 10
550.1594059414417
 20
366.8389719633986
 30
0.0
 40
0.7028128060209281
100
AcDbArc
 50
182.9527547534994
 51
272.6747465281036
  0
LWPOLYLINE
  5
24B
330
1F
100
AcDbEntity
  8
0
  6
Continuous
 62
     7
370
    15
100
AcDbPolyline
 90
       17
 70
   128
 43
0.0
 10
552.1902180450647
 20
370.3631102249504
 10
552.4713668680428
 20
370.4137965247513
 10
552.7097132987487
 20
370.5581291720749
 10
552.8689712925492
 20
370.7741438553215
 10
552.9248952631981
 20
371.0289537117363
 10
552.8689712925492
 20
371.2837635681511
 10
552.7097132987487
 20
371.4997782513977
 10
552.4713668680428
 20
371.6441108987214
 10
552.1902180450647
 20
371.6947971985222
 10
551.9090692220865
 20
371.6441108987214
 10
551.6707228204845
 20
371.4997782513977
 10
551.5114647975801
 20
371.2837635681511
 10
551.4555408560349
 20
371.0289537117363
 10
551.5114647975801
 20
370.7741438553215
 10
551.6707228204845
 20
370.5581291720749
 10
551.9090692220865
 20
370.4137965247513
 10
552.1902180450647
 20
370.3631102249504
  0
ARC
  5
24C
330
1F
100
AcDbEntity
  8
0
  6
Continuous
 62
     7
370
    15
100
AcDbCircle
 10
552.223015730254
 20
366.8389717645191
 30
0.0
 40
0.7028126118769684
100
AcDbArc
 50
267.3252448298011
 51
357.0472606650311
  0
ARC
  5
24D
330
1F
100
AcDbEntity
  8
0
  6
Continuous
 62
     7
370
    15
100
AcDbCircle
 10
552.1574203482868
 20
366.8389717210538
 30
0.0
 40
0.702812568999785
100
AcDbArc
 50
182.9527359671125
 51
272.6747562792793
  0
LWPOLYLINE
  5
24E
330
1F
100
AcDbEntity
  8
0
  6
Continuous
 62
     7
370
    15
100
AcDbPolyline
 90
       17
 70
   128
 43
0.0
 10
544.4219099997221
 20
372.1245019838692
 10
544.703059521192
 20
372.1751882836701
 10
544.9414054571329
 20
372.3195283815743
 10
545.1006634800373
 20
372.5355430648209
 10
545.1565875379978
 20
372.7903454706551
 10
545.1006634800373
 20
373.0451553270699
 10
544.9414054571329
 20
373.2611700103165
 10
544.703059521192
 20
373.4055101082207
 10
544.4219099997221
 20
373.456188957441
 10
544.1407614095746
 20
373.4055101082207
 10
543.9024154736337
 20
373.2611700103165
 10
543.7431574507295
 20
373.0451553270699
 10
543.6872333927688
 20
372.7903454706551
 10
543.7431574507295
 20
372.5355430648209
 10
543.9024154736337
 20
372.3195283815743
 10
544.1407614095746
 20
372.1751882836701
 10
544.4219099997221
 20
372.1245019838692
  0
ARC
  5
24F
330
1F
100
AcDbEntity
  8
0
  6
Continuous
 62
     7
370
    15
100
AcDbCircle
 10
544.4547225159462
 20
368.6003549472389
 30
0.0
 40
0.7027972948403926
100
AcDbArc
 50
267.3239760684194
 51
357.0485045795858
  0
ARC
  5
250
330
1F
100
AcDbEntity
  8
0
  6
Continuous
 62
     7
370
    15
100
AcDbCircle
 10
544.3890983452977
 20
368.6003549164243
 30
0.0
 40
0.7027972238235423
100
AcDbArc
 50
182.9514932034122
 51
272.6759538669808
  0
LWPOLYLINE
  5
251
330
1F
100
AcDbEntity
  8
0
  6
Continuous
 62
     7
370
    15
100
AcDbPolyline
 90
       17
 70
   128
 43
0.0
 10
546.3816418020664
 20
372.1245019838692
 10
546.6627903922137
 20
372.1751882836701
 10
546.9011367938158
 20
372.3195283815743
 10
547.0603948167203
 20
372.5355430648209
 10
547.1163188746807
 20
372.7903454706551
 10
547.0603948167203
 20
373.0451553270699
 10
546.9011367938158
 20
373.2611700103165
 10
546.6627903922137
 20
373.4055101082207
 10
546.3816418020664
 20
373.456188957441
 10
546.1004927462575
 20
373.4055101082207
 10
545.8621463446554
 20
373.2611700103165
 10
545.7028883217512
 20
373.0451553270699
 10
545.6469642637905
 20
372.7903454706551
 10
545.7028883217512
 20
372.5355430648209
 10
545.8621463446554
 20
372.3195283815743
 10
546.1004927462575
 20
372.1751882836701
 10
546.3816418020664
 20
372.1245019838692
  0
LWPOLYLINE
  5
252
330
1F
100
AcDbEntity
  8
0
  6
Continuous
 62
     7
370
    15
100
AcDbPolyline
 90
       17
 70
   128
 43
0.0
 10
548.3796560845016
 20
372.1245019838692
 10
548.6608051403104
 20
372.1751882836701
 10
548.8991515419124
 20
372.3195283815743
 10
549.0584095648168
 20
372.5355430648209
 10
549.1143336227773
 20
372.7903454706551
 10
549.0584095648168
 20
373.0451553270699
 10
548.8991515419124
 20
373.2611700103165
 10
548.6608051403104
 20
373.4055101082207
 10
548.3796560845016
 20
373.456188957441
 10
548.0985074943541
 20
373.4055101082207
 10
547.8601610927521
 20
373.2611700103165
 10
547.7009030698475
 20
373.0451553270699
 10
547.6449790118872
 20
372.7903454706551
 10
547.7009030698475
 20
372.5355430648209
 10
547.8601610927521
 20
372.3195283815743
 10
548.0985074943541
 20
372.1751882836701
 10
548.3796560845016
 20
372.1245019838692
  0
LWPOLYLINE
  5
253
330
1F
100
AcDbEntity
  8
0
  6
Continuous
 62
     7
370
    15
100
AcDbPolyline
 90
       17
 70
   128
 43
0.0
 10
550.1922035297988
 20
372.1245019838692
 10
550.473352352777
 20
372.1751882836701
 10
550.711698754379
 20
372.3195283815743
 10
550.8709567772834
 20
372.5355430648209
 10
550.9268806024133
 20
372.7903454706551
 10
550.8709567772834
 20
373.0451553270699
 10
550.711698754379
 20
373.2611700103165
 10
550.473352352777
 20
373.4055101082207
 10
550.1922035297988
 20
373.456188957441
 10
549.9110547068207
 20
373.4055101082207
 10
549.6727083052187
 20
373.2611700103165
 10
549.5134502823143
 20
373.0451553270699
 10
549.4575262243538
 20
372.7903454706551
 10
549.5134502823143
 20
372.5355430648209
 10
549.6727083052187
 20
372.3195283815743
 10
549.9110547068207
 20
372.1751882836701
 10
550.1922035297988
 20
372.1245019838692
  0
LWPOLYLINE
  5
254
330
1F
100
AcDbEntity
  8
0
  6
Continuous
 62
     7
370
    15
100
AcDbPolyline
 90
       17
 70
   128
 43
0.0
 10
552.1902180450647
 20
372.1245019838692
 10
552.4713668680428
 20
372.1751882836701
 10
552.7097132987487
 20
372.3195283815743
 10
552.8689712925492
 20
372.5355430648209
 10
552.9248952631981
 20
372.7903454706551
 10
552.8689712925492
 20
373.0451553270699
 10
552.7097132987487
 20
373.2611700103165
 10
552.4713668680428
 20
373.4055101082207
 10
552.1902180450647
 20
373.456188957441
 10
551.9090692220865
 20
373.4055101082207
 10
551.6707228204845
 20
373.2611700103165
 10
551.5114647975801
 20
373.0451553270699
 10
551.4555408560349
 20
372.7903454706551
 10
551.5114647975801
 20
372.5355430648209
 10
551.6707228204845
 20
372.3195283815743
 10
551.9090692220865
 20
372.1751882836701
 10
552.1902180450647
 20
372.1245019838692
  0
ARC
  5
255
330
1F
100
AcDbEntity
  8
0
  6
Continuous
 62
     7
370
    15
100
AcDbCircle
 10
554.1827614447945
 20
368.6003550733883
 30
0.0
 40
0.7027974051291443
100
AcDbArc
 50
267.324003973247
 51
357.0484947451443
  0
ARC
  5
256
330
1F
100
AcDbEntity
  8
0
  6
Continuous
 62
     7
370
    15
100
AcDbCircle
 10
554.1171371204845
 20
368.6003549581902
 30
0.0
 40
0.7027972884406513
100
AcDbArc
 50
182.9514963413125
 51
272.6759936463215
  0
LWPOLYLINE
  5
257
330
1F
100
AcDbEntity
  8
0
  6
Continuous
 62
     7
370
    15
100
AcDbPolyline
 90
       17
 70
   128
 43
0.0
 10
554.1499492653322
 20
372.1245019838692
 10
554.4310980883103
 20
372.1751882836701
 10
554.6694446063279
 20
372.3195283815743
 10
554.8287025128169
 20
372.5355430648209
 10
554.8846265707773
 20
372.7903454706551
 10
554.8287025128169
 20
373.0451553270699
 10
554.6694446063279
 20
373.2611700103165
 10
554.4310980883103
 20
373.4055101082207
 10
554.1499492653322
 20
373.456188957441
 10
553.8688005005619
 20
373.4055101082207
 10
553.6304540989599
 20
373.2611700103165
 10
553.4711960760555
 20
373.0451553270699
 10
553.4152721054063
 20
372.7903454706551
 10
553.4711960760555
 20
372.5355430648209
 10
553.6304540989599
 20
372.3195283815743
 10
553.8688005005619
 20
372.1751882836701
 10
554.1499492653322
 20
372.1245019838692
  0
LWPOLYLINE
  5
258
330
1F
100
AcDbEntity
  8
0
  6
Continuous
 62
     7
370
    15
100
AcDbPolyline
 90
       17
 70
   128
 43
0.0
 10
542.4238961829482
 20
373.8151579306008
 10
542.7050447730957
 20
373.8658442304017
 10
542.9433907090363
 20
374.0101768777253
 10
543.1026487319408
 20
374.2261915609719
 10
543.1585727899012
 20
374.4810014173867
 10
543.1026487319408
 20
374.7358038232209
 10
542.9433907090363
 20
374.9518259570479
 10
542.7050447730957
 20
375.0961586043717
 10
542.4238961829482
 20
375.1468449041724
 10
542.1427466614781
 20
375.0961586043717
 10
541.9044007255374
 20
374.9518259570479
 10
541.745142702633
 20
374.7358038232209
 10
541.6892186446725
 20
374.4810014173867
 10
541.745142702633
 20
374.2261915609719
 10
541.9044007255374
 20
374.0101768777253
 10
542.1427466614781
 20
373.8658442304017
 10
542.4238961829482
 20
373.8151579306008
  0
ARC
  5
259
330
1F
100
AcDbEntity
  8
0
  6
Continuous
 62
     7
370
    15
100
AcDbCircle
 10
542.4566974461838
 20
370.2910148779766
 30
0.0
 40
0.7028081916715561
100
AcDbArc
 50
267.3249359800463
 51
357.0476169496195
  0
ARC
  5
25A
330
1F
100
AcDbEntity
  8
0
  6
Continuous
 62
     7
370
    15
100
AcDbCircle
 10
542.3910940578805
 20
370.2910149087709
 30
0.0
 40
0.7028082626561332
100
AcDbArc
 50
182.9523852657288
 51
272.6751340862801
  0
LWPOLYLINE
  5
25B
330
1F
100
AcDbEntity
  8
0
  6
Continuous
 62
     7
370
    15
100
AcDbPolyline
 90
       17
 70
   128
 43
0.0
 10
544.4219099997221
 20
373.8151579306008
 10
544.703059521192
 20
373.8658442304017
 10
544.9414054571329
 20
374.0101768777253
 10
545.1006634800373
 20
374.2261915609719
 10
545.1565875379978
 20
374.4810014173867
 10
545.1006634800373
 20
374.7358038232209
 10
544.9414054571329
 20
374.9518259570479
 10
544.703059521192
 20
375.0961586043717
 10
544.4219099997221
 20
375.1468449041724
 10
544.1407614095746
 20
375.0961586043717
 10
543.9024154736337
 20
374.9518259570479
 10
543.7431574507295
 20
374.7358038232209
 10
543.6872333927688
 20
374.4810014173867
 10
543.7431574507295
 20
374.2261915609719
 10
543.9024154736337
 20
374.0101768777253
 10
544.1407614095746
 20
373.8658442304017
 10
544.4219099997221
 20
373.8151579306008
  0
LWPOLYLINE
  5
25C
330
1F
100
AcDbEntity
  8
0
  6
Continuous
 62
     7
370
    15
100
AcDbPolyline
 90
       17
 70
   128
 43
0.0
 10
546.3816418020664
 20
373.8151579306008
 10
546.6627903922137
 20
373.8658442304017
 10
546.9011367938158
 20
374.0101768777253
 10
547.0603948167203
 20
374.2261915609719
 10
547.1163188746807
 20
374.4810014173867
 10
547.0603948167203
 20
374.7358038232209
 10
546.9011367938158
 20
374.9518259570479
 10
546.6627903922137
 20
375.0961586043717
 10
546.3816418020664
 20
375.1468449041724
 10
546.1004927462575
 20
375.0961586043717
 10
545.8621463446554
 20
374.9518259570479
 10
545.7028883217512
 20
374.7358038232209
 10
545.6469642637905
 20
374.4810014173867
 10
545.7028883217512
 20
374.2261915609719
 10
545.8621463446554
 20
374.0101768777253
 10
546.1004927462575
 20
373.8658442304017
 10
546.3816418020664
 20
373.8151579306008
  0
LWPOLYLINE
  5
25D
330
1F
100
AcDbEntity
  8
0
  6
Continuous
 62
     7
370
    15
100
AcDbPolyline
 90
       17
 70
   128
 43
0.0
 10
548.3796560845016
 20
373.8151579306008
 10
548.6608051403104
 20
373.8658442304017
 10
548.8991515419124
 20
374.0101768777253
 10
549.0584095648168
 20
374.2261915609719
 10
549.1143336227773
 20
374.4810014173867
 10
549.0584095648168
 20
374.7358038232209
 10
548.8991515419124
 20
374.9518259570479
 10
548.6608051403104
 20
375.0961586043717
 10
548.3796560845016
 20
375.1468449041724
 10
548.0985074943541
 20
375.0961586043717
 10
547.8601610927521
 20
374.9518259570479
 10
547.7009030698475
 20
374.7358038232209
 10
547.6449790118872
 20
374.4810014173867
 10
547.7009030698475
 20
374.2261915609719
 10
547.8601610927521
 20
374.0101768777253
 10
548.0985074943541
 20
373.8658442304017
 10
548.3796560845016
 20
373.8151579306008
  0
LWPOLYLINE
  5
25E
330
1F
100
AcDbEntity
  8
0
  6
Continuous
 62
     7
370
    15
100
AcDbPolyline
 90
       17
 70
   128
 43
0.0
 10
550.1922035297988
 20
373.8151579306008
 10
550.473352352777
 20
373.8658442304017
 10
550.711698754379
 20
374.0101768777253
 10
550.8709567772834
 20
374.2261915609719
 10
550.9268806024133
 20
374.4810014173867
 10
550.8709567772834
 20
374.7358038232209
 10
550.711698754379
 20
374.9518259570479
 10
550.473352352777
 20
375.0961586043717
 10
550.1922035297988
 20
375.1468449041724
 10
549.9110547068207
 20
375.0961586043717
 10
549.6727083052187
 20
374.9518259570479
 10
549.5134502823143
 20
374.7358038232209
 10
549.4575262243538
 20
374.4810014173867
 10
549.5134502823143
 20
374.2261915609719
 10
549.6727083052187
 20
374.0101768777253
 10
549.9110547068207
 20
373.8658442304017
 10
550.1922035297988
 20
373.8151579306008
  0
LWPOLYLINE
  5
25F
330
1F
100
AcDbEntity
  8
0
  6
Continuous
 62
     7
370
    15
100
AcDbPolyline
 90
       17
 70
   128
 43
0.0
 10
552.1902180450647
 20
373.8151579306008
 10
552.4713668680428
 20
373.8658442304017
 10
552.7097132987487
 20
374.0101768777253
 10
552.8689712925492
 20
374.2261915609719
 10
552.9248952631981
 20
374.4810014173867
 10
552.8689712925492
 20
374.7358038232209
 10
552.7097132987487
 20
374.9518259570479
 10
552.4713668680428
 20
375.0961586043717
 10
552.1902180450647
 20
375.1468449041724
 10
551.9090692220865
 20
375.0961586043717
 10
551.6707228204845
 20
374.9518259570479
 10
551.5114647975801
 20
374.7358038232209
 10
551.4555408560349
 20
374.4810014173867
 10
551.5114647975801
 20
374.2261915609719
 10
551.6707228204845
 20
374.0101768777253
 10
551.9090692220865
 20
373.8658442304017
 10
552.1902180450647
 20
373.8151579306008
  0
LWPOLYLINE
  5
260
330
1F
100
AcDbEntity
  8
0
  6
Continuous
 62
     7
370
    15
100
AcDbPolyline
 90
       17
 70
   128
 43
0.0
 10
554.1499492653322
 20
373.8151579306008
 10
554.4310980883103
 20
373.8658442304017
 10
554.6694446063279
 20
374.0101768777253
 10
554.8287025128169
 20
374.2261915609719
 10
554.8846265707773
 20
374.4810014173867
 10
554.8287025128169
 20
374.7358038232209
 10
554.6694446063279
 20
374.9518259570479
 10
554.4310980883103
 20
375.0961586043717
 10
554.1499492653322
 20
375.1468449041724
 10
553.8688005005619
 20
375.0961586043717
 10
553.6304540989599
 20
374.9518259570479
 10
553.4711960760555
 20
374.7358038232209
 10
553.4152721054063
 20
374.4810014173867
 10
553.4711960760555
 20
374.2261915609719
 10
553.6304540989599
 20
374.0101768777253
 10
553.8688005005619
 20
373.8658442304017
 10
554.1499492653322
 20
373.8151579306008
  0
ARC
  5
261
330
1F
100
AcDbEntity
  8
0
  6
Continuous
 62
     7
370
    15
100
AcDbCircle
 10
556.1807656232288
 20
370.291015103426
 30
0.0
 40
0.7028084384834715
100
AcDbArc
 50
267.3248991349971
 51
357.0475995833824
  0
ARC
  5
262
330
1F
100
AcDbEntity
  8
0
  6
Continuous
 62
     7
370
    15
100
AcDbCircle
 10
556.1151621707986
 20
370.2910151034266
 30
0.0
 40
0.7028084384840129
100
AcDbArc
 50
182.9524004166626
 51
272.6751008649559
  0
LWPOLYLINE
  5
263
330
1F
100
AcDbEntity
  8
0
  6
Continuous
 62
     7
370
    15
100
AcDbPolyline
 90
       17
 70
   128
 43
0.0
 10
556.1479638970133
 20
373.8151579306008
 10
556.4291127199915
 20
373.8658442304017
 10
556.6674591215935
 20
374.0101768777253
 10
556.8267171444981
 20
374.2261915609719
 10
556.8826412024584
 20
374.4810014173867
 10
556.8267171444981
 20
374.7358038232209
 10
556.6674591215935
 20
374.9518259570479
 10
556.4291127199915
 20
375.0961586043717
 10
556.1479638970133
 20
375.1468449041724
 10
555.8668150740352
 20
375.0961586043717
 10
555.6284686724332
 20
374.9518259570479
 10
555.469210649529
 20
374.7358038232209
 10
555.4132865915683
 20
374.4810014173867
 10
555.469210649529
 20
374.2261915609719
 10
555.6284686724332
 20
374.0101768777253
 10
555.8668150740352
 20
373.8658442304017
 10
556.1479638970133
 20
373.8151579306008
  0
LWPOLYLINE
  5
264
330
1F
100
AcDbEntity
  8
0
  6
Continuous
 62
     7
370
    15
100
AcDbPolyline
 90
       17
 70
   128
 43
0.0
 10
542.4238961829482
 20
375.5765496895195
 10
542.7050447730957
 20
375.6272359893204
 10
542.9433907090363
 20
375.771568636644
 10
543.1026487319408
 20
375.9875833198906
 10
543.1585727899012
 20
376.2423931763054
 10
543.1026487319408
 20
376.4972030327202
 10
542.9433907090363
 20
376.7132177159667
 10
542.7050447730957
 20
376.8575503632904
 10
542.4238961829482
 20
376.9082366630912
 10
542.1427466614781
 20
376.8575503632904
 10
541.9044007255374
 20
376.7132177159667
 10
541.745142702633
 20
376.4972030327202
 10
541.6892186446725
 20
376.2423931763054
 10
541.745142702633
 20
375.9875833198906
 10
541.9044007255374
 20
375.771568636644
 10
542.1427466614781
 20
375.6272359893204
 10
542.4238961829482
 20
375.5765496895195
  0
LWPOLYLINE
  5
265
330
1F
100
AcDbEntity
  8
0
  6
Continuous
 62
     7
370
    15
100
AcDbPolyline
 90
       17
 70
   128
 43
0.0
 10
544.4219099997221
 20
375.5765496895195
 10
544.703059521192
 20
375.6272359893204
 10
544.9414054571329
 20
375.771568636644
 10
545.1006634800373
 20
375.9875833198906
 10
545.1565875379978
 20
376.2423931763054
 10
545.1006634800373
 20
376.4972030327202
 10
544.9414054571329
 20
376.7132177159667
 10
544.703059521192
 20
376.8575503632904
 10
544.4219099997221
 20
376.9082366630912
 10
544.1407614095746
 20
376.8575503632904
 10
543.9024154736337
 20
376.7132177159667
 10
543.7431574507295
 20
376.4972030327202
 10
543.6872333927688
 20
376.2423931763054
 10
543.7431574507295
 20
375.9875833198906
 10
543.9024154736337
 20
375.771568636644
 10
544.1407614095746
 20
375.6272359893204
 10
544.4219099997221
 20
375.5765496895195
  0
LWPOLYLINE
  5
266
330
1F
100
AcDbEntity
  8
0
  6
Continuous
 62
     7
370
    15
100
AcDbPolyline
 90
       17
 70
   128
 43
0.0
 10
546.3816418020664
 20
375.5765496895195
 10
546.6627903922137
 20
375.6272359893204
 10
546.9011367938158
 20
375.771568636644
 10
547.0603948167203
 20
375.9875833198906
 10
547.1163188746807
 20
376.2423931763054
 10
547.0603948167203
 20
376.4972030327202
 10
546.9011367938158
 20
376.7132177159667
 10
546.6627903922137
 20
376.8575503632904
 10
546.3816418020664
 20
376.9082366630912
 10
546.1004927462575
 20
376.8575503632904
 10
545.8621463446554
 20
376.7132177159667
 10
545.7028883217512
 20
376.4972030327202
 10
545.6469642637905
 20
376.2423931763054
 10
545.7028883217512
 20
375.9875833198906
 10
545.8621463446554
 20
375.771568636644
 10
546.1004927462575
 20
375.6272359893204
 10
546.3816418020664
 20
375.5765496895195
  0
LWPOLYLINE
  5
267
330
1F
100
AcDbEntity
  8
0
  6
Continuous
 62
     7
370
    15
100
AcDbPolyline
 90
       17
 70
   128
 43
0.0
 10
548.3796560845016
 20
375.5765496895195
 10
548.6608051403104
 20
375.6272359893204
 10
548.8991515419124
 20
375.771568636644
 10
549.0584095648168
 20
375.9875833198906
 10
549.1143336227773
 20
376.2423931763054
 10
549.0584095648168
 20
376.4972030327202
 10
548.8991515419124
 20
376.7132177159667
 10
548.6608051403104
 20
376.8575503632904
 10
548.3796560845016
 20
376.9082366630912
 10
548.0985074943541
 20
376.8575503632904
 10
547.8601610927521
 20
376.7132177159667
 10
547.7009030698475
 20
376.4972030327202
 10
547.6449790118872
 20
376.2423931763054
 10
547.7009030698475
 20
375.9875833198906
 10
547.8601610927521
 20
375.771568636644
 10
548.0985074943541
 20
375.6272359893204
 10
548.3796560845016
 20
375.5765496895195
  0
LWPOLYLINE
  5
268
330
1F
100
AcDbEntity
  8
0
  6
Continuous
 62
     7
370
    15
100
AcDbPolyline
 90
       17
 70
   128
 43
0.0
 10
550.1922035297988
 20
375.5765496895195
 10
550.473352352777
 20
375.6272359893204
 10
550.711698754379
 20
375.771568636644
 10
550.8709567772834
 20
375.9875833198906
 10
550.9268806024133
 20
376.2423931763054
 10
550.8709567772834
 20
376.4972030327202
 10
550.711698754379
 20
376.7132177159667
 10
550.473352352777
 20
376.8575503632904
 10
550.1922035297988
 20
376.9082366630912
 10
549.9110547068207
 20
376.8575503632904
 10
549.6727083052187
 20
376.7132177159667
 10
549.5134502823143
 20
376.4972030327202
 10
549.4575262243538
 20
376.2423931763054
 10
549.5134502823143
 20
375.9875833198906
 10
549.6727083052187
 20
375.771568636644
 10
549.9110547068207
 20
375.6272359893204
 10
550.1922035297988
 20
375.5765496895195
  0
LWPOLYLINE
  5
269
330
1F
100
AcDbEntity
  8
0
  6
Continuous
 62
     7
370
    15
100
AcDbPolyline
 90
       17
 70
   128
 43
0.0
 10
552.1902180450647
 20
375.5765496895195
 10
552.4713668680428
 20
375.6272359893204
 10
552.7097132987487
 20
375.771568636644
 10
552.8689712925492
 20
375.9875833198906
 10
552.9248952631981
 20
376.2423931763054
 10
552.8689712925492
 20
376.4972030327202
 10
552.7097132987487
 20
376.7132177159667
 10
552.4713668680428
 20
376.8575503632904
 10
552.1902180450647
 20
376.9082366630912
 10
551.9090692220865
 20
376.8575503632904
 10
551.6707228204845
 20
376.7132177159667
 10
551.5114647975801
 20
376.4972030327202
 10
551.4555408560349
 20
376.2423931763054
 10
551.5114647975801
 20
375.9875833198906
 10
551.6707228204845
 20
375.771568636644
 10
551.9090692220865
 20
375.6272359893204
 10
552.1902180450647
 20
375.5765496895195
  0
LWPOLYLINE
  5
26A
330
1F
100
AcDbEntity
  8
0
  6
Continuous
 62
     7
370
    15
100
AcDbPolyline
 90
       17
 70
   128
 43
0.0
 10
554.1499492653322
 20
375.5765496895195
 10
554.4310980883103
 20
375.6272359893204
 10
554.6694446063279
 20
375.771568636644
 10
554.8287025128169
 20
375.9875833198906
 10
554.8846265707773
 20
376.2423931763054
 10
554.8287025128169
 20
376.4972030327202
 10
554.6694446063279
 20
376.7132177159667
 10
554.4310980883103
 20
376.8575503632904
 10
554.1499492653322
 20
376.9082366630912
 10
553.8688005005619
 20
376.8575503632904
 10
553.6304540989599
 20
376.7132177159667
 10
553.4711960760555
 20
376.4972030327202
 10
553.4152721054063
 20
376.2423931763054
 10
553.4711960760555
 20
375.9875833198906
 10
553.6304540989599
 20
375.771568636644
 10
553.8688005005619
 20
375.6272359893204
 10
554.1499492653322
 20
375.5765496895195
  0
LWPOLYLINE
  5
26B
330
1F
100
AcDbEntity
  8
0
  6
Continuous
 62
     7
370
    15
100
AcDbPolyline
 90
       17
 70
   128
 43
0.0
 10
556.1479638970133
 20
375.5765496895195
 10
556.4291127199915
 20
375.6272359893204
 10
556.6674591215935
 20
375.771568636644
 10
556.8267171444981
 20
375.9875833198906
 10
556.8826412024584
 20
376.2423931763054
 10
556.8267171444981
 20
376.4972030327202
 10
556.6674591215935
 20
376.7132177159667
 10
556.4291127199915
 20
376.8575503632904
 10
556.1479638970133
 20
376.9082366630912
 10
555.8668150740352
 20
376.8575503632904
 10
555.6284686724332
 20
376.7132177159667
 10
555.469210649529
 20
376.4972030327202
 10
555.4132865915683
 20
376.2423931763054
 10
555.469210649529
 20
375.9875833198906
 10
555.6284686724332
 20
375.771568636644
 10
555.8668150740352
 20
375.6272359893204
 10
556.1479638970133
 20
375.5765496895195
  0
LWPOLYLINE
  5
26C
330
1F
100
AcDbEntity
  8
0
  6
Continuous
 62
     7
370
    15
100
AcDbPolyline
 90
       17
 70
   128
 43
0.0
 10
542.4238961829482
 20
377.4379803941132
 10
542.7050447730957
 20
377.4886666939141
 10
542.9433907090363
 20
377.6330067918183
 10
543.1026487319408
 20
377.8490214750648
 10
543.1585727899012
 20
378.1038238808991
 10
543.1026487319408
 20
378.3586337373139
 10
542.9433907090363
 20
378.5746484205605
 10
542.7050447730957
 20
378.7189885184646
 10
542.4238961829482
 20
378.769667367685
 10
542.1427466614781
 20
378.7189885184646
 10
541.9044007255374
 20
378.5746484205605
 10
541.745142702633
 20
378.3586337373139
 10
541.6892186446725
 20
378.1038238808991
 10
541.745142702633
 20
377.8490214750648
 10
541.9044007255374
 20
377.6330067918183
 10
542.1427466614781
 20
377.4886666939141
 10
542.4238961829482
 20
377.4379803941132
  0
LWPOLYLINE
  5
26D
330
1F
100
AcDbEntity
  8
0
  6
Continuous
 62
     7
370
    15
100
AcDbPolyline
 90
       17
 70
   128
 43
0.0
 10
544.4219099997221
 20
377.4379803941132
 10
544.703059521192
 20
377.4886666939141
 10
544.9414054571329
 20
377.6330067918183
 10
545.1006634800373
 20
377.8490214750648
 10
545.1565875379978
 20
378.1038238808991
 10
545.1006634800373
 20
378.3586337373139
 10
544.9414054571329
 20
378.5746484205605
 10
544.703059521192
 20
378.7189885184646
 10
544.4219099997221
 20
378.769667367685
 10
544.1407614095746
 20
378.7189885184646
 10
543.9024154736337
 20
378.5746484205605
 10
543.7431574507295
 20
378.3586337373139
 10
543.6872333927688
 20
378.1038238808991
 10
543.7431574507295
 20
377.8490214750648
 10
543.9024154736337
 20
377.6330067918183
 10
544.1407614095746
 20
377.4886666939141
 10
544.4219099997221
 20
377.4379803941132
  0
LWPOLYLINE
  5
26E
330
1F
100
AcDbEntity
  8
0
  6
Continuous
 62
     7
370
    15
100
AcDbPolyline
 90
       17
 70
   128
 43
0.0
 10
546.3816418020664
 20
377.4379803941132
 10
546.6627903922137
 20
377.4886666939141
 10
546.9011367938158
 20
377.6330067918183
 10
547.0603948167203
 20
377.8490214750648
 10
547.1163188746807
 20
378.1038238808991
 10
547.0603948167203
 20
378.3586337373139
 10
546.9011367938158
 20
378.5746484205605
 10
546.6627903922137
 20
378.7189885184646
 10
546.3816418020664
 20
378.769667367685
 10
546.1004927462575
 20
378.7189885184646
 10
545.8621463446554
 20
378.5746484205605
 10
545.7028883217512
 20
378.3586337373139
 10
545.6469642637905
 20
378.1038238808991
 10
545.7028883217512
 20
377.8490214750648
 10
545.8621463446554
 20
377.6330067918183
 10
546.1004927462575
 20
377.4886666939141
 10
546.3816418020664
 20
377.4379803941132
  0
LWPOLYLINE
  5
26F
330
1F
100
AcDbEntity
  8
0
  6
Continuous
 62
     7
370
    15
100
AcDbPolyline
 90
       17
 70
   128
 43
0.0
 10
548.3796560845016
 20
377.4379803941132
 10
548.6608051403104
 20
377.4886666939141
 10
548.8991515419124
 20
377.6330067918183
 10
549.0584095648168
 20
377.8490214750648
 10
549.1143336227773
 20
378.1038238808991
 10
549.0584095648168
 20
378.3586337373139
 10
548.8991515419124
 20
378.5746484205605
 10
548.6608051403104
 20
378.7189885184646
 10
548.3796560845016
 20
378.769667367685
 10
548.0985074943541
 20
378.7189885184646
 10
547.8601610927521
 20
378.5746484205605
 10
547.7009030698475
 20
378.3586337373139
 10
547.6449790118872
 20
378.1038238808991
 10
547.7009030698475
 20
377.8490214750648
 10
547.8601610927521
 20
377.6330067918183
 10
548.0985074943541
 20
377.4886666939141
 10
548.3796560845016
 20
377.4379803941132
  0
LWPOLYLINE
  5
270
330
1F
100
AcDbEntity
  8
0
  6
Continuous
 62
     7
370
    15
100
AcDbPolyline
 90
       17
 70
   128
 43
0.0
 10
550.1922035297988
 20
377.4379803941132
 10
550.473352352777
 20
377.4886666939141
 10
550.711698754379
 20
377.6330067918183
 10
550.8709567772834
 20
377.8490214750648
 10
550.9268806024133
 20
378.1038238808991
 10
550.8709567772834
 20
378.3586337373139
 10
550.711698754379
 20
378.5746484205605
 10
550.473352352777
 20
378.7189885184646
 10
550.1922035297988
 20
378.769667367685
 10
549.9110547068207
 20
378.7189885184646
 10
549.6727083052187
 20
378.5746484205605
 10
549.5134502823143
 20
378.3586337373139
 10
549.4575262243538
 20
378.1038238808991
 10
549.5134502823143
 20
377.8490214750648
 10
549.6727083052187
 20
377.6330067918183
 10
549.9110547068207
 20
377.4886666939141
 10
550.1922035297988
 20
377.4379803941132
  0
LWPOLYLINE
  5
271
330
1F
100
AcDbEntity
  8
0
  6
Continuous
 62
     7
370
    15
100
AcDbPolyline
 90
       17
 70
   128
 43
0.0
 10
552.1902180450647
 20
377.4379803941132
 10
552.4713668680428
 20
377.4886666939141
 10
552.7097132987487
 20
377.6330067918183
 10
552.8689712925492
 20
377.8490214750648
 10
552.9248952631981
 20
378.1038238808991
 10
552.8689712925492
 20
378.3586337373139
 10
552.7097132987487
 20
378.5746484205605
 10
552.4713668680428
 20
378.7189885184646
 10
552.1902180450647
 20
378.769667367685
 10
551.9090692220865
 20
378.7189885184646
 10
551.6707228204845
 20
378.5746484205605
 10
551.5114647975801
 20
378.3586337373139
 10
551.4555408560349
 20
378.1038238808991
 10
551.5114647975801
 20
377.8490214750648
 10
551.6707228204845
 20
377.6330067918183
 10
551.9090692220865
 20
377.4886666939141
 10
552.1902180450647
 20
377.4379803941132
  0
LWPOLYLINE
  5
272
330
1F
100
AcDbEntity
  8
0
  6
Continuous
 62
     7
370
    15
100
AcDbPolyline
 90
       17
 70
   128
 43
0.0
 10
554.1499492653322
 20
377.4379803941132
 10
554.4310980883103
 20
377.4886666939141
 10
554.6694446063279
 20
377.6330067918183
 10
554.8287025128169
 20
377.8490214750648
 10
554.8846265707773
 20
378.1038238808991
 10
554.8287025128169
 20
378.3586337373139
 10
554.6694446063279
 20
378.5746484205605
 10
554.4310980883103
 20
378.7189885184646
 10
554.1499492653322
 20
378.769667367685
 10
553.8688005005619
 20
378.7189885184646
 10
553.6304540989599
 20
378.5746484205605
 10
553.4711960760555
 20
378.3586337373139
 10
553.4152721054063
 20
378.1038238808991
 10
553.4711960760555
 20
377.8490214750648
 10
553.6304540989599
 20
377.6330067918183
 10
553.8688005005619
 20
377.4886666939141
 10
554.1499492653322
 20
377.4379803941132
  0
LWPOLYLINE
  5
273
330
1F
100
AcDbEntity
  8
0
  6
Continuous
 62
     7
370
    15
100
AcDbPolyline
 90
       17
 70
   128
 43
0.0
 10
556.1479638970133
 20
377.4379803941132
 10
556.4291127199915
 20
377.4886666939141
 10
556.6674591215935
 20
377.6330067918183
 10
556.8267171444981
 20
377.8490214750648
 10
556.8826412024584
 20
378.1038238808991
 10
556.8267171444981
 20
378.3586337373139
 10
556.6674591215935
 20
378.5746484205605
 10
556.4291127199915
 20
378.7189885184646
 10
556.1479638970133
 20
378.769667367685
 10
555.8668150740352
 20
378.7189885184646
 10
555.6284686724332
 20
378.5746484205605
 10
555.469210649529
 20
378.3586337373139
 10
555.4132865915683
 20
378.1038238808991
 10
555.469210649529
 20
377.8490214750648
 10
555.6284686724332
 20
377.6330067918183
 10
555.8668150740352
 20
377.4886666939141
 10
556.1479638970133
 20
377.4379803941132
  0
LWPOLYLINE
  5
274
330
1F
100
AcDbEntity
  8
0
  6
Continuous
 62
     7
370
    15
100
AcDbPolyline
 90
       17
 70
   128
 43
0.0
 10
542.4238961829482
 20
379.1993796036126
 10
542.7050447730957
 20
379.2500584528328
 10
542.9433907090363
 20
379.394398550737
 10
543.1026487319408
 20
379.6104132339835
 10
543.1585727899012
 20
379.8652230903983
 10
543.1026487319408
 20
380.1200254962326
 10
542.9433907090363
 20
380.3360401794792
 10
542.7050447730957
 20
380.4803802773833
 10
542.4238961829482
 20
380.5310665771843
 10
542.1427466614781
 20
380.4803802773833
 10
541.9044007255374
 20
380.3360401794792
 10
541.745142702633
 20
380.1200254962326
 10
541.6892186446725
 20
379.8652230903983
 10
541.745142702633
 20
379.6104132339835
 10
541.9044007255374
 20
379.394398550737
 10
542.1427466614781
 20
379.2500584528328
 10
542.4238961829482
 20
379.1993796036126
  0
LWPOLYLINE
  5
275
330
1F
100
AcDbEntity
  8
0
  6
Continuous
 62
     7
370
    15
100
AcDbPolyline
 90
       17
 70
   128
 43
0.0
 10
544.4219099997221
 20
379.1993796036126
 10
544.703059521192
 20
379.2500584528328
 10
544.9414054571329
 20
379.394398550737
 10
545.1006634800373
 20
379.6104132339835
 10
545.1565875379978
 20
379.8652230903983
 10
545.1006634800373
 20
380.1200254962326
 10
544.9414054571329
 20
380.3360401794792
 10
544.703059521192
 20
380.4803802773833
 10
544.4219099997221
 20
380.5310665771843
 10
544.1407614095746
 20
380.4803802773833
 10
543.9024154736337
 20
380.3360401794792
 10
543.7431574507295
 20
380.1200254962326
 10
543.6872333927688
 20
379.8652230903983
 10
543.7431574507295
 20
379.6104132339835
 10
543.9024154736337
 20
379.394398550737
 10
544.1407614095746
 20
379.2500584528328
 10
544.4219099997221
 20
379.1993796036126
  0
LWPOLYLINE
  5
276
330
1F
100
AcDbEntity
  8
0
  6
Continuous
 62
     7
370
    15
100
AcDbPolyline
 90
       17
 70
   128
 43
0.0
 10
546.3816418020664
 20
379.1993796036126
 10
546.6627903922137
 20
379.2500584528328
 10
546.9011367938158
 20
379.394398550737
 10
547.0603948167203
 20
379.6104132339835
 10
547.1163188746807
 20
379.8652230903983
 10
547.0603948167203
 20
380.1200254962326
 10
546.9011367938158
 20
380.3360401794792
 10
546.6627903922137
 20
380.4803802773833
 10
546.3816418020664
 20
380.5310665771843
 10
546.1004927462575
 20
380.4803802773833
 10
545.8621463446554
 20
380.3360401794792
 10
545.7028883217512
 20
380.1200254962326
 10
545.6469642637905
 20
379.8652230903983
 10
545.7028883217512
 20
379.6104132339835
 10
545.8621463446554
 20
379.394398550737
 10
546.1004927462575
 20
379.2500584528328
 10
546.3816418020664
 20
379.1993796036126
  0
LWPOLYLINE
  5
277
330
1F
100
AcDbEntity
  8
0
  6
Continuous
 62
     7
370
    15
100
AcDbPolyline
 90
       17
 70
   128
 43
0.0
 10
548.3796560845016
 20
379.1993796036126
 10
548.6608051403104
 20
379.2500584528328
 10
548.8991515419124
 20
379.394398550737
 10
549.0584095648168
 20
379.6104132339835
 10
549.1143336227773
 20
379.8652230903983
 10
549.0584095648168
 20
380.1200254962326
 10
548.8991515419124
 20
380.3360401794792
 10
548.6608051403104
 20
380.4803802773833
 10
548.3796560845016
 20
380.5310665771843
 10
548.0985074943541
 20
380.4803802773833
 10
547.8601610927521
 20
380.3360401794792
 10
547.7009030698475
 20
380.1200254962326
 10
547.6449790118872
 20
379.8652230903983
 10
547.7009030698475
 20
379.6104132339835
 10
547.8601610927521
 20
379.394398550737
 10
548.0985074943541
 20
379.2500584528328
 10
548.3796560845016
 20
379.1993796036126
  0
LWPOLYLINE
  5
278
330
1F
100
AcDbEntity
  8
0
  6
Continuous
 62
     7
370
    15
100
AcDbPolyline
 90
       17
 70
   128
 43
0.0
 10
550.1922035297988
 20
379.1993796036126
 10
550.473352352777
 20
379.2500584528328
 10
550.711698754379
 20
379.394398550737
 10
550.8709567772834
 20
379.6104132339835
 10
550.9268806024133
 20
379.8652230903983
 10
550.8709567772834
 20
380.1200254962326
 10
550.711698754379
 20
380.3360401794792
 10
550.473352352777
 20
380.4803802773833
 10
550.1922035297988
 20
380.5310665771843
 10
549.9110547068207
 20
380.4803802773833
 10
549.6727083052187
 20
380.3360401794792
 10
549.5134502823143
 20
380.1200254962326
 10
549.4575262243538
 20
379.8652230903983
 10
549.5134502823143
 20
379.6104132339835
 10
549.6727083052187
 20
379.394398550737
 10
549.9110547068207
 20
379.2500584528328
 10
550.1922035297988
 20
379.1993796036126
  0
LWPOLYLINE
  5
279
330
1F
100
AcDbEntity
  8
0
  6
Continuous
 62
     7
370
    15
100
AcDbPolyline
 90
       17
 70
   128
 43
0.0
 10
552.1902180450647
 20
379.1993796036126
 10
552.4713668680428
 20
379.2500584528328
 10
552.7097132987487
 20
379.394398550737
 10
552.8689712925492
 20
379.6104132339835
 10
552.9248952631981
 20
379.8652230903983
 10
552.8689712925492
 20
380.1200254962326
 10
552.7097132987487
 20
380.3360401794792
 10
552.4713668680428
 20
380.4803802773833
 10
552.1902180450647
 20
380.5310665771843
 10
551.9090692220865
 20
380.4803802773833
 10
551.6707228204845
 20
380.3360401794792
 10
551.5114647975801
 20
380.1200254962326
 10
551.4555408560349
 20
379.8652230903983
 10
551.5114647975801
 20
379.6104132339835
 10
551.6707228204845
 20
379.394398550737
 10
551.9090692220865
 20
379.2500584528328
 10
552.1902180450647
 20
379.1993796036126
  0
LWPOLYLINE
  5
27A
330
1F
100
AcDbEntity
  8
0
  6
Continuous
 62
     7
370
    15
100
AcDbPolyline
 90
       17
 70
   128
 43
0.0
 10
554.1499492653322
 20
379.1993796036126
 10
554.4310980883103
 20
379.2500584528328
 10
554.6694446063279
 20
379.394398550737
 10
554.8287025128169
 20
379.6104132339835
 10
554.8846265707773
 20
379.8652230903983
 10
554.8287025128169
 20
380.1200254962326
 10
554.6694446063279
 20
380.3360401794792
 10
554.4310980883103
 20
380.4803802773833
 10
554.1499492653322
 20
380.5310665771843
 10
553.8688005005619
 20
380.4803802773833
 10
553.6304540989599
 20
380.3360401794792
 10
553.4711960760555
 20
380.1200254962326
 10
553.4152721054063
 20
379.8652230903983
 10
553.4711960760555
 20
379.6104132339835
 10
553.6304540989599
 20
379.394398550737
 10
553.8688005005619
 20
379.2500584528328
 10
554.1499492653322
 20
379.1993796036126
  0
LWPOLYLINE
  5
27B
330
1F
100
AcDbEntity
  8
0
  6
Continuous
 62
     7
370
    15
100
AcDbPolyline
 90
       17
 70
   128
 43
0.0
 10
556.1479638970133
 20
379.1993796036126
 10
556.4291127199915
 20
379.2500584528328
 10
556.6674591215935
 20
379.394398550737
 10
556.8267171444981
 20
379.6104132339835
 10
556.8826412024584
 20
379.8652230903983
 10
556.8267171444981
 20
380.1200254962326
 10
556.6674591215935
 20
380.3360401794792
 10
556.4291127199915
 20
380.4803802773833
 10
556.1479638970133
 20
380.5310665771843
 10
555.8668150740352
 20
380.4803802773833
 10
555.6284686724332
 20
380.3360401794792
 10
555.469210649529
 20
380.1200254962326
 10
555.4132865915683
 20
379.8652230903983
 10
555.469210649529
 20
379.6104132339835
 10
555.6284686724332
 20
379.394398550737
 10
555.8668150740352
 20
379.2500584528328
 10
556.1479638970133
 20
379.1993796036126
  0
LWPOLYLINE
  5
27C
330
1F
100
AcDbEntity
  8
0
  6
Continuous
 62
     7
370
    15
100
AcDbPolyline
 90
       17
 70
   128
 43
0.0
 10
544.4219099997221
 20
380.8900280997635
 10
544.703059521192
 20
380.9407143995643
 10
544.9414054571329
 20
381.0850544974686
 10
545.1006634800373
 20
381.3010691807152
 10
545.1565875379978
 20
381.5558715865493
 10
545.1006634800373
 20
381.8106814429641
 10
544.9414054571329
 20
382.0266961262108
 10
544.703059521192
 20
382.171036224115
 10
544.4219099997221
 20
382.2217150733353
 10
544.1407614095746
 20
382.171036224115
 10
543.9024154736337
 20
382.0266961262108
 10
543.7431574507295
 20
381.8106814429641
 10
543.6872333927688
 20
381.5558715865493
 10
543.7431574507295
 20
381.3010691807152
 10
543.9024154736337
 20
381.0850544974686
 10
544.1407614095746
 20
380.9407143995643
 10
544.4219099997221
 20
380.8900280997635
  0
LWPOLYLINE
  5
27D
330
1F
100
AcDbEntity
  8
0
  6
Continuous
 62
     7
370
    15
100
AcDbPolyline
 90
       17
 70
   128
 43
0.0
 10
546.3816418020664
 20
380.8900280997635
 10
546.6627903922137
 20
380.9407143995643
 10
546.9011367938158
 20
381.0850544974686
 10
547.0603948167203
 20
381.3010691807152
 10
547.1163188746807
 20
381.5558715865493
 10
547.0603948167203
 20
381.8106814429641
 10
546.9011367938158
 20
382.0266961262108
 10
546.6627903922137
 20
382.171036224115
 10
546.3816418020664
 20
382.2217150733353
 10
546.1004927462575
 20
382.171036224115
 10
545.8621463446554
 20
382.0266961262108
 10
545.7028883217512
 20
381.8106814429641
 10
545.6469642637905
 20
381.5558715865493
 10
545.7028883217512
 20
381.3010691807152
 10
545.8621463446554
 20
381.0850544974686
 10
546.1004927462575
 20
380.9407143995643
 10
546.3816418020664
 20
380.8900280997635
  0
LWPOLYLINE
  5
27E
330
1F
100
AcDbEntity
  8
0
  6
Continuous
 62
     7
370
    15
100
AcDbPolyline
 90
       17
 70
   128
 43
0.0
 10
548.3796560845016
 20
380.8900280997635
 10
548.6608051403104
 20
380.9407143995643
 10
548.8991515419124
 20
381.0850544974686
 10
549.0584095648168
 20
381.3010691807152
 10
549.1143336227773
 20
381.5558715865493
 10
549.0584095648168
 20
381.8106814429641
 10
548.8991515419124
 20
382.0266961262108
 10
548.6608051403104
 20
382.171036224115
 10
548.3796560845016
 20
382.2217150733353
 10
548.0985074943541
 20
382.171036224115
 10
547.8601610927521
 20
382.0266961262108
 10
547.7009030698475
 20
381.8106814429641
 10
547.6449790118872
 20
381.5558715865493
 10
547.7009030698475
 20
381.3010691807152
 10
547.8601610927521
 20
381.0850544974686
 10
548.0985074943541
 20
380.9407143995643
 10
548.3796560845016
 20
380.8900280997635
  0
LWPOLYLINE
  5
27F
330
1F
100
AcDbEntity
  8
0
  6
Continuous
 62
     7
370
    15
100
AcDbPolyline
 90
       17
 70
   128
 43
0.0
 10
550.1922035297988
 20
380.8900280997635
 10
550.473352352777
 20
380.9407143995643
 10
550.711698754379
 20
381.0850544974686
 10
550.8709567772834
 20
381.3010691807152
 10
550.9268806024133
 20
381.5558715865493
 10
550.8709567772834
 20
381.8106814429641
 10
550.711698754379
 20
382.0266961262108
 10
550.473352352777
 20
382.171036224115
 10
550.1922035297988
 20
382.2217150733353
 10
549.9110547068207
 20
382.171036224115
 10
549.6727083052187
 20
382.0266961262108
 10
549.5134502823143
 20
381.8106814429641
 10
549.4575262243538
 20
381.5558715865493
 10
549.5134502823143
 20
381.3010691807152
 10
549.6727083052187
 20
381.0850544974686
 10
549.9110547068207
 20
380.9407143995643
 10
550.1922035297988
 20
380.8900280997635
  0
LWPOLYLINE
  5
280
330
1F
100
AcDbEntity
  8
0
  6
Continuous
 62
     7
370
    15
100
AcDbPolyline
 90
       17
 70
   128
 43
0.0
 10
552.1902180450647
 20
380.8900280997635
 10
552.4713668680428
 20
380.9407143995643
 10
552.7097132987487
 20
381.0850544974686
 10
552.8689712925492
 20
381.3010691807152
 10
552.9248952631981
 20
381.5558715865493
 10
552.8689712925492
 20
381.8106814429641
 10
552.7097132987487
 20
382.0266961262108
 10
552.4713668680428
 20
382.171036224115
 10
552.1902180450647
 20
382.2217150733353
 10
551.9090692220865
 20
382.171036224115
 10
551.6707228204845
 20
382.0266961262108
 10
551.5114647975801
 20
381.8106814429641
 10
551.4555408560349
 20
381.5558715865493
 10
551.5114647975801
 20
381.3010691807152
 10
551.6707228204845
 20
381.0850544974686
 10
551.9090692220865
 20
380.9407143995643
 10
552.1902180450647
 20
380.8900280997635
  0
LWPOLYLINE
  5
281
330
1F
100
AcDbEntity
  8
0
  6
Continuous
 62
     7
370
    15
100
AcDbPolyline
 90
       17
 70
   128
 43
0.0
 10
554.1499492653322
 20
380.8900280997635
 10
554.4310980883103
 20
380.9407143995643
 10
554.6694446063279
 20
381.0850544974686
 10
554.8287025128169
 20
381.3010691807152
 10
554.8846265707773
 20
381.5558715865493
 10
554.8287025128169
 20
381.8106814429641
 10
554.6694446063279
 20
382.0266961262108
 10
554.4310980883103
 20
382.171036224115
 10
554.1499492653322
 20
382.2217150733353
 10
553.8688005005619
 20
382.171036224115
 10
553.6304540989599
 20
382.0266961262108
 10
553.4711960760555
 20
381.8106814429641
 10
553.4152721054063
 20
381.5558715865493
 10
553.4711960760555
 20
381.3010691807152
 10
553.6304540989599
 20
381.0850544974686
 10
553.8688005005619
 20
380.9407143995643
 10
554.1499492653322
 20
380.8900280997635
  0
LWPOLYLINE
  5
282
330
1F
100
AcDbEntity
  8
0
  6
Continuous
 62
     7
370
    15
100
AcDbPolyline
 90
       43
 70
   128
 43
0.0
 10
549.2009952838211
 20
358.8266573057057
 10
551.6239041869207
 20
358.9912182793499
 10
553.9926893950118
 20
359.4812243387581
 10
556.2544359533726
 20
360.2857268557431
 10
558.3586205436526
 20
361.386755029905
 10
560.2582387334345
 20
362.7597144946933
 10
561.9108562065898
 20
364.3739386603713
 10
563.2795567332445
 20
366.1933629915596
 10
564.3337654589352
 20
368.177348296392
 10
565.0499329610406
 20
370.2815785214782
 10
565.4120609803735
 20
372.4590405032517
 10
565.4120609803735
 20
374.661104302156
 10
565.0499329610406
 20
376.8385662839295
 10
564.3337654589352
 20
378.9427890584351
 10
563.2795567332445
 20
380.926781813848
 10
561.9108562065898
 20
382.7462061450363
 10
560.2582387334345
 20
384.3604265854241
 10
558.3586205436526
 20
385.7333897755028
 10
556.2544359533726
 20
386.8344216749549
 10
553.9926893950118
 20
387.6389204666497
 10
551.6239041869207
 20
388.1289228007674
 10
549.2009952838211
 20
388.2934837744118
 10
546.7780862643062
 20
388.1289228007674
 10
544.4093008233844
 20
387.6389204666497
 10
542.1475541486083
 20
386.8344216749549
 10
540.0433695583283
 20
385.7333897755028
 10
538.1437518342076
 20
384.3604265854241
 10
536.4911348267137
 20
382.7462061450363
 10
535.1224333687364
 20
380.926781813848
 10
534.0682246430455
 20
378.9427890584351
 10
533.3520580722629
 20
376.8385662839295
 10
532.98993005293
 20
374.661104302156
 10
532.98993005293
 20
372.4590405032517
 10
533.3520580722629
 20
370.2815785214782
 10
534.0682246430455
 20
368.177348296392
 10
535.1224333687364
 20
366.1933629915596
 10
536.4911348267137
 20
364.3739386603713
 10
538.1437518342076
 20
362.7597144946933
 10
540.0433695583283
 20
361.386755029905
 10
542.1475541486083
 20
360.2857268557431
 10
544.4093008233844
 20
359.4812243387581
 10
546.7780862643062
 20
358.9912182793499
 10
549.2009952838211
 20
358.8266573057057
  0
ARC
  5
283
330
1F
100
AcDbEntity
  8
0
  6
Continuous
 62
     7
370
    15
100
AcDbCircle
 10
550.9440042578489
 20
369.6030368929891
 30
0.0
 40
14.51600909368879
100
AcDbArc
 50
295.1353483933093
 51
358.937584335367
  0
ARC
  5
284
330
1F
100
AcDbEntity
  8
0
  6
Continuous
 62
     7
370
    15
100
AcDbCircle
 10
547.4579884602771
 20
369.6030388126183
 30
0.0
 40
14.51601174497767
100
AcDbArc
 50
181.0624230487894
 51
244.8646471406966
  0
LWPOLYLINE
  5
285
330
1F
100
AcDbEntity
  8
0
  6
Continuous
 62
     7
370
    15
100
AcDbPolyline
 90
       17
 70
   128
 43
0.0
 10
546.3816418020664
 20
382.6514273092629
 10
546.6627903922137
 20
382.702106158483
 10
546.9011367938158
 20
382.8464462563874
 10
547.0603948167203
 20
383.062460939634
 10
547.1163188746807
 20
383.3172707960488
 10
547.0603948167203
 20
383.5720732018828
 10
546.9011367938158
 20
383.7880878851296
 10
546.6627903922137
 20
383.9324279830338
 10
546.3816418020664
 20
383.9831142828347
 10
546.1004927462575
 20
383.9324279830338
 10
545.8621463446554
 20
383.7880878851296
 10
545.7028883217512
 20
383.5720732018828
 10
545.6469642637905
 20
383.3172707960488
 10
545.7028883217512
 20
383.062460939634
 10
545.8621463446554
 20
382.8464462563874
 10
546.1004927462575
 20
382.702106158483
 10
546.3816418020664
 20
382.6514273092629
  0
LWPOLYLINE
  5
286
330
1F
100
AcDbEntity
  8
0
  6
Continuous
 62
     7
370
    15
100
AcDbPolyline
 90
       17
 70
   128
 43
0.0
 10
548.3796560845016
 20
382.6514273092629
 10
548.6608051403104
 20
382.702106158483
 10
548.8991515419124
 20
382.8464462563874
 10
549.0584095648168
 20
383.062460939634
 10
549.1143336227773
 20
383.3172707960488
 10
549.0584095648168
 20
383.5720732018828
 10
548.8991515419124
 20
383.7880878851296
 10
548.6608051403104
 20
383.9324279830338
 10
548.3796560845016
 20
383.9831142828347
 10
548.0985074943541
 20
383.9324279830338
 10
547.8601610927521
 20
383.7880878851296
 10
547.7009030698475
 20
383.5720732018828
 10
547.6449790118872
 20
383.3172707960488
 10
547.7009030698475
 20
383.062460939634
 10
547.8601610927521
 20
382.8464462563874
 10
548.0985074943541
 20
382.702106158483
 10
548.3796560845016
 20
382.6514273092629
  0
LWPOLYLINE
  5
287
330
1F
100
AcDbEntity
  8
0
  6
Continuous
 62
     7
370
    15
100
AcDbPolyline
 90
       17
 70
   128
 43
0.0
 10
550.1922035297988
 20
382.6514273092629
 10
550.473352352777
 20
382.702106158483
 10
550.711698754379
 20
382.8464462563874
 10
550.8709567772834
 20
383.062460939634
 10
550.9268806024133
 20
383.3172707960488
 10
550.8709567772834
 20
383.5720732018828
 10
550.711698754379
 20
383.7880878851296
 10
550.473352352777
 20
383.9324279830338
 10
550.1922035297988
 20
383.9831142828347
 10
549.9110547068207
 20
383.9324279830338
 10
549.6727083052187
 20
383.7880878851296
 10
549.5134502823143
 20
383.5720732018828
 10
549.4575262243538
 20
383.3172707960488
 10
549.5134502823143
 20
383.062460939634
 10
549.6727083052187
 20
382.8464462563874
 10
549.9110547068207
 20
382.702106158483
 10
550.1922035297988
 20
382.6514273092629
  0
LWPOLYLINE
  5
288
330
1F
100
AcDbEntity
  8
0
  6
Continuous
 62
     7
370
    15
100
AcDbPolyline
 90
       17
 70
   128
 43
0.0
 10
552.1902180450647
 20
382.6514273092629
 10
552.4713668680428
 20
382.702106158483
 10
552.7097132987487
 20
382.8464462563874
 10
552.8689712925492
 20
383.062460939634
 10
552.9248952631981
 20
383.3172707960488
 10
552.8689712925492
 20
383.5720732018828
 10
552.7097132987487
 20
383.7880878851296
 10
552.4713668680428
 20
383.9324279830338
 10
552.1902180450647
 20
383.9831142828347
 10
551.9090692220865
 20
383.9324279830338
 10
551.6707228204845
 20
383.7880878851296
 10
551.5114647975801
 20
383.5720732018828
 10
551.4555408560349
 20
383.3172707960488
 10
551.5114647975801
 20
383.062460939634
 10
551.6707228204845
 20
382.8464462563874
 10
551.9090692220865
 20
382.702106158483
 10
552.1902180450647
 20
382.6514273092629
  0
ARC
  5
289
330
1F
100
AcDbEntity
  8
0
  6
Continuous
 62
     7
370
    15
100
AcDbCircle
 10
550.8680022623716
 20
365.4181477376838
 30
0.0
 40
12.64577229080022
100
AcDbArc
 50
314.9060974030568
 51
340.9484616590481
  0
ARC
  5
28A
330
1F
100
AcDbEntity
  8
0
  6
Continuous
 62
     7
370
    15
100
AcDbCircle
 10
547.5340044075482
 20
365.4181612860541
 30
0.0
 40
12.64579325398696
100
AcDbArc
 50
199.0515704833854
 51
225.0938942591327
  0
ELLIPSE
  5
28B
330
1F
100
AcDbEntity
  8
0
  6
Continuous
 62
     7
370
    15
100
AcDbEllipse
 10
527.014347116019
 20
386.4615937278152
 30
0.0
 11
-3.159137237737326
 21
4.958852158211044
 31
0.0
210
0.0
220
0.0
230
1.0
 40
0.2026327696451633
 41
5.020339979888114
 42
6.154803993684432
  0
LINE
  5
28C
330
1F
100
AcDbEntity
  8
0
  6
Continuous
 62
     7
370
    15
100
AcDbLine
 10
527.0143464847146
 20
388.5746835873009
 30
0.0
 11
512.0397654070197
 21
356.4615934297921
 31
0.0
  0
LINE
  5
28D
330
1F
100
AcDbEntity
  8
0
  6
Continuous
 62
     7
370
    15
100
AcDbLine
 10
507.5082291557132
 20
356.4615934297921
 30
0.0
 11
523.8289960368215
 21
391.461597304094
 31
0.0
  0
LINE
  5
28E
330
1F
100
AcDbEntity
  8
0
  6
Continuous
 62
     7
370
    15
100
AcDbLine
 10
523.8289960368215
 20
391.461597304094
 30
0.0
 11
524.0098551555215
 21
391.461597304094
 31
0.0
  0
LINE
  5
28F
330
1F
100
AcDbEntity
  8
0
  6
Continuous
 62
     7
370
    15
100
AcDbLine
 10
594.1422429575263
 20
356.4615934297921
 30
0.0
 11
579.1676618798312
 21
388.5746835873009
 31
0.0
  0
LINE
  5
290
330
1F
100
AcDbEntity
  8
0
  6
Continuous
 62
     7
370
    15
100
AcDbLine
 10
579.1676618798312
 20
388.5746835873009
 30
0.0
 11
527.0143464847146
 21
388.5746835873009
 31
0.0
  0
ELLIPSE
  5
291
330
1F
100
AcDbEntity
  8
0
  6
Continuous
 62
     7
370
    15
100
AcDbEllipse
 10
579.1676612485271
 20
386.4615937278153
 30
0.0
 11
3.159137237737468
 21
4.958852158210902
 31
0.0
210
0.0
220
0.0
230
0.9999999999999998
 40
0.2026327696451648
 41
0.1283813134951174
 42
1.262845327291499
  0
LINE
  5
292
330
1F
100
AcDbEntity
  8
0
  6
Continuous
 62
     7
370
    15
100
AcDbLine
 10
582.1721532090245
 20
391.461597304094
 30
0.0
 11
582.3530123277246
 21
391.461597304094
 31
0.0
  0
LINE
  5
293
330
1F
100
AcDbEntity
  8
0
  6
Continuous
 62
     7
370
    15
100
AcDbLine
 10
582.3530123277246
 20
391.461597304094
 30
0.0
 11
598.6737792088328
 21
356.4615934297921
 31
0.0
  0
LINE
  5
294
330
1F
100
AcDbEntity
  8
0
  6
Continuous
 62
     7
370
    15
100
AcDbLine
 10
524.0098551555215
 20
391.461597304094
 30
0.0
 11
582.1721532090245
 21
391.461597304094
 31
0.0
  0
LINE
  5
295
330
1F
100
AcDbEntity
  8
0
  6
Continuous
 62
     7
370
    15
100
AcDbLine
 10
532.5996779544889
 20
406.4615904495598
 30
0.0
 11
566.3830765231191
 21
406.4615904495598
 31
0.0
  0
ENDSEC
  0
SECTION
  2
OBJECTS
  0
DICTIONARY
  5
C
330
0
100
AcDbDictionary
281
     1
  3
ACAD_COLOR
350
2C1
  3
ACAD_GROUP
350
D
  3
ACAD_LAYOUT
350
1A
  3
ACAD_MATERIAL
350
297
  3
ACAD_MLEADERSTYLE
350
2D6
  3
ACAD_MLINESTYLE
350
17
  3
ACAD_PLOTSETTINGS
350
19
  3
ACAD_PLOTSTYLENAME
350
E
  3
ACAD_SCALELIST
350
2C4
  3
ACAD_TABLESTYLE
350
2C2
  3
ACAD_VISUALSTYLE
350
2B0
  3
ACDB_RECOMPOSE_DATA
350
2FE
  3
AcDbVariableDictionary
350
2F4
  0
DICTIONARY
  5
2F2
330
10
100
AcDbDictionary
280
     1
281
     1
  3
ADSK_XREC_LAYER_RECONCILED
360
2F3
  0
DICTIONARY
  5
2C1
102
{ACAD_REACTORS
330
C
102
}
330
C
100
AcDbDictionary
281
     1
  0
DICTIONARY
  5
D
102
{ACAD_REACTORS
330
C
102
}
330
C
100
AcDbDictionary
281
     1
  0
DICTIONARY
  5
1A
102
{ACAD_REACTORS
330
C
102
}
330
C
100
AcDbDictionary
281
     1
  3
Layout1
350
1E
  3
Layout2
350
26
  3
Model
350
22
  0
DICTIONARY
  5
297
102
{ACAD_REACTORS
330
C
102
}
330
C
100
AcDbDictionary
281
     1
  3
ByBlock
350
2A0
  3
ByLayer
350
298
  3
Global
350
2A8
  0
DICTIONARY
  5
2D6
102
{ACAD_REACTORS
330
C
102
}
330
C
100
AcDbDictionary
281
     1
  3
Standard
350
2D7
  0
DICTIONARY
  5
17
102
{ACAD_REACTORS
330
C
102
}
330
C
100
AcDbDictionary
281
     1
  3
Standard
350
18
  0
DICTIONARY
  5
19
102
{ACAD_REACTORS
330
C
102
}
330
C
100
AcDbDictionary
281
     1
  0
ACDBDICTIONARYWDFLT
  5
E
102
{ACAD_REACTORS
330
C
102
}
330
C
100
AcDbDictionary
281
     1
  3
Normal
350
F
100
AcDbDictionaryWithDefault
340
F
  0
DICTIONARY
  5
2C4
102
{ACAD_REACTORS
330
C
102
}
330
C
100
AcDbDictionary
281
     1
  3
A0
350
2C5
  3
A1
350
2C6
  3
A2
350
2C7
  3
A3
350
2C8
  3
A4
350
2C9
  3
A5
350
2CA
  3
A6
350
2CB
  3
A7
350
2CC
  3
A8
350
2CD
  3
A9
350
2CE
  3
B0
350
2CF
  3
B1
350
2D0
  3
B2
350
2D1
  3
B3
350
2D2
  3
B4
350
2D3
  3
B5
350
2D4
  3
B6
350
2D5
  0
DICTIONARY
  5
2C2
102
{ACAD_REACTORS
330
C
102
}
330
C
100
AcDbDictionary
281
     1
  3
Standard
350
2C3
  0
DICTIONARY
  5
2B0
102
{ACAD_REACTORS
330
C
102
}
330
C
100
AcDbDictionary
281
     1
  3
2dWireframe
350
2B6
  3
3D Hidden
350
2B8
  3
3dWireframe
350
2B7
  3
Basic
350
2B5
  3
Brighten
350
2BC
  3
ColorChange
350
2C0
  3
Conceptual
350
2B9
  3
Dim
350
2BB
  3
Facepattern
350
2BF
  3
Flat
350
2B1
  3
FlatWithEdges
350
2B2
  3
Gouraud
350
2B3
  3
GouraudWithEdges
350
2B4
  3
Linepattern
350
2BE
  3
Realistic
350
2BA
  3
Thicken
350
2BD
  0
XRECORD
  5
2FE
102
{ACAD_REACTORS
330
C
102
}
330
C
100
AcDbXrecord
280
     1
 90
        1
330
2C3
  0
DICTIONARY
  5
2F4
102
{ACAD_REACTORS
330
C
102
}
330
C
100
AcDbDictionary
281
     1
  3
CANNOSCALE
350
2F8
  3
CMLEADERSTYLE
350
2F6
  3
CTABLESTYLE
350
2F5
  3
LAYEREVAL
350
2FA
  3
LAYERNOTIFY
350
2FB
  3
LIGHTINGUNITS
350
2F9
  3
MSLTSCALE
350
2F7
  0
XRECORD
  5
2F3
102
{ACAD_REACTORS
330
2F2
102
}
330
2F2
100
AcDbXrecord
280
     1
290
     1
  0
LAYOUT
  5
1E
102
{ACAD_REACTORS
330
1A
102
}
330
1A
100
AcDbPlotSettings
  1

  2
none_device
  4

  6

 40
0.0
 41
0.0
 42
0.0
 43
0.0
 44
0.0
 45
0.0
 46
0.0
 47
0.0
 48
0.0
 49
0.0
140
0.0
141
0.0
142
1.0
143
1.0
 70
   688
 72
     0
 73
     0
 74
     5
  7

 75
    16
147
1.0
 76
     0
 77
     2
 78
   300
148
0.0
149
0.0
100
AcDbLayout
  1
Layout1
 70
     1
 71
     1
 10
0.0
 20
0.0
 11
420.0
 21
297.0
 12
0.0
 22
0.0
 32
0.0
 14
1.000000000000000E+20
 24
1.000000000000000E+20
 34
1.000000000000000E+20
 15
-1.000000000000000E+20
 25
-1.000000000000000E+20
 35
-1.000000000000000E+20
146
0.0
 13
0.0
 23
0.0
 33
0.0
 16
1.0
 26
0.0
 36
0.0
 17
0.0
 27
1.0
 37
0.0
 76
     0
330
1B
  0
LAYOUT
  5
26
102
{ACAD_REACTORS
330
1A
102
}
330
1A
100
AcDbPlotSettings
  1

  2
none_device
  4

  6

 40
0.0
 41
0.0
 42
0.0
 43
0.0
 44
0.0
 45
0.0
 46
0.0
 47
0.0
 48
0.0
 49
0.0
140
0.0
141
0.0
142
1.0
143
1.0
 70
   688
 72
     0
 73
     0
 74
     5
  7

 75
    16
147
1.0
 76
     0
 77
     2
 78
   300
148
0.0
149
0.0
100
AcDbLayout
  1
Layout2
 70
     1
 71
     2
 10
0.0
 20
0.0
 11
0.0
 21
0.0
 12
0.0
 22
0.0
 32
0.0
 14
0.0
 24
0.0
 34
0.0
 15
0.0
 25
0.0
 35
0.0
146
0.0
 13
0.0
 23
0.0
 33
0.0
 16
1.0
 26
0.0
 36
0.0
 17
0.0
 27
1.0
 37
0.0
 76
     0
330
23
  0
LAYOUT
  5
22
102
{ACAD_REACTORS
330
1A
102
}
330
1A
100
AcDbPlotSettings
  1

  2
none_device
  4

  6

 40
0.0
 41
0.0
 42
0.0
 43
0.0
 44
0.0
 45
0.0
 46
0.0
 47
0.0
 48
0.0
 49
0.0
140
0.0
141
0.0
142
1.0
143
1.0
 70
  1712
 72
     0
 73
     0
 74
     0
  7

 75
     0
147
1.0
 76
     0
 77
     2
 78
   300
148
0.0
149
0.0
100
AcDbLayout
  1
Model
 70
     1
 71
     0
 10
0.0
 20
0.0
 11
279.4
 21
215.9
 12
0.0
 22
0.0
 32
0.0
 14
0.0
 24
0.0
 34
0.0
 15
279.4
 25
215.9
 35
0.0
146
0.0
 13
0.0
 23
0.0
 33
0.0
 16
1.0
 26
0.0
 36
0.0
 17
0.0
 27
1.0
 37
0.0
 76
     0
330
1F
331
29
  0
MATERIAL
  5
2A0
102
{ACAD_XDICTIONARY
360
2A1
102
}
102
{ACAD_REACTORS
330
297
102
}
330
297
100
AcDbMaterial
  1
ByBlock
 72
     0
 43
0.0008202099737533
 43
0.0
 43
0.0
 43
0.0
 43
0.0
 43
0.0008202099737533
 43
0.0
 43
0.0
 43
0.0
 43
0.0
 43
1.0
 43
0.0
 43
0.0
 43
0.0
 43
0.0
 43
1.0
 77
     0
 47
0.0008202099737533
 47
0.0
 47
0.0
 47
0.0
 47
0.0
 47
0.0008202099737533
 47
0.0
 47
0.0
 47
0.0
 47
0.0
 47
1.0
 47
0.0
 47
0.0
 47
0.0
 47
0.0
 47
1.0
171
     0
 49
0.0008202099737533
 49
0.0
 49
0.0
 49
0.0
 49
0.0
 49
0.0008202099737533
 49
0.0
 49
0.0
 49
0.0
 49
0.0
 49
1.0
 49
0.0
 49
0.0
 49
0.0
 49
0.0
 49
1.0
175
     0
142
0.0008202099737533
142
0.0
142
0.0
142
0.0
142
0.0
142
0.0008202099737533
142
0.0
142
0.0
142
0.0
142
0.0
142
1.0
142
0.0
142
0.0
142
0.0
142
0.0
142
1.0
179
     0
144
0.0008202099737533
144
0.0
144
0.0
144
0.0
144
0.0
144
0.0008202099737533
144
0.0
144
0.0
144
0.0
144
0.0
144
1.0
144
0.0
144
0.0
144
0.0
144
0.0
144
1.0
147
0.0008202099737533
147
0.0
147
0.0
147
0.0
147
0.0
147
0.0008202099737533
147
0.0
147
0.0
147
0.0
147
0.0
147
1.0
147
0.0
147
0.0
147
0.0
147
0.0
147
1.0
  0
MATERIAL
  5
298
102
{ACAD_XDICTIONARY
360
299
102
}
102
{ACAD_REACTORS
330
297
102
}
330
297
100
AcDbMaterial
  1
ByLayer
 72
     0
 43
0.0008202099737533
 43
0.0
 43
0.0
 43
0.0
 43
0.0
 43
0.0008202099737533
 43
0.0
 43
0.0
 43
0.0
 43
0.0
 43
1.0
 43
0.0
 43
0.0
 43
0.0
 43
0.0
 43
1.0
 77
     0
 47
0.0008202099737533
 47
0.0
 47
0.0
 47
0.0
 47
0.0
 47
0.0008202099737533
 47
0.0
 47
0.0
 47
0.0
 47
0.0
 47
1.0
 47
0.0
 47
0.0
 47
0.0
 47
0.0
 47
1.0
171
     0
 49
0.0008202099737533
 49
0.0
 49
0.0
 49
0.0
 49
0.0
 49
0.0008202099737533
 49
0.0
 49
0.0
 49
0.0
 49
0.0
 49
1.0
 49
0.0
 49
0.0
 49
0.0
 49
0.0
 49
1.0
175
     0
142
0.0008202099737533
142
0.0
142
0.0
142
0.0
142
0.0
142
0.0008202099737533
142
0.0
142
0.0
142
0.0
142
0.0
142
1.0
142
0.0
142
0.0
142
0.0
142
0.0
142
1.0
179
     0
144
0.0008202099737533
144
0.0
144
0.0
144
0.0
144
0.0
144
0.0008202099737533
144
0.0
144
0.0
144
0.0
144
0.0
144
1.0
144
0.0
144
0.0
144
0.0
144
0.0
144
1.0
147
0.0008202099737533
147
0.0
147
0.0
147
0.0
147
0.0
147
0.0008202099737533
147
0.0
147
0.0
147
0.0
147
0.0
147
1.0
147
0.0
147
0.0
147
0.0
147
0.0
147
1.0
  0
MATERIAL
  5
2A8
102
{ACAD_XDICTIONARY
360
2A9
102
}
102
{ACAD_REACTORS
330
297
102
}
330
297
100
AcDbMaterial
  1
Global
 72
     0
 43
0.0008202099737533
 43
0.0
 43
0.0
 43
0.0
 43
0.0
 43
0.0008202099737533
 43
0.0
 43
0.0
 43
0.0
 43
0.0
 43
1.0
 43
0.0
 43
0.0
 43
0.0
 43
0.0
 43
1.0
 77
     0
 47
0.0008202099737533
 47
0.0
 47
0.0
 47
0.0
 47
0.0
 47
0.0008202099737533
 47
0.0
 47
0.0
 47
0.0
 47
0.0
 47
1.0
 47
0.0
 47
0.0
 47
0.0
 47
0.0
 47
1.0
171
     0
 49
0.0008202099737533
 49
0.0
 49
0.0
 49
0.0
 49
0.0
 49
0.0008202099737533
 49
0.0
 49
0.0
 49
0.0
 49
0.0
 49
1.0
 49
0.0
 49
0.0
 49
0.0
 49
0.0
 49
1.0
175
     0
142
0.0008202099737533
142
0.0
142
0.0
142
0.0
142
0.0
142
0.0008202099737533
142
0.0
142
0.0
142
0.0
142
0.0
142
1.0
142
0.0
142
0.0
142
0.0
142
0.0
142
1.0
179
     0
144
0.0008202099737533
144
0.0
144
0.0
144
0.0
144
0.0
144
0.0008202099737533
144
0.0
144
0.0
144
0.0
144
0.0
144
1.0
144
0.0
144
0.0
144
0.0
144
0.0
144
1.0
147
0.0008202099737533
147
0.0
147
0.0
147
0.0
147
0.0
147
0.0008202099737533
147
0.0
147
0.0
147
0.0
147
0.0
147
1.0
147
0.0
147
0.0
147
0.0
147
0.0
147
1.0
  0
MLEADERSTYLE
  5
2D7
102
{ACAD_REACTORS
330
2D6
102
}
330
2D6
100
AcDbMLeaderStyle
170
     2
171
     1
172
     0
 90
        2
 40
0.0
 41
0.0
173
     1
 91
-1056964608
340
14
 92
       -2
290
     1
 42
2.0
291
     1
 43
0.36
  3
Standard
 44
4.0
300

342
11
174
     1
178
     6
175
     1
176
     0
 93
-1056964608
 45
4.0
292
     0
297
     0
 46
4.0
 94
-1056964608
 47
1.0
 49
1.0
140
1.0
293
     1
141
0.0
294
     1
177
     0
142
1.0
295
     1
296
     0
143
0.125
1001
ACAD_MLEADERVER
1070
     2
  0
MLINESTYLE
  5
18
102
{ACAD_REACTORS
330
17
102
}
330
17
100
AcDbMlineStyle
  2
STANDARD
 70
     0
  3

 62
   256
 51
90.0
 52
90.0
 71
     2
 49
0.5
 62
   256
  6
BYLAYER
 49
-0.5
 62
   256
  6
BYLAYER
  0
ACDBPLACEHOLDER
  5
F
102
{ACAD_REACTORS
330
E
102
}
330
E
  0
SCALE
  5
2C5
102
{ACAD_REACTORS
330
2C4
102
}
330
2C4
100
AcDbScale
 70
     0
300
1:1
140
1.0
141
1.0
290
     1
  0
SCALE
  5
2C6
102
{ACAD_REACTORS
330
2C4
102
}
330
2C4
100
AcDbScale
 70
     0
300
1:2
140
1.0
141
2.0
290
     0
  0
SCALE
  5
2C7
102
{ACAD_REACTORS
330
2C4
102
}
330
2C4
100
AcDbScale
 70
     0
300
1:4
140
1.0
141
4.0
290
     0
  0
SCALE
  5
2C8
102
{ACAD_REACTORS
330
2C4
102
}
330
2C4
100
AcDbScale
 70
     0
300
1:5
140
1.0
141
5.0
290
     0
  0
SCALE
  5
2C9
102
{ACAD_REACTORS
330
2C4
102
}
330
2C4
100
AcDbScale
 70
     0
300
1:8
140
1.0
141
8.0
290
     0
  0
SCALE
  5
2CA
102
{ACAD_REACTORS
330
2C4
102
}
330
2C4
100
AcDbScale
 70
     0
300
1:10
140
1.0
141
10.0
290
     0
  0
SCALE
  5
2CB
102
{ACAD_REACTORS
330
2C4
102
}
330
2C4
100
AcDbScale
 70
     0
300
1:16
140
1.0
141
16.0
290
     0
  0
SCALE
  5
2CC
102
{ACAD_REACTORS
330
2C4
102
}
330
2C4
100
AcDbScale
 70
     0
300
1:20
140
1.0
141
20.0
290
     0
  0
SCALE
  5
2CD
102
{ACAD_REACTORS
330
2C4
102
}
330
2C4
100
AcDbScale
 70
     0
300
1:30
140
1.0
141
30.0
290
     0
  0
SCALE
  5
2CE
102
{ACAD_REACTORS
330
2C4
102
}
330
2C4
100
AcDbScale
 70
     0
300
1:40
140
1.0
141
40.0
290
     0
  0
SCALE
  5
2CF
102
{ACAD_REACTORS
330
2C4
102
}
330
2C4
100
AcDbScale
 70
     0
300
1:50
140
1.0
141
50.0
290
     0
  0
SCALE
  5
2D0
102
{ACAD_REACTORS
330
2C4
102
}
330
2C4
100
AcDbScale
 70
     0
300
1:100
140
1.0
141
100.0
290
     0
  0
SCALE
  5
2D1
102
{ACAD_REACTORS
330
2C4
102
}
330
2C4
100
AcDbScale
 70
     0
300
2:1
140
2.0
141
1.0
290
     0
  0
SCALE
  5
2D2
102
{ACAD_REACTORS
330
2C4
102
}
330
2C4
100
AcDbScale
 70
     0
300
4:1
140
4.0
141
1.0
290
     0
  0
SCALE
  5
2D3
102
{ACAD_REACTORS
330
2C4
102
}
330
2C4
100
AcDbScale
 70
     0
300
8:1
140
8.0
141
1.0
290
     0
  0
SCALE
  5
2D4
102
{ACAD_REACTORS
330
2C4
102
}
330
2C4
100
AcDbScale
 70
     0
300
10:1
140
10.0
141
1.0
290
     0
  0
SCALE
  5
2D5
102
{ACAD_REACTORS
330
2C4
102
}
330
2C4
100
AcDbScale
 70
     0
300
100:1
140
100.0
141
1.0
290
     0
  0
TABLESTYLE
  5
2C3
102
{ACAD_XDICTIONARY
360
2FC
102
}
102
{ACAD_REACTORS
330
2C2
102
}
330
2C2
100
AcDbTableStyle
  3
Standard
 70
     0
 71
     0
 40
1.5
 41
1.5
280
     0
281
     0
  7
Standard
140
4.5
170
     2
 62
     0
 63
     7
283
     0
 90
      512
 91
        0
  1

274
    -2
284
     1
 64
     0
275
    -2
285
     1
 65
     0
276
    -2
286
     1
 66
     0
277
    -2
287
     1
 67
     0
278
    -2
288
     1
 68
     0
279
    -2
289
     1
 69
     0
  7
Standard
140
6.0
170
     5
 62
     0
 63
     7
283
     0
 90
      512
 91
        0
  1

274
    -2
284
     1
 64
     0
275
    -2
285
     1
 65
     0
276
    -2
286
     1
 66
     0
277
    -2
287
     1
 67
     0
278
    -2
288
     1
 68
     0
279
    -2
289
     1
 69
     0
  7
Standard
140
4.5
170
     5
 62
     0
 63
     7
283
     0
 90
      512
 91
        0
  1

274
    -2
284
     1
 64
     0
275
    -2
285
     1
 65
     0
276
    -2
286
     1
 66
     0
277
    -2
287
     1
 67
     0
278
    -2
288
     1
 68
     0
279
    -2
289
     1
 69
     0
  0
VISUALSTYLE
  5
2B6
102
{ACAD_REACTORS
330
2B0
102
}
330
2B0
100
AcDbVisualStyle
  2
2dWireframe
 70
     4
 71
     0
 72
     2
 73
     0
 90
        0
 40
-0.6
 41
-30.0
 62
     5
 63
     7
421
 16777215
 74
     1
 91
        4
 64
     7
 65
   257
 75
     1
175
     1
 42
1.0
 92
        0
 66
   257
 43
1.0
 76
     1
 77
     6
 78
     2
 67
     7
 79
     5
170
     0
171
     0
290
     0
174
     0
 93
        1
 44
0.0
173
     0
291
     0
 45
0.0
  0
VISUALSTYLE
  5
2B8
102
{ACAD_REACTORS
330
2B0
102
}
330
2B0
100
AcDbVisualStyle
  2
3D Hidden
 70
     6
 71
     1
 72
     2
 73
     2
 90
        0
 40
-0.6
 41
-30.0
 62
     5
 63
     7
421
 16777215
 74
     2
 91
        2
 64
     7
 65
   257
 75
     2
175
     1
 42
40.0
 92
        0
 66
   257
 43
1.0
 76
     1
 77
     6
 78
     2
 67
     7
 79
     3
170
     0
171
     0
290
     0
174
     0
 93
        1
 44
0.0
173
     0
291
     0
 45
0.0
  0
VISUALSTYLE
  5
2B7
102
{ACAD_REACTORS
330
2B0
102
}
330
2B0
100
AcDbVisualStyle
  2
3dWireframe
 70
     5
 71
     0
 72
     2
 73
     0
 90
        0
 40
-0.6
 41
-30.0
 62
     5
 63
     7
421
 16777215
 74
     1
 91
        4
 64
     7
 65
   257
 75
     1
175
     1
 42
1.0
 92
        0
 66
   257
 43
1.0
 76
     1
 77
     6
 78
     2
 67
     7
 79
     5
170
     0
171
     0
290
     0
174
     0
 93
        1
 44
0.0
173
     0
291
     0
 45
0.0
  0
VISUALSTYLE
  5
2B5
102
{ACAD_REACTORS
330
2B0
102
}
330
2B0
100
AcDbVisualStyle
  2
Basic
 70
     7
 71
     1
 72
     0
 73
     1
 90
        0
 40
-0.6
 41
-30.0
 62
     5
 63
     7
421
 16777215
 74
     0
 91
        4
 64
     7
 65
   257
 75
     1
175
     1
 42
1.0
 92
        8
 66
     7
 43
1.0
 76
     1
 77
     6
 78
     2
 67
     7
 79
     5
170
     0
171
     0
290
     0
174
     0
 93
        1
 44
0.0
173
     0
291
     1
 45
0.0
  0
VISUALSTYLE
  5
2BC
102
{ACAD_REACTORS
330
2B0
102
}
330
2B0
100
AcDbVisualStyle
  2
Brighten
 70
    12
 71
     2
 72
     2
 73
     0
 90
        0
 40
-0.6
 41
-30.0
 62
     5
 63
     7
421
 16777215
 74
     1
 91
        4
 64
     7
 65
   257
 75
     1
175
     1
 42
1.0
 92
        8
 66
     7
 43
1.0
 76
     1
 77
     6
 78
     2
 67
     7
 79
     5
170
     0
171
     0
290
     0
174
     0
 93
        1
 44
50.0
173
     0
291
     1
 45
0.0
  0
VISUALSTYLE
  5
2C0
102
{ACAD_REACTORS
330
2B0
102
}
330
2B0
100
AcDbVisualStyle
  2
ColorChange
 70
    16
 71
     2
 72
     2
 73
     3
 90
        0
 40
-0.6
 41
-30.0
 62
     5
 63
     8
421
  8421504
 74
     1
 91
        4
 64
     7
 65
   257
 75
     1
175
     1
 42
1.0
 92
        8
 66
     8
424
  8421504
 43
1.0
 76
     1
 77
     6
 78
     2
 67
     7
 79
     5
170
     0
171
     0
290
     0
174
     0
 93
        1
 44
0.0
173
     0
291
     1
 45
0.0
  0
VISUALSTYLE
  5
2B9
102
{ACAD_REACTORS
330
2B0
102
}
330
2B0
100
AcDbVisualStyle
  2
Conceptual
 70
     9
 71
     3
 72
     2
 73
     0
 90
        0
 40
-0.6
 41
-30.0
 62
     5
 63
     7
421
 16777215
 74
     2
 91
        2
 64
     7
 65
   257
 75
     1
175
     1
 42
40.0
 92
        8
 66
     7
 43
1.0
 76
     1
 77
     6
 78
     2
 67
     7
 79
     3
170
     0
171
     0
290
     0
174
     0
 93
        1
 44
0.0
173
     0
291
     0
 45
0.0
  0
VISUALSTYLE
  5
2BB
102
{ACAD_REACTORS
330
2B0
102
}
330
2B0
100
AcDbVisualStyle
  2
Dim
 70
    11
 71
     2
 72
     2
 73
     0
 90
        0
 40
-0.6
 41
-30.0
 62
     5
 63
     7
421
 16777215
 74
     1
 91
        4
 64
     7
 65
   257
 75
     1
175
     1
 42
1.0
 92
        8
 66
     7
 43
1.0
 76
     1
 77
     6
 78
     2
 67
     7
 79
     5
170
     0
171
     0
290
     0
174
     0
 93
        1
 44
-50.0
173
     0
291
     1
 45
0.0
  0
VISUALSTYLE
  5
2BF
102
{ACAD_REACTORS
330
2B0
102
}
330
2B0
100
AcDbVisualStyle
  2
Facepattern
 70
    15
 71
     2
 72
     2
 73
     0
 90
        0
 40
-0.6
 41
-30.0
 62
     5
 63
     7
421
 16777215
 74
     1
 91
        4
 64
     7
 65
   257
 75
     1
175
     1
 42
1.0
 92
        8
 66
     7
 43
1.0
 76
     1
 77
     6
 78
     2
 67
     7
 79
     5
170
     0
171
     0
290
     0
174
     0
 93
        1
 44
0.0
173
     0
291
     1
 45
0.0
  0
VISUALSTYLE
  5
2B1
102
{ACAD_REACTORS
330
2B0
102
}
330
2B0
100
AcDbVisualStyle
  2
Flat
 70
     0
 71
     2
 72
     1
 73
     1
 90
        2
 40
-0.6
 41
30.0
 62
     5
 63
     7
421
 16777215
 74
     0
 91
        4
 64
     7
 65
   257
 75
     1
175
     1
 42
1.0
 92
        8
 66
     7
 43
1.0
 76
     1
 77
     6
 78
     2
 67
     7
 79
     5
170
     0
171
     0
290
     0
174
     0
 93
       13
 44
0.0
173
     0
291
     1
 45
0.0
  0
VISUALSTYLE
  5
2B2
102
{ACAD_REACTORS
330
2B0
102
}
330
2B0
100
AcDbVisualStyle
  2
FlatWithEdges
 70
     1
 71
     2
 72
     1
 73
     1
 90
        2
 40
-0.6
 41
30.0
 62
     5
 63
     7
421
 16777215
 74
     1
 91
        4
 64
     7
 65
   257
 75
     1
175
     1
 42
1.0
 92
        0
 66
   257
 43
1.0
 76
     1
 77
     6
 78
     2
 67
     7
 79
     5
170
     0
171
     0
290
     0
174
     0
 93
       13
 44
0.0
173
     0
291
     1
 45
0.0
  0
VISUALSTYLE
  5
2B3
102
{ACAD_REACTORS
330
2B0
102
}
330
2B0
100
AcDbVisualStyle
  2
Gouraud
 70
     2
 71
     2
 72
     2
 73
     1
 90
        2
 40
-0.6
 41
30.0
 62
     5
 63
     7
421
 16777215
 74
     0
 91
        4
 64
     7
 65
   257
 75
     1
175
     1
 42
1.0
 92
        0
 66
     7
 43
1.0
 76
     1
 77
     6
 78
     2
 67
     7
 79
     5
170
     0
171
     0
290
     0
174
     0
 93
       13
 44
0.0
173
     0
291
     1
 45
0.0
  0
VISUALSTYLE
  5
2B4
102
{ACAD_REACTORS
330
2B0
102
}
330
2B0
100
AcDbVisualStyle
  2
GouraudWithEdges
 70
     3
 71
     2
 72
     2
 73
     1
 90
        2
 40
-0.6
 41
30.0
 62
     5
 63
     7
421
 16777215
 74
     1
 91
        4
 64
     7
 65
   257
 75
     1
175
     1
 42
1.0
 92
        0
 66
   257
 43
1.0
 76
     1
 77
     6
 78
     2
 67
     7
 79
     5
170
     0
171
     0
290
     0
174
     0
 93
       13
 44
0.0
173
     0
291
     1
 45
0.0
  0
VISUALSTYLE
  5
2BE
102
{ACAD_REACTORS
330
2B0
102
}
330
2B0
100
AcDbVisualStyle
  2
Linepattern
 70
    14
 71
     2
 72
     2
 73
     0
 90
        0
 40
-0.6
 41
-30.0
 62
     5
 63
     7
421
 16777215
 74
     1
 91
        4
 64
     7
 65
   257
 75
     7
175
     7
 42
1.0
 92
        8
 66
     7
 43
1.0
 76
     1
 77
     6
 78
     2
 67
     7
 79
     5
170
     0
171
     0
290
     0
174
     0
 93
        1
 44
0.0
173
     0
291
     1
 45
0.0
  0
VISUALSTYLE
  5
2BA
102
{ACAD_REACTORS
330
2B0
102
}
330
2B0
100
AcDbVisualStyle
  2
Realistic
 70
     8
 71
     2
 72
     2
 73
     0
 90
        0
 40
-0.6
 41
-30.0
 62
     5
 63
     7
421
 16777215
 74
     1
 91
        0
 64
     7
 65
   257
 75
     1
175
     1
 42
1.0
 92
        8
 66
     8
424
  7895160
 43
1.0
 76
     1
 77
     6
 78
     2
 67
     7
 79
     5
170
     0
171
     0
290
     0
174
     0
 93
       13
 44
0.0
173
     0
291
     0
 45
0.0
  0
VISUALSTYLE
  5
2BD
102
{ACAD_REACTORS
330
2B0
102
}
330
2B0
100
AcDbVisualStyle
  2
Thicken
 70
    13
 71
     2
 72
     2
 73
     0
 90
        0
 40
-0.6
 41
-30.0
 62
     5
 63
     7
421
 16777215
 74
     1
 91
        4
 64
     7
 65
   257
 75
     1
175
     1
 42
1.0
 92
       12
 66
     7
 43
1.0
 76
     1
 77
     6
 78
     2
 67
     7
 79
     5
170
     0
171
     0
290
     0
174
     0
 93
        1
 44
0.0
173
     0
291
     1
 45
0.0
  0
DICTIONARYVAR
  5
2F8
102
{ACAD_REACTORS
330
2F4
102
}
330
2F4
100
DictionaryVariables
280
     0
  1
1:1
  0
DICTIONARYVAR
  5
2F6
102
{ACAD_REACTORS
330
2F4
102
}
330
2F4
100
DictionaryVariables
280
     0
  1
STANDARD
  0
DICTIONARYVAR
  5
2F5
102
{ACAD_REACTORS
330
2F4
102
}
330
2F4
100
DictionaryVariables
280
     0
  1
STANDARD
  0
DICTIONARYVAR
  5
2FA
102
{ACAD_REACTORS
330
2F4
102
}
330
2F4
100
DictionaryVariables
280
     0
  1
1
  0
DICTIONARYVAR
  5
2FB
102
{ACAD_REACTORS
330
2F4
102
}
330
2F4
100
DictionaryVariables
280
     0
  1
15
  0
DICTIONARYVAR
  5
2F9
102
{ACAD_REACTORS
330
2F4
102
}
330
2F4
100
DictionaryVariables
280
     0
  1
0
  0
DICTIONARYVAR
  5
2F7
102
{ACAD_REACTORS
330
2F4
102
}
330
2F4
100
DictionaryVariables
280
     0
  1
0
  0
DICTIONARY
  5
2A1
330
2A0
100
AcDbDictionary
280
     1
281
     1
  3
BUMPTILE
360
2A3
  3
DIFFUSETILE
360
2A2
  3
OPACITYTILE
360
2A6
  3
REFLECTIONTILE
360
2A5
  3
REFRACTIONTILE
360
2A7
  3
SPECULARTILE
360
2A4
  0
DICTIONARY
  5
299
330
298
100
AcDbDictionary
280
     1
281
     1
  3
BUMPTILE
360
29B
  3
DIFFUSETILE
360
29A
  3
OPACITYTILE
360
29E
  3
REFLECTIONTILE
360
29D
  3
REFRACTIONTILE
360
29F
  3
SPECULARTILE
360
29C
  0
DICTIONARY
  5
2A9
330
2A8
100
AcDbDictionary
280
     1
281
     1
  3
BUMPTILE
360
2AB
  3
DIFFUSETILE
360
2AA
  3
OPACITYTILE
360
2AE
  3
REFLECTIONTILE
360
2AD
  3
REFRACTIONTILE
360
2AF
  3
SPECULARTILE
360
2AC
  0
DICTIONARY
  5
2FC
330
2C3
100
AcDbDictionary
280
     1
281
     1
  3
ACAD_ROUNDTRIP_2008_TABLESTYLE_CELLSTYLEMAP
360
2FD
  0
XRECORD
  5
2A3
102
{ACAD_REACTORS
330
2A1
102
}
330
2A1
100
AcDbXrecord
280
     1
270
     1
271
     1
  0
XRECORD
  5
2A2
102
{ACAD_REACTORS
330
2A1
102
}
330
2A1
100
AcDbXrecord
280
     1
270
     1
271
     1
  0
XRECORD
  5
2A6
102
{ACAD_REACTORS
330
2A1
102
}
330
2A1
100
AcDbXrecord
280
     1
270
     1
271
     1
  0
XRECORD
  5
2A5
102
{ACAD_REACTORS
330
2A1
102
}
330
2A1
100
AcDbXrecord
280
     1
270
     1
271
     1
  0
XRECORD
  5
2A7
102
{ACAD_REACTORS
330
2A1
102
}
330
2A1
100
AcDbXrecord
280
     1
270
     1
271
     1
  0
XRECORD
  5
2A4
102
{ACAD_REACTORS
330
2A1
102
}
330
2A1
100
AcDbXrecord
280
     1
270
     1
271
     1
  0
XRECORD
  5
29B
102
{ACAD_REACTORS
330
299
102
}
330
299
100
AcDbXrecord
280
     1
270
     1
271
     1
  0
XRECORD
  5
29A
102
{ACAD_REACTORS
330
299
102
}
330
299
100
AcDbXrecord
280
     1
270
     1
271
     1
  0
XRECORD
  5
29E
102
{ACAD_REACTORS
330
299
102
}
330
299
100
AcDbXrecord
280
     1
270
     1
271
     1
  0
XRECORD
  5
29D
102
{ACAD_REACTORS
330
299
102
}
330
299
100
AcDbXrecord
280
     1
270
     1
271
     1
  0
XRECORD
  5
29F
102
{ACAD_REACTORS
330
299
102
}
330
299
100
AcDbXrecord
280
     1
270
     1
271
     1
  0
XRECORD
  5
29C
102
{ACAD_REACTORS
330
299
102
}
330
299
100
AcDbXrecord
280
     1
270
     1
271
     1
  0
XRECORD
  5
2AB
102
{ACAD_REACTORS
330
2A9
102
}
330
2A9
100
AcDbXrecord
280
     1
270
     1
271
     1
  0
XRECORD
  5
2AA
102
{ACAD_REACTORS
330
2A9
102
}
330
2A9
100
AcDbXrecord
280
     1
270
     1
271
     1
  0
XRECORD
  5
2AE
102
{ACAD_REACTORS
330
2A9
102
}
330
2A9
100
AcDbXrecord
280
     1
270
     1
271
     1
  0
XRECORD
  5
2AD
102
{ACAD_REACTORS
330
2A9
102
}
330
2A9
100
AcDbXrecord
280
     1
270
     1
271
     1
  0
XRECORD
  5
2AF
102
{ACAD_REACTORS
330
2A9
102
}
330
2A9
100
AcDbXrecord
280
     1
270
     1
271
     1
  0
XRECORD
  5
2AC
102
{ACAD_REACTORS
330
2A9
102
}
330
2A9
100
AcDbXrecord
280
     1
270
     1
271
     1
  0
CELLSTYLEMAP
  5
2FD
102
{ACAD_REACTORS
330
2FC
102
}
330
2FC
100
AcDbCellStyleMap
 90
        3
300
CELLSTYLE
  1
TABLEFORMAT_BEGIN
 90
        5
170
     1
 91
        0
 92
    32768
 62
   257
 93
        1
300
CONTENTFORMAT
  1
CONTENTFORMAT_BEGIN
 90
        0
 91
        0
 92
      512
 93
        0
300

 40
0.0
140
1.0
 94
        5
 62
     0
340
11
144
6.0
309
CONTENTFORMAT_END
171
     1
301
MARGIN
  1
CELLMARGIN_BEGIN
 40
1.5
 40
1.5
 40
1.5
 40
1.5
 40
4.5
 40
4.5
309
CELLMARGIN_END
 94
        6
 95
        1
302
GRIDFORMAT
  1
GRIDFORMAT_BEGIN
 90
        0
 91
        1
 62
     0
 92
       -2
340
0
 93
        0
 40
1.125
309
GRIDFORMAT_END
 95
        2
302
GRIDFORMAT
  1
GRIDFORMAT_BEGIN
 90
        0
 91
        1
 62
     0
 92
       -2
340
0
 93
        0
 40
1.125
309
GRIDFORMAT_END
 95
        4
302
GRIDFORMAT
  1
GRIDFORMAT_BEGIN
 90
        0
 91
        1
 62
     0
 92
       -2
340
0
 93
        0
 40
1.125
309
GRIDFORMAT_END
 95
        8
302
GRIDFORMAT
  1
GRIDFORMAT_BEGIN
 90
        0
 91
        1
 62
     0
 92
       -2
340
0
 93
        0
 40
1.125
309
GRIDFORMAT_END
 95
       16
302
GRIDFORMAT
  1
GRIDFORMAT_BEGIN
 90
        0
 91
        1
 62
     0
 92
       -2
340
0
 93
        0
 40
1.125
309
GRIDFORMAT_END
 95
       32
302
GRIDFORMAT
  1
GRIDFORMAT_BEGIN
 90
        0
 91
        1
 62
     0
 92
       -2
340
0
 93
        0
 40
1.125
309
GRIDFORMAT_END
309
TABLEFORMAT_END
  1
CELLSTYLE_BEGIN
 90
        1
 91
        1
300
_TITLE
309
CELLSTYLE_END
300
CELLSTYLE
  1
TABLEFORMAT_BEGIN
 90
        5
170
     1
 91
        0
 92
        0
 62
   257
 93
        1
300
CONTENTFORMAT
  1
CONTENTFORMAT_BEGIN
 90
        0
 91
        0
 92
      512
 93
        0
300

 40
0.0
140
1.0
 94
        5
 62
     0
340
11
144
4.5
309
CONTENTFORMAT_END
171
     1
301
MARGIN
  1
CELLMARGIN_BEGIN
 40
1.5
 40
1.5
 40
1.5
 40
1.5
 40
4.5
 40
4.5
309
CELLMARGIN_END
 94
        6
 95
        1
302
GRIDFORMAT
  1
GRIDFORMAT_BEGIN
 90
        0
 91
        1
 62
     0
 92
       -2
340
0
 93
        0
 40
1.125
309
GRIDFORMAT_END
 95
        2
302
GRIDFORMAT
  1
GRIDFORMAT_BEGIN
 90
        0
 91
        1
 62
     0
 92
       -2
340
0
 93
        0
 40
1.125
309
GRIDFORMAT_END
 95
        4
302
GRIDFORMAT
  1
GRIDFORMAT_BEGIN
 90
        0
 91
        1
 62
     0
 92
       -2
340
0
 93
        0
 40
1.125
309
GRIDFORMAT_END
 95
        8
302
GRIDFORMAT
  1
GRIDFORMAT_BEGIN
 90
        0
 91
        1
 62
     0
 92
       -2
340
0
 93
        0
 40
1.125
309
GRIDFORMAT_END
 95
       16
302
GRIDFORMAT
  1
GRIDFORMAT_BEGIN
 90
        0
 91
        1
 62
     0
 92
       -2
340
0
 93
        0
 40
1.125
309
GRIDFORMAT_END
 95
       32
302
GRIDFORMAT
  1
GRIDFORMAT_BEGIN
 90
        0
 91
        1
 62
     0
 92
       -2
340
0
 93
        0
 40
1.125
309
GRIDFORMAT_END
309
TABLEFORMAT_END
  1
CELLSTYLE_BEGIN
 90
        2
 91
        1
300
_HEADER
309
CELLSTYLE_END
300
CELLSTYLE
  1
TABLEFORMAT_BEGIN
 90
        5
170
     1
 91
        0
 92
        0
 62
   257
 93
        1
300
CONTENTFORMAT
  1
CONTENTFORMAT_BEGIN
 90
        0
 91
        0
 92
      512
 93
        0
300

 40
0.0
140
1.0
 94
        2
 62
     0
340
11
144
4.5
309
CONTENTFORMAT_END
171
     1
301
MARGIN
  1
CELLMARGIN_BEGIN
 40
1.5
 40
1.5
 40
1.5
 40
1.5
 40
4.5
 40
4.5
309
CELLMARGIN_END
 94
        6
 95
        1
302
GRIDFORMAT
  1
GRIDFORMAT_BEGIN
 90
        0
 91
        1
 62
     0
 92
       -2
340
0
 93
        0
 40
1.125
309
GRIDFORMAT_END
 95
        2
302
GRIDFORMAT
  1
GRIDFORMAT_BEGIN
 90
        0
 91
        1
 62
     0
 92
       -2
340
0
 93
        0
 40
1.125
309
GRIDFORMAT_END
 95
        4
302
GRIDFORMAT
  1
GRIDFORMAT_BEGIN
 90
        0
 91
        1
 62
     0
 92
       -2
340
0
 93
        0
 40
1.125
309
GRIDFORMAT_END
 95
        8
302
GRIDFORMAT
  1
GRIDFORMAT_BEGIN
 90
        0
 91
        1
 62
     0
 92
       -2
340
0
 93
        0
 40
1.125
309
GRIDFORMAT_END
 95
       16
302
GRIDFORMAT
  1
GRIDFORMAT_BEGIN
 90
        0
 91
        1
 62
     0
 92
       -2
340
0
 93
        0
 40
1.125
309
GRIDFORMAT_END
 95
       32
302
GRIDFORMAT
  1
GRIDFORMAT_BEGIN
 90
        0
 91
        1
 62
     0
 92
       -2
340
0
 93
        0
 40
1.125
309
GRIDFORMAT_END
309
TABLEFORMAT_END
  1
CELLSTYLE_BEGIN
 90
        3
 91
        2
300
_DATA
309
CELLSTYLE_END
  0
ENDSEC
  0
EOF
