ISO-10303-21;
HEADER;
FILE_DESCRIPTION (( 'STEP AP214' ),
    '1' );
FILE_NAME ('FLAME DR UNI LED 1800õ190 4000K.STEP',
    '2018-06-26T05:09:40',
    ( '' ),
    ( '' ),
    'SwSTEP 2.0',
    'SolidWorks 2013',
    '' );
FILE_SCHEMA (( 'AUTOMOTIVE_DESIGN' ));
ENDSEC;

DATA;
#1 = EDGE_LOOP ( 'NONE', ( #186, #191, #193, #43 ) ) ;
#2 = LINE ( 'NONE', #292, #190 ) ;
#3 = ORIENTED_EDGE ( 'NONE', *, *, #73, .F. ) ;
#4 = ORIENTED_EDGE ( 'NONE', *, *, #177, .T. ) ;
#5 = CARTESIAN_POINT ( 'NONE',  ( -38.11168954355215300, 102.0540899046013300, 33.00000000000000000 ) ) ;
#6 = ORIENTED_EDGE ( 'NONE', *, *, #279, .F. ) ;
#7 = EDGE_LOOP ( 'NONE', ( #61, #52, #88, #74 ) ) ;
#8 = EDGE_CURVE ( 'NONE', #151, #29, #155, .T. ) ;
#9 = PLANE ( 'NONE',  #129 ) ;
#10 = ADVANCED_FACE ( 'NONE', ( #195, #94 ), #238, .T. ) ;
#11 = ORIENTED_EDGE ( 'NONE', *, *, #19, .T. ) ;
#12 = FACE_OUTER_BOUND ( 'NONE', #1, .T. ) ;
#13 = DIRECTION ( 'NONE',  ( -0.0000000000000000000, 1.000000000000000000, -0.0000000000000000000 ) ) ;
#14 = VERTEX_POINT ( 'NONE', #315 ) ;
#15 = ORIENTED_EDGE ( 'NONE', *, *, #35, .F. ) ;
#16 = ORIENTED_EDGE ( 'NONE', *, *, #19, .F. ) ;
#17 = ORIENTED_EDGE ( 'NONE', *, *, #70, .T. ) ;
#18 = EDGE_LOOP ( 'NONE', ( #4, #16, #15, #68 ) ) ;
#19 = EDGE_CURVE ( 'NONE', #38, #24, #196, .T. ) ;
#20 = PRODUCT ( 'FLAME DR UNI LED 1800õ190 4000K', 'FLAME DR UNI LED 1800õ190 4000K', '', ( #157 ) ) ;
#21 = LINE ( 'NONE', #275, #242 ) ;
#22 = EDGE_CURVE ( 'NONE', #132, #164, #200, .T. ) ;
#23 = DIRECTION ( 'NONE',  ( -0.0000000000000000000, 0.0000000000000000000, 1.000000000000000000 ) ) ;
#24 = VERTEX_POINT ( 'NONE', #201 ) ;
#25 = DIRECTION ( 'NONE',  ( -1.000000000000000000, -0.0000000000000000000, -0.0000000000000000000 ) ) ;
#26 = SURFACE_STYLE_FILL_AREA ( #289 ) ;
#27 = EDGE_LOOP ( 'NONE', ( #41, #40, #32, #67 ) ) ;
#28 = EDGE_LOOP ( 'NONE', ( #102, #165, #170, #184 ) ) ;
#29 = VERTEX_POINT ( 'NONE', #63 ) ;
#30 = AXIS2_PLACEMENT_3D ( 'NONE', #258, #167, #163 ) ;
#31 = EDGE_LOOP ( 'NONE', ( #122, #124, #125, #133 ) ) ;
#32 = ORIENTED_EDGE ( 'NONE', *, *, #56, .F. ) ;
#33 = COLOUR_RGB ( '',0.7921568627450980000, 0.8196078431372548800, 0.9333333333333333500 ) ;
#34 = PRESENTATION_LAYER_ASSIGNMENT (  '', '', ( #301 ) ) ;
#35 = EDGE_CURVE ( 'NONE', #82, #38, #21, .T. ) ;
#36 = LINE ( 'NONE', #233, #296 ) ;
#37 = FACE_OUTER_BOUND ( 'NONE', #31, .T. ) ;
#38 = VERTEX_POINT ( 'NONE', #267 ) ;
#39 = EDGE_CURVE ( 'NONE', #49, #164, #229, .T. ) ;
#40 = ORIENTED_EDGE ( 'NONE', *, *, #39, .F. ) ;
#41 = ORIENTED_EDGE ( 'NONE', *, *, #139, .F. ) ;
#42 = VERTEX_POINT ( 'NONE', #321 ) ;
#43 = ORIENTED_EDGE ( 'NONE', *, *, #54, .T. ) ;
#44 = CARTESIAN_POINT ( 'NONE',  ( -38.11168954355215300, 102.0540899046013300, 38.00000000000000000 ) ) ;
#45 = DIRECTION ( 'NONE',  ( -0.0000000000000000000, 0.0000000000000000000, 1.000000000000000000 ) ) ;
#46 = DIRECTION ( 'NONE',  ( 0.0000000000000000000, -1.000000000000000000, 0.0000000000000000000 ) ) ;
#47 =( GEOMETRIC_REPRESENTATION_CONTEXT ( 3 ) GLOBAL_UNCERTAINTY_ASSIGNED_CONTEXT ( ( #192 ) ) GLOBAL_UNIT_ASSIGNED_CONTEXT ( ( #202, #199, #176 ) ) REPRESENTATION_CONTEXT ( 'NONE', 'WORKASPACE' ) );
#48 = ORIENTED_EDGE ( 'NONE', *, *, #100, .T. ) ;
#49 = VERTEX_POINT ( 'NONE', #302 ) ;
#50 = DIRECTION ( 'NONE',  ( 1.000000000000000000, 0.0000000000000000000, 0.0000000000000000000 ) ) ;
#51 = EDGE_CURVE ( 'NONE', #95, #83, #219, .T. ) ;
#52 = ORIENTED_EDGE ( 'NONE', *, *, #110, .T. ) ;
#53 = VECTOR ( 'NONE', #332, 1000.000000000000000 ) ;
#54 = EDGE_CURVE ( 'NONE', #223, #49, #252, .T. ) ;
#55 = CLOSED_SHELL ( 'NONE', ( #290, #108, #235, #262, #10, #58, #168, #117, #174, #147, #274 ) ) ;
#56 = EDGE_CURVE ( 'NONE', #83, #49, #256, .T. ) ;
#57 = VECTOR ( 'NONE', #313, 1000.000000000000000 ) ;
#58 = ADVANCED_FACE ( 'NONE', ( #287 ), #93, .F. ) ;
#59 = DIRECTION ( 'NONE',  ( 1.000000000000000000, 0.0000000000000000000, 0.0000000000000000000 ) ) ;
#60 = VECTOR ( 'NONE', #311, 1000.000000000000000 ) ;
#61 = ORIENTED_EDGE ( 'NONE', *, *, #337, .T. ) ;
#62 = VECTOR ( 'NONE', #46, 1000.000000000000000 ) ;
#63 = CARTESIAN_POINT ( 'NONE',  ( -88.11168954355214600, -37.94591009539836800, 0.0000000000000000000 ) ) ;
#64 = EDGE_CURVE ( 'NONE', #14, #83, #328, .T. ) ;
#65 = CARTESIAN_POINT ( 'NONE',  ( -88.11168954355216000, 152.0540899046016200, 38.00000000000000000 ) ) ;
#66 = CARTESIAN_POINT ( 'NONE',  ( -38.11168954355215300, 12.05408990460135500, 33.00000000000000000 ) ) ;
#67 = ORIENTED_EDGE ( 'NONE', *, *, #51, .F. ) ;
#68 = ORIENTED_EDGE ( 'NONE', *, *, #234, .T. ) ;
#69 = PRODUCT_RELATED_PRODUCT_CATEGORY ( 'part', '', ( #20 ) ) ;
#70 = EDGE_CURVE ( 'NONE', #24, #151, #339, .T. ) ;
#71 = ORIENTED_EDGE ( 'NONE', *, *, #8, .F. ) ;
#72 = VECTOR ( 'NONE', #59, 1000.000000000000000 ) ;
#73 = EDGE_CURVE ( 'NONE', #255, #151, #305, .T. ) ;
#74 = ORIENTED_EDGE ( 'NONE', *, *, #279, .T. ) ;
#75 = VERTEX_POINT ( 'NONE', #104 ) ;
#76 = PRODUCT_DEFINITION_FORMATION_WITH_SPECIFIED_SOURCE ( 'ANY', '', #20, .NOT_KNOWN. ) ;
#77 = PLANE ( 'NONE',  #323 ) ;
#78 = AXIS2_PLACEMENT_3D ( 'NONE', #310, #86, #142 ) ;
#79 = CARTESIAN_POINT ( 'NONE',  ( -88.11168954355214600, -37.94591009539836800, 38.00000000000000000 ) ) ;
#80 = PLANE ( 'NONE',  #154 ) ;
#81 = LINE ( 'NONE', #264, #72 ) ;
#82 = VERTEX_POINT ( 'NONE', #280 ) ;
#83 = VERTEX_POINT ( 'NONE', #194 ) ;
#84 = DIRECTION ( 'NONE',  ( -0.0000000000000000000, 1.000000000000000000, -0.0000000000000000000 ) ) ;
#85 = VERTEX_POINT ( 'NONE', #260 ) ;
#86 = DIRECTION ( 'NONE',  ( 0.0000000000000000000, -1.000000000000000000, 0.0000000000000000000 ) ) ;
#87 = EDGE_CURVE ( 'NONE', #75, #95, #316, .T. ) ;
#88 = ORIENTED_EDGE ( 'NONE', *, *, #35, .T. ) ;
#89 = DIRECTION ( 'NONE',  ( 0.0000000000000000000, -1.000000000000000000, 0.0000000000000000000 ) ) ;
#90 = DIRECTION ( 'NONE',  ( -0.0000000000000000000, -0.0000000000000000000, 1.000000000000000000 ) ) ;
#91 = SHAPE_DEFINITION_REPRESENTATION ( #123, #263 ) ;
#92 = PRESENTATION_LAYER_ASSIGNMENT (  '', '', ( #98 ) ) ;
#93 = PLANE ( 'NONE',  #246 ) ;
#94 = FACE_OUTER_BOUND ( 'NONE', #7, .T. ) ;
#95 = VERTEX_POINT ( 'NONE', #143 ) ;
#96 = PRODUCT_DEFINITION ( 'UNKNOWN', '', #76, #243 ) ;
#97 = FACE_OUTER_BOUND ( 'NONE', #295, .T. ) ;
#98 = STYLED_ITEM ( 'NONE', ( #273 ), #263 ) ;
#99 = DIRECTION ( 'NONE',  ( 1.000000000000000000, 1.642885174307446400E-016, 0.0000000000000000000 ) ) ;
#100 = EDGE_CURVE ( 'NONE', #29, #42, #81, .T. ) ;
#101 = ORIENTED_EDGE ( 'NONE', *, *, #266, .T. ) ;
#102 = ORIENTED_EDGE ( 'NONE', *, *, #139, .T. ) ;
#103 = ORIENTED_EDGE ( 'NONE', *, *, #73, .T. ) ;
#104 = CARTESIAN_POINT ( 'NONE',  ( -38.11168954355215300, 12.05408990460135500, 33.00000000000000000 ) ) ;
#105 = AXIS2_PLACEMENT_3D ( 'NONE', #79, #210, #107 ) ;
#106 = AXIS2_PLACEMENT_3D ( 'NONE', #329, #322, #261 ) ;
#107 = DIRECTION ( 'NONE',  ( 0.0000000000000000000, -0.0000000000000000000, 1.000000000000000000 ) ) ;
#108 = ADVANCED_FACE ( 'NONE', ( #248 ), #324, .F. ) ;
#109 = CARTESIAN_POINT ( 'NONE',  ( 0.0000000000000000000, 0.0000000000000000000, 0.0000000000000000000 ) ) ;
#110 = EDGE_CURVE ( 'NONE', #85, #82, #303, .T. ) ;
#111 = ORIENTED_EDGE ( 'NONE', *, *, #100, .F. ) ;
#112 = EDGE_LOOP ( 'NONE', ( #17, #3, #6, #11 ) ) ;
#113 = ORIENTED_EDGE ( 'NONE', *, *, #177, .F. ) ;
#114 = ORIENTED_EDGE ( 'NONE', *, *, #70, .F. ) ;
#115 = DIRECTION ( 'NONE',  ( -1.000000000000000000, -1.632680918566406300E-016, 0.0000000000000000000 ) ) ;
#116 = ORIENTED_EDGE ( 'NONE', *, *, #224, .F. ) ;
#117 = ADVANCED_FACE ( 'NONE', ( #12 ), #297, .F. ) ;
#118 = CARTESIAN_POINT ( 'NONE',  ( -88.11168954355216000, 152.0540899046016200, 0.0000000000000000000 ) ) ;
#119 = CARTESIAN_POINT ( 'NONE',  ( -88.11168954355216000, 152.0540899046016200, 0.0000000000000000000 ) ) ;
#120 = ORIENTED_EDGE ( 'NONE', *, *, #253, .F. ) ;
#121 = EDGE_LOOP ( 'NONE', ( #48, #222, #212, #276 ) ) ;
#122 = ORIENTED_EDGE ( 'NONE', *, *, #56, .T. ) ;
#123 = PRODUCT_DEFINITION_SHAPE ( 'NONE', 'NONE',  #96 ) ;
#124 = ORIENTED_EDGE ( 'NONE', *, *, #54, .F. ) ;
#125 = ORIENTED_EDGE ( 'NONE', *, *, #220, .F. ) ;
#126 = EDGE_LOOP ( 'NONE', ( #134, #221, #120, #180 ) ) ;
#127 = DIRECTION ( 'NONE',  ( 1.642885174307446400E-016, -1.000000000000000000, 0.0000000000000000000 ) ) ;
#128 = ORIENTED_EDGE ( 'NONE', *, *, #337, .F. ) ;
#129 = AXIS2_PLACEMENT_3D ( 'NONE', #197, #162, #189 ) ;
#130 = LINE ( 'NONE', #294, #60 ) ;
#131 = APPLICATION_PROTOCOL_DEFINITION ( 'draft international standard', 'automotive_design', 1998, #138 ) ;
#132 = VERTEX_POINT ( 'NONE', #231 ) ;
#133 = ORIENTED_EDGE ( 'NONE', *, *, #64, .T. ) ;
#134 = ORIENTED_EDGE ( 'NONE', *, *, #51, .T. ) ;
#135 = PLANE ( 'NONE',  #330 ) ;
#136 = CARTESIAN_POINT ( 'NONE',  ( -38.11168954355215300, 102.0540899046013300, 33.00000000000000000 ) ) ;
#137 = CARTESIAN_POINT ( 'NONE',  ( -38.11168954355215300, 102.0540899046013300, 38.00000000000000000 ) ) ;
#138 = APPLICATION_CONTEXT ( 'automotive_design' ) ;
#139 = EDGE_CURVE ( 'NONE', #164, #95, #152, .T. ) ;
#140 = ORIENTED_EDGE ( 'NONE', *, *, #8, .T. ) ;
#141 = DIRECTION ( 'NONE',  ( 7.304098846218135700E-017, -1.000000000000000000, 0.0000000000000000000 ) ) ;
#142 = DIRECTION ( 'NONE',  ( 0.0000000000000000000, -0.0000000000000000000, -1.000000000000000000 ) ) ;
#143 = CARTESIAN_POINT ( 'NONE',  ( -38.11168954355215300, 12.05408990460135500, 38.00000000000000000 ) ) ;
#144 = AXIS2_PLACEMENT_3D ( 'NONE', #325, #309, #308 ) ;
#145 = VECTOR ( 'NONE', #225, 1000.000000000000000 ) ;
#146 = LINE ( 'NONE', #5, #62 ) ;
#147 = ADVANCED_FACE ( 'NONE', ( #209 ), #77, .F. ) ;
#148 = ORIENTED_EDGE ( 'NONE', *, *, #220, .T. ) ;
#149 = VECTOR ( 'NONE', #90, 1000.000000000000000 ) ;
#150 = DIRECTION ( 'NONE',  ( -0.0000000000000000000, -0.0000000000000000000, -1.000000000000000000 ) ) ;
#151 = VERTEX_POINT ( 'NONE', #298 ) ;
#152 = LINE ( 'NONE', #218, #282 ) ;
#153 = CARTESIAN_POINT ( 'NONE',  ( -38.11168954355215300, 12.05408990460135500, 38.00000000000000000 ) ) ;
#154 = AXIS2_PLACEMENT_3D ( 'NONE', #160, #23, #344 ) ;
#155 = LINE ( 'NONE', #119, #173 ) ;
#156 = CARTESIAN_POINT ( 'NONE',  ( 1711.888310456447900, -37.94591009539836800, 38.00000000000000000 ) ) ;
#157 = PRODUCT_CONTEXT ( 'NONE', #232, 'mechanical' ) ;
#158 = DIRECTION ( 'NONE',  ( 1.000000000000000000, 0.0000000000000000000, 0.0000000000000000000 ) ) ;
#159 = CARTESIAN_POINT ( 'NONE',  ( 1661.888310456447900, 102.0540899046016000, 33.00000000000000000 ) ) ;
#160 = CARTESIAN_POINT ( 'NONE',  ( 0.0000000000000000000, 0.0000000000000000000, 33.00000000000000000 ) ) ;
#161 = APPLICATION_PROTOCOL_DEFINITION ( 'draft international standard', 'automotive_design', 1998, #232 ) ;
#162 = DIRECTION ( 'NONE',  ( -1.000000000000000000, 0.0000000000000000000, -0.0000000000000000000 ) ) ;
#163 = DIRECTION ( 'NONE',  ( 1.000000000000000000, 0.0000000000000000000, 0.0000000000000000000 ) ) ;
#164 = VERTEX_POINT ( 'NONE', #137 ) ;
#165 = ORIENTED_EDGE ( 'NONE', *, *, #87, .F. ) ;
#166 = DIRECTION ( 'NONE',  ( 1.000000000000000000, 1.642885174307446400E-016, 0.0000000000000000000 ) ) ;
#167 = DIRECTION ( 'NONE',  ( 0.0000000000000000000, 0.0000000000000000000, 1.000000000000000000 ) ) ;
#168 = ADVANCED_FACE ( 'NONE', ( #178 ), #9, .F. ) ;
#169 = CARTESIAN_POINT ( 'NONE',  ( 1661.888310456447900, 102.0540899046016000, 33.00000000000000000 ) ) ;
#170 = ORIENTED_EDGE ( 'NONE', *, *, #266, .F. ) ;
#171 = CARTESIAN_POINT ( 'NONE',  ( 1661.888310456447900, 12.05408990460163400, 33.00000000000000000 ) ) ;
#172 = PLANE ( 'NONE',  #78 ) ;
#173 = VECTOR ( 'NONE', #141, 1000.000000000000000 ) ;
#174 = ADVANCED_FACE ( 'NONE', ( #37 ), #135, .F. ) ;
#175 = CARTESIAN_POINT ( 'NONE',  ( -88.11168954355214600, -37.94591009539836800, 38.00000000000000000 ) ) ;
#176 =( NAMED_UNIT ( * ) SI_UNIT ( $, .STERADIAN. ) SOLID_ANGLE_UNIT ( ) );
#177 = EDGE_CURVE ( 'NONE', #42, #24, #341, .T. ) ;
#178 = FACE_OUTER_BOUND ( 'NONE', #28, .T. ) ;
#179 = DIRECTION ( 'NONE',  ( 0.0000000000000000000, 0.0000000000000000000, -1.000000000000000000 ) ) ;
#180 = ORIENTED_EDGE ( 'NONE', *, *, #87, .T. ) ;
#181 = ORIENTED_EDGE ( 'NONE', *, *, #253, .T. ) ;
#182 = DIRECTION ( 'NONE',  ( -0.0000000000000000000, 1.000000000000000000, -0.0000000000000000000 ) ) ;
#183 =( GEOMETRIC_REPRESENTATION_CONTEXT ( 3 ) GLOBAL_UNCERTAINTY_ASSIGNED_CONTEXT ( ( #317 ) ) GLOBAL_UNIT_ASSIGNED_CONTEXT ( ( #285, #270, #268 ) ) REPRESENTATION_CONTEXT ( 'NONE', 'WORKASPACE' ) );
#184 = ORIENTED_EDGE ( 'NONE', *, *, #22, .T. ) ;
#185 = CARTESIAN_POINT ( 'NONE',  ( 1711.888310456447900, 152.0540899046016200, 0.0000000000000000000 ) ) ;
#186 = ORIENTED_EDGE ( 'NONE', *, *, #39, .T. ) ;
#187 = VECTOR ( 'NONE', #272, 1000.000000000000000 ) ;
#188 = DIRECTION ( 'NONE',  ( -0.0000000000000000000, 1.000000000000000000, -0.0000000000000000000 ) ) ;
#189 = DIRECTION ( 'NONE',  ( -0.0000000000000000000, 0.0000000000000000000, 1.000000000000000000 ) ) ;
#190 = VECTOR ( 'NONE', #207, 1000.000000000000000 ) ;
#191 = ORIENTED_EDGE ( 'NONE', *, *, #22, .F. ) ;
#192 = UNCERTAINTY_MEASURE_WITH_UNIT (LENGTH_MEASURE( 1.000000000000000100E-005 ), #202, 'distance_accuracy_value', 'NONE');
#193 = ORIENTED_EDGE ( 'NONE', *, *, #259, .F. ) ;
#194 = CARTESIAN_POINT ( 'NONE',  ( 1661.888310456447900, 12.05408990460163400, 38.00000000000000000 ) ) ;
#195 = FACE_BOUND ( 'NONE', #27, .T. ) ;
#196 = LINE ( 'NONE', #284, #187 ) ;
#197 = CARTESIAN_POINT ( 'NONE',  ( -38.11168954355215300, 102.0540899046013300, 33.00000000000000000 ) ) ;
#198 = DIRECTION ( 'NONE',  ( 1.000000000000000000, 1.642885174307446400E-016, 0.0000000000000000000 ) ) ;
#199 =( NAMED_UNIT ( * ) PLANE_ANGLE_UNIT ( ) SI_UNIT ( $, .RADIAN. ) );
#200 = LINE ( 'NONE', #136, #208 ) ;
#201 = CARTESIAN_POINT ( 'NONE',  ( 1711.888310456447900, 152.0540899046016200, 0.0000000000000000000 ) ) ;
#202 =( LENGTH_UNIT ( ) NAMED_UNIT ( * ) SI_UNIT ( .MILLI., .METRE. ) );
#203 = SURFACE_STYLE_USAGE ( .BOTH. , #205 ) ;
#204 = DIRECTION ( 'NONE',  ( -0.0000000000000000000, 0.0000000000000000000, 1.000000000000000000 ) ) ;
#205 = SURFACE_SIDE_STYLE ('',( #340 ) ) ;
#206 = VECTOR ( 'NONE', #188, 1000.000000000000000 ) ;
#207 = DIRECTION ( 'NONE',  ( -1.000000000000000000, -1.632680918566406300E-016, -0.0000000000000000000 ) ) ;
#208 = VECTOR ( 'NONE', #226, 1000.000000000000000 ) ;
#209 = FACE_OUTER_BOUND ( 'NONE', #126, .T. ) ;
#210 = DIRECTION ( 'NONE',  ( 0.0000000000000000000, 1.000000000000000000, 0.0000000000000000000 ) ) ;
#211 = FILL_AREA_STYLE ('',( #227 ) ) ;
#212 = ORIENTED_EDGE ( 'NONE', *, *, #110, .F. ) ;
#213 = FACE_OUTER_BOUND ( 'NONE', #112, .T. ) ;
#214 = DIRECTION ( 'NONE',  ( -1.000000000000000000, -1.632680918566406300E-016, -0.0000000000000000000 ) ) ;
#215 = EDGE_LOOP ( 'NONE', ( #71, #114, #113, #111 ) ) ;
#216 = ORIENTED_EDGE ( 'NONE', *, *, #259, .T. ) ;
#217 = LINE ( 'NONE', #342, #306 ) ;
#218 = CARTESIAN_POINT ( 'NONE',  ( -38.11168954355215300, 102.0540899046013300, 38.00000000000000000 ) ) ;
#219 = LINE ( 'NONE', #153, #278 ) ;
#220 = EDGE_CURVE ( 'NONE', #14, #223, #338, .T. ) ;
#221 = ORIENTED_EDGE ( 'NONE', *, *, #64, .F. ) ;
#222 = ORIENTED_EDGE ( 'NONE', *, *, #234, .F. ) ;
#223 = VERTEX_POINT ( 'NONE', #159 ) ;
#224 = EDGE_CURVE ( 'NONE', #85, #29, #247, .T. ) ;
#225 = DIRECTION ( 'NONE',  ( 1.000000000000000000, 0.0000000000000000000, 0.0000000000000000000 ) ) ;
#226 = DIRECTION ( 'NONE',  ( -0.0000000000000000000, -0.0000000000000000000, 1.000000000000000000 ) ) ;
#227 = FILL_AREA_STYLE_COLOUR ( '', #291 ) ;
#228 =( GEOMETRIC_REPRESENTATION_CONTEXT ( 3 ) GLOBAL_UNCERTAINTY_ASSIGNED_CONTEXT ( ( #300 ) ) GLOBAL_UNIT_ASSIGNED_CONTEXT ( ( #245, #241, #239 ) ) REPRESENTATION_CONTEXT ( 'NONE', 'WORKASPACE' ) );
#229 = LINE ( 'NONE', #44, #269 ) ;
#230 = MECHANICAL_DESIGN_GEOMETRIC_PRESENTATION_REPRESENTATION (  '', ( #98 ), #47 ) ;
#231 = CARTESIAN_POINT ( 'NONE',  ( -38.11168954355215300, 102.0540899046013300, 33.00000000000000000 ) ) ;
#232 = APPLICATION_CONTEXT ( 'automotive_design' ) ;
#233 = CARTESIAN_POINT ( 'NONE',  ( -38.11168954355215300, 12.05408990460135500, 33.00000000000000000 ) ) ;
#234 = EDGE_CURVE ( 'NONE', #82, #42, #318, .T. ) ;
#235 = ADVANCED_FACE ( 'NONE', ( #299 ), #335, .F. ) ;
#236 = FACE_OUTER_BOUND ( 'NONE', #281, .T. ) ;
#237 = CARTESIAN_POINT ( 'NONE',  ( -38.11168954355215300, 102.0540899046013300, 33.00000000000000000 ) ) ;
#238 = PLANE ( 'NONE',  #319 ) ;
#239 =( NAMED_UNIT ( * ) SI_UNIT ( $, .STERADIAN. ) SOLID_ANGLE_UNIT ( ) );
#240 = CARTESIAN_POINT ( 'NONE',  ( 0.0000000000000000000, 0.0000000000000000000, 38.00000000000000000 ) ) ;
#241 =( NAMED_UNIT ( * ) PLANE_ANGLE_UNIT ( ) SI_UNIT ( $, .RADIAN. ) );
#242 = VECTOR ( 'NONE', #84, 1000.000000000000000 ) ;
#243 = PRODUCT_DEFINITION_CONTEXT ( 'detailed design', #138, 'design' ) ;
#244 = CARTESIAN_POINT ( 'NONE',  ( -88.11168954355216000, 152.0540899046016200, 38.00000000000000000 ) ) ;
#245 =( LENGTH_UNIT ( ) NAMED_UNIT ( * ) SI_UNIT ( .MILLI., .METRE. ) );
#246 = AXIS2_PLACEMENT_3D ( 'NONE', #109, #45, #304 ) ;
#247 = LINE ( 'NONE', #175, #265 ) ;
#248 = FACE_OUTER_BOUND ( 'NONE', #121, .T. ) ;
#249 = CARTESIAN_POINT ( 'NONE',  ( -38.11168954355215300, 12.05408990460135500, 33.00000000000000000 ) ) ;
#250 = DIRECTION ( 'NONE',  ( -1.632680918566406300E-016, 1.000000000000000000, 0.0000000000000000000 ) ) ;
#251 = VECTOR ( 'NONE', #182, 1000.000000000000000 ) ;
#252 = LINE ( 'NONE', #271, #53 ) ;
#253 = EDGE_CURVE ( 'NONE', #75, #14, #36, .T. ) ;
#254 = VECTOR ( 'NONE', #312, 1000.000000000000000 ) ;
#255 = VERTEX_POINT ( 'NONE', #244 ) ;
#256 = LINE ( 'NONE', #334, #336 ) ;
#257 = DIRECTION ( 'NONE',  ( -0.0000000000000000000, -0.0000000000000000000, 1.000000000000000000 ) ) ;
#258 = CARTESIAN_POINT ( 'NONE',  ( 0.0000000000000000000, 0.0000000000000000000, 0.0000000000000000000 ) ) ;
#259 = EDGE_CURVE ( 'NONE', #223, #132, #2, .T. ) ;
#260 = CARTESIAN_POINT ( 'NONE',  ( -88.11168954355214600, -37.94591009539836800, 38.00000000000000000 ) ) ;
#261 = DIRECTION ( 'NONE',  ( 0.0000000000000000000, 0.0000000000000000000, 1.000000000000000000 ) ) ;
#262 = ADVANCED_FACE ( 'NONE', ( #213 ), #172, .F. ) ;
#263 = ADVANCED_BREP_SHAPE_REPRESENTATION ( 'FLAME DR UNI LED 1800¿190 4000K', ( #326, #30 ), #228 ) ;
#264 = CARTESIAN_POINT ( 'NONE',  ( -88.11168954355214600, -37.94591009539836800, 0.0000000000000000000 ) ) ;
#265 = VECTOR ( 'NONE', #150, 1000.000000000000000 ) ;
#266 = EDGE_CURVE ( 'NONE', #132, #75, #146, .T. ) ;
#267 = CARTESIAN_POINT ( 'NONE',  ( 1711.888310456447900, 152.0540899046016200, 38.00000000000000000 ) ) ;
#268 =( NAMED_UNIT ( * ) SI_UNIT ( $, .STERADIAN. ) SOLID_ANGLE_UNIT ( ) );
#269 = VECTOR ( 'NONE', #214, 1000.000000000000000 ) ;
#270 =( NAMED_UNIT ( * ) PLANE_ANGLE_UNIT ( ) SI_UNIT ( $, .RADIAN. ) );
#271 = CARTESIAN_POINT ( 'NONE',  ( 1661.888310456447900, 102.0540899046016000, 33.00000000000000000 ) ) ;
#272 = DIRECTION ( 'NONE',  ( -0.0000000000000000000, -0.0000000000000000000, -1.000000000000000000 ) ) ;
#273 = PRESENTATION_STYLE_ASSIGNMENT (( #203 ) ) ;
#274 = ADVANCED_FACE ( 'NONE', ( #97 ), #80, .T. ) ;
#275 = CARTESIAN_POINT ( 'NONE',  ( 1711.888310456447900, 152.0540899046016200, 38.00000000000000000 ) ) ;
#276 = ORIENTED_EDGE ( 'NONE', *, *, #224, .T. ) ;
#277 = CARTESIAN_POINT ( 'NONE',  ( -88.11168954355214600, -37.94591009539836800, 38.00000000000000000 ) ) ;
#278 = VECTOR ( 'NONE', #99, 1000.000000000000000 ) ;
#279 = EDGE_CURVE ( 'NONE', #38, #255, #217, .T. ) ;
#280 = CARTESIAN_POINT ( 'NONE',  ( 1711.888310456447900, -37.94591009539836800, 38.00000000000000000 ) ) ;
#281 = EDGE_LOOP ( 'NONE', ( #140, #116, #128, #103 ) ) ;
#282 = VECTOR ( 'NONE', #89, 1000.000000000000000 ) ;
#283 = MECHANICAL_DESIGN_GEOMETRIC_PRESENTATION_REPRESENTATION (  '', ( #301 ), #183 ) ;
#284 = CARTESIAN_POINT ( 'NONE',  ( 1711.888310456447900, 152.0540899046016200, 38.00000000000000000 ) ) ;
#285 =( LENGTH_UNIT ( ) NAMED_UNIT ( * ) SI_UNIT ( .MILLI., .METRE. ) );
#286 = SURFACE_STYLE_USAGE ( .BOTH. , #288 ) ;
#287 = FACE_OUTER_BOUND ( 'NONE', #215, .T. ) ;
#288 = SURFACE_SIDE_STYLE ('',( #26 ) ) ;
#289 = FILL_AREA_STYLE ('',( #333 ) ) ;
#290 = ADVANCED_FACE ( 'NONE', ( #236 ), #327, .F. ) ;
#291 = COLOUR_RGB ( '',0.7921568627450980000, 0.8196078431372548800, 0.9333333333333333500 ) ;
#292 = CARTESIAN_POINT ( 'NONE',  ( -38.11168954355215300, 102.0540899046013300, 33.00000000000000000 ) ) ;
#293 = DIRECTION ( 'NONE',  ( -0.0000000000000000000, -0.0000000000000000000, -1.000000000000000000 ) ) ;
#294 = CARTESIAN_POINT ( 'NONE',  ( -88.11168954355216000, 152.0540899046016200, 38.00000000000000000 ) ) ;
#295 = EDGE_LOOP ( 'NONE', ( #101, #181, #148, #216 ) ) ;
#296 = VECTOR ( 'NONE', #198, 1000.000000000000000 ) ;
#297 = PLANE ( 'NONE',  #314 ) ;
#298 = CARTESIAN_POINT ( 'NONE',  ( -88.11168954355216000, 152.0540899046016200, 0.0000000000000000000 ) ) ;
#299 = FACE_OUTER_BOUND ( 'NONE', #18, .T. ) ;
#300 = UNCERTAINTY_MEASURE_WITH_UNIT (LENGTH_MEASURE( 1.000000000000000100E-005 ), #245, 'distance_accuracy_value', 'NONE');
#301 = STYLED_ITEM ( 'NONE', ( #307 ), #326 ) ;
#302 = CARTESIAN_POINT ( 'NONE',  ( 1661.888310456447900, 102.0540899046016000, 38.00000000000000000 ) ) ;
#303 = LINE ( 'NONE', #277, #145 ) ;
#304 = DIRECTION ( 'NONE',  ( 1.000000000000000000, 0.0000000000000000000, 0.0000000000000000000 ) ) ;
#305 = LINE ( 'NONE', #65, #320 ) ;
#306 = VECTOR ( 'NONE', #25, 1000.000000000000000 ) ;
#307 = PRESENTATION_STYLE_ASSIGNMENT (( #286 ) ) ;
#308 = DIRECTION ( 'NONE',  ( -7.304098846218135700E-017, 1.000000000000000000, 0.0000000000000000000 ) ) ;
#309 = DIRECTION ( 'NONE',  ( 1.000000000000000000, 7.304098846218135700E-017, -0.0000000000000000000 ) ) ;
#310 = CARTESIAN_POINT ( 'NONE',  ( -88.11168954355216000, 152.0540899046016200, 38.00000000000000000 ) ) ;
#311 = DIRECTION ( 'NONE',  ( 7.304098846218135700E-017, -1.000000000000000000, 0.0000000000000000000 ) ) ;
#312 = DIRECTION ( 'NONE',  ( -0.0000000000000000000, -0.0000000000000000000, -1.000000000000000000 ) ) ;
#313 = DIRECTION ( 'NONE',  ( -1.000000000000000000, -0.0000000000000000000, -0.0000000000000000000 ) ) ;
#314 = AXIS2_PLACEMENT_3D ( 'NONE', #237, #250, #115 ) ;
#315 = CARTESIAN_POINT ( 'NONE',  ( 1661.888310456447900, 12.05408990460163400, 33.00000000000000000 ) ) ;
#316 = LINE ( 'NONE', #249, #149 ) ;
#317 = UNCERTAINTY_MEASURE_WITH_UNIT (LENGTH_MEASURE( 1.000000000000000100E-005 ), #285, 'distance_accuracy_value', 'NONE');
#318 = LINE ( 'NONE', #156, #254 ) ;
#319 = AXIS2_PLACEMENT_3D ( 'NONE', #240, #204, #158 ) ;
#320 = VECTOR ( 'NONE', #293, 1000.000000000000000 ) ;
#321 = CARTESIAN_POINT ( 'NONE',  ( 1711.888310456447900, -37.94591009539836800, 0.0000000000000000000 ) ) ;
#322 = DIRECTION ( 'NONE',  ( -1.000000000000000000, 0.0000000000000000000, 0.0000000000000000000 ) ) ;
#323 = AXIS2_PLACEMENT_3D ( 'NONE', #66, #127, #166 ) ;
#324 = PLANE ( 'NONE',  #105 ) ;
#325 = CARTESIAN_POINT ( 'NONE',  ( -88.11168954355216000, 152.0540899046016200, 38.00000000000000000 ) ) ;
#326 = MANIFOLD_SOLID_BREP ( 'Âûðåç-Âûòÿíóòü1', #55 ) ;
#327 = PLANE ( 'NONE',  #144 ) ;
#328 = LINE ( 'NONE', #171, #331 ) ;
#329 = CARTESIAN_POINT ( 'NONE',  ( 1711.888310456447900, 152.0540899046016200, 38.00000000000000000 ) ) ;
#330 = AXIS2_PLACEMENT_3D ( 'NONE', #343, #50, #179 ) ;
#331 = VECTOR ( 'NONE', #257, 1000.000000000000000 ) ;
#332 = DIRECTION ( 'NONE',  ( -0.0000000000000000000, -0.0000000000000000000, 1.000000000000000000 ) ) ;
#333 = FILL_AREA_STYLE_COLOUR ( '', #33 ) ;
#334 = CARTESIAN_POINT ( 'NONE',  ( 1661.888310456447900, 102.0540899046016000, 38.00000000000000000 ) ) ;
#335 = PLANE ( 'NONE',  #106 ) ;
#336 = VECTOR ( 'NONE', #13, 1000.000000000000000 ) ;
#337 = EDGE_CURVE ( 'NONE', #255, #85, #130, .T. ) ;
#338 = LINE ( 'NONE', #169, #251 ) ;
#339 = LINE ( 'NONE', #118, #57 ) ;
#340 = SURFACE_STYLE_FILL_AREA ( #211 ) ;
#341 = LINE ( 'NONE', #185, #206 ) ;
#342 = CARTESIAN_POINT ( 'NONE',  ( -88.11168954355216000, 152.0540899046016200, 38.00000000000000000 ) ) ;
#343 = CARTESIAN_POINT ( 'NONE',  ( 1661.888310456447900, 102.0540899046016000, 33.00000000000000000 ) ) ;
#344 = DIRECTION ( 'NONE',  ( 1.000000000000000000, 0.0000000000000000000, 0.0000000000000000000 ) ) ;
ENDSEC;
END-ISO-10303-21;
