  0
SECTION
  2
HEADER
  9
$ACADVER
  1
AC1015
  9
$ACADMAINTVER
 70
     6
  9
$DWGCODEPAGE
  3
ANSI_1251
  9
$INSBASE
 10
0.0
 20
0.0
 30
0.0
  9
$EXTMIN
 10
0.0
 20
0.0
 30
0.0
  9
$EXTMAX
 10
1397.0
 20
1079.5
 30
0.0
  9
$LIMMIN
 10
0.0
 20
0.0
  9
$LIMMAX
 10
1397.0
 20
1079.5
  9
$ORTHOMODE
 70
     0
  9
$REGENMODE
 70
     1
  9
$FILLMODE
 70
     1
  9
$QTEXTMODE
 70
     0
  9
$MIRRTEXT
 70
     1
  9
$LTSCALE
 40
5.0
  9
$ATTMODE
 70
     1
  9
$TEXTSIZE
 40
17.5
  9
$TRACEWID
 40
1.0
  9
$TEXTSTYLE
  7
Standard
  9
$CLAYER
  8
0
  9
$CELTYPE
  6
ByLayer
  9
$CECOLOR
 62
   256
  9
$CELTSCALE
 40
1.0
  9
$DISPSILH
 70
     0
  9
$DIMSCALE
 40
1.0
  9
$DIMASZ
 40
17.5
  9
$DIMEXO
 40
0.05
  9
$DIMDLI
 40
3.75
  9
$DIMRND
 40
0.0
  9
$DIMDLE
 40
0.0
  9
$DIMEXE
 40
5.0
  9
$DIMTP
 40
0.0
  9
$DIMTM
 40
0.0
  9
$DIMTXT
 40
17.5
  9
$DIMCEN
 40
2.5
  9
$DIMTSZ
 40
0.0
  9
$DIMTOL
 70
     0
  9
$DIMLIM
 70
     0
  9
$DIMTIH
 70
     1
  9
$DIMTOH
 70
     1
  9
$DIMSE1
 70
     0
  9
$DIMSE2
 70
     0
  9
$DIMTAD
 70
     1
  9
$DIMZIN
 70
     0
  9
$DIMBLK
  1

  9
$DIMASO
 70
     1
  9
$DIMSHO
 70
     1
  9
$DIMPOST
  1

  9
$DIMAPOST
  1

  9
$DIMALT
 70
     0
  9
$DIMALTD
 70
     3
  9
$DIMALTF
 40
0.0393700787
  9
$DIMLFAC
 40
1.0
  9
$DIMTOFL
 70
     1
  9
$DIMTVP
 40
0.0
  9
$DIMTIX
 70
     0
  9
$DIMSOXD
 70
     0
  9
$DIMSAH
 70
     0
  9
$DIMBLK1
  1

  9
$DIMBLK2
  1

  9
$DIMSTYLE
  2
ISO-25
  9
$DIMCLRD
 70
     0
  9
$DIMCLRE
 70
     0
  9
$DIMCLRT
 70
     0
  9
$DIMTFAC
 40
1.0
  9
$DIMGAP
 40
15.0
  9
$DIMJUST
 70
     0
  9
$DIMSD1
 70
     0
  9
$DIMSD2
 70
     0
  9
$DIMTOLJ
 70
     0
  9
$DIMTZIN
 70
     0
  9
$DIMALTZ
 70
     0
  9
$DIMALTTZ
 70
     0
  9
$DIMUPT
 70
     0
  9
$DIMDEC
 70
     2
  9
$DIMTDEC
 70
     3
  9
$DIMALTU
 70
     2
  9
$DIMALTTD
 70
     3
  9
$DIMTXSTY
  7
Standard
  9
$DIMAUNIT
 70
     0
  9
$DIMADEC
 70
     2
  9
$DIMALTRND
 40
0.0
  9
$DIMAZIN
 70
     0
  9
$DIMDSEP
 70
    44
  9
$DIMATFIT
 70
     3
  9
$DIMFRAC
 70
     0
  9
$DIMLDRBLK
  1

  9
$DIMLUNIT
 70
     2
  9
$DIMLWD
 70
    -2
  9
$DIMLWE
 70
    -2
  9
$DIMTMOVE
 70
     0
  9
$LUNITS
 70
     2
  9
$LUPREC
 70
     2
  9
$SKETCHINC
 40
1.0
  9
$FILLETRAD
 40
10.0
  9
$AUNITS
 70
     0
  9
$AUPREC
 70
     2
  9
$MENU
  1
.
  9
$ELEVATION
 40
0.0
  9
$PELEVATION
 40
0.0
  9
$THICKNESS
 40
0.0
  9
$LIMCHECK
 70
     0
  9
$CHAMFERA
 40
10.0
  9
$CHAMFERB
 40
10.0
  9
$CHAMFERC
 40
20.0
  9
$CHAMFERD
 40
0.0
  9
$SKPOLY
 70
     0
  9
$TDCREATE
 40
2458102.631396562
  9
$TDUCREATE
 40
2458102.548063229
  9
$TDUPDATE
 40
2458102.631396748
  9
$TDUUPDATE
 40
2458102.548063414
  9
$TDINDWG
 40
0.0000000116
  9
$TDUSRTIMER
 40
0.0000000116
  9
$USRTIMER
 70
     1
  9
$ANGBASE
 50
0.0
  9
$ANGDIR
 70
     0
  9
$PDMODE
 70
     0
  9
$PDSIZE
 40
-1.0
  9
$PLINEWID
 40
0.0
  9
$SPLFRAME
 70
     0
  9
$SPLINETYPE
 70
     6
  9
$SPLINESEGS
 70
     8
  9
$HANDSEED
  5
B6
  9
$SURFTAB1
 70
     6
  9
$SURFTAB2
 70
     6
  9
$SURFTYPE
 70
     6
  9
$SURFU
 70
     6
  9
$SURFV
 70
     6
  9
$UCSBASE
  2

  9
$UCSNAME
  2

  9
$UCSORG
 10
0.0
 20
0.0
 30
0.0
  9
$UCSXDIR
 10
1.0
 20
0.0
 30
0.0
  9
$UCSYDIR
 10
0.0
 20
1.0
 30
0.0
  9
$UCSORTHOREF
  2

  9
$UCSORTHOVIEW
 70
     0
  9
$UCSORGTOP
 10
0.0
 20
0.0
 30
0.0
  9
$UCSORGBOTTOM
 10
0.0
 20
0.0
 30
0.0
  9
$UCSORGLEFT
 10
0.0
 20
0.0
 30
0.0
  9
$UCSORGRIGHT
 10
0.0
 20
0.0
 30
0.0
  9
$UCSORGFRONT
 10
0.0
 20
0.0
 30
0.0
  9
$UCSORGBACK
 10
0.0
 20
0.0
 30
0.0
  9
$PUCSBASE
  2

  9
$PUCSNAME
  2

  9
$PUCSORG
 10
0.0
 20
0.0
 30
0.0
  9
$PUCSXDIR
 10
1.0
 20
0.0
 30
0.0
  9
$PUCSYDIR
 10
0.0
 20
1.0
 30
0.0
  9
$PUCSORTHOREF
  2

  9
$PUCSORTHOVIEW
 70
     0
  9
$PUCSORGTOP
 10
0.0
 20
0.0
 30
0.0
  9
$PUCSORGBOTTOM
 10
0.0
 20
0.0
 30
0.0
  9
$PUCSORGLEFT
 10
0.0
 20
0.0
 30
0.0
  9
$PUCSORGRIGHT
 10
0.0
 20
0.0
 30
0.0
  9
$PUCSORGFRONT
 10
0.0
 20
0.0
 30
0.0
  9
$PUCSORGBACK
 10
0.0
 20
0.0
 30
0.0
  9
$USERI1
 70
     0
  9
$USERI2
 70
     0
  9
$USERI3
 70
     0
  9
$USERI4
 70
     0
  9
$USERI5
 70
     0
  9
$USERR1
 40
0.0
  9
$USERR2
 40
0.0
  9
$USERR3
 40
0.0
  9
$USERR4
 40
0.0
  9
$USERR5
 40
0.0
  9
$WORLDVIEW
 70
     1
  9
$SHADEDGE
 70
     3
  9
$SHADEDIF
 70
    70
  9
$TILEMODE
 70
     1
  9
$MAXACTVP
 70
    64
  9
$PINSBASE
 10
0.0
 20
0.0
 30
0.0
  9
$PLIMCHECK
 70
     0
  9
$PEXTMIN
 10
1.0000000000E+20
 20
1.0000000000E+20
 30
1.0000000000E+20
  9
$PEXTMAX
 10
-1.0000000000E+20
 20
-1.0000000000E+20
 30
-1.0000000000E+20
  9
$PLIMMIN
 10
0.0
 20
0.0
  9
$PLIMMAX
 10
420.0
 20
297.0
  9
$UNITMODE
 70
     0
  9
$VISRETAIN
 70
     1
  9
$PLINEGEN
 70
     0
  9
$PSLTSCALE
 70
     1
  9
$TREEDEPTH
 70
  3020
  9
$CMLSTYLE
  2
Standard
  9
$CMLJUST
 70
     0
  9
$CMLSCALE
 40
20.0
  9
$PROXYGRAPHICS
 70
     1
  9
$MEASUREMENT
 70
     1
  9
$CELWEIGHT
370
    -1
  9
$ENDCAPS
280
     0
  9
$JOINSTYLE
280
     0
  9
$LWDISPLAY
290
     1
  9
$INSUNITS
 70
     4
  9
$HYPERLINKBASE
  1

  9
$STYLESHEET
  1

  9
$XEDIT
290
     1
  9
$CEPSNTYPE
380
     0
  9
$PSTYLEMODE
290
     1
  9
$FINGERPRINTGUID
  2
{76FECABF-1D10-4AA9-9EA4-E144FF37DF99}
  9
$VERSIONGUID
  2
{FAEB1C32-E019-11D5-929B-00C0DF256EC4}
  9
$EXTNAMES
290
     1
  9
$PSVPSCALE
 40
0.0
  9
$OLESTARTUP
290
     0
  0
ENDSEC
  0
SECTION
  2
CLASSES
  0
CLASS
  1
ACDBDICTIONARYWDFLT
  2
AcDbDictionaryWithDefault
  3
ObjectDBX Classes
 90
        0
280
     0
281
     0
  0
CLASS
  1
VISUALSTYLE
  2
AcDbVisualStyle
  3
ObjectDBX Classes
 90
     4095
280
     0
281
     0
  0
CLASS
  1
MATERIAL
  2
AcDbMaterial
  3
ObjectDBX Classes
 90
     1153
280
     0
281
     0
  0
CLASS
  1
ACDBPLACEHOLDER
  2
AcDbPlaceHolder
  3
ObjectDBX Classes
 90
        0
280
     0
281
     0
  0
CLASS
  1
LAYOUT
  2
AcDbLayout
  3
ObjectDBX Classes
 90
        0
280
     0
281
     0
  0
ENDSEC
  0
SECTION
  2
TABLES
  0
TABLE
  2
VPORT
  5
8
330
0
100
AcDbSymbolTable
 70
     1
  0
VPORT
  5
29
330
8
100
AcDbSymbolTableRecord
100
AcDbViewportTableRecord
  2
*Active
 70
     0
 10
0.0
 20
0.0
 11
1.0
 21
1.0
 12
698.5
 22
539.75
 13
0.0
 23
0.0
 14
10.0
 24
10.0
 15
10.0
 25
10.0
 16
0.0
 26
0.0
 36
1.0
 17
0.0
 27
0.0
 37
0.0
 40
1079.5
 41
1.2941176471
 42
50.0
 43
0.0
 44
0.0
 50
0.0
 51
0.0
 71
     0
 72
  2000
 73
     1
 74
     3
 75
     0
 76
     0
 77
     0
 78
     0
281
     0
 65
     1
110
0.0
120
0.0
130
0.0
111
1.0
121
0.0
131
0.0
112
0.0
122
1.0
132
0.0
 79
     0
146
0.0
  0
ENDTAB
  0
TABLE
  2
LTYPE
  5
5
330
0
100
AcDbSymbolTable
 70
     6
  0
LTYPE
  5
14
330
5
100
AcDbSymbolTableRecord
100
AcDbLinetypeTableRecord
  2
ByBlock
 70
     0
  3

 72
    65
 73
     0
 40
0.0
  0
LTYPE
  5
15
330
5
100
AcDbSymbolTableRecord
100
AcDbLinetypeTableRecord
  2
ByLayer
 70
     0
  3

 72
    65
 73
     0
 40
0.0
  0
LTYPE
  5
16
330
5
100
AcDbSymbolTableRecord
100
AcDbLinetypeTableRecord
  2
Continuous
 70
     0
  3
Solid line
 72
    65
 73
     0
 40
0.0
  0
LTYPE
  5
3F
330
5
100
AcDbSymbolTableRecord
100
AcDbLinetypeTableRecord
  2
HIDDEN
 70
     0
  3
Hidden __ __ __ __ __ __ __ __ __ __ __ __ __ __
 72
    65
 73
     2
 40
1.905
 49
1.27
 74
     0
 49
-0.635
 74
     0
  0
LTYPE
  5
40
330
5
100
AcDbSymbolTableRecord
100
AcDbLinetypeTableRecord
  2
PHANTOM
 70
     0
  3
Phantom ______  __  __  ______  __  __  ______
 72
    65
 73
     6
 40
12.7
 49
6.35
 74
     0
 49
-1.27
 74
     0
 49
1.27
 74
     0
 49
-1.27
 74
     0
 49
1.27
 74
     0
 49
-1.27
 74
     0
  0
LTYPE
  5
41
330
5
100
AcDbSymbolTableRecord
100
AcDbLinetypeTableRecord
  2
CENTER
 70
     0
  3
Center ____ _ ____ _ ____ _ ____ _ ____ _ ____
 72
    65
 73
     4
 40
10.16
 49
6.35
 74
     0
 49
-1.27
 74
     0
 49
1.27
 74
     0
 49
-1.27
 74
     0
  0
LTYPE
  5
42
330
5
100
AcDbSymbolTableRecord
100
AcDbLinetypeTableRecord
  2
CENTERX2
 70
     0
  3
Center (2x) ________  __  ________  __  _____
 72
    65
 73
     4
 40
20.32
 49
12.7
 74
     0
 49
-2.54
 74
     0
 49
2.54
 74
     0
 49
-2.54
 74
     0
  0
LTYPE
  5
43
330
5
100
AcDbSymbolTableRecord
100
AcDbLinetypeTableRecord
  2
DOT2
 70
     0
  3
Dot (.5x) ........................................
 72
    65
 73
     2
 40
0.635
 49
0.0
 74
     0
 49
-0.635
 74
     0
  0
ENDTAB
  0
TABLE
  2
LAYER
  5
2
330
0
100
AcDbSymbolTable
 70
     1
  0
LAYER
  5
10
330
2
100
AcDbSymbolTableRecord
100
AcDbLayerTableRecord
  2
0
 70
     0
 62
     7
  6
Continuous
370
    -3
390
F
  0
ENDTAB
  0
TABLE
  2
STYLE
  5
3
330
0
100
AcDbSymbolTable
 70
     1
  0
STYLE
  5
11
330
3
100
AcDbSymbolTableRecord
100
AcDbTextStyleTableRecord
  2
Standard
 70
     0
 40
0.0
 41
1.0
 50
0.0
 71
     0
 42
17.5
  3
txt
  4

  0
ENDTAB
  0
TABLE
  2
VIEW
  5
6
330
0
100
AcDbSymbolTable
 70
     0
  0
ENDTAB
  0
TABLE
  2
UCS
  5
7
330
0
100
AcDbSymbolTable
 70
     0
  0
ENDTAB
  0
TABLE
  2
APPID
  5
9
330
0
100
AcDbSymbolTable
 70
     1
  0
APPID
  5
12
330
9
100
AcDbSymbolTableRecord
100
AcDbRegAppTableRecord
  2
ACAD
 70
     0
  0
ENDTAB
  0
TABLE
  2
DIMSTYLE
  5
A
330
0
100
AcDbSymbolTable
 70
     1
100
AcDbDimStyleTable
  0
DIMSTYLE
105
27
330
A
100
AcDbSymbolTableRecord
100
AcDbDimStyleTableRecord
  2
ISO-25
 70
     0
 41
2.5
 42
0.625
 43
3.75
 44
1.25
 73
     0
 74
     0
 77
     1
 78
     8
140
2.5
141
2.5
143
0.0393700787
147
0.625
171
     3
172
     1
178
     0
271
     2
272
     2
274
     3
278
    44
283
     0
284
     8
340
11
  0
ENDTAB
  0
TABLE
  2
BLOCK_RECORD
  5
1
330
0
100
AcDbSymbolTable
 70
     1
  0
BLOCK_RECORD
  5
1F
330
1
100
AcDbSymbolTableRecord
100
AcDbBlockTableRecord
  2
*Model_Space
340
22
  0
BLOCK_RECORD
  5
1B
330
1
100
AcDbSymbolTableRecord
100
AcDbBlockTableRecord
  2
*Paper_Space
340
1E
  0
BLOCK_RECORD
  5
23
330
1
100
AcDbSymbolTableRecord
100
AcDbBlockTableRecord
  2
*Paper_Space0
340
26
  0
ENDTAB
  0
ENDSEC
  0
SECTION
  2
BLOCKS
  0
BLOCK
  5
20
330
1F
100
AcDbEntity
  8
0
100
AcDbBlockBegin
  2
*Model_Space
 70
     0
 10
0.0
 20
0.0
 30
0.0
  3
*Model_Space
  1

  0
ENDBLK
  5
21
330
1F
100
AcDbEntity
  8
0
100
AcDbBlockEnd
  0
BLOCK
  5
1C
330
1B
100
AcDbEntity
 67
     1
  8
0
100
AcDbBlockBegin
  2
*Paper_Space
 70
     0
 10
0.0
 20
0.0
 30
0.0
  3
*Paper_Space
  1

  0
ENDBLK
  5
1D
330
1B
100
AcDbEntity
 67
     1
  8
0
100
AcDbBlockEnd
  0
BLOCK
  5
24
330
23
100
AcDbEntity
  8
0
100
AcDbBlockBegin
  2
*Paper_Space0
 70
     0
 10
0.0
 20
0.0
 30
0.0
  3
*Paper_Space0
  1

  0
ENDBLK
  5
25
330
23
100
AcDbEntity
  8
0
100
AcDbBlockEnd
  0
ENDSEC
  0
SECTION
  2
ENTITIES
  0
LINE
  5
44
330
1F
100
AcDbEntity
  8
0
  6
Continuous
 62
     7
370
    15
100
AcDbLine
 10
468.589554117
 20
635.7418961817
 30
0.0
 11
468.589523652
 21
915.1019208774
 31
0.0
  0
LINE
  5
45
330
1F
100
AcDbEntity
  8
0
  6
Continuous
 62
     7
370
    15
100
AcDbLine
 10
457.6278725997
 20
624.780214855
 30
0.0
 11
468.5895539857
 21
635.7418962361
 31
0.0
  0
LINE
  5
46
330
1F
100
AcDbEntity
  8
0
  6
Continuous
 62
     7
370
    15
100
AcDbLine
 10
167.3061662036
 20
635.7418655329
 30
0.0
 11
178.2678478519
 21
624.7801838895
 31
0.0
  0
LINE
  5
47
330
1F
100
AcDbEntity
  8
0
  6
Continuous
 62
     7
370
    15
100
AcDbLine
 10
167.3061353166
 20
915.1018906222
 30
0.0
 11
167.3061658866
 21
635.7418654017
 31
0.0
  0
LINE
  5
48
330
1F
100
AcDbEntity
  8
0
  6
Continuous
 62
     7
370
    15
100
AcDbLine
 10
178.2678479834
 20
624.7801842069
 30
0.0
 11
457.6278726538
 21
624.7802147244
 31
0.0
  0
LINE
  5
49
330
1F
100
AcDbEntity
  8
0
  6
Continuous
 62
     7
370
    15
100
AcDbLine
 10
468.5895239694
 20
915.1019210089
 30
0.0
 11
457.6278422927
 21
926.0636026905
 31
0.0
  0
LINE
  5
4A
330
1F
100
AcDbEntity
  8
0
  6
Continuous
 62
     7
370
    15
100
AcDbLine
 10
457.6278424239
 20
926.0636030073
 30
0.0
 11
178.2678171781
 21
926.0635724898
 31
0.0
  0
LINE
  5
4B
330
1F
100
AcDbEntity
  8
0
  6
Continuous
 62
     7
370
    15
100
AcDbLine
 10
178.2678171238
 20
926.0635726208
 30
0.0
 11
167.3061351847
 21
915.1018906768
 31
0.0
  0
SPLINE
  5
4C
330
1F
100
AcDbEntity
  8
0
  6
Continuous
 62
     7
370
    15
100
AcDbSpline
210
0.0
220
0.0
230
1.0
 70
     8
 71
     3
 72
    14
 73
    10
 74
     0
 42
0.00000001
 43
0.00000001
 12
1.0
 22
0.0
 32
0.0
 13
1.0
 23
0.0
 33
0.0
 40
0.0
 40
0.0
 40
0.0
 40
0.0
 40
0.1729612136046589
 40
0.3414374383908741
 40
0.5023760814813888
 40
0.6560835846282934
 40
0.8084399080225112
 40
0.9635491166499529
 40
1.0
 40
1.0
 40
1.0
 40
1.0
 10
454.4478245733943
 20
909.2442576692142
 30
0.0
 10
455.719623326568
 20
909.7710531207272
 30
0.0
 10
458.2302423224826
 20
910.8109838992642
 30
0.0
 10
461.7709835118462
 20
912.2776042903613
 30
0.0
 10
464.8242623019663
 20
913.5423108748331
 30
0.0
 10
467.144386167548
 20
914.5033342983971
 30
0.0
 10
468.3216692076922
 20
914.9909770278089
 30
0.0
 10
468.6651746269881
 20
915.1332585869741
 30
0.0
 10
468.5636651706126
 20
915.0912102681839
 30
0.0
 10
468.544349511933
 20
915.0832091321046
 30
0.0
  0
SPLINE
  5
4D
330
1F
100
AcDbEntity
  8
0
  6
Continuous
 62
     7
370
    15
100
AcDbSpline
210
0.0
220
0.0
230
1.0
 70
     8
 71
     3
 72
    14
 73
    10
 74
     0
 42
0.00000001
 43
0.00000001
 12
1.0
 22
0.0
 32
0.0
 13
1.0
 23
0.0
 33
0.0
 40
0.0
 40
0.0
 40
0.0
 40
0.0
 40
0.1729607875383074
 40
0.3414366414493105
 40
0.5023750391210142
 40
0.6560825188550267
 40
0.8084391237554054
 40
0.9635488586595682
 40
1.0
 40
1.0
 40
1.0
 40
1.0
 10
454.4478550909725
 20
641.5996043489015
 30
0.0
 10
455.719653895592
 20
641.0728062295403
 30
0.0
 10
458.2302733176524
 20
640.0328700500369
 30
0.0
 10
461.7710151272767
 20
638.5662416238852
 30
0.0
 10
464.8242947773562
 20
637.3015270823441
 30
0.0
 10
467.144418495699
 20
636.340496325863
 30
0.0
 10
468.3217002890058
 20
635.8528472869385
 30
0.0
 10
468.6652051106517
 20
635.7105612763969
 30
0.0
 10
468.563695618839
 20
635.7526072863393
 30
0.0
 10
468.5443798957854
 20
635.7606080069522
 30
0.0
  0
LINE
  5
4E
330
1F
100
AcDbEntity
  8
0
  6
Continuous
 62
     7
370
    15
100
AcDbLine
 10
454.4478245734
 20
909.2442576692
 30
0.0
 11
454.447855091
 21
641.5996043489
 31
0.0
  0
SPLINE
  5
4F
330
1F
100
AcDbEntity
  8
0
  6
Continuous
 62
     7
370
    15
100
AcDbSpline
210
0.0
220
0.0
230
1.0
 70
     8
 71
     3
 72
    14
 73
    10
 74
     0
 42
0.00000001
 43
0.00000001
 12
1.0
 22
0.0
 32
0.0
 13
1.0
 23
0.0
 33
0.0
 40
0.0
 40
0.0
 40
0.0
 40
0.0
 40
0.1729607373146435
 40
0.3414365390356479
 40
0.5023748820723424
 40
0.656082308047199
 40
0.8084388687106966
 40
0.9635485745257886
 40
1.0
 40
1.0
 40
1.0
 40
1.0
 10
451.7701817511287
 20
638.9219310090579
 30
0.0
 10
452.2969783162928
 20
637.6501306560731
 30
0.0
 10
453.3369114177471
 20
635.1395082014666
 30
0.0
 10
454.8035355141203
 20
631.5987620879557
 30
0.0
 10
456.0682463476072
 20
628.5454786646314
 30
0.0
 10
457.0292742908547
 20
626.2253520683637
 30
0.0
 10
457.5169219313394
 20
625.0480687445917
 30
0.0
 10
457.6592074943355
 20
624.7045635717882
 30
0.0
 10
457.6171614999885
 20
624.8060734490238
 30
0.0
 10
457.6091607306303
 20
624.8253893702654
 30
0.0
  0
LINE
  5
50
330
1F
100
AcDbEntity
  8
0
  6
Continuous
 62
     7
370
    15
100
AcDbLine
 10
454.447855091
 20
641.5996043489
 30
0.0
 11
451.7701817511
 21
638.9219310091
 31
0.0
  0
SPLINE
  5
51
330
1F
100
AcDbEntity
  8
0
  6
Continuous
 62
     7
370
    15
100
AcDbSpline
210
0.0
220
0.0
230
1.0
 70
     8
 71
     3
 72
    14
 73
    10
 74
     0
 42
0.00000001
 43
0.00000001
 12
1.0
 22
0.0
 32
0.0
 13
1.0
 23
0.0
 33
0.0
 40
0.0
 40
0.0
 40
0.0
 40
0.0
 40
0.1729609176401999
 40
0.341436890124622
 40
0.5023753875436577
 40
0.6560829517737908
 40
0.8084396476299601
 40
0.9635494985311864
 40
1.0
 40
1.0
 40
1.0
 40
1.0
 10
184.1255284308162
 20
638.9219004914797
 30
0.0
 10
183.5987314099945
 20
637.6501001452109
 30
0.0
 10
182.5587974239223
 20
635.1394777397912
 30
0.0
 10
181.092172474024
 20
631.598731657014
 30
0.0
 10
179.8274617955375
 20
628.5454482540482
 30
0.0
 10
178.8664355080678
 20
626.2253214796913
 30
0.0
 10
178.3787919552132
 20
625.0480384839606
 30
0.0
 10
178.2365102423651
 20
624.7045332866591
 30
0.0
 10
178.2785584362041
 20
624.806042266151
 30
0.0
 10
178.2865594538068
 20
624.8253576054701
 30
0.0
  0
SPLINE
  5
52
330
1F
100
AcDbEntity
  8
0
  6
Continuous
 62
     7
370
    15
100
AcDbSpline
210
0.0
220
0.0
230
1.0
 70
     8
 71
     3
 72
    14
 73
    10
 74
     0
 42
0.00000001
 43
0.00000001
 12
1.0
 22
0.0
 32
0.0
 13
1.0
 23
0.0
 33
0.0
 40
0.0
 40
0.0
 40
0.0
 40
0.0
 40
0.1729609393487664
 40
0.341436929337334
 40
0.5023754358953236
 40
0.6560829974350623
 40
0.8084396789618186
 40
0.963549509864018
 40
1.0
 40
1.0
 40
1.0
 40
1.0
 10
181.4478550909724
 20
641.5995738313235
 30
0.0
 10
180.176055843201
 20
641.0727757182947
 30
0.0
 10
177.665435633068
 20
640.0328395872208
 30
0.0
 10
174.1246930446254
 20
638.5662111972867
 30
0.0
 10
171.0714135430908
 20
637.3014966565648
 30
0.0
 10
168.7512912908853
 20
636.3404657909767
 30
0.0
 10
167.5740136271063
 20
635.8528168256895
 30
0.0
 10
167.2305127009009
 20
635.7105308297096
 30
0.0
 10
167.3320241222613
 20
635.7525765738126
 30
0.0
 10
167.3513399233778
 20
635.7605771240954
 30
0.0
  0
LINE
  5
53
330
1F
100
AcDbEntity
  8
0
  6
Continuous
 62
     7
370
    15
100
AcDbLine
 10
184.1255284308
 20
638.9219004915
 30
0.0
 11
181.447855091
 21
641.5995738313
 31
0.0
  0
SPLINE
  5
54
330
1F
100
AcDbEntity
  8
0
  6
Continuous
 62
     7
370
    15
100
AcDbSpline
210
0.0
220
0.0
230
1.0
 70
     8
 71
     3
 72
    14
 73
    10
 74
     0
 42
0.00000001
 43
0.00000001
 12
1.0
 22
0.0
 32
0.0
 13
1.0
 23
0.0
 33
0.0
 40
0.0
 40
0.0
 40
0.0
 40
0.0
 40
0.1729614828208718
 40
0.3414379580459458
 40
0.5023768192674082
 40
0.6560845085559572
 40
0.8084410119949973
 40
0.9635504219074928
 40
1.0
 40
1.0
 40
1.0
 40
1.0
 10
181.4478245733943
 20
909.244227151636
 30
0.0
 10
180.1760253774523
 20
909.771022596658
 30
0.0
 10
177.665405594222
 20
910.810953326452
 30
0.0
 10
174.1246636205578
 20
912.2775736836027
 30
0.0
 10
171.0713849985171
 20
913.5422802591636
 30
0.0
 10
168.7512625301084
 20
914.5033038203992
 30
0.0
 10
167.5739838738162
 20
914.9909463708287
 30
0.0
 10
167.2304823109035
 20
915.1332279316216
 30
0.0
 10
167.331993065119
 20
915.0911801403433
 30
0.0
 10
167.3513083903958
 20
915.0831793450384
 30
0.0
  0
LINE
  5
55
330
1F
100
AcDbEntity
  8
0
  6
Continuous
 62
     7
370
    15
100
AcDbLine
 10
181.447855091
 20
641.5995738313
 30
0.0
 11
181.4478245734
 21
909.2442271516
 31
0.0
  0
LINE
  5
56
330
1F
100
AcDbEntity
  8
0
  6
Continuous
 62
     7
370
    15
100
AcDbLine
 10
451.7701817511
 20
638.9219310091
 30
0.0
 11
184.1255284308
 21
638.9219004915
 31
0.0
  0
SPLINE
  5
57
330
1F
100
AcDbEntity
  8
0
  6
Continuous
 62
     7
370
    15
100
AcDbSpline
210
0.0
220
0.0
230
1.0
 70
     8
 71
     3
 72
    14
 73
    10
 74
     0
 42
0.00000001
 43
0.00000001
 12
1.0
 22
0.0
 32
0.0
 13
1.0
 23
0.0
 33
0.0
 40
0.0
 40
0.0
 40
0.0
 40
0.0
 40
0.1729613529697134
 40
0.3414377098656087
 40
0.5023764715730993
 40
0.656084076588543
 40
0.8084404892930477
 40
0.9635497834337956
 40
1.0
 40
1.0
 40
1.0
 40
1.0
 10
451.7701512335506
 20
911.9219310090579
 30
0.0
 10
452.2969477771116
 20
913.1937286633498
 30
0.0
 10
453.3368807003356
 20
915.704345463219
 30
0.0
 10
454.8035045337434
 20
919.2450831637425
 30
0.0
 10
456.0682149723406
 20
922.2983580328577
 30
0.0
 10
457.0292430026458
 20
924.6184774453986
 30
0.0
 10
457.516891038922
 20
925.7957548987249
 30
0.0
 10
457.6591768974346
 20
926.1392560860535
 30
0.0
 10
457.6171312906035
 20
926.0377448208553
 30
0.0
 10
457.6091307926434
 20
926.0184291127147
 30
0.0
  0
SPLINE
  5
58
330
1F
100
AcDbEntity
  8
0
  6
Continuous
 62
     7
370
    15
100
AcDbSpline
210
0.0
220
0.0
230
1.0
 70
     8
 71
     3
 72
    14
 73
    10
 74
     0
 42
0.00000001
 43
0.00000001
 12
1.0
 22
0.0
 32
0.0
 13
1.0
 23
0.0
 33
0.0
 40
0.0
 40
0.0
 40
0.0
 40
0.0
 40
0.1729614846926779
 40
0.3414379650096395
 40
0.5023768358750643
 40
0.6560845359530939
 40
0.8084410410369166
 40
0.963550436676658
 40
0.9999999999999999
 40
0.9999999999999999
 40
0.9999999999999999
 40
0.9999999999999999
 10
184.1254979132381
 20
911.9219004914798
 30
0.0
 10
183.5987009139536
 20
913.1936981392145
 30
0.0
 10
182.5587671059822
 20
915.7043148902105
 30
0.0
 10
181.0921424199892
 20
919.2450525577309
 30
0.0
 10
179.8274321330429
 20
922.2983274145728
 30
0.0
 10
178.8664057703367
 20
924.6184469766565
 30
0.0
 10
178.3787617780823
 20
925.7957242072209
 30
0.0
 10
178.2364797764019
 20
926.1392254028964
 30
0.0
 10
178.2785276910334
 20
926.0377147739456
 30
0.0
 10
178.2865285077807
 20
926.0183994774021
 30
0.0
  0
LINE
  5
59
330
1F
100
AcDbEntity
  8
0
  6
Continuous
 62
     7
370
    15
100
AcDbLine
 10
181.4478245734
 20
909.2442271516
 30
0.0
 11
184.1254979132
 21
911.9219004914
 31
0.0
  0
LINE
  5
5A
330
1F
100
AcDbEntity
  8
0
  6
Continuous
 62
     7
370
    15
100
AcDbLine
 10
184.1254979132
 20
911.9219004914
 30
0.0
 11
451.7701512336
 21
911.921931009
 31
0.0
  0
LINE
  5
5B
330
1F
100
AcDbEntity
  8
0
  6
Continuous
 62
     7
370
    15
100
AcDbLine
 10
451.7701512336
 20
911.921931009
 30
0.0
 11
454.4478245734
 21
909.2442576692
 31
0.0
  0
SPLINE
  5
5C
330
1F
100
AcDbEntity
  8
0
  6
Continuous
 62
     7
370
    15
100
AcDbSpline
210
0.0
220
0.0
230
1.0
 70
     8
 71
     3
 72
    10
 73
     6
 74
     0
 42
0.00000001
 43
0.00000001
 12
1.0
 22
0.0
 32
0.0
 13
1.0
 23
0.0
 33
0.0
 40
0.0
 40
0.0
 40
0.0
 40
0.0
 40
0.4469075308384149
 40
0.4469089405258874
 40
1.0
 40
1.0
 40
1.0
 40
1.0
 10
697.5017154724412
 20
909.244227151636
 30
0.0
 10
692.8890849831811
 20
911.355764384455
 30
0.0
 10
688.2764399442277
 20
913.4673082777291
 30
0.0
 10
675.3550044680096
 20
915.6032555756993
 30
0.0
 10
666.4283897345048
 20
915.0125620220391
 30
0.0
 10
657.5017977525971
 20
914.4218699739016
 30
0.0
  0
SPLINE
  5
5D
330
1F
100
AcDbEntity
  8
0
  6
Continuous
 62
     7
370
    15
100
AcDbSpline
210
0.0
220
0.0
230
1.0
 70
     8
 71
     3
 72
    10
 73
     6
 74
     0
 42
0.00000001
 43
0.00000001
 12
1.0
 22
0.0
 32
0.0
 13
1.0
 23
0.0
 33
0.0
 40
0.0
 40
0.0
 40
0.0
 40
0.0
 40
0.4469075308384149
 40
0.4469089405258874
 40
1.0
 40
1.0
 40
1.0
 40
1.0
 10
697.5017163449378
 20
911.9219004914798
 30
0.0
 10
692.8890834849852
 20
917.0196060666786
 30
0.0
 10
688.276436075332
 20
922.1173277216508
 30
0.0
 10
675.3550007203876
 20
927.2739715764362
 30
0.0
 10
666.4283897680473
 20
925.8479189578521
 30
0.0
 10
657.5018015672944
 20
924.4218699739016
 30
0.0
  0
LINE
  5
5E
330
1F
100
AcDbEntity
  8
0
  6
Continuous
 62
     7
370
    15
100
AcDbLine
 10
697.5017154724
 20
909.2442271516
 30
0.0
 11
697.5017163449
 21
911.9219004915
 31
0.0
  0
SPLINE
  5
5F
330
1F
100
AcDbEntity
  8
0
  6
Continuous
 62
     7
370
    15
100
AcDbSpline
210
0.0
220
0.0
230
1.0
 70
     8
 71
     3
 72
    10
 73
     6
 74
     0
 42
0.00000001
 43
0.00000001
 12
1.0
 22
0.0
 32
0.0
 13
1.0
 23
0.0
 33
0.0
 40
0.0
 40
0.0
 40
0.0
 40
0.0
 40
0.4469075308384149
 40
0.4469089405258874
 40
1.0
 40
1.0
 40
1.0
 40
1.0
 10
697.5017808506312
 20
641.5995738313235
 30
0.0
 10
692.8891586663655
 20
639.488025989624
 30
0.0
 10
688.276521932433
 20
637.3764714874362
 30
0.0
 10
675.355043839837
 20
635.2405033804067
 30
0.0
 10
666.4283636439678
 20
635.8311874299035
 30
0.0
 10
657.5017061998627
 20
636.4218699739016
 30
0.0
  0
LINE
  5
60
330
1F
100
AcDbEntity
  8
0
  6
Continuous
 62
     7
370
    15
100
AcDbLine
 10
697.5017808506
 20
641.5995738313
 30
0.0
 11
697.5017154724
 21
909.2442271516
 31
0.0
  0
SPLINE
  5
61
330
1F
100
AcDbEntity
  8
0
  6
Continuous
 62
     7
370
    15
100
AcDbSpline
210
0.0
220
0.0
230
1.0
 70
     8
 71
     3
 72
    10
 73
     6
 74
     0
 42
0.00000001
 43
0.00000001
 12
1.0
 22
0.0
 32
0.0
 13
1.0
 23
0.0
 33
0.0
 40
0.0
 40
0.0
 40
0.0
 40
0.0
 40
0.4469075308384149
 40
0.4469089405258874
 40
1.0
 40
1.0
 40
1.0
 40
1.0
 10
697.5017799781348
 20
638.9219004914797
 30
0.0
 10
692.8891601645615
 20
633.8241843074004
 30
0.0
 10
688.2765258013287
 20
628.7264520435145
 30
0.0
 10
675.355047587459
 20
623.5697873796698
 30
0.0
 10
666.4283636104254
 20
624.9958304940905
 30
0.0
 10
657.5017023851655
 20
626.4218699739016
 30
0.0
  0
LINE
  5
62
330
1F
100
AcDbEntity
  8
0
  6
Continuous
 62
     7
370
    15
100
AcDbLine
 10
697.5017799781
 20
638.9219004915
 30
0.0
 11
697.5017808506
 21
641.5995738313
 31
0.0
  0
SPLINE
  5
63
330
1F
100
AcDbEntity
  8
0
  6
Continuous
 62
     7
370
    15
100
AcDbSpline
210
0.0
220
0.0
230
1.0
 70
     8
 71
     3
 72
    10
 73
     6
 74
     0
 42
0.00000001
 43
0.00000001
 12
1.0
 22
0.0
 32
0.0
 13
1.0
 23
0.0
 33
0.0
 40
0.0
 40
0.0
 40
0.0
 40
0.0
 40
0.4469075308384149
 40
0.4469089405258874
 40
1.0
 40
1.0
 40
1.0
 40
1.0
 10
697.5017163449487
 20
911.9219310090579
 30
0.0
 10
692.8890834849916
 20
917.0196365842568
 30
0.0
 10
688.2764360753339
 20
922.1173582392288
 30
0.0
 10
675.3550007203851
 20
927.2740020940145
 30
0.0
 10
666.428389768046
 20
925.8479494754303
 30
0.0
 10
657.5018015672944
 20
924.4219004914797
 30
0.0
  0
LINE
  5
64
330
1F
100
AcDbEntity
  8
0
  6
Continuous
 62
     7
370
    15
100
AcDbLine
 10
697.5017163449
 20
911.9219004915
 30
0.0
 11
697.5017163449
 21
911.9219310091
 31
0.0
  0
LINE
  5
65
330
1F
100
AcDbEntity
  8
0
  6
Continuous
 62
     7
370
    15
100
AcDbLine
 10
657.5017023852
 20
626.4219004915
 30
0.0
 11
657.5017023852
 21
626.4218699739
 31
0.0
  0
LINE
  5
66
330
1F
100
AcDbEntity
  8
0
  6
Continuous
 62
     7
370
    15
100
AcDbLine
 10
697.5017154725
 20
909.2442576692
 30
0.0
 11
697.5017154725
 21
909.2442271516
 31
0.0
  0
LINE
  5
67
330
1F
100
AcDbEntity
  8
0
  6
Continuous
 62
     7
370
    15
100
AcDbLine
 10
657.5017023852
 20
625.4219004915
 30
0.0
 11
657.5017061999
 21
635.4219004915
 31
0.0
  0
LINE
  5
68
330
1F
100
AcDbEntity
  8
0
  6
Continuous
 62
     7
370
    15
100
AcDbLine
 10
657.5017061999
 20
635.4219004915
 30
0.0
 11
657.5017977526
 21
915.4219004915
 31
0.0
  0
LINE
  5
69
330
1F
100
AcDbEntity
  8
0
  6
Continuous
 62
     7
370
    15
100
AcDbLine
 10
657.5017977526
 20
915.4219004915
 30
0.0
 11
657.5018015673
 21
925.4219004915
 31
0.0
  0
LINE
  5
6A
330
1F
100
AcDbEntity
  8
0
  6
Continuous
 62
     7
370
    15
100
AcDbLine
 10
657.5017977526
 20
915.4219004915
 30
0.0
 11
627.5018015673
 21
915.4219119356
 31
0.0
  0
LINE
  5
6B
330
1F
100
AcDbEntity
  8
0
  6
Continuous
 62
     7
370
    15
100
AcDbLine
 10
657.5018015673
 20
925.4219004915
 30
0.0
 11
627.501805382
 21
925.4219119356
 31
0.0
  0
LINE
  5
6C
330
1F
100
AcDbEntity
  8
0
  6
Continuous
 62
     7
370
    15
100
AcDbLine
 10
627.501805382
 20
925.4219119356
 30
0.0
 11
627.5018015673
 21
915.4219119356
 31
0.0
  0
LINE
  5
6D
330
1F
100
AcDbEntity
  8
0
  6
Continuous
 62
     7
370
    15
100
AcDbLine
 10
657.5016871264
 20
625.4219004915
 30
0.0
 11
627.5016909411
 21
625.4219119356
 31
0.0
  0
LINE
  5
6E
330
1F
100
AcDbEntity
  8
0
  6
Continuous
 62
     7
370
    15
100
AcDbLine
 10
657.5016909411
 20
635.4219004915
 30
0.0
 11
657.5016871264
 21
625.4219004915
 31
0.0
  0
LINE
  5
6F
330
1F
100
AcDbEntity
  8
0
  6
Continuous
 62
     7
370
    15
100
AcDbLine
 10
657.5016909411
 20
635.4219004915
 30
0.0
 11
627.5016947558
 21
635.4219119356
 31
0.0
  0
LINE
  5
70
330
1F
100
AcDbEntity
  8
0
  6
Continuous
 62
     7
370
    15
100
AcDbLine
 10
627.5016947558
 20
635.4219119356
 30
0.0
 11
627.5016909411
 21
625.4219119356
 31
0.0
  0
LINE
  5
71
330
1F
100
AcDbEntity
  8
0
  6
Continuous
 62
     7
370
    15
100
AcDbLine
 10
627.5018015673
 20
915.4219119356
 30
0.0
 11
627.5016947558
 21
635.4219119356
 31
0.0
  0
LINE
  5
72
330
1F
100
AcDbEntity
  8
0
  6
Continuous
 62
     7
370
    15
100
AcDbLine
 10
657.5017977526
 20
915.4219004915
 30
0.0
 11
657.5016909411
 21
635.4219004915
 31
0.0
  0
LINE
  5
73
330
1F
100
AcDbEntity
  8
0
  6
Continuous
 62
     7
370
    15
100
AcDbLine
 10
627.5017100146
 20
635.4219004915
 30
0.0
 11
627.5018015673
 21
915.4219004915
 31
0.0
  0
LINE
  5
74
330
1F
100
AcDbEntity
  8
0
  6
Continuous
 62
     7
370
    15
100
AcDbLine
 10
627.5017100146
 20
635.4219004915
 30
0.0
 11
614.5017100146
 21
640.5995890901
 31
0.0
  0
LINE
  5
75
330
1F
100
AcDbEntity
  8
0
  6
Continuous
 62
     7
370
    15
100
AcDbLine
 10
614.5017100146
 20
640.5995890901
 30
0.0
 11
614.5018015673
 21
910.2442424104
 31
0.0
  0
LINE
  5
76
330
1F
100
AcDbEntity
  8
0
  6
Continuous
 62
     7
370
    15
100
AcDbLine
 10
627.5018015673
 20
915.4219004915
 30
0.0
 11
614.5018015673
 21
910.2442424104
 31
0.0
  0
LINE
  5
77
330
1F
100
AcDbEntity
  8
0
  6
Continuous
 62
     7
370
    15
100
AcDbLine
 10
627.5018015673
 20
915.4219004915
 30
0.0
 11
627.5018015673
 21
925.4219004915
 31
0.0
  0
LINE
  5
78
330
1F
100
AcDbEntity
  8
0
  6
Continuous
 62
     7
370
    15
100
AcDbLine
 10
614.5018015673
 20
910.2442424104
 30
0.0
 11
614.5018015673
 21
912.9219157503
 31
0.0
  0
LINE
  5
79
330
1F
100
AcDbEntity
  8
0
  6
Continuous
 62
     7
370
    15
100
AcDbLine
 10
627.5018015673
 20
925.4219004915
 30
0.0
 11
614.5018015673
 21
912.9219157503
 31
0.0
  0
LINE
  5
7A
330
1F
100
AcDbEntity
  8
0
  6
Continuous
 62
     7
370
    15
100
AcDbLine
 10
627.5017100146
 20
625.4219004915
 30
0.0
 11
614.5017100146
 21
637.9219157503
 31
0.0
  0
LINE
  5
7B
330
1F
100
AcDbEntity
  8
0
  6
Continuous
 62
     7
370
    15
100
AcDbLine
 10
614.5017100146
 20
637.9219157503
 30
0.0
 11
614.5017100146
 21
640.5995890901
 31
0.0
  0
LINE
  5
7C
330
1F
100
AcDbEntity
  8
0
  6
Continuous
 62
     7
370
    15
100
AcDbLine
 10
627.5017100146
 20
625.4219004915
 30
0.0
 11
627.5017100146
 21
635.4219004915
 31
0.0
  0
LINE
  5
7D
330
1F
100
AcDbEntity
  8
0
  6
Continuous
 62
     7
370
    15
100
AcDbLine
 10
697.5018680603
 20
909.2442271516
 30
0.0
 11
697.5018689328
 21
911.9219004914
 31
0.0
  0
LINE
  5
7E
330
1F
100
AcDbEntity
  8
0
  6
Continuous
 62
     7
370
    15
100
AcDbLine
 10
697.5017808506
 20
641.5995738313
 30
0.0
 11
697.5018680603
 21
909.2442271516
 31
0.0
  0
LINE
  5
7F
330
1F
100
AcDbEntity
  8
0
  6
Continuous
 62
     7
370
    15
100
AcDbLine
 10
169.4096641272
 20
427.1891611195
 30
0.0
 11
169.409700558
 21
427.1890823187
 31
0.0
  0
SPLINE
  5
80
330
1F
100
AcDbEntity
  8
0
  6
Continuous
 62
     7
370
    15
100
AcDbSpline
210
0.0
220
0.0
230
1.0
 70
     8
 71
     3
 72
    10
 73
     6
 74
     0
 42
0.00000001
 43
0.00000001
 12
1.0
 22
0.0
 32
0.0
 13
1.0
 23
0.0
 33
0.0
 40
0.0
 40
0.0
 40
0.0
 40
0.0
 40
0.4469075308384149
 40
0.4469089405258874
 40
1.0
 40
1.0
 40
1.0
 40
1.0
 10
451.7701512335506
 20
413.2536520761042
 30
0.0
 10
453.8816928524583
 20
417.8662849360613
 30
0.0
 10
455.9932411318351
 20
422.478932345719
 30
0.0
 10
458.1292029441204
 20
435.4003677006678
 30
0.0
 10
457.5385206354049
 20
444.3269786530068
 30
0.0
 10
456.9478398321834
 20
453.2535668537586
 30
0.0
  0
SPLINE
  5
81
330
1F
100
AcDbEntity
  8
0
  6
Continuous
 62
     7
370
    15
100
AcDbSpline
210
0.0
220
0.0
230
1.0
 70
     8
 71
     3
 72
    10
 73
     6
 74
     0
 42
0.00000001
 43
0.00000001
 12
1.0
 22
0.0
 32
0.0
 13
1.0
 23
0.0
 33
0.0
 40
0.0
 40
0.0
 40
0.0
 40
0.0
 40
0.4469075308384149
 40
0.4469089405258874
 40
1.0
 40
1.0
 40
1.0
 40
1.0
 10
454.4478245733943
 20
413.2536529486007
 30
0.0
 10
459.5455345346821
 20
417.8662834378654
 30
0.0
 10
464.6432605757566
 20
422.4789284768232
 30
0.0
 10
469.7999189448574
 20
435.4003639530458
 30
0.0
 10
468.3738775712179
 20
444.3269786865494
 30
0.0
 10
466.9478398321834
 20
453.2535706684558
 30
0.0
  0
LINE
  5
82
330
1F
100
AcDbEntity
  8
0
  6
Continuous
 62
     7
370
    15
100
AcDbLine
 10
451.7701512336
 20
413.2536520761
 30
0.0
 11
454.4478245734
 21
413.2536529486
 31
0.0
  0
SPLINE
  5
83
330
1F
100
AcDbEntity
  8
0
  6
Continuous
 62
     7
370
    15
100
AcDbSpline
210
0.0
220
0.0
230
1.0
 70
     8
 71
     3
 72
    10
 73
     6
 74
     0
 42
0.00000001
 43
0.00000001
 12
1.0
 22
0.0
 32
0.0
 13
1.0
 23
0.0
 33
0.0
 40
0.0
 40
0.0
 40
0.0
 40
0.0
 40
0.4469075308384149
 40
0.4469089405258874
 40
1.0
 40
1.0
 40
1.0
 40
1.0
 10
184.1254979132381
 20
413.2536520761151
 30
0.0
 10
182.0139544576276
 20
417.8662849360678
 30
0.0
 10
179.9024043415423
 20
422.478932345721
 30
0.0
 10
177.766450748828
 20
435.4003677006653
 30
0.0
 10
178.3571460432693
 20
444.3269786530056
 30
0.0
 10
178.9478398321834
 20
453.2535668537586
 30
0.0
  0
LINE
  5
84
330
1F
100
AcDbEntity
  8
0
  6
Continuous
 62
     7
370
    15
100
AcDbLine
 10
184.1254979132
 20
413.2536520761
 30
0.0
 11
451.7701512336
 21
413.2536520761
 31
0.0
  0
SPLINE
  5
85
330
1F
100
AcDbEntity
  8
0
  6
Continuous
 62
     7
370
    15
100
AcDbSpline
210
0.0
220
0.0
230
1.0
 70
     8
 71
     3
 72
    10
 73
     6
 74
     0
 42
0.00000001
 43
0.00000001
 12
1.0
 22
0.0
 32
0.0
 13
1.0
 23
0.0
 33
0.0
 40
0.0
 40
0.0
 40
0.0
 40
0.0
 40
0.4469075308384149
 40
0.4469089405258874
 40
1.0
 40
1.0
 40
1.0
 40
1.0
 10
181.4478245733943
 20
413.2536529486116
 30
0.0
 10
176.3501127754038
 20
417.8662834378719
 30
0.0
 10
171.2523848976206
 20
422.4789284768252
 30
0.0
 10
166.095734748091
 20
435.4003639530433
 30
0.0
 10
167.5217891074562
 20
444.3269786865481
 30
0.0
 10
168.9478398321834
 20
453.2535706684558
 30
0.0
  0
LINE
  5
86
330
1F
100
AcDbEntity
  8
0
  6
Continuous
 62
     7
370
    15
100
AcDbLine
 10
181.4478245734
 20
413.2536529486
 30
0.0
 11
184.1254979132
 21
413.2536520761
 31
0.0
  0
SPLINE
  5
87
330
1F
100
AcDbEntity
  8
0
  6
Continuous
 62
     7
370
    15
100
AcDbSpline
210
0.0
220
0.0
230
1.0
 70
     8
 71
     3
 72
    10
 73
     6
 74
     0
 42
0.00000001
 43
0.00000001
 12
1.0
 22
0.0
 32
0.0
 13
1.0
 23
0.0
 33
0.0
 40
0.0
 40
0.0
 40
0.0
 40
0.0
 40
0.4469075308384149
 40
0.4469089405258874
 40
1.0
 40
1.0
 40
1.0
 40
1.0
 10
454.4478550909725
 20
413.2535875704107
 30
0.0
 10
459.5455650522602
 20
417.8662097546809
 30
0.0
 10
464.6432910933348
 20
422.478846488618
 30
0.0
 10
469.7999494624355
 20
435.4003245812185
 30
0.0
 10
468.373908088796
 20
444.3270047770862
 30
0.0
 10
466.9478703497615
 20
453.2536622211902
 30
0.0
  0
LINE
  5
88
330
1F
100
AcDbEntity
  8
0
  6
Continuous
 62
     7
370
    15
100
AcDbLine
 10
454.4478245734
 20
413.2536529486
 30
0.0
 11
454.447855091
 21
413.2535875704
 31
0.0
  0
SPLINE
  5
89
330
1F
100
AcDbEntity
  8
0
  6
Continuous
 62
     7
370
    15
100
AcDbSpline
210
0.0
220
0.0
230
1.0
 70
     8
 71
     3
 72
    11
 73
     7
 74
     0
 42
0.00000001
 43
0.00000001
 12
1.0
 22
0.0
 32
0.0
 13
1.0
 23
0.0
 33
0.0
 40
0.0
 40
0.0
 40
0.0
 40
0.0
 40
0.2804463812021446
 40
0.5536206706668226
 40
0.8145733570375545
 40
1.0
 40
1.0
 40
1.0
 40
1.0
 10
181.4478550909724
 20
413.2535875704217
 30
0.0
 10
180.1740997273676
 20
414.4031361416943
 30
0.0
 10
177.659618008468
 20
416.672425009905
 30
0.0
 10
174.146841716481
 20
420.2267688717974
 30
0.0
 10
171.2507128091276
 20
423.6531879689741
 30
0.0
 10
170.0108048776347
 20
426.1837001213191
 30
0.0
 10
169.4957452630627
 20
427.2348786651061
 30
0.0
  0
LINE
  5
8A
330
1F
100
AcDbEntity
  8
0
  6
Continuous
 62
     7
370
    15
100
AcDbLine
 10
181.447855091
 20
413.2535875704
 30
0.0
 11
181.4478245734
 21
413.2536529486
 31
0.0
  0
LINE
  5
8B
330
1F
100
AcDbEntity
  8
0
  6
Continuous
 62
     7
370
    15
100
AcDbLine
 10
454.447855091
 20
413.2535875704
 30
0.0
 11
451.7701817511
 21
413.2535884429
 31
0.0
  0
LINE
  5
8C
330
1F
100
AcDbEntity
  8
0
  6
Continuous
 62
     7
370
    15
100
AcDbLine
 10
184.1255284308
 20
413.2535884429
 30
0.0
 11
181.447855091
 21
413.2535875704
 31
0.0
  0
LINE
  5
8D
330
1F
100
AcDbEntity
  8
0
  6
Continuous
 62
     7
370
    15
100
AcDbLine
 10
451.7701817511
 20
413.2535884429
 30
0.0
 11
184.1255284308
 21
413.2535884429
 31
0.0
  0
LINE
  5
8E
330
1F
100
AcDbEntity
  8
0
  6
Continuous
 62
     7
370
    15
100
AcDbLine
 10
167.947855091
 20
453.2535706685
 30
0.0
 11
177.947855091
 21
453.2535668538
 31
0.0
  0
LINE
  5
8F
330
1F
100
AcDbEntity
  8
0
  6
Continuous
 62
     7
370
    15
100
AcDbLine
 10
457.947855091
 20
453.2535668538
 30
0.0
 11
467.947855091
 21
453.2535706685
 31
0.0
  0
LINE
  5
90
330
1F
100
AcDbEntity
  8
0
  6
Continuous
 62
     7
370
    15
100
AcDbLine
 10
177.947855091
 20
453.2535668538
 30
0.0
 11
457.947855091
 21
453.2535668538
 31
0.0
  0
LINE
  5
91
330
1F
100
AcDbEntity
  8
0
  6
Continuous
 62
     7
370
    15
100
AcDbLine
 10
167.947855091
 20
453.2535706685
 30
0.0
 11
167.947855091
 21
483.2535668538
 31
0.0
  0
LINE
  5
92
330
1F
100
AcDbEntity
  8
0
  6
Continuous
 62
     7
370
    15
100
AcDbLine
 10
177.947855091
 20
453.2535668538
 30
0.0
 11
177.947855091
 21
483.2535630391
 31
0.0
  0
LINE
  5
93
330
1F
100
AcDbEntity
  8
0
  6
Continuous
 62
     7
370
    15
100
AcDbLine
 10
177.947855091
 20
483.2535630391
 30
0.0
 11
167.947855091
 21
483.2535668538
 31
0.0
  0
LINE
  5
94
330
1F
100
AcDbEntity
  8
0
  6
Continuous
 62
     7
370
    15
100
AcDbLine
 10
457.947855091
 20
453.2535668538
 30
0.0
 11
457.947855091
 21
483.2535630391
 31
0.0
  0
LINE
  5
95
330
1F
100
AcDbEntity
  8
0
  6
Continuous
 62
     7
370
    15
100
AcDbLine
 10
457.947855091
 20
483.2535630391
 30
0.0
 11
177.947855091
 21
483.2535630391
 31
0.0
  0
LINE
  5
96
330
1F
100
AcDbEntity
  8
0
  6
Continuous
 62
     7
370
    15
100
AcDbLine
 10
467.947855091
 20
453.2535706685
 30
0.0
 11
467.947855091
 21
483.2535668538
 31
0.0
  0
LINE
  5
97
330
1F
100
AcDbEntity
  8
0
  6
Continuous
 62
     7
370
    15
100
AcDbLine
 10
467.947855091
 20
483.2535668538
 30
0.0
 11
457.947855091
 21
483.2535630391
 31
0.0
  0
LINE
  5
98
330
1F
100
AcDbEntity
  8
0
  6
Continuous
 62
     7
370
    15
100
AcDbLine
 10
167.947855091
 20
483.2535668538
 30
0.0
 11
167.947855091
 21
483.2536736653
 31
0.0
  0
LINE
  5
99
330
1F
100
AcDbEntity
  8
0
  6
Continuous
 62
     7
370
    15
100
AcDbLine
 10
467.947855091
 20
483.2536736653
 30
0.0
 11
467.947855091
 21
483.2535668538
 31
0.0
  0
LINE
  5
9A
330
1F
100
AcDbEntity
  8
0
  6
Continuous
 62
     7
370
    15
100
AcDbLine
 10
167.947855091
 20
483.2536736653
 30
0.0
 11
167.9478689336
 21
483.2536736653
 31
0.0
  0
LINE
  5
9B
330
1F
100
AcDbEntity
  8
0
  6
Continuous
 62
     7
370
    15
100
AcDbLine
 10
467.9478412483
 20
483.2536736653
 30
0.0
 11
467.947855091
 21
483.2536736653
 31
0.0
  0
LINE
  5
9C
330
1F
100
AcDbEntity
  8
0
  6
Continuous
 62
     7
370
    15
100
AcDbLine
 10
457.947855091
 20
483.2535668538
 30
0.0
 11
467.947855091
 21
483.2535668538
 31
0.0
  0
LINE
  5
9D
330
1F
100
AcDbEntity
  8
0
  6
Continuous
 62
     7
370
    15
100
AcDbLine
 10
457.947855091
 20
483.2535668538
 30
0.0
 11
452.7701817511
 21
496.2535668538
 31
0.0
  0
LINE
  5
9E
330
1F
100
AcDbEntity
  8
0
  6
Continuous
 62
     7
370
    15
100
AcDbLine
 10
452.7701817511
 20
496.2535668538
 30
0.0
 11
455.447855091
 21
496.2535668538
 31
0.0
  0
LINE
  5
9F
330
1F
100
AcDbEntity
  8
0
  6
Continuous
 62
     7
370
    15
100
AcDbLine
 10
467.947855091
 20
483.2535668538
 30
0.0
 11
455.447855091
 21
496.2535668538
 31
0.0
  0
LINE
  5
A0
330
1F
100
AcDbEntity
  8
0
  6
Continuous
 62
     7
370
    15
100
AcDbLine
 10
177.947855091
 20
483.2535668538
 30
0.0
 11
457.947855091
 21
483.2535668538
 31
0.0
  0
LINE
  5
A1
330
1F
100
AcDbEntity
  8
0
  6
Continuous
 62
     7
370
    15
100
AcDbLine
 10
177.947855091
 20
483.2535668538
 30
0.0
 11
183.1255284308
 21
496.2535668538
 31
0.0
  0
LINE
  5
A2
330
1F
100
AcDbEntity
  8
0
  6
Continuous
 62
     7
370
    15
100
AcDbLine
 10
183.1255284308
 20
496.2535668538
 30
0.0
 11
452.7701817511
 21
496.2535668538
 31
0.0
  0
LINE
  5
A3
330
1F
100
AcDbEntity
  8
0
  6
Continuous
 62
     7
370
    15
100
AcDbLine
 10
167.947855091
 20
483.2535668538
 30
0.0
 11
177.947855091
 21
483.2535668538
 31
0.0
  0
LINE
  5
A4
330
1F
100
AcDbEntity
  8
0
  6
Continuous
 62
     7
370
    15
100
AcDbLine
 10
167.947855091
 20
483.2535668538
 30
0.0
 11
180.447855091
 21
496.2535668538
 31
0.0
  0
LINE
  5
A5
330
1F
100
AcDbEntity
  8
0
  6
Continuous
 62
     7
370
    15
100
AcDbLine
 10
180.447855091
 20
496.2535668538
 30
0.0
 11
183.1255284308
 21
496.2535668538
 31
0.0
  0
LINE
  5
A6
330
1F
100
AcDbEntity
  8
0
  6
Continuous
 62
     7
370
    15
100
AcDbLine
 10
167.947855091
 20
483.2536584065
 30
0.0
 11
180.447855091
 21
496.2536584065
 31
0.0
  0
LINE
  5
A7
330
1F
100
AcDbEntity
  8
0
  6
Continuous
 62
     7
370
    15
100
AcDbLine
 10
180.447855091
 20
496.2536584065
 30
0.0
 11
180.447855091
 21
496.2535668538
 31
0.0
  0
LINE
  5
A8
330
1F
100
AcDbEntity
  8
0
  6
Continuous
 62
     7
370
    15
100
AcDbLine
 10
167.947855091
 20
483.2536584065
 30
0.0
 11
167.947855091
 21
483.2535668538
 31
0.0
  0
LINE
  5
A9
330
1F
100
AcDbEntity
  8
0
  6
Continuous
 62
     7
370
    15
100
AcDbLine
 10
467.947855091
 20
483.2536584065
 30
0.0
 11
455.447855091
 21
496.2536584065
 31
0.0
  0
LINE
  5
AA
330
1F
100
AcDbEntity
  8
0
  6
Continuous
 62
     7
370
    15
100
AcDbLine
 10
455.447855091
 20
496.2535668538
 30
0.0
 11
455.447855091
 21
496.2536584065
 31
0.0
  0
LINE
  5
AB
330
1F
100
AcDbEntity
  8
0
  6
Continuous
 62
     7
370
    15
100
AcDbLine
 10
467.947855091
 20
483.2535668538
 30
0.0
 11
467.947855091
 21
483.2536584065
 31
0.0
  0
LINE
  5
AC
330
1F
100
AcDbEntity
  8
0
  6
Continuous
 62
     7
370
    15
100
AcDbLine
 10
452.770218215
 20
496.2535668538
 30
0.0
 11
452.7701817511
 21
496.2536584065
 31
0.0
  0
LINE
  5
AD
330
1F
100
AcDbEntity
  8
0
  6
Continuous
 62
     7
370
    15
100
AcDbLine
 10
455.447855091
 20
496.2536584065
 30
0.0
 11
452.7701817511
 21
496.2536584065
 31
0.0
  0
LINE
  5
AE
330
1F
100
AcDbEntity
  8
0
  6
Continuous
 62
     7
370
    15
100
AcDbLine
 10
183.125491967
 20
496.2535668538
 30
0.0
 11
183.1255284308
 21
496.2536584065
 31
0.0
  0
LINE
  5
AF
330
1F
100
AcDbEntity
  8
0
  6
Continuous
 62
     7
370
    15
100
AcDbLine
 10
183.1255284308
 20
496.2536584065
 30
0.0
 11
180.447855091
 21
496.2536584065
 31
0.0
  0
LINE
  5
B0
330
1F
100
AcDbEntity
  8
0
  6
Continuous
 62
     7
370
    15
100
AcDbLine
 10
452.7701817511
 20
496.2536584065
 30
0.0
 11
183.1255284308
 21
496.2536584065
 31
0.0
  0
LINE
  5
B1
330
1F
100
AcDbEntity
  8
0
  6
Continuous
 62
     7
370
    15
100
AcDbLine
 10
181.447855091
 20
413.2535875704
 30
0.0
 11
181.4478245734
 21
413.2535003608
 31
0.0
  0
LINE
  5
B2
330
1F
100
AcDbEntity
  8
0
  6
Continuous
 62
     7
370
    15
100
AcDbLine
 10
181.4478245734
 20
413.2535003608
 30
0.0
 11
184.1254979132
 21
413.2534994883
 31
0.0
  0
LINE
  5
B3
330
1F
100
AcDbEntity
  8
0
  6
Continuous
 62
     7
370
    15
100
AcDbLine
 10
184.1254979132
 20
413.2534994883
 30
0.0
 11
451.7701512336
 21
413.2534994882
 31
0.0
  0
LINE
  5
B4
330
1F
100
AcDbEntity
  8
0
  6
Continuous
 62
     7
370
    15
100
AcDbLine
 10
451.7701512336
 20
413.2534994882
 30
0.0
 11
454.4478245734
 21
413.2535003607
 31
0.0
  0
LINE
  5
B5
330
1F
100
AcDbEntity
  8
0
  6
Continuous
 62
     7
370
    15
100
AcDbLine
 10
454.4478245734
 20
413.2535003607
 30
0.0
 11
454.447855091
 21
413.2535875704
 31
0.0
  0
ENDSEC
  0
SECTION
  2
OBJECTS
  0
DICTIONARY
  5
C
330
0
100
AcDbDictionary
281
     1
  3
ACAD_GROUP
350
D
  3
ACAD_LAYOUT
350
1A
  3
ACAD_MLINESTYLE
350
17
  3
ACAD_PLOTSETTINGS
350
19
  3
ACAD_PLOTSTYLENAME
350
E
  0
DICTIONARY
  5
D
102
{ACAD_REACTORS
330
C
102
}
330
C
100
AcDbDictionary
281
     1
  0
DICTIONARY
  5
1A
102
{ACAD_REACTORS
330
C
102
}
330
C
100
AcDbDictionary
281
     1
  3
Layout1
350
1E
  3
Layout2
350
26
  3
Model
350
22
  0
DICTIONARY
  5
17
102
{ACAD_REACTORS
330
C
102
}
330
C
100
AcDbDictionary
281
     1
  3
Standard
350
18
  0
DICTIONARY
  5
19
102
{ACAD_REACTORS
330
C
102
}
330
C
100
AcDbDictionary
281
     1
  0
ACDBDICTIONARYWDFLT
  5
E
102
{ACAD_REACTORS
330
C
102
}
330
C
100
AcDbDictionary
281
     1
  3
Normal
350
F
100
AcDbDictionaryWithDefault
340
F
  0
LAYOUT
  5
1E
102
{ACAD_REACTORS
330
1A
102
}
330
1A
100
AcDbPlotSettings
  1

  2
none_device
  4

  6

 40
0.0
 41
0.0
 42
0.0
 43
0.0
 44
0.0
 45
0.0
 46
0.0
 47
0.0
 48
0.0
 49
0.0
140
0.0
141
0.0
142
1.0
143
1.0
 70
   688
 72
     0
 73
     0
 74
     5
  7

 75
    16
147
1.0
148
0.0
149
0.0
100
AcDbLayout
  1
Layout1
 70
     1
 71
     1
 10
0.0
 20
0.0
 11
420.0
 21
297.0
 12
0.0
 22
0.0
 32
0.0
 14
1.0000000000E+20
 24
1.0000000000E+20
 34
1.0000000000E+20
 15
-1.0000000000E+20
 25
-1.0000000000E+20
 35
-1.0000000000E+20
146
0.0
 13
0.0
 23
0.0
 33
0.0
 16
1.0
 26
0.0
 36
0.0
 17
0.0
 27
1.0
 37
0.0
 76
     0
330
1B
  0
LAYOUT
  5
26
102
{ACAD_REACTORS
330
1A
102
}
330
1A
100
AcDbPlotSettings
  1

  2
none_device
  4

  6

 40
0.0
 41
0.0
 42
0.0
 43
0.0
 44
0.0
 45
0.0
 46
0.0
 47
0.0
 48
0.0
 49
0.0
140
0.0
141
0.0
142
1.0
143
1.0
 70
   688
 72
     0
 73
     0
 74
     5
  7

 75
    16
147
1.0
148
0.0
149
0.0
100
AcDbLayout
  1
Layout2
 70
     1
 71
     2
 10
0.0
 20
0.0
 11
0.0
 21
0.0
 12
0.0
 22
0.0
 32
0.0
 14
0.0
 24
0.0
 34
0.0
 15
0.0
 25
0.0
 35
0.0
146
0.0
 13
0.0
 23
0.0
 33
0.0
 16
1.0
 26
0.0
 36
0.0
 17
0.0
 27
1.0
 37
0.0
 76
     0
330
23
  0
LAYOUT
  5
22
102
{ACAD_REACTORS
330
1A
102
}
330
1A
100
AcDbPlotSettings
  1

  2
none_device
  4

  6

 40
0.0
 41
0.0
 42
0.0
 43
0.0
 44
0.0
 45
0.0
 46
0.0
 47
0.0
 48
0.0
 49
0.0
140
0.0
141
0.0
142
1.0
143
1.0
 70
  1712
 72
     0
 73
     0
 74
     0
  7

 75
     0
147
1.0
148
0.0
149
0.0
100
AcDbLayout
  1
Model
 70
     1
 71
     0
 10
0.0
 20
0.0
 11
1397.0
 21
1079.5
 12
0.0
 22
0.0
 32
0.0
 14
0.0
 24
0.0
 34
0.0
 15
1397.0
 25
1079.5
 35
0.0
146
0.0
 13
0.0
 23
0.0
 33
0.0
 16
1.0
 26
0.0
 36
0.0
 17
0.0
 27
1.0
 37
0.0
 76
     0
330
1F
331
29
  0
MLINESTYLE
  5
18
102
{ACAD_REACTORS
330
17
102
}
330
17
100
AcDbMlineStyle
  2
Standard
 70
     0
  3

 62
   256
 51
90.0
 52
90.0
 71
     2
 49
0.5
 62
   256
  6
BYLAYER
 49
-0.5
 62
   256
  6
BYLAYER
  0
ACDBPLACEHOLDER
  5
F
102
{ACAD_REACTORS
330
E
102
}
330
E
  0
ENDSEC
  0
EOF
