  0
SECTION
  2
HEADER
  9
$ACADVER
  1
AC1021
  9
$ACADMAINTVER
 70
    50
  9
$DWGCODEPAGE
  3
ANSI_1251
  9
$LASTSAVEDBY
  1
Игорь
  9
$INSBASE
 10
0.0
 20
0.0
 30
0.0
  9
$EXTMIN
 10
-316.3244900741667
 20
-359.2085005868791
 30
-0.0015258207003583
  9
$EXTMAX
 10
522.9498636049566
 20
238.8189504194992
 30
0.0000000349246037
  9
$LIMMIN
 10
0.0
 20
0.0
  9
$LIMMAX
 10
279.4
 20
215.9
  9
$ORTHOMODE
 70
     0
  9
$REGENMODE
 70
     1
  9
$FILLMODE
 70
     1
  9
$QTEXTMODE
 70
     0
  9
$MIRRTEXT
 70
     1
  9
$LTSCALE
 40
1.0
  9
$ATTMODE
 70
     1
  9
$TEXTSIZE
 40
3.5
  9
$TRACEWID
 40
1.0
  9
$TEXTSTYLE
  7
Standard
  9
$CLAYER
  8
0
  9
$CELTYPE
  6
ByLayer
  9
$CECOLOR
 62
   256
  9
$CELTSCALE
 40
1.0
  9
$DISPSILH
 70
     0
  9
$DIMSCALE
 40
1.0
  9
$DIMASZ
 40
3.5
  9
$DIMEXO
 40
0.01
  9
$DIMDLI
 40
3.75
  9
$DIMRND
 40
0.0
  9
$DIMDLE
 40
0.0
  9
$DIMEXE
 40
1.0
  9
$DIMTP
 40
0.0
  9
$DIMTM
 40
0.0
  9
$DIMTXT
 40
3.5
  9
$DIMCEN
 40
2.5
  9
$DIMTSZ
 40
0.0
  9
$DIMTOL
 70
     0
  9
$DIMLIM
 70
     0
  9
$DIMTIH
 70
     1
  9
$DIMTOH
 70
     1
  9
$DIMSE1
 70
     0
  9
$DIMSE2
 70
     0
  9
$DIMTAD
 70
     1
  9
$DIMZIN
 70
     0
  9
$DIMBLK
  1

  9
$DIMASO
 70
     1
  9
$DIMSHO
 70
     1
  9
$DIMPOST
  1

  9
$DIMAPOST
  1

  9
$DIMALT
 70
     0
  9
$DIMALTD
 70
     3
  9
$DIMALTF
 40
0.0393700787401575
  9
$DIMLFAC
 40
1.0
  9
$DIMTOFL
 70
     1
  9
$DIMTVP
 40
0.0
  9
$DIMTIX
 70
     0
  9
$DIMSOXD
 70
     0
  9
$DIMSAH
 70
     0
  9
$DIMBLK1
  1

  9
$DIMBLK2
  1

  9
$DIMSTYLE
  2
ISO-25
  9
$DIMCLRD
 70
     0
  9
$DIMCLRE
 70
     0
  9
$DIMCLRT
 70
     0
  9
$DIMTFAC
 40
1.0
  9
$DIMGAP
 40
3.0
  9
$DIMJUST
 70
     0
  9
$DIMSD1
 70
     0
  9
$DIMSD2
 70
     0
  9
$DIMTOLJ
 70
     0
  9
$DIMTZIN
 70
     0
  9
$DIMALTZ
 70
     0
  9
$DIMALTTZ
 70
     0
  9
$DIMUPT
 70
     0
  9
$DIMDEC
 70
     2
  9
$DIMTDEC
 70
     3
  9
$DIMALTU
 70
     2
  9
$DIMALTTD
 70
     3
  9
$DIMTXSTY
  7
Standard
  9
$DIMAUNIT
 70
     0
  9
$DIMADEC
 70
     2
  9
$DIMALTRND
 40
0.0
  9
$DIMAZIN
 70
     0
  9
$DIMDSEP
 70
    44
  9
$DIMATFIT
 70
     3
  9
$DIMFRAC
 70
     0
  9
$DIMLDRBLK
  1

  9
$DIMLUNIT
 70
     2
  9
$DIMLWD
 70
    -2
  9
$DIMLWE
 70
    -2
  9
$DIMTMOVE
 70
     0
  9
$DIMFXL
 40
1.0
  9
$DIMFXLON
 70
     0
  9
$DIMJOGANG
 40
0.7853981633974483
  9
$DIMTFILL
 70
     0
  9
$DIMTFILLCLR
 70
     0
  9
$DIMARCSYM
 70
     0
  9
$DIMLTYPE
  6

  9
$DIMLTEX1
  6

  9
$DIMLTEX2
  6

  9
$LUNITS
 70
     2
  9
$LUPREC
 70
     2
  9
$SKETCHINC
 40
1.0
  9
$FILLETRAD
 40
10.0
  9
$AUNITS
 70
     0
  9
$AUPREC
 70
     2
  9
$MENU
  1
.
  9
$ELEVATION
 40
0.0
  9
$PELEVATION
 40
0.0
  9
$THICKNESS
 40
0.0
  9
$LIMCHECK
 70
     0
  9
$CHAMFERA
 40
10.0
  9
$CHAMFERB
 40
10.0
  9
$CHAMFERC
 40
20.0
  9
$CHAMFERD
 40
0.0
  9
$SKPOLY
 70
     0
  9
$TDCREATE
 40
2458077.636282882
  9
$TDUCREATE
 40
2458077.552949549
  9
$TDUPDATE
 40
2458077.638396308
  9
$TDUUPDATE
 40
2458077.555062974
  9
$TDINDWG
 40
0.0003322222
  9
$TDUSRTIMER
 40
0.0003322222
  9
$USRTIMER
 70
     1
  9
$ANGBASE
 50
0.0
  9
$ANGDIR
 70
     0
  9
$PDMODE
 70
     0
  9
$PDSIZE
 40
-1.0
  9
$PLINEWID
 40
0.0
  9
$SPLFRAME
 70
     0
  9
$SPLINETYPE
 70
     6
  9
$SPLINESEGS
 70
     8
  9
$HANDSEED
  5
488
  9
$SURFTAB1
 70
     6
  9
$SURFTAB2
 70
     6
  9
$SURFTYPE
 70
     6
  9
$SURFU
 70
     6
  9
$SURFV
 70
     6
  9
$UCSBASE
  2

  9
$UCSNAME
  2

  9
$UCSORG
 10
0.0
 20
0.0
 30
0.0
  9
$UCSXDIR
 10
1.0
 20
0.0
 30
0.0
  9
$UCSYDIR
 10
0.0
 20
1.0
 30
0.0
  9
$UCSORTHOREF
  2

  9
$UCSORTHOVIEW
 70
     0
  9
$UCSORGTOP
 10
0.0
 20
0.0
 30
0.0
  9
$UCSORGBOTTOM
 10
0.0
 20
0.0
 30
0.0
  9
$UCSORGLEFT
 10
0.0
 20
0.0
 30
0.0
  9
$UCSORGRIGHT
 10
0.0
 20
0.0
 30
0.0
  9
$UCSORGFRONT
 10
0.0
 20
0.0
 30
0.0
  9
$UCSORGBACK
 10
0.0
 20
0.0
 30
0.0
  9
$PUCSBASE
  2

  9
$PUCSNAME
  2

  9
$PUCSORG
 10
0.0
 20
0.0
 30
0.0
  9
$PUCSXDIR
 10
1.0
 20
0.0
 30
0.0
  9
$PUCSYDIR
 10
0.0
 20
1.0
 30
0.0
  9
$PUCSORTHOREF
  2

  9
$PUCSORTHOVIEW
 70
     0
  9
$PUCSORGTOP
 10
0.0
 20
0.0
 30
0.0
  9
$PUCSORGBOTTOM
 10
0.0
 20
0.0
 30
0.0
  9
$PUCSORGLEFT
 10
0.0
 20
0.0
 30
0.0
  9
$PUCSORGRIGHT
 10
0.0
 20
0.0
 30
0.0
  9
$PUCSORGFRONT
 10
0.0
 20
0.0
 30
0.0
  9
$PUCSORGBACK
 10
0.0
 20
0.0
 30
0.0
  9
$USERI1
 70
     0
  9
$USERI2
 70
     0
  9
$USERI3
 70
     0
  9
$USERI4
 70
     0
  9
$USERI5
 70
     0
  9
$USERR1
 40
0.0
  9
$USERR2
 40
0.0
  9
$USERR3
 40
0.0
  9
$USERR4
 40
0.0
  9
$USERR5
 40
0.0
  9
$WORLDVIEW
 70
     1
  9
$SHADEDGE
 70
     3
  9
$SHADEDIF
 70
    70
  9
$TILEMODE
 70
     1
  9
$MAXACTVP
 70
    64
  9
$PINSBASE
 10
0.0
 20
0.0
 30
0.0
  9
$PLIMCHECK
 70
     0
  9
$PEXTMIN
 10
1.000000000000000E+20
 20
1.000000000000000E+20
 30
1.000000000000000E+20
  9
$PEXTMAX
 10
-1.000000000000000E+20
 20
-1.000000000000000E+20
 30
-1.000000000000000E+20
  9
$PLIMMIN
 10
0.0
 20
0.0
  9
$PLIMMAX
 10
420.0
 20
297.0
  9
$UNITMODE
 70
     0
  9
$VISRETAIN
 70
     1
  9
$PLINEGEN
 70
     0
  9
$PSLTSCALE
 70
     1
  9
$TREEDEPTH
 70
  3020
  9
$CMLSTYLE
  2
Standard
  9
$CMLJUST
 70
     0
  9
$CMLSCALE
 40
20.0
  9
$PROXYGRAPHICS
 70
     1
  9
$MEASUREMENT
 70
     1
  9
$CELWEIGHT
370
    -1
  9
$ENDCAPS
280
     0
  9
$JOINSTYLE
280
     0
  9
$LWDISPLAY
290
     1
  9
$INSUNITS
 70
     4
  9
$HYPERLINKBASE
  1

  9
$STYLESHEET
  1

  9
$XEDIT
290
     1
  9
$CEPSNTYPE
380
     0
  9
$PSTYLEMODE
290
     1
  9
$FINGERPRINTGUID
  2
{D9D368B3-2D6B-40CE-B23D-402168B0D89F}
  9
$VERSIONGUID
  2
{117CB61E-87FD-4BCE-B270-7B2AB222B81E}
  9
$EXTNAMES
290
     1
  9
$PSVPSCALE
 40
0.0
  9
$OLESTARTUP
290
     0
  9
$SORTENTS
280
   127
  9
$INDEXCTL
280
     0
  9
$HIDETEXT
280
     0
  9
$XCLIPFRAME
290
     0
  9
$HALOGAP
280
     0
  9
$OBSCOLOR
 70
   257
  9
$OBSLTYPE
280
     0
  9
$INTERSECTIONDISPLAY
280
     0
  9
$INTERSECTIONCOLOR
 70
   257
  9
$DIMASSOC
280
     1
  9
$PROJECTNAME
  1

  9
$CAMERADISPLAY
290
     0
  9
$LENSLENGTH
 40
50.0
  9
$CAMERAHEIGHT
 40
0.0
  9
$STEPSPERSEC
 40
2.0
  9
$STEPSIZE
 40
6.0
  9
$3DDWFPREC
 40
2.0
  9
$PSOLWIDTH
 40
0.25
  9
$PSOLHEIGHT
 40
4.0
  9
$LOFTANG1
 40
1.570796326794896
  9
$LOFTANG2
 40
1.570796326794896
  9
$LOFTMAG1
 40
0.0
  9
$LOFTMAG2
 40
0.0
  9
$LOFTPARAM
 70
     7
  9
$LOFTNORMALS
280
     1
  9
$LATITUDE
 40
37.795
  9
$LONGITUDE
 40
-122.394
  9
$NORTHDIRECTION
 40
0.0
  9
$TIMEZONE
 70
 -8000
  9
$LIGHTGLYPHDISPLAY
280
     1
  9
$TILEMODELIGHTSYNCH
280
     1
  9
$CMATERIAL
347
421
  9
$SOLIDHIST
280
     1
  9
$SHOWHIST
280
     1
  9
$DWFFRAME
280
     2
  9
$DGNFRAME
280
     0
  9
$REALWORLDSCALE
290
     1
  9
$INTERFERECOLOR
 62
     1
  9
$INTERFEREOBJVS
345
443
  9
$INTERFEREVPVS
346
440
  9
$CSHADOW
280
     0
  9
$SHADOWPLANELOCATION
 40
0.0
  0
ENDSEC
  0
SECTION
  2
CLASSES
  0
CLASS
  1
ACDBDICTIONARYWDFLT
  2
AcDbDictionaryWithDefault
  3
ObjectDBX Classes
 90
        0
 91
        1
280
     0
281
     0
  0
CLASS
  1
VISUALSTYLE
  2
AcDbVisualStyle
  3
ObjectDBX Classes
 90
     4095
 91
       16
280
     0
281
     0
  0
CLASS
  1
MATERIAL
  2
AcDbMaterial
  3
ObjectDBX Classes
 90
     1153
 91
        3
280
     0
281
     0
  0
CLASS
  1
TABLESTYLE
  2
AcDbTableStyle
  3
ObjectDBX Classes
 90
     4095
 91
        1
280
     0
281
     0
  0
CLASS
  1
SCALE
  2
AcDbScale
  3
ObjectDBX Classes
 90
     1153
 91
       17
280
     0
281
     0
  0
CLASS
  1
MLEADERSTYLE
  2
AcDbMLeaderStyle
  3
ACDB_MLEADERSTYLE_CLASS
 90
     4095
 91
        1
280
     0
281
     0
  0
CLASS
  1
DICTIONARYVAR
  2
AcDbDictionaryVar
  3
ObjectDBX Classes
 90
        0
 91
        7
280
     0
281
     0
  0
CLASS
  1
CELLSTYLEMAP
  2
AcDbCellStyleMap
  3
ObjectDBX Classes
 90
     1152
 91
        1
280
     0
281
     0
  0
ENDSEC
  0
SECTION
  2
TABLES
  0
TABLE
  2
VPORT
  5
8
330
0
100
AcDbSymbolTable
 70
     1
  0
VPORT
  5
29
330
8
100
AcDbSymbolTableRecord
100
AcDbViewportTableRecord
  2
*Active
 70
     0
 10
0.0
 20
0.0
 11
1.0
 21
1.0
 12
103.312686765395
 22
-60.19477508368993
 13
0.0
 23
0.0
 14
10.0
 24
10.0
 15
10.0
 25
10.0
 16
0.0
 26
0.0
 36
1.0
 17
0.0
 27
0.0
 37
0.0
 40
605.4105059570744
 41
2.604123711340206
 42
50.0
 43
0.0
 44
0.0
 50
0.0
 51
0.0
 71
     0
 72
  2000
 73
     1
 74
     3
 75
     0
 76
     0
 77
     0
 78
     0
281
     0
 65
     1
110
0.0
120
0.0
130
0.0
111
1.0
121
0.0
131
0.0
112
0.0
122
1.0
132
0.0
 79
     0
146
0.0
348
43F
 60
     3
 61
     5
292
     1
282
     1
141
0.0
142
0.0
 63
   250
421
  3355443
  0
ENDTAB
  0
TABLE
  2
LTYPE
  5
5
330
0
100
AcDbSymbolTable
 70
     6
  0
LTYPE
  5
14
330
5
100
AcDbSymbolTableRecord
100
AcDbLinetypeTableRecord
  2
ByBlock
 70
     0
  3

 72
    65
 73
     0
 40
0.0
  0
LTYPE
  5
15
330
5
100
AcDbSymbolTableRecord
100
AcDbLinetypeTableRecord
  2
ByLayer
 70
     0
  3

 72
    65
 73
     0
 40
0.0
  0
LTYPE
  5
16
330
5
100
AcDbSymbolTableRecord
100
AcDbLinetypeTableRecord
  2
Continuous
 70
     0
  3
Solid line
 72
    65
 73
     0
 40
0.0
  0
LTYPE
  5
3F
330
5
100
AcDbSymbolTableRecord
100
AcDbLinetypeTableRecord
  2
HIDDEN
 70
     0
  3
Hidden __ __ __ __ __ __ __ __ __ __ __ __ __ __
 72
    65
 73
     2
 40
1.905
 49
1.27
 74
     0
 49
-0.635
 74
     0
  0
LTYPE
  5
40
330
5
100
AcDbSymbolTableRecord
100
AcDbLinetypeTableRecord
  2
PHANTOM
 70
     0
  3
Phantom ______  __  __  ______  __  __  ______
 72
    65
 73
     6
 40
12.7
 49
6.349999999999999
 74
     0
 49
-1.27
 74
     0
 49
1.27
 74
     0
 49
-1.27
 74
     0
 49
1.27
 74
     0
 49
-1.27
 74
     0
  0
LTYPE
  5
41
330
5
100
AcDbSymbolTableRecord
100
AcDbLinetypeTableRecord
  2
CENTER
 70
     0
  3
Center ____ _ ____ _ ____ _ ____ _ ____ _ ____
 72
    65
 73
     4
 40
10.16
 49
6.349999999999999
 74
     0
 49
-1.27
 74
     0
 49
1.27
 74
     0
 49
-1.27
 74
     0
  0
LTYPE
  5
42
330
5
100
AcDbSymbolTableRecord
100
AcDbLinetypeTableRecord
  2
CENTERX2
 70
     0
  3
Center (2x) ________  __  ________  __  _____
 72
    65
 73
     4
 40
20.32
 49
12.7
 74
     0
 49
-2.54
 74
     0
 49
2.54
 74
     0
 49
-2.54
 74
     0
  0
LTYPE
  5
43
330
5
100
AcDbSymbolTableRecord
100
AcDbLinetypeTableRecord
  2
DOT2
 70
     0
  3
Dot (.5x) ........................................
 72
    65
 73
     2
 40
0.635
 49
0.0
 74
     0
 49
-0.635
 74
     0
  0
ENDTAB
  0
TABLE
  2
LAYER
  5
2
330
0
100
AcDbSymbolTable
 70
     2
  0
LAYER
  5
10
102
{ACAD_XDICTIONARY
360
47B
102
}
330
2
100
AcDbSymbolTableRecord
100
AcDbLayerTableRecord
  2
0
 70
     0
 62
     7
  6
Continuous
370
    -3
390
F
347
431
  0
LAYER
  5
465
330
2
100
AcDbSymbolTableRecord
100
AcDbLayerTableRecord
  2
Defpoints
 70
     0
 62
     7
  6
Continuous
290
     0
370
    -3
390
F
347
431
  0
ENDTAB
  0
TABLE
  2
STYLE
  5
3
330
0
100
AcDbSymbolTable
 70
     1
  0
STYLE
  5
11
330
3
100
AcDbSymbolTableRecord
100
AcDbTextStyleTableRecord
  2
Standard
 70
     0
 40
0.0
 41
1.0
 50
0.0
 71
     0
 42
3.5
  3
txt
  4

  0
ENDTAB
  0
TABLE
  2
VIEW
  5
6
330
0
100
AcDbSymbolTable
 70
     0
  0
ENDTAB
  0
TABLE
  2
UCS
  5
7
330
0
100
AcDbSymbolTable
 70
     0
  0
ENDTAB
  0
TABLE
  2
APPID
  5
9
330
0
100
AcDbSymbolTable
 70
     2
  0
APPID
  5
12
330
9
100
AcDbSymbolTableRecord
100
AcDbRegAppTableRecord
  2
ACAD
 70
     0
  0
APPID
  5
461
330
9
100
AcDbSymbolTableRecord
100
AcDbRegAppTableRecord
  2
ACAD_MLEADERVER
 70
     0
  0
ENDTAB
  0
TABLE
  2
DIMSTYLE
  5
A
330
0
100
AcDbSymbolTable
 70
     1
100
AcDbDimStyleTable
 71
     1
340
27
  0
DIMSTYLE
105
27
330
A
100
AcDbSymbolTableRecord
100
AcDbDimStyleTableRecord
  2
ISO-25
 70
     0
 41
2.5
 42
0.625
 43
3.75
 44
1.25
 73
     0
 74
     0
 77
     1
 78
     8
140
2.5
141
2.5
143
0.03937007874016
147
0.625
171
     3
172
     1
271
     2
272
     2
274
     3
278
    44
283
     0
284
     8
340
11
  0
ENDTAB
  0
TABLE
  2
BLOCK_RECORD
  5
1
330
0
100
AcDbSymbolTable
 70
     2
  0
BLOCK_RECORD
  5
1F
330
1
100
AcDbSymbolTableRecord
100
AcDbBlockTableRecord
  2
*Model_Space
340
22
 70
     0
280
     1
281
     0
  0
BLOCK_RECORD
  5
1B
330
1
100
AcDbSymbolTableRecord
100
AcDbBlockTableRecord
  2
*Paper_Space
340
1E
 70
     0
280
     1
281
     0
  0
BLOCK_RECORD
  5
23
330
1
100
AcDbSymbolTableRecord
100
AcDbBlockTableRecord
  2
*Paper_Space0
340
26
 70
     0
280
     1
281
     0
  0
BLOCK_RECORD
  5
466
330
1
100
AcDbSymbolTableRecord
100
AcDbBlockTableRecord
  2
*D1
340
0
 70
     0
280
     1
281
     0
  0
ENDTAB
  0
ENDSEC
  0
SECTION
  2
BLOCKS
  0
BLOCK
  5
20
330
1F
100
AcDbEntity
  8
0
100
AcDbBlockBegin
  2
*Model_Space
 70
     0
 10
0.0
 20
0.0
 30
0.0
  3
*Model_Space
  1

  0
ENDBLK
  5
21
330
1F
100
AcDbEntity
  8
0
100
AcDbBlockEnd
  0
BLOCK
  5
1C
330
1B
100
AcDbEntity
 67
     1
  8
0
100
AcDbBlockBegin
  2
*Paper_Space
 70
     0
 10
0.0
 20
0.0
 30
0.0
  3
*Paper_Space
  1

  0
ENDBLK
  5
1D
330
1B
100
AcDbEntity
 67
     1
  8
0
100
AcDbBlockEnd
  0
BLOCK
  5
24
330
23
100
AcDbEntity
 67
     1
  8
0
100
AcDbBlockBegin
  2
*Paper_Space0
 70
     0
 10
0.0
 20
0.0
 30
0.0
  3
*Paper_Space0
  1

  0
ENDBLK
  5
25
330
23
100
AcDbEntity
 67
     1
  8
0
100
AcDbBlockEnd
  0
BLOCK
  5
467
330
466
100
AcDbEntity
  8
0
100
AcDbBlockBegin
  2
*D1
 70
     1
 10
0.0
 20
0.0
 30
0.0
  3
*D1
  1

  0
LINE
  5
472
330
466
100
AcDbEntity
  8
0
 62
     0
370
    -2
100
AcDbLine
 10
302.9433345237545
 20
35.77740346364765
 30
0.0
 11
302.9433345237545
 21
-28.32067909054103
 31
0.0
  0
LINE
  5
473
330
466
100
AcDbEntity
  8
0
 62
     0
370
    -2
100
AcDbLine
 10
522.9433345237545
 20
35.77740346364765
 30
0.0
 11
522.9433345237545
 21
-28.32067909054103
 31
0.0
  0
LINE
  5
474
330
466
100
AcDbEntity
  8
0
 62
     0
370
    -2
100
AcDbLine
 10
306.4433345237545
 20
-27.32067909054104
 30
0.0
 11
519.4433345237545
 21
-27.32067909054104
 31
0.0
  0
SOLID
  5
475
330
466
100
AcDbEntity
  8
0
 62
     0
100
AcDbTrace
 10
306.4433345237545
 20
-26.7373457572077
 30
0.0
 11
306.4433345237545
 21
-27.90401242387437
 31
0.0
 12
302.9433345237545
 22
-27.32067909054104
 32
0.0
 13
302.9433345237545
 23
-27.32067909054104
 33
0.0
  0
SOLID
  5
476
330
466
100
AcDbEntity
  8
0
 62
     0
100
AcDbTrace
 10
519.4433345237545
 20
-26.7373457572077
 30
0.0
 11
519.4433345237545
 21
-27.90401242387437
 31
0.0
 12
522.9433345237545
 22
-27.32067909054104
 32
0.0
 13
522.9433345237545
 23
-27.32067909054104
 33
0.0
  0
MTEXT
  5
477
330
466
100
AcDbEntity
  8
0
 62
     0
100
AcDbMText
 10
412.9433345237544
 20
-22.27901242387437
 30
0.0
 40
3.5
 41
0.0
 46
0.0
 71
     5
 72
     1
  1
220,00
 73
     1
 44
1.0
  0
POINT
  5
478
330
466
100
AcDbEntity
  8
Defpoints
 62
     0
100
AcDbPoint
 10
302.9433345237545
 20
35.78740346364765
 30
0.0
  0
POINT
  5
479
330
466
100
AcDbEntity
  8
Defpoints
 62
     0
100
AcDbPoint
 10
522.9433345237545
 20
35.78740346364765
 30
0.0
  0
POINT
  5
47A
330
466
100
AcDbEntity
  8
Defpoints
 62
     0
100
AcDbPoint
 10
522.9433345237545
 20
-27.32067909054104
 30
0.0
  0
ENDBLK
  5
468
330
466
100
AcDbEntity
  8
0
100
AcDbBlockEnd
  0
ENDSEC
  0
SECTION
  2
ENTITIES
  0
CIRCLE
  5
44
330
1F
100
AcDbEntity
  8
0
  6
Continuous
 62
     7
370
    15
100
AcDbCircle
 10
356.9762237574965
 20
143.8409509428604
 30
0.0
 40
3.274130566829171
  0
CIRCLE
  5
45
330
1F
100
AcDbEntity
  8
0
  6
Continuous
 62
     7
370
    15
100
AcDbCircle
 10
470.3267235384279
 20
143.8409509428604
 30
0.0
 40
3.274130566829171
  0
LINE
  5
46
330
1F
100
AcDbEntity
  8
0
  6
Continuous
 62
     7
370
    15
100
AcDbLine
 10
476.1602243564294
 20
143.8409509428604
 30
0.0
 11
428.1753865908297
 21
192.2526682179505
 31
0.0
  0
LINE
  5
47
330
1F
100
AcDbEntity
  8
0
  6
Continuous
 62
     7
370
    15
100
AcDbLine
 10
444.5078775677327
 20
163.2880568030327
 30
0.0
 11
470.3267235384279
 21
137.2395229388946
 31
0.0
  0
LINE
  5
48
330
1F
100
AcDbEntity
  8
0
  6
Continuous
 62
     7
370
    15
100
AcDbLine
 10
382.7950697281924
 20
163.2880568030327
 30
0.0
 11
444.5078775677327
 21
163.2880568030327
 31
0.0
  0
LINE
  5
49
330
1F
100
AcDbEntity
  8
0
  6
Continuous
 62
     7
370
    15
100
AcDbLine
 10
356.9762237574965
 20
137.2395229388946
 30
0.0
 11
382.7950697281924
 21
163.2880568030327
 31
0.0
  0
LINE
  5
4A
330
1F
100
AcDbEntity
  8
0
  6
Continuous
 62
     7
370
    15
100
AcDbLine
 10
351.1427229394952
 20
143.8409509428604
 30
0.0
 11
356.9762237574965
 21
137.2395229388946
 31
0.0
  0
LINE
  5
4B
330
1F
100
AcDbEntity
  8
0
  6
Continuous
 62
     7
370
    15
100
AcDbLine
 10
398.1753865908297
 20
191.2920234359121
 30
0.0
 11
351.1427229394952
 21
143.8409509428604
 31
0.0
  0
LINE
  5
4C
330
1F
100
AcDbEntity
  8
0
  6
Continuous
 62
     7
370
    15
100
AcDbLine
 10
470.3267235384279
 20
137.2395229388946
 30
0.0
 11
476.1602243564294
 21
143.8409509428604
 31
0.0
  0
LINE
  5
4D
330
1F
100
AcDbEntity
  8
0
  6
Continuous
 62
     7
370
    15
100
AcDbLine
 10
398.1753865908297
 20
180.4076252033917
 30
0.0
 11
428.1753865908297
 21
180.4076252033917
 31
0.0
  0
LINE
  5
4E
330
1F
100
AcDbEntity
  8
0
  6
Continuous
 62
     7
370
    15
100
AcDbLine
 10
398.1753865908297
 20
180.4076252033917
 30
0.0
 11
398.1753865908297
 21
238.8076252033916
 31
0.0
  0
LINE
  5
4F
330
1F
100
AcDbEntity
  8
0
  6
Continuous
 62
     7
370
    15
100
AcDbLine
 10
398.1753865908297
 20
238.8076252033916
 30
0.0
 11
428.1753865908297
 21
238.8076252033916
 31
0.0
  0
LINE
  5
50
330
1F
100
AcDbEntity
  8
0
  6
Continuous
 62
     7
370
    15
100
AcDbLine
 10
428.1753865908297
 20
180.4076252033917
 30
0.0
 11
428.1753865908297
 21
238.8076252033916
 31
0.0
  0
CIRCLE
  5
51
330
1F
100
AcDbEntity
  8
0
  6
Continuous
 62
     7
370
    15
100
AcDbCircle
 10
413.6514736479625
 20
193.5473203311102
 30
0.0
 40
3.0
  0
LINE
  5
52
330
1F
100
AcDbEntity
  8
0
  6
Continuous
 62
     7
370
    15
100
AcDbLine
 10
493.8065772841077
 20
27.80762520339073
 30
0.0
 11
522.9433345237546
 21
35.78740346364768
 31
0.0
  0
LINE
  5
53
330
1F
100
AcDbEntity
  8
0
  6
Continuous
 62
     7
370
    15
100
AcDbLine
 10
442.0800917634014
 20
27.80762520339073
 30
0.0
 11
412.9433345237546
 21
35.78740346364765
 31
0.0
  0
LINE
  5
54
330
1F
100
AcDbEntity
  8
0
  6
Continuous
 62
     7
370
    15
100
AcDbLine
 10
442.0800917634014
 20
27.80762520339073
 30
0.0
 11
493.8065772841077
 21
27.80762520339073
 31
0.0
  0
LINE
  5
55
330
1F
100
AcDbEntity
  8
0
  6
Continuous
 62
     7
370
    15
100
AcDbLine
 10
522.9433345237546
 20
35.78740346364768
 30
0.0
 11
522.9433345237546
 21
82.17086796374545
 31
0.0
  0
LINE
  5
56
330
1F
100
AcDbEntity
  8
0
  6
Continuous
 62
     7
370
    15
100
AcDbLine
 10
412.9433345237546
 20
82.17086796374545
 30
0.0
 11
412.9433345237546
 21
35.78740346364765
 31
0.0
  0
ARC
  5
57
330
1F
100
AcDbEntity
  8
0
  6
Continuous
 62
     7
370
    15
100
AcDbCircle
 10
454.0014722536845
 20
-64.52605485610321
 30
0.0
 40
152.3343619760904
100
AcDbArc
 50
90.17143697045394
 51
105.6360890115447
  0
LINE
  5
58
330
1F
100
AcDbEntity
  8
0
  6
Continuous
 62
     7
370
    15
100
AcDbLine
 10
482.3410017896978
 20
87.80762520339076
 30
0.0
 11
453.5456672578114
 21
87.80762520339076
 31
0.0
  0
ARC
  5
59
330
1F
100
AcDbEntity
  8
0
  6
Continuous
 62
     7
370
    15
100
AcDbCircle
 10
481.8851967938248
 20
-64.52605485610321
 30
0.0
 40
152.3343619760904
100
AcDbArc
 50
74.36391098845523
 51
89.82856302954768
  0
ARC
  5
5A
330
1F
100
AcDbEntity
  8
0
  6
Continuous
 62
     7
370
    15
100
AcDbCircle
 10
484.6993430100731
 20
28.80762520339073
 30
0.0
 40
3.000000000000021
100
AcDbArc
 50
270.0
 51
340.5287793655105
  0
LINE
  5
5B
330
1F
100
AcDbEntity
  8
0
  6
Continuous
 62
     7
370
    15
100
AcDbLine
 10
484.6993430100731
 20
25.80762520339073
 30
0.0
 11
475.3561972595655
 21
25.80762520339073
 31
0.0
  0
ARC
  5
5C
330
1F
100
AcDbEntity
  8
0
  6
Continuous
 62
     7
370
    15
100
AcDbCircle
 10
475.3561972595655
 20
28.80762520339073
 30
0.0
 40
3.000000000000128
100
AcDbArc
 50
199.4712206344908
 51
270.0
  0
LINE
  5
5D
330
1F
100
AcDbEntity
  8
0
  6
Continuous
 62
     7
370
    15
100
AcDbLine
 10
459.4121785040595
 20
25.80762520339073
 30
0.0
 11
450.0690327535519
 21
25.80762520339073
 31
0.0
  0
ARC
  5
5E
330
1F
100
AcDbEntity
  8
0
  6
Continuous
 62
     7
370
    15
100
AcDbCircle
 10
450.0690327535519
 20
28.80762520339073
 30
0.0
 40
3.000000000000021
100
AcDbArc
 50
199.4712206344914
 51
270.0
  0
ARC
  5
5F
330
1F
100
AcDbEntity
  8
0
  6
Continuous
 62
     7
370
    15
100
AcDbCircle
 10
459.4121785040595
 20
28.80762520339073
 30
0.0
 40
3.000000000000128
100
AcDbArc
 50
270.0
 51
340.5287793655111
  0
LINE
  5
60
330
1F
100
AcDbEntity
  8
0
  6
Continuous
 62
     7
370
    15
100
AcDbLine
 10
453.5456672578114
 20
147.8076252033907
 30
0.0
 11
453.5456672578114
 21
87.80762520339076
 31
0.0
  0
LINE
  5
61
330
1F
100
AcDbEntity
  8
0
  6
Continuous
 62
     7
370
    15
100
AcDbLine
 10
453.5456672578114
 20
147.8076252033907
 30
0.0
 11
459.8518075223203
 21
147.8076252033907
 31
0.0
  0
LINE
  5
62
330
1F
100
AcDbEntity
  8
0
  6
Continuous
 62
     7
370
    15
100
AcDbLine
 10
472.2285269993833
 20
147.8076252033907
 30
0.0
 11
482.3410017896978
 21
147.8076252033907
 31
0.0
  0
LINE
  5
63
330
1F
100
AcDbEntity
  8
0
  6
Continuous
 62
     7
370
    15
100
AcDbLine
 10
482.3410017896978
 20
147.8076252033907
 30
0.0
 11
482.3410017896978
 21
87.80762520339076
 31
0.0
  0
LINE
  5
64
330
1F
100
AcDbEntity
  8
0
  6
Continuous
 62
     7
370
    15
100
AcDbLine
 10
302.9433345237545
 20
82.17086796374545
 30
0.0
 11
302.9433345237545
 21
35.78740346364765
 31
0.0
  0
LINE
  5
65
330
1F
100
AcDbEntity
  8
0
  6
Continuous
 62
     7
370
    15
100
AcDbLine
 10
332.0800917634015
 20
27.80762520339073
 30
0.0
 11
302.9433345237545
 21
35.78740346364765
 31
0.0
  0
LINE
  5
66
330
1F
100
AcDbEntity
  8
0
  6
Continuous
 62
     7
370
    15
100
AcDbLine
 10
383.8065772841077
 20
27.80762520339073
 30
0.0
 11
412.9433345237546
 21
35.78740346364768
 31
0.0
  0
LINE
  5
67
330
1F
100
AcDbEntity
  8
0
  6
Continuous
 62
     7
370
    15
100
AcDbLine
 10
332.0800917634015
 20
27.80762520339073
 30
0.0
 11
383.8065772841077
 21
27.80762520339073
 31
0.0
  0
ARC
  5
68
330
1F
100
AcDbEntity
  8
0
  6
Continuous
 62
     7
370
    15
100
AcDbCircle
 10
344.0014722536845
 20
-64.52605485610321
 30
0.0
 40
152.3343619760904
100
AcDbArc
 50
90.17143697045394
 51
105.6360890115447
  0
LINE
  5
69
330
1F
100
AcDbEntity
  8
0
  6
Continuous
 62
     7
370
    15
100
AcDbLine
 10
372.3410017896978
 20
87.80762520339076
 30
0.0
 11
343.5456672578113
 21
87.80762520339076
 31
0.0
  0
ARC
  5
6A
330
1F
100
AcDbEntity
  8
0
  6
Continuous
 62
     7
370
    15
100
AcDbCircle
 10
371.8851967938247
 20
-64.52605485610321
 30
0.0
 40
152.3343619760904
100
AcDbArc
 50
74.36391098845523
 51
89.82856302954768
  0
LINE
  5
6B
330
1F
100
AcDbEntity
  8
0
  6
Continuous
 62
     7
370
    15
100
AcDbLine
 10
374.6993430100731
 20
25.80762520339073
 30
0.0
 11
365.3561972595654
 21
25.80762520339073
 31
0.0
  0
ARC
  5
6C
330
1F
100
AcDbEntity
  8
0
  6
Continuous
 62
     7
370
    15
100
AcDbCircle
 10
365.3561972595654
 20
28.80762520339073
 30
0.0
 40
3.000000000000021
100
AcDbArc
 50
199.4712206344914
 51
270.0
  0
ARC
  5
6D
330
1F
100
AcDbEntity
  8
0
  6
Continuous
 62
     7
370
    15
100
AcDbCircle
 10
374.6993430100731
 20
28.80762520339073
 30
0.0
 40
3.0
100
AcDbArc
 50
270.0
 51
340.5287793655094
  0
LINE
  5
6E
330
1F
100
AcDbEntity
  8
0
  6
Continuous
 62
     7
370
    15
100
AcDbLine
 10
349.4121785040595
 20
25.80762520339073
 30
0.0
 11
340.069032753552
 21
25.80762520339073
 31
0.0
  0
ARC
  5
6F
330
1F
100
AcDbEntity
  8
0
  6
Continuous
 62
     7
370
    15
100
AcDbCircle
 10
349.4121785040595
 20
28.80762520339073
 30
0.0
 40
3.000000000000021
100
AcDbArc
 50
270.0
 51
340.5287793655105
  0
ARC
  5
70
330
1F
100
AcDbEntity
  8
0
  6
Continuous
 62
     7
370
    15
100
AcDbCircle
 10
340.069032753552
 20
28.80762520339073
 30
0.0
 40
3.000000000000021
100
AcDbArc
 50
199.4712206344914
 51
270.0
  0
LINE
  5
71
330
1F
100
AcDbEntity
  8
0
  6
Continuous
 62
     7
370
    15
100
AcDbLine
 10
343.5456672578113
 20
147.8076252033907
 30
0.0
 11
343.5456672578113
 21
87.80762520339076
 31
0.0
  0
LINE
  5
72
330
1F
100
AcDbEntity
  8
0
  6
Continuous
 62
     7
370
    15
100
AcDbLine
 10
343.5456672578113
 20
147.8076252033907
 30
0.0
 11
355.0744202965412
 21
147.8076252033907
 31
0.0
  0
LINE
  5
73
330
1F
100
AcDbEntity
  8
0
  6
Continuous
 62
     7
370
    15
100
AcDbLine
 10
367.4511397736043
 20
147.8076252033907
 30
0.0
 11
372.3410017896978
 21
147.8076252033907
 31
0.0
  0
LINE
  5
74
330
1F
100
AcDbEntity
  8
0
  6
Continuous
 62
     7
370
    15
100
AcDbLine
 10
372.3410017896978
 20
147.8076252033907
 30
0.0
 11
372.3410017896978
 21
87.80762520339076
 31
0.0
  0
LINE
  5
75
330
1F
100
AcDbEntity
  8
0
  6
Continuous
 62
     7
370
    15
100
AcDbLine
 10
-215.1298087528838
 20
143.8409509428595
 30
0.0
 11
-217.1298087528839
 21
143.8409509428595
 31
0.0
  0
LINE
  5
76
330
1F
100
AcDbEntity
  8
0
  6
Continuous
 62
     7
370
    15
100
AcDbLine
 10
-215.1298087528838
 20
137.2395229388937
 30
0.0
 11
-217.1298087528839
 21
137.2395229388937
 31
0.0
  0
LINE
  5
77
330
1F
100
AcDbEntity
  8
0
  6
Continuous
 62
     7
370
    15
100
AcDbLine
 10
-217.1298087528839
 20
137.2395229388937
 30
0.0
 11
-217.1298087528839
 21
143.8409509428595
 31
0.0
  0
LINE
  5
78
330
1F
100
AcDbEntity
  8
0
  6
Continuous
 62
     7
370
    15
100
AcDbLine
 10
-215.1298087528838
 20
199.4623754000807
 30
0.0
 11
-217.1298087528839
 21
199.4623754000807
 31
0.0
  0
LINE
  5
79
330
1F
100
AcDbEntity
  8
0
  6
Continuous
 62
     7
370
    15
100
AcDbLine
 10
-215.1298087528839
 20
147.8076252033907
 30
0.0
 11
-215.1298087528838
 21
199.4623754000807
 31
0.0
  0
LINE
  5
7A
330
1F
100
AcDbEntity
  8
0
  6
Continuous
 62
     7
370
    15
100
AcDbLine
 10
-217.1298087528839
 20
143.8409509428595
 30
0.0
 11
-217.1298087528838
 21
191.292023435911
 31
0.0
  0
LINE
  5
7B
330
1F
100
AcDbEntity
  8
0
  6
Continuous
 62
     7
370
    15
100
AcDbLine
 10
-83.12980875288303
 20
198.4623754000807
 30
0.0
 11
-83.12980875288303
 21
199.4623754000807
 31
0.0
  0
LINE
  5
7C
330
1F
100
AcDbEntity
  8
0
  6
Continuous
 62
     7
370
    15
100
AcDbLine
 10
-215.1298087528838
 20
199.4623754000807
 30
0.0
 11
-83.12980875288303
 21
199.4623754000807
 31
0.0
  0
LINE
  5
7D
330
1F
100
AcDbEntity
  8
0
  6
Continuous
 62
     7
370
    15
100
AcDbLine
 10
-215.1298087528838
 20
198.4623754000807
 30
0.0
 11
-83.12980875288303
 21
198.4623754000807
 31
0.0
  0
LINE
  5
7E
330
1F
100
AcDbEntity
  8
0
  6
Continuous
 62
     7
370
    15
100
AcDbLine
 10
48.87019124711628
 20
143.8409509428604
 30
0.0
 11
50.87019124711628
 21
143.8409509428604
 31
0.0
  0
LINE
  5
7F
330
1F
100
AcDbEntity
  8
0
  6
Continuous
 62
     7
370
    15
100
AcDbLine
 10
48.87019124711628
 20
199.4623754000816
 30
0.0
 11
50.87019124711628
 21
199.4623754000816
 31
0.0
  0
LINE
  5
80
330
1F
100
AcDbEntity
  8
0
  6
Continuous
 62
     7
370
    15
100
AcDbLine
 10
50.87019124711628
 20
191.292023435912
 30
0.0
 11
50.87019124711628
 21
143.8409509428604
 31
0.0
  0
LINE
  5
81
330
1F
100
AcDbEntity
  8
0
  6
Continuous
 62
     7
370
    15
100
AcDbLine
 10
48.87019124711628
 20
199.4623754000816
 30
0.0
 11
48.87019124711628
 21
147.8076252033907
 31
0.0
  0
LINE
  5
82
330
1F
100
AcDbEntity
  8
0
  6
Continuous
 62
     7
370
    15
100
AcDbLine
 10
48.87019124711628
 20
137.2395229388946
 30
0.0
 11
50.87019124711628
 21
137.2395229388946
 31
0.0
  0
LINE
  5
83
330
1F
100
AcDbEntity
  8
0
  6
Continuous
 62
     7
370
    15
100
AcDbLine
 10
50.87019124711628
 20
143.8409509428604
 30
0.0
 11
50.87019124711628
 21
137.2395229388946
 31
0.0
  0
LINE
  5
84
330
1F
100
AcDbEntity
  8
0
  6
Continuous
 62
     7
370
    15
100
AcDbLine
 10
48.87019124711628
 20
198.4623754000816
 30
0.0
 11
-83.12980875288463
 21
198.4623754000816
 31
0.0
  0
LINE
  5
85
330
1F
100
AcDbEntity
  8
0
  6
Continuous
 62
     7
370
    15
100
AcDbLine
 10
48.87019124711628
 20
199.4623754000816
 30
0.0
 11
-83.12980875288463
 21
199.4623754000816
 31
0.0
  0
LINE
  5
86
330
1F
100
AcDbEntity
  8
0
  6
Continuous
 62
     7
370
    15
100
AcDbLine
 10
52.87019124711616
 20
238.8076252033916
 30
0.0
 11
-219.1298087528838
 21
238.8076252033907
 31
0.0
  0
LINE
  5
87
330
1F
100
AcDbEntity
  8
0
  6
Continuous
 62
     7
370
    15
100
AcDbLine
 10
52.8701912471164
 20
180.4076252033917
 30
0.0
 11
52.87019124711616
 21
238.8076252033916
 31
0.0
  0
LINE
  5
88
330
1F
100
AcDbEntity
  8
0
  6
Continuous
 62
     7
370
    15
100
AcDbLine
 10
50.87019124711639
 20
180.4076252033917
 30
0.0
 11
52.8701912471164
 21
180.4076252033917
 31
0.0
  0
LINE
  5
89
330
1F
100
AcDbEntity
  8
0
  6
Continuous
 62
     7
370
    15
100
AcDbLine
 10
50.87019124711616
 20
236.8076252033916
 30
0.0
 11
50.87019124711628
 21
191.292023435912
 31
0.0
  0
LINE
  5
8A
330
1F
100
AcDbEntity
  8
0
  6
Continuous
 62
     7
370
    15
100
AcDbLine
 10
-217.1298087528838
 20
236.8076252033907
 30
0.0
 11
50.87019124711616
 21
236.8076252033916
 31
0.0
  0
LINE
  5
8B
330
1F
100
AcDbEntity
  8
0
  6
Continuous
 62
     7
370
    15
100
AcDbLine
 10
-217.1298087528838
 20
191.292023435911
 30
0.0
 11
-217.1298087528838
 21
236.8076252033907
 31
0.0
  0
LINE
  5
8C
330
1F
100
AcDbEntity
  8
0
  6
Continuous
 62
     7
370
    15
100
AcDbLine
 10
-219.1298087528838
 20
238.8076252033907
 30
0.0
 11
-219.1298087528838
 21
180.4076252033907
 31
0.0
  0
LINE
  5
8D
330
1F
100
AcDbEntity
  8
0
  6
Continuous
 62
     7
370
    15
100
AcDbLine
 10
-219.1298087528838
 20
180.4076252033907
 30
0.0
 11
-217.1298087528838
 21
180.4076252033907
 31
0.0
  0
LINE
  5
8E
330
1F
100
AcDbEntity
  8
0
  6
Continuous
 62
     7
370
    15
100
AcDbLine
 10
125.5186826718303
 20
83.37752949943396
 30
0.0
 11
135.5186826718302
 21
83.37752949943396
 31
0.0
  0
LINE
  5
8F
330
1F
100
AcDbEntity
  8
0
  6
Continuous
 62
     7
370
    15
100
AcDbLine
 10
135.5186826718302
 20
83.37752949943396
 30
0.0
 11
135.5186826718302
 21
86.91500485597826
 31
0.0
  0
LINE
  5
90
330
1F
100
AcDbEntity
  8
0
  6
Continuous
 62
     7
370
    15
100
AcDbLine
 10
135.5186826718302
 20
86.91500485597826
 30
0.0
 11
125.5186826718303
 21
86.91500485597826
 31
0.0
  0
LINE
  5
91
330
1F
100
AcDbEntity
  8
0
  6
Continuous
 62
     7
370
    15
100
AcDbLine
 10
125.5186826718303
 20
86.91500485597826
 30
0.0
 11
125.5186826718303
 21
83.37752949943396
 31
0.0
  0
LINE
  5
92
330
1F
100
AcDbEntity
  8
0
  6
Continuous
 62
     7
370
    15
100
AcDbLine
 10
95.51868267183023
 20
83.37752949943402
 30
0.0
 11
105.5186826718302
 21
83.37752949943402
 31
0.0
  0
LINE
  5
93
330
1F
100
AcDbEntity
  8
0
  6
Continuous
 62
     7
370
    15
100
AcDbLine
 10
105.5186826718302
 20
83.37752949943402
 30
0.0
 11
105.5186826718302
 21
86.91500485597831
 31
0.0
  0
LINE
  5
94
330
1F
100
AcDbEntity
  8
0
  6
Continuous
 62
     7
370
    15
100
AcDbLine
 10
105.5186826718302
 20
86.91500485597831
 30
0.0
 11
95.51868267183023
 21
86.91500485597831
 31
0.0
  0
LINE
  5
95
330
1F
100
AcDbEntity
  8
0
  6
Continuous
 62
     7
370
    15
100
AcDbLine
 10
95.51868267183023
 20
86.91500485597831
 30
0.0
 11
95.51868267183023
 21
83.37752949943402
 31
0.0
  0
LINE
  5
96
330
1F
100
AcDbEntity
  8
0
  6
Continuous
 62
     7
370
    15
100
AcDbLine
 10
65.51868267183022
 20
83.37752949943407
 30
0.0
 11
75.51868267183022
 21
83.37752949943407
 31
0.0
  0
LINE
  5
97
330
1F
100
AcDbEntity
  8
0
  6
Continuous
 62
     7
370
    15
100
AcDbLine
 10
75.51868267183022
 20
83.37752949943407
 30
0.0
 11
75.51868267183022
 21
86.91500485597831
 31
0.0
  0
LINE
  5
98
330
1F
100
AcDbEntity
  8
0
  6
Continuous
 62
     7
370
    15
100
AcDbLine
 10
75.51868267183022
 20
86.91500485597831
 30
0.0
 11
65.51868267183022
 21
86.91500485597831
 31
0.0
  0
LINE
  5
99
330
1F
100
AcDbEntity
  8
0
  6
Continuous
 62
     7
370
    15
100
AcDbLine
 10
65.51868267183022
 20
86.91500485597831
 30
0.0
 11
65.51868267183022
 21
83.37752949943407
 31
0.0
  0
LINE
  5
9A
330
1F
100
AcDbEntity
  8
0
  6
Continuous
 62
     7
370
    15
100
AcDbLine
 10
35.51868267183028
 20
83.37752949943416
 30
0.0
 11
45.51868267183027
 21
83.37752949943416
 31
0.0
  0
LINE
  5
9B
330
1F
100
AcDbEntity
  8
0
  6
Continuous
 62
     7
370
    15
100
AcDbLine
 10
45.51868267183027
 20
83.37752949943416
 30
0.0
 11
45.51868267183027
 21
86.91500485597837
 31
0.0
  0
LINE
  5
9C
330
1F
100
AcDbEntity
  8
0
  6
Continuous
 62
     7
370
    15
100
AcDbLine
 10
45.51868267183027
 20
86.91500485597837
 30
0.0
 11
35.51868267183028
 21
86.91500485597837
 31
0.0
  0
LINE
  5
9D
330
1F
100
AcDbEntity
  8
0
  6
Continuous
 62
     7
370
    15
100
AcDbLine
 10
35.51868267183028
 20
86.91500485597837
 30
0.0
 11
35.51868267183028
 21
83.37752949943416
 31
0.0
  0
LINE
  5
9E
330
1F
100
AcDbEntity
  8
0
  6
Continuous
 62
     7
370
    15
100
AcDbLine
 10
5.518682671830276
 20
83.37752949943421
 30
0.0
 11
15.51868267183027
 21
83.37752949943421
 31
0.0
  0
LINE
  5
9F
330
1F
100
AcDbEntity
  8
0
  6
Continuous
 62
     7
370
    15
100
AcDbLine
 10
15.51868267183027
 20
83.37752949943421
 30
0.0
 11
15.51868267183027
 21
86.91500485597842
 31
0.0
  0
LINE
  5
A0
330
1F
100
AcDbEntity
  8
0
  6
Continuous
 62
     7
370
    15
100
AcDbLine
 10
15.51868267183027
 20
86.91500485597842
 30
0.0
 11
5.518682671830276
 21
86.91500485597842
 31
0.0
  0
LINE
  5
A1
330
1F
100
AcDbEntity
  8
0
  6
Continuous
 62
     7
370
    15
100
AcDbLine
 10
5.518682671830276
 20
86.91500485597842
 30
0.0
 11
5.518682671830276
 21
83.37752949943421
 31
0.0
  0
LINE
  5
A2
330
1F
100
AcDbEntity
  8
0
  6
Continuous
 62
     7
370
    15
100
AcDbLine
 10
-24.48131732816978
 20
83.37752949943427
 30
0.0
 11
-14.48131732816978
 21
83.37752949943427
 31
0.0
  0
LINE
  5
A3
330
1F
100
AcDbEntity
  8
0
  6
Continuous
 62
     7
370
    15
100
AcDbLine
 10
-14.48131732816978
 20
83.37752949943427
 30
0.0
 11
-14.48131732816978
 21
86.91500485597842
 31
0.0
  0
LINE
  5
A4
330
1F
100
AcDbEntity
  8
0
  6
Continuous
 62
     7
370
    15
100
AcDbLine
 10
-14.48131732816978
 20
86.91500485597842
 30
0.0
 11
-24.48131732816978
 21
86.91500485597842
 31
0.0
  0
LINE
  5
A5
330
1F
100
AcDbEntity
  8
0
  6
Continuous
 62
     7
370
    15
100
AcDbLine
 10
-24.48131732816978
 20
86.91500485597842
 30
0.0
 11
-24.48131732816978
 21
83.37752949943427
 31
0.0
  0
LINE
  5
A6
330
1F
100
AcDbEntity
  8
0
  6
Continuous
 62
     7
370
    15
100
AcDbLine
 10
-54.48131732816978
 20
83.37752949943439
 30
0.0
 11
-44.48131732816977
 21
83.37752949943439
 31
0.0
  0
LINE
  5
A7
330
1F
100
AcDbEntity
  8
0
  6
Continuous
 62
     7
370
    15
100
AcDbLine
 10
-44.48131732816977
 20
83.37752949943439
 30
0.0
 11
-44.48131732816977
 21
86.91500485597842
 31
0.0
  0
LINE
  5
A8
330
1F
100
AcDbEntity
  8
0
  6
Continuous
 62
     7
370
    15
100
AcDbLine
 10
-44.48131732816977
 20
86.91500485597842
 30
0.0
 11
-54.48131732816978
 21
86.91500485597842
 31
0.0
  0
LINE
  5
A9
330
1F
100
AcDbEntity
  8
0
  6
Continuous
 62
     7
370
    15
100
AcDbLine
 10
-54.48131732816978
 20
86.91500485597842
 30
0.0
 11
-54.48131732816978
 21
83.37752949943439
 31
0.0
  0
LINE
  5
AA
330
1F
100
AcDbEntity
  8
0
  6
Continuous
 62
     7
370
    15
100
AcDbLine
 10
-84.48131732816978
 20
83.3775294994345
 30
0.0
 11
-74.48131732816984
 21
83.3775294994345
 31
0.0
  0
LINE
  5
AB
330
1F
100
AcDbEntity
  8
0
  6
Continuous
 62
     7
370
    15
100
AcDbLine
 10
-74.48131732816984
 20
83.3775294994345
 30
0.0
 11
-74.48131732816984
 21
86.91500485597854
 31
0.0
  0
LINE
  5
AC
330
1F
100
AcDbEntity
  8
0
  6
Continuous
 62
     7
370
    15
100
AcDbLine
 10
-74.48131732816984
 20
86.91500485597854
 30
0.0
 11
-84.48131732816978
 21
86.91500485597854
 31
0.0
  0
LINE
  5
AD
330
1F
100
AcDbEntity
  8
0
  6
Continuous
 62
     7
370
    15
100
AcDbLine
 10
-84.48131732816978
 20
86.91500485597854
 30
0.0
 11
-84.48131732816978
 21
83.3775294994345
 31
0.0
  0
LINE
  5
AE
330
1F
100
AcDbEntity
  8
0
  6
Continuous
 62
     7
370
    15
100
AcDbLine
 10
-114.4813173281697
 20
83.3775294994345
 30
0.0
 11
-104.4813173281697
 21
83.3775294994345
 31
0.0
  0
LINE
  5
AF
330
1F
100
AcDbEntity
  8
0
  6
Continuous
 62
     7
370
    15
100
AcDbLine
 10
-104.4813173281697
 20
83.3775294994345
 30
0.0
 11
-104.4813173281698
 21
86.91500485597854
 31
0.0
  0
LINE
  5
B0
330
1F
100
AcDbEntity
  8
0
  6
Continuous
 62
     7
370
    15
100
AcDbLine
 10
-104.4813173281698
 20
86.91500485597854
 30
0.0
 11
-114.4813173281697
 21
86.91500485597854
 31
0.0
  0
LINE
  5
B1
330
1F
100
AcDbEntity
  8
0
  6
Continuous
 62
     7
370
    15
100
AcDbLine
 10
-114.4813173281697
 20
86.91500485597854
 30
0.0
 11
-114.4813173281697
 21
83.3775294994345
 31
0.0
  0
LINE
  5
B2
330
1F
100
AcDbEntity
  8
0
  6
Continuous
 62
     7
370
    15
100
AcDbLine
 10
-144.4813173281698
 20
83.37752949943462
 30
0.0
 11
-134.4813173281698
 21
83.37752949943462
 31
0.0
  0
LINE
  5
B3
330
1F
100
AcDbEntity
  8
0
  6
Continuous
 62
     7
370
    15
100
AcDbLine
 10
-134.4813173281698
 20
83.37752949943462
 30
0.0
 11
-134.4813173281698
 21
86.91500485597854
 31
0.0
  0
LINE
  5
B4
330
1F
100
AcDbEntity
  8
0
  6
Continuous
 62
     7
370
    15
100
AcDbLine
 10
-134.4813173281698
 20
86.91500485597854
 30
0.0
 11
-144.4813173281698
 21
86.91500485597854
 31
0.0
  0
LINE
  5
B5
330
1F
100
AcDbEntity
  8
0
  6
Continuous
 62
     7
370
    15
100
AcDbLine
 10
-144.4813173281698
 20
86.91500485597854
 30
0.0
 11
-144.4813173281698
 21
83.37752949943462
 31
0.0
  0
LINE
  5
B6
330
1F
100
AcDbEntity
  8
0
  6
Continuous
 62
     7
370
    15
100
AcDbLine
 10
-174.4813173281697
 20
83.37752949943473
 30
0.0
 11
-164.4813173281697
 21
83.37752949943473
 31
0.0
  0
LINE
  5
B7
330
1F
100
AcDbEntity
  8
0
  6
Continuous
 62
     7
370
    15
100
AcDbLine
 10
-164.4813173281697
 20
83.37752949943473
 30
0.0
 11
-164.4813173281697
 21
86.9150048559786
 31
0.0
  0
LINE
  5
B8
330
1F
100
AcDbEntity
  8
0
  6
Continuous
 62
     7
370
    15
100
AcDbLine
 10
-164.4813173281697
 20
86.9150048559786
 30
0.0
 11
-174.4813173281697
 21
86.9150048559786
 31
0.0
  0
LINE
  5
B9
330
1F
100
AcDbEntity
  8
0
  6
Continuous
 62
     7
370
    15
100
AcDbLine
 10
-174.4813173281697
 20
86.9150048559786
 30
0.0
 11
-174.4813173281697
 21
83.37752949943473
 31
0.0
  0
LINE
  5
BA
330
1F
100
AcDbEntity
  8
0
  6
Continuous
 62
     7
370
    15
100
AcDbLine
 10
-204.4813173281697
 20
83.37752949943478
 30
0.0
 11
-194.4813173281697
 21
83.37752949943478
 31
0.0
  0
LINE
  5
BB
330
1F
100
AcDbEntity
  8
0
  6
Continuous
 62
     7
370
    15
100
AcDbLine
 10
-194.4813173281697
 20
83.37752949943478
 30
0.0
 11
-194.4813173281698
 21
86.91500485597865
 31
0.0
  0
LINE
  5
BC
330
1F
100
AcDbEntity
  8
0
  6
Continuous
 62
     7
370
    15
100
AcDbLine
 10
-194.4813173281698
 20
86.91500485597865
 30
0.0
 11
-204.4813173281697
 21
86.91500485597865
 31
0.0
  0
LINE
  5
BD
330
1F
100
AcDbEntity
  8
0
  6
Continuous
 62
     7
370
    15
100
AcDbLine
 10
-204.4813173281697
 20
86.91500485597865
 30
0.0
 11
-204.4813173281697
 21
83.37752949943478
 31
0.0
  0
LINE
  5
BE
330
1F
100
AcDbEntity
  8
0
  6
Continuous
 62
     7
370
    15
100
AcDbLine
 10
-234.4813173281698
 20
83.37752949943483
 30
0.0
 11
-224.4813173281698
 21
83.37752949943483
 31
0.0
  0
LINE
  5
BF
330
1F
100
AcDbEntity
  8
0
  6
Continuous
 62
     7
370
    15
100
AcDbLine
 10
-224.4813173281698
 20
83.37752949943483
 30
0.0
 11
-224.4813173281698
 21
86.91500485597865
 31
0.0
  0
LINE
  5
C0
330
1F
100
AcDbEntity
  8
0
  6
Continuous
 62
     7
370
    15
100
AcDbLine
 10
-224.4813173281698
 20
86.91500485597865
 30
0.0
 11
-234.4813173281698
 21
86.91500485597865
 31
0.0
  0
LINE
  5
C1
330
1F
100
AcDbEntity
  8
0
  6
Continuous
 62
     7
370
    15
100
AcDbLine
 10
-234.4813173281698
 20
86.91500485597865
 30
0.0
 11
-234.4813173281698
 21
83.37752949943483
 31
0.0
  0
LINE
  5
C2
330
1F
100
AcDbEntity
  8
0
  6
Continuous
 62
     7
370
    15
100
AcDbLine
 10
-264.4813173281698
 20
83.37752949943496
 30
0.0
 11
-254.4813173281698
 21
83.37752949943496
 31
0.0
  0
LINE
  5
C3
330
1F
100
AcDbEntity
  8
0
  6
Continuous
 62
     7
370
    15
100
AcDbLine
 10
-254.4813173281698
 20
83.37752949943496
 30
0.0
 11
-254.4813173281698
 21
86.9150048559787
 31
0.0
  0
LINE
  5
C4
330
1F
100
AcDbEntity
  8
0
  6
Continuous
 62
     7
370
    15
100
AcDbLine
 10
-254.4813173281698
 20
86.9150048559787
 30
0.0
 11
-264.4813173281698
 21
86.9150048559787
 31
0.0
  0
LINE
  5
C5
330
1F
100
AcDbEntity
  8
0
  6
Continuous
 62
     7
370
    15
100
AcDbLine
 10
-264.4813173281698
 20
86.9150048559787
 30
0.0
 11
-264.4813173281698
 21
83.37752949943496
 31
0.0
  0
LINE
  5
C6
330
1F
100
AcDbEntity
  8
0
  6
Continuous
 62
     7
370
    15
100
AcDbLine
 10
-294.4813173281698
 20
83.37752949943501
 30
0.0
 11
-284.4813173281697
 21
83.37752949943501
 31
0.0
  0
LINE
  5
C7
330
1F
100
AcDbEntity
  8
0
  6
Continuous
 62
     7
370
    15
100
AcDbLine
 10
-284.4813173281697
 20
83.37752949943501
 30
0.0
 11
-284.4813173281697
 21
86.91500485597876
 31
0.0
  0
LINE
  5
C8
330
1F
100
AcDbEntity
  8
0
  6
Continuous
 62
     7
370
    15
100
AcDbLine
 10
-284.4813173281697
 20
86.91500485597876
 30
0.0
 11
-294.4813173281698
 21
86.91500485597876
 31
0.0
  0
LINE
  5
C9
330
1F
100
AcDbEntity
  8
0
  6
Continuous
 62
     7
370
    15
100
AcDbLine
 10
-294.4813173281698
 20
86.91500485597876
 30
0.0
 11
-294.4813173281698
 21
83.37752949943501
 31
0.0
  0
LINE
  5
CA
330
1F
100
AcDbEntity
  8
0
  6
Continuous
 62
     7
370
    15
100
AcDbLine
 10
-316.322667818797
 20
82.17086796374545
 30
0.0
 11
146.677332181203
 21
82.17086796374545
 31
0.0
  0
LINE
  5
CB
330
1F
100
AcDbEntity
  8
0
  6
Continuous
 62
     7
370
    15
100
AcDbLine
 10
-316.322667818797
 20
82.17086796374545
 30
0.0
 11
-316.322667818797
 21
87.80762520339076
 31
0.0
  0
LINE
  5
CC
330
1F
100
AcDbEntity
  8
0
  6
Continuous
 62
     7
370
    15
100
AcDbLine
 10
-316.322667818797
 20
87.80762520339076
 30
0.0
 11
-215.1298087528838
 21
87.80762520339076
 31
0.0
  0
LINE
  5
CD
330
1F
100
AcDbEntity
  8
0
  6
Continuous
 62
     7
370
    15
100
AcDbLine
 10
-215.1298087528838
 20
87.80762520339076
 30
0.0
 11
48.87019124711617
 21
87.80762520339076
 31
0.0
  0
LINE
  5
CE
330
1F
100
AcDbEntity
  8
0
  6
Continuous
 62
     7
370
    15
100
AcDbLine
 10
48.87019124711617
 20
87.80762520339076
 30
0.0
 11
146.677332181203
 21
87.80762520339076
 31
0.0
  0
LINE
  5
CF
330
1F
100
AcDbEntity
  8
0
  6
Continuous
 62
     7
370
    15
100
AcDbLine
 10
146.677332181203
 20
82.17086796374545
 30
0.0
 11
146.677332181203
 21
87.80762520339076
 31
0.0
  0
LINE
  5
D0
330
1F
100
AcDbEntity
  8
0
  6
Continuous
 62
     7
370
    15
100
AcDbLine
 10
-309.4813173281698
 20
83.37752949943507
 30
0.0
 11
-299.4813173281698
 21
83.37752949943507
 31
0.0
  0
LINE
  5
D1
330
1F
100
AcDbEntity
  8
0
  6
Continuous
 62
     7
370
    15
100
AcDbLine
 10
-299.4813173281698
 20
83.37752949943507
 30
0.0
 11
-299.4813173281698
 21
86.91500485597876
 31
0.0
  0
LINE
  5
D2
330
1F
100
AcDbEntity
  8
0
  6
Continuous
 62
     7
370
    15
100
AcDbLine
 10
-299.4813173281698
 20
86.91500485597876
 30
0.0
 11
-309.4813173281698
 21
86.91500485597876
 31
0.0
  0
LINE
  5
D3
330
1F
100
AcDbEntity
  8
0
  6
Continuous
 62
     7
370
    15
100
AcDbLine
 10
-309.4813173281698
 20
86.91500485597876
 30
0.0
 11
-309.4813173281698
 21
83.37752949943507
 31
0.0
  0
LINE
  5
D4
330
1F
100
AcDbEntity
  8
0
  6
Continuous
 62
     7
370
    15
100
AcDbLine
 10
-279.4813173281697
 20
83.37752949943496
 30
0.0
 11
-269.4813173281697
 21
83.37752949943496
 31
0.0
  0
LINE
  5
D5
330
1F
100
AcDbEntity
  8
0
  6
Continuous
 62
     7
370
    15
100
AcDbLine
 10
-269.4813173281697
 20
83.37752949943496
 30
0.0
 11
-269.4813173281697
 21
86.91500485597876
 31
0.0
  0
LINE
  5
D6
330
1F
100
AcDbEntity
  8
0
  6
Continuous
 62
     7
370
    15
100
AcDbLine
 10
-269.4813173281697
 20
86.91500485597876
 30
0.0
 11
-279.4813173281697
 21
86.91500485597876
 31
0.0
  0
LINE
  5
D7
330
1F
100
AcDbEntity
  8
0
  6
Continuous
 62
     7
370
    15
100
AcDbLine
 10
-279.4813173281697
 20
86.91500485597876
 30
0.0
 11
-279.4813173281697
 21
83.37752949943496
 31
0.0
  0
LINE
  5
D8
330
1F
100
AcDbEntity
  8
0
  6
Continuous
 62
     7
370
    15
100
AcDbLine
 10
-249.4813173281698
 20
83.37752949943491
 30
0.0
 11
-239.4813173281698
 21
83.37752949943491
 31
0.0
  0
LINE
  5
D9
330
1F
100
AcDbEntity
  8
0
  6
Continuous
 62
     7
370
    15
100
AcDbLine
 10
-239.4813173281698
 20
83.37752949943491
 30
0.0
 11
-239.4813173281698
 21
86.9150048559787
 31
0.0
  0
LINE
  5
DA
330
1F
100
AcDbEntity
  8
0
  6
Continuous
 62
     7
370
    15
100
AcDbLine
 10
-239.4813173281698
 20
86.9150048559787
 30
0.0
 11
-249.4813173281698
 21
86.9150048559787
 31
0.0
  0
LINE
  5
DB
330
1F
100
AcDbEntity
  8
0
  6
Continuous
 62
     7
370
    15
100
AcDbLine
 10
-249.4813173281698
 20
86.9150048559787
 30
0.0
 11
-249.4813173281698
 21
83.37752949943491
 31
0.0
  0
LINE
  5
DC
330
1F
100
AcDbEntity
  8
0
  6
Continuous
 62
     7
370
    15
100
AcDbLine
 10
-219.4813173281698
 20
83.37752949943483
 30
0.0
 11
-209.4813173281697
 21
83.37752949943483
 31
0.0
  0
LINE
  5
DD
330
1F
100
AcDbEntity
  8
0
  6
Continuous
 62
     7
370
    15
100
AcDbLine
 10
-209.4813173281697
 20
83.37752949943483
 30
0.0
 11
-209.4813173281698
 21
86.91500485597865
 31
0.0
  0
LINE
  5
DE
330
1F
100
AcDbEntity
  8
0
  6
Continuous
 62
     7
370
    15
100
AcDbLine
 10
-209.4813173281698
 20
86.91500485597865
 30
0.0
 11
-219.4813173281698
 21
86.91500485597865
 31
0.0
  0
LINE
  5
DF
330
1F
100
AcDbEntity
  8
0
  6
Continuous
 62
     7
370
    15
100
AcDbLine
 10
-219.4813173281698
 20
86.91500485597865
 30
0.0
 11
-219.4813173281698
 21
83.37752949943483
 31
0.0
  0
LINE
  5
E0
330
1F
100
AcDbEntity
  8
0
  6
Continuous
 62
     7
370
    15
100
AcDbLine
 10
-189.4813173281697
 20
83.37752949943473
 30
0.0
 11
-179.4813173281697
 21
83.37752949943473
 31
0.0
  0
LINE
  5
E1
330
1F
100
AcDbEntity
  8
0
  6
Continuous
 62
     7
370
    15
100
AcDbLine
 10
-179.4813173281697
 20
83.37752949943473
 30
0.0
 11
-179.4813173281697
 21
86.91500485597865
 31
0.0
  0
LINE
  5
E2
330
1F
100
AcDbEntity
  8
0
  6
Continuous
 62
     7
370
    15
100
AcDbLine
 10
-179.4813173281697
 20
86.91500485597865
 30
0.0
 11
-189.4813173281697
 21
86.91500485597865
 31
0.0
  0
LINE
  5
E3
330
1F
100
AcDbEntity
  8
0
  6
Continuous
 62
     7
370
    15
100
AcDbLine
 10
-189.4813173281697
 20
86.91500485597865
 30
0.0
 11
-189.4813173281697
 21
83.37752949943473
 31
0.0
  0
LINE
  5
E4
330
1F
100
AcDbEntity
  8
0
  6
Continuous
 62
     7
370
    15
100
AcDbLine
 10
-159.4813173281697
 20
83.37752949943462
 30
0.0
 11
-149.4813173281697
 21
83.37752949943462
 31
0.0
  0
LINE
  5
E5
330
1F
100
AcDbEntity
  8
0
  6
Continuous
 62
     7
370
    15
100
AcDbLine
 10
-149.4813173281697
 20
83.37752949943462
 30
0.0
 11
-149.4813173281697
 21
86.9150048559786
 31
0.0
  0
LINE
  5
E6
330
1F
100
AcDbEntity
  8
0
  6
Continuous
 62
     7
370
    15
100
AcDbLine
 10
-149.4813173281697
 20
86.9150048559786
 30
0.0
 11
-159.4813173281697
 21
86.9150048559786
 31
0.0
  0
LINE
  5
E7
330
1F
100
AcDbEntity
  8
0
  6
Continuous
 62
     7
370
    15
100
AcDbLine
 10
-159.4813173281697
 20
86.9150048559786
 30
0.0
 11
-159.4813173281697
 21
83.37752949943462
 31
0.0
  0
LINE
  5
E8
330
1F
100
AcDbEntity
  8
0
  6
Continuous
 62
     7
370
    15
100
AcDbLine
 10
-129.4813173281698
 20
83.37752949943455
 30
0.0
 11
-119.4813173281698
 21
83.37752949943455
 31
0.0
  0
LINE
  5
E9
330
1F
100
AcDbEntity
  8
0
  6
Continuous
 62
     7
370
    15
100
AcDbLine
 10
-119.4813173281698
 20
83.37752949943455
 30
0.0
 11
-119.4813173281698
 21
86.91500485597854
 31
0.0
  0
LINE
  5
EA
330
1F
100
AcDbEntity
  8
0
  6
Continuous
 62
     7
370
    15
100
AcDbLine
 10
-119.4813173281698
 20
86.91500485597854
 30
0.0
 11
-129.4813173281698
 21
86.91500485597854
 31
0.0
  0
LINE
  5
EB
330
1F
100
AcDbEntity
  8
0
  6
Continuous
 62
     7
370
    15
100
AcDbLine
 10
-129.4813173281698
 20
86.91500485597854
 30
0.0
 11
-129.4813173281698
 21
83.37752949943455
 31
0.0
  0
LINE
  5
EC
330
1F
100
AcDbEntity
  8
0
  6
Continuous
 62
     7
370
    15
100
AcDbLine
 10
-99.48131732816975
 20
83.3775294994345
 30
0.0
 11
-89.48131732816973
 21
83.3775294994345
 31
0.0
  0
LINE
  5
ED
330
1F
100
AcDbEntity
  8
0
  6
Continuous
 62
     7
370
    15
100
AcDbLine
 10
-89.48131732816973
 20
83.3775294994345
 30
0.0
 11
-89.48131732816973
 21
86.91500485597854
 31
0.0
  0
LINE
  5
EE
330
1F
100
AcDbEntity
  8
0
  6
Continuous
 62
     7
370
    15
100
AcDbLine
 10
-89.48131732816973
 20
86.91500485597854
 30
0.0
 11
-99.48131732816975
 21
86.91500485597854
 31
0.0
  0
LINE
  5
EF
330
1F
100
AcDbEntity
  8
0
  6
Continuous
 62
     7
370
    15
100
AcDbLine
 10
-99.48131732816975
 20
86.91500485597854
 30
0.0
 11
-99.48131732816975
 21
83.3775294994345
 31
0.0
  0
LINE
  5
F0
330
1F
100
AcDbEntity
  8
0
  6
Continuous
 62
     7
370
    15
100
AcDbLine
 10
-69.48131732816978
 20
83.37752949943439
 30
0.0
 11
-59.48131732816978
 21
83.37752949943439
 31
0.0
  0
LINE
  5
F1
330
1F
100
AcDbEntity
  8
0
  6
Continuous
 62
     7
370
    15
100
AcDbLine
 10
-59.48131732816978
 20
83.37752949943439
 30
0.0
 11
-59.48131732816978
 21
86.91500485597847
 31
0.0
  0
LINE
  5
F2
330
1F
100
AcDbEntity
  8
0
  6
Continuous
 62
     7
370
    15
100
AcDbLine
 10
-59.48131732816978
 20
86.91500485597847
 30
0.0
 11
-69.48131732816978
 21
86.91500485597847
 31
0.0
  0
LINE
  5
F3
330
1F
100
AcDbEntity
  8
0
  6
Continuous
 62
     7
370
    15
100
AcDbLine
 10
-69.48131732816978
 20
86.91500485597847
 30
0.0
 11
-69.48131732816978
 21
83.37752949943439
 31
0.0
  0
LINE
  5
F4
330
1F
100
AcDbEntity
  8
0
  6
Continuous
 62
     7
370
    15
100
AcDbLine
 10
-39.48131732816978
 20
83.37752949943434
 30
0.0
 11
-29.48131732816978
 21
83.37752949943434
 31
0.0
  0
LINE
  5
F5
330
1F
100
AcDbEntity
  8
0
  6
Continuous
 62
     7
370
    15
100
AcDbLine
 10
-29.48131732816978
 20
83.37752949943434
 30
0.0
 11
-29.48131732816978
 21
86.91500485597842
 31
0.0
  0
LINE
  5
F6
330
1F
100
AcDbEntity
  8
0
  6
Continuous
 62
     7
370
    15
100
AcDbLine
 10
-29.48131732816978
 20
86.91500485597842
 30
0.0
 11
-39.48131732816978
 21
86.91500485597842
 31
0.0
  0
LINE
  5
F7
330
1F
100
AcDbEntity
  8
0
  6
Continuous
 62
     7
370
    15
100
AcDbLine
 10
-39.48131732816978
 20
86.91500485597842
 30
0.0
 11
-39.48131732816978
 21
83.37752949943434
 31
0.0
  0
LINE
  5
F8
330
1F
100
AcDbEntity
  8
0
  6
Continuous
 62
     7
370
    15
100
AcDbLine
 10
-9.48131732816978
 20
83.37752949943427
 30
0.0
 11
0.5186826718302769
 21
83.37752949943427
 31
0.0
  0
LINE
  5
F9
330
1F
100
AcDbEntity
  8
0
  6
Continuous
 62
     7
370
    15
100
AcDbLine
 10
0.5186826718302769
 20
83.37752949943427
 30
0.0
 11
0.5186826718302769
 21
86.91500485597842
 31
0.0
  0
LINE
  5
FA
330
1F
100
AcDbEntity
  8
0
  6
Continuous
 62
     7
370
    15
100
AcDbLine
 10
0.5186826718302769
 20
86.91500485597842
 30
0.0
 11
-9.48131732816978
 21
86.91500485597842
 31
0.0
  0
LINE
  5
FB
330
1F
100
AcDbEntity
  8
0
  6
Continuous
 62
     7
370
    15
100
AcDbLine
 10
-9.48131732816978
 20
86.91500485597842
 30
0.0
 11
-9.48131732816978
 21
83.37752949943427
 31
0.0
  0
LINE
  5
FC
330
1F
100
AcDbEntity
  8
0
  6
Continuous
 62
     7
370
    15
100
AcDbLine
 10
20.51868267183028
 20
83.37752949943416
 30
0.0
 11
30.51868267183028
 21
83.37752949943416
 31
0.0
  0
LINE
  5
FD
330
1F
100
AcDbEntity
  8
0
  6
Continuous
 62
     7
370
    15
100
AcDbLine
 10
30.51868267183028
 20
83.37752949943416
 30
0.0
 11
30.51868267183028
 21
86.91500485597842
 31
0.0
  0
LINE
  5
FE
330
1F
100
AcDbEntity
  8
0
  6
Continuous
 62
     7
370
    15
100
AcDbLine
 10
30.51868267183028
 20
86.91500485597842
 30
0.0
 11
20.51868267183028
 21
86.91500485597842
 31
0.0
  0
LINE
  5
FF
330
1F
100
AcDbEntity
  8
0
  6
Continuous
 62
     7
370
    15
100
AcDbLine
 10
20.51868267183028
 20
86.91500485597842
 30
0.0
 11
20.51868267183028
 21
83.37752949943416
 31
0.0
  0
LINE
  5
100
330
1F
100
AcDbEntity
  8
0
  6
Continuous
 62
     7
370
    15
100
AcDbLine
 10
50.51868267183028
 20
83.37752949943411
 30
0.0
 11
60.51868267183022
 21
83.37752949943411
 31
0.0
  0
LINE
  5
101
330
1F
100
AcDbEntity
  8
0
  6
Continuous
 62
     7
370
    15
100
AcDbLine
 10
60.51868267183022
 20
83.37752949943411
 30
0.0
 11
60.51868267183033
 21
86.91500485597831
 31
0.0
  0
LINE
  5
102
330
1F
100
AcDbEntity
  8
0
  6
Continuous
 62
     7
370
    15
100
AcDbLine
 10
60.51868267183033
 20
86.91500485597831
 30
0.0
 11
50.51868267183028
 21
86.91500485597831
 31
0.0
  0
LINE
  5
103
330
1F
100
AcDbEntity
  8
0
  6
Continuous
 62
     7
370
    15
100
AcDbLine
 10
50.51868267183028
 20
86.91500485597831
 30
0.0
 11
50.51868267183028
 21
83.37752949943411
 31
0.0
  0
LINE
  5
104
330
1F
100
AcDbEntity
  8
0
  6
Continuous
 62
     7
370
    15
100
AcDbLine
 10
80.51868267183023
 20
83.37752949943407
 30
0.0
 11
90.51868267183023
 21
83.37752949943407
 31
0.0
  0
LINE
  5
105
330
1F
100
AcDbEntity
  8
0
  6
Continuous
 62
     7
370
    15
100
AcDbLine
 10
90.51868267183023
 20
83.37752949943407
 30
0.0
 11
90.51868267183023
 21
86.91500485597831
 31
0.0
  0
LINE
  5
106
330
1F
100
AcDbEntity
  8
0
  6
Continuous
 62
     7
370
    15
100
AcDbLine
 10
90.51868267183023
 20
86.91500485597831
 30
0.0
 11
80.51868267183023
 21
86.91500485597831
 31
0.0
  0
LINE
  5
107
330
1F
100
AcDbEntity
  8
0
  6
Continuous
 62
     7
370
    15
100
AcDbLine
 10
80.51868267183023
 20
86.91500485597831
 30
0.0
 11
80.51868267183023
 21
83.37752949943407
 31
0.0
  0
LINE
  5
108
330
1F
100
AcDbEntity
  8
0
  6
Continuous
 62
     7
370
    15
100
AcDbLine
 10
110.5186826718302
 20
83.37752949943396
 30
0.0
 11
120.5186826718303
 21
83.37752949943396
 31
0.0
  0
LINE
  5
109
330
1F
100
AcDbEntity
  8
0
  6
Continuous
 62
     7
370
    15
100
AcDbLine
 10
120.5186826718303
 20
83.37752949943396
 30
0.0
 11
120.5186826718303
 21
86.91500485597831
 31
0.0
  0
LINE
  5
10A
330
1F
100
AcDbEntity
  8
0
  6
Continuous
 62
     7
370
    15
100
AcDbLine
 10
120.5186826718303
 20
86.91500485597831
 30
0.0
 11
110.5186826718302
 21
86.91500485597831
 31
0.0
  0
LINE
  5
10B
330
1F
100
AcDbEntity
  8
0
  6
Continuous
 62
     7
370
    15
100
AcDbLine
 10
110.5186826718302
 20
86.91500485597831
 30
0.0
 11
110.5186826718302
 21
83.37752949943396
 31
0.0
  0
LINE
  5
10C
330
1F
100
AcDbEntity
  8
0
  6
Continuous
 62
     7
370
    15
100
AcDbLine
 10
135.5186826718302
 20
34.53168636545793
 30
0.0
 11
125.5186826718303
 21
34.53168636545793
 31
0.0
  0
LINE
  5
10D
330
1F
100
AcDbEntity
  8
0
  6
Continuous
 62
     7
370
    15
100
AcDbLine
 10
125.5186826718303
 20
34.53168636545793
 30
0.0
 11
125.5186826718303
 21
29.05422146116261
 31
0.0
  0
LINE
  5
10E
330
1F
100
AcDbEntity
  8
0
  6
Continuous
 62
     7
370
    15
100
AcDbLine
 10
125.5186826718303
 20
29.05422146116261
 30
0.0
 11
135.5186826718302
 21
29.05422146116261
 31
0.0
  0
LINE
  5
10F
330
1F
100
AcDbEntity
  8
0
  6
Continuous
 62
     7
370
    15
100
AcDbLine
 10
135.5186826718302
 20
29.05422146116261
 30
0.0
 11
135.5186826718302
 21
34.53168636545793
 31
0.0
  0
LINE
  5
110
330
1F
100
AcDbEntity
  8
0
  6
Continuous
 62
     7
370
    15
100
AcDbLine
 10
105.5186826718302
 20
34.53168636545785
 30
0.0
 11
95.51868267183023
 21
34.53168636545785
 31
0.0
  0
LINE
  5
111
330
1F
100
AcDbEntity
  8
0
  6
Continuous
 62
     7
370
    15
100
AcDbLine
 10
95.51868267183023
 20
34.53168636545785
 30
0.0
 11
95.51868267183023
 21
29.05422146116253
 31
0.0
  0
LINE
  5
112
330
1F
100
AcDbEntity
  8
0
  6
Continuous
 62
     7
370
    15
100
AcDbLine
 10
95.51868267183023
 20
29.05422146116253
 30
0.0
 11
105.5186826718302
 21
29.05422146116253
 31
0.0
  0
LINE
  5
113
330
1F
100
AcDbEntity
  8
0
  6
Continuous
 62
     7
370
    15
100
AcDbLine
 10
105.5186826718302
 20
29.05422146116253
 30
0.0
 11
105.5186826718302
 21
34.53168636545785
 31
0.0
  0
LINE
  5
114
330
1F
100
AcDbEntity
  8
0
  6
Continuous
 62
     7
370
    15
100
AcDbLine
 10
75.51868267183022
 20
34.53168636545773
 30
0.0
 11
65.51868267183022
 21
34.53168636545773
 31
0.0
  0
LINE
  5
115
330
1F
100
AcDbEntity
  8
0
  6
Continuous
 62
     7
370
    15
100
AcDbLine
 10
65.51868267183022
 20
34.53168636545773
 30
0.0
 11
65.51868267183022
 21
29.05422146116244
 31
0.0
  0
LINE
  5
116
330
1F
100
AcDbEntity
  8
0
  6
Continuous
 62
     7
370
    15
100
AcDbLine
 10
65.51868267183022
 20
29.05422146116244
 30
0.0
 11
75.51868267183022
 21
29.05422146116244
 31
0.0
  0
LINE
  5
117
330
1F
100
AcDbEntity
  8
0
  6
Continuous
 62
     7
370
    15
100
AcDbLine
 10
75.51868267183022
 20
29.05422146116244
 30
0.0
 11
75.51868267183022
 21
34.53168636545773
 31
0.0
  0
LINE
  5
118
330
1F
100
AcDbEntity
  8
0
  6
Continuous
 62
     7
370
    15
100
AcDbLine
 10
45.51868267183016
 20
34.53168636545767
 30
0.0
 11
35.51868267183016
 21
34.53168636545767
 31
0.0
  0
LINE
  5
119
330
1F
100
AcDbEntity
  8
0
  6
Continuous
 62
     7
370
    15
100
AcDbLine
 10
35.51868267183016
 20
34.53168636545767
 30
0.0
 11
35.51868267183016
 21
29.05422146116236
 31
0.0
  0
LINE
  5
11A
330
1F
100
AcDbEntity
  8
0
  6
Continuous
 62
     7
370
    15
100
AcDbLine
 10
35.51868267183016
 20
29.05422146116236
 30
0.0
 11
45.51868267183016
 21
29.05422146116236
 31
0.0
  0
LINE
  5
11B
330
1F
100
AcDbEntity
  8
0
  6
Continuous
 62
     7
370
    15
100
AcDbLine
 10
45.51868267183016
 20
29.05422146116236
 30
0.0
 11
45.51868267183016
 21
34.53168636545767
 31
0.0
  0
LINE
  5
11C
330
1F
100
AcDbEntity
  8
0
  6
Continuous
 62
     7
370
    15
100
AcDbLine
 10
15.51868267183027
 20
34.53168636545756
 30
0.0
 11
5.518682671830276
 21
34.53168636545756
 31
0.0
  0
LINE
  5
11D
330
1F
100
AcDbEntity
  8
0
  6
Continuous
 62
     7
370
    15
100
AcDbLine
 10
5.518682671830276
 20
34.53168636545756
 30
0.0
 11
5.518682671830276
 21
29.05422146116227
 31
0.0
  0
LINE
  5
11E
330
1F
100
AcDbEntity
  8
0
  6
Continuous
 62
     7
370
    15
100
AcDbLine
 10
5.518682671830276
 20
29.05422146116227
 30
0.0
 11
15.51868267183027
 21
29.05422146116227
 31
0.0
  0
LINE
  5
11F
330
1F
100
AcDbEntity
  8
0
  6
Continuous
 62
     7
370
    15
100
AcDbLine
 10
15.51868267183027
 20
29.05422146116227
 30
0.0
 11
15.51868267183027
 21
34.53168636545756
 31
0.0
  0
LINE
  5
120
330
1F
100
AcDbEntity
  8
0
  6
Continuous
 62
     7
370
    15
100
AcDbLine
 10
-14.48131732816978
 20
34.53168636545751
 30
0.0
 11
-24.48131732816978
 21
34.53168636545751
 31
0.0
  0
LINE
  5
121
330
1F
100
AcDbEntity
  8
0
  6
Continuous
 62
     7
370
    15
100
AcDbLine
 10
-24.48131732816978
 20
34.53168636545751
 30
0.0
 11
-24.48131732816978
 21
29.05422146116219
 31
0.0
  0
LINE
  5
122
330
1F
100
AcDbEntity
  8
0
  6
Continuous
 62
     7
370
    15
100
AcDbLine
 10
-24.48131732816978
 20
29.05422146116219
 30
0.0
 11
-14.48131732816978
 21
29.05422146116219
 31
0.0
  0
LINE
  5
123
330
1F
100
AcDbEntity
  8
0
  6
Continuous
 62
     7
370
    15
100
AcDbLine
 10
-14.48131732816978
 20
29.05422146116219
 30
0.0
 11
-14.48131732816978
 21
34.53168636545751
 31
0.0
  0
LINE
  5
124
330
1F
100
AcDbEntity
  8
0
  6
Continuous
 62
     7
370
    15
100
AcDbLine
 10
-44.48131732816977
 20
34.5316863654574
 30
0.0
 11
-54.48131732816978
 21
34.5316863654574
 31
0.0
  0
LINE
  5
125
330
1F
100
AcDbEntity
  8
0
  6
Continuous
 62
     7
370
    15
100
AcDbLine
 10
-54.48131732816978
 20
34.5316863654574
 30
0.0
 11
-54.48131732816978
 21
29.0542214611621
 31
0.0
  0
LINE
  5
126
330
1F
100
AcDbEntity
  8
0
  6
Continuous
 62
     7
370
    15
100
AcDbLine
 10
-54.48131732816978
 20
29.0542214611621
 30
0.0
 11
-44.48131732816977
 21
29.0542214611621
 31
0.0
  0
LINE
  5
127
330
1F
100
AcDbEntity
  8
0
  6
Continuous
 62
     7
370
    15
100
AcDbLine
 10
-44.48131732816977
 20
29.0542214611621
 30
0.0
 11
-44.48131732816977
 21
34.5316863654574
 31
0.0
  0
LINE
  5
128
330
1F
100
AcDbEntity
  8
0
  6
Continuous
 62
     7
370
    15
100
AcDbLine
 10
-74.48131732816984
 20
34.53168636545735
 30
0.0
 11
-84.48131732816978
 21
34.53168636545735
 31
0.0
  0
LINE
  5
129
330
1F
100
AcDbEntity
  8
0
  6
Continuous
 62
     7
370
    15
100
AcDbLine
 10
-84.48131732816978
 20
34.53168636545735
 30
0.0
 11
-84.48131732816978
 21
29.054221461162
 31
0.0
  0
LINE
  5
12A
330
1F
100
AcDbEntity
  8
0
  6
Continuous
 62
     7
370
    15
100
AcDbLine
 10
-84.48131732816978
 20
29.054221461162
 30
0.0
 11
-74.48131732816984
 21
29.054221461162
 31
0.0
  0
LINE
  5
12B
330
1F
100
AcDbEntity
  8
0
  6
Continuous
 62
     7
370
    15
100
AcDbLine
 10
-74.48131732816984
 20
29.054221461162
 30
0.0
 11
-74.48131732816984
 21
34.53168636545735
 31
0.0
  0
LINE
  5
12C
330
1F
100
AcDbEntity
  8
0
  6
Continuous
 62
     7
370
    15
100
AcDbLine
 10
-104.4813173281697
 20
34.53168636545723
 30
0.0
 11
-114.4813173281697
 21
34.53168636545723
 31
0.0
  0
LINE
  5
12D
330
1F
100
AcDbEntity
  8
0
  6
Continuous
 62
     7
370
    15
100
AcDbLine
 10
-114.4813173281697
 20
34.53168636545723
 30
0.0
 11
-114.4813173281697
 21
29.05422146116192
 31
0.0
  0
LINE
  5
12E
330
1F
100
AcDbEntity
  8
0
  6
Continuous
 62
     7
370
    15
100
AcDbLine
 10
-114.4813173281697
 20
29.05422146116192
 30
0.0
 11
-104.4813173281697
 21
29.05422146116194
 31
0.0
  0
LINE
  5
12F
330
1F
100
AcDbEntity
  8
0
  6
Continuous
 62
     7
370
    15
100
AcDbLine
 10
-104.4813173281697
 20
29.05422146116194
 30
0.0
 11
-104.4813173281697
 21
34.53168636545723
 31
0.0
  0
LINE
  5
130
330
1F
100
AcDbEntity
  8
0
  6
Continuous
 62
     7
370
    15
100
AcDbLine
 10
-134.4813173281698
 20
34.53168636545715
 30
0.0
 11
-144.4813173281698
 21
34.53168636545715
 31
0.0
  0
LINE
  5
131
330
1F
100
AcDbEntity
  8
0
  6
Continuous
 62
     7
370
    15
100
AcDbLine
 10
-144.4813173281698
 20
34.53168636545715
 30
0.0
 11
-144.4813173281698
 21
29.05422146116183
 31
0.0
  0
LINE
  5
132
330
1F
100
AcDbEntity
  8
0
  6
Continuous
 62
     7
370
    15
100
AcDbLine
 10
-144.4813173281698
 20
29.05422146116183
 30
0.0
 11
-134.4813173281698
 21
29.05422146116183
 31
0.0
  0
LINE
  5
133
330
1F
100
AcDbEntity
  8
0
  6
Continuous
 62
     7
370
    15
100
AcDbLine
 10
-134.4813173281698
 20
29.05422146116183
 30
0.0
 11
-134.4813173281698
 21
34.53168636545715
 31
0.0
  0
LINE
  5
134
330
1F
100
AcDbEntity
  8
0
  6
Continuous
 62
     7
370
    15
100
AcDbLine
 10
-164.4813173281697
 20
34.53168636545707
 30
0.0
 11
-174.4813173281697
 21
34.53168636545707
 31
0.0
  0
LINE
  5
135
330
1F
100
AcDbEntity
  8
0
  6
Continuous
 62
     7
370
    15
100
AcDbLine
 10
-174.4813173281697
 20
34.53168636545707
 30
0.0
 11
-174.4813173281697
 21
29.05422146116178
 31
0.0
  0
LINE
  5
136
330
1F
100
AcDbEntity
  8
0
  6
Continuous
 62
     7
370
    15
100
AcDbLine
 10
-174.4813173281697
 20
29.05422146116178
 30
0.0
 11
-164.4813173281697
 21
29.05422146116175
 31
0.0
  0
LINE
  5
137
330
1F
100
AcDbEntity
  8
0
  6
Continuous
 62
     7
370
    15
100
AcDbLine
 10
-164.4813173281697
 20
29.05422146116175
 30
0.0
 11
-164.4813173281697
 21
34.53168636545707
 31
0.0
  0
LINE
  5
138
330
1F
100
AcDbEntity
  8
0
  6
Continuous
 62
     7
370
    15
100
AcDbLine
 10
-194.4813173281697
 20
34.53168636545698
 30
0.0
 11
-204.4813173281697
 21
34.53168636545698
 31
0.0
  0
LINE
  5
139
330
1F
100
AcDbEntity
  8
0
  6
Continuous
 62
     7
370
    15
100
AcDbLine
 10
-204.4813173281697
 20
34.53168636545698
 30
0.0
 11
-204.4813173281697
 21
29.05422146116166
 31
0.0
  0
LINE
  5
13A
330
1F
100
AcDbEntity
  8
0
  6
Continuous
 62
     7
370
    15
100
AcDbLine
 10
-204.4813173281697
 20
29.05422146116166
 30
0.0
 11
-194.4813173281697
 21
29.05422146116166
 31
0.0
  0
LINE
  5
13B
330
1F
100
AcDbEntity
  8
0
  6
Continuous
 62
     7
370
    15
100
AcDbLine
 10
-194.4813173281697
 20
29.05422146116166
 30
0.0
 11
-194.4813173281697
 21
34.53168636545698
 31
0.0
  0
LINE
  5
13C
330
1F
100
AcDbEntity
  8
0
  6
Continuous
 62
     7
370
    15
100
AcDbLine
 10
-224.4813173281698
 20
34.53168636545689
 30
0.0
 11
-234.4813173281698
 21
34.53168636545689
 31
0.0
  0
LINE
  5
13D
330
1F
100
AcDbEntity
  8
0
  6
Continuous
 62
     7
370
    15
100
AcDbLine
 10
-234.4813173281698
 20
34.53168636545689
 30
0.0
 11
-234.4813173281698
 21
29.05422146116161
 31
0.0
  0
LINE
  5
13E
330
1F
100
AcDbEntity
  8
0
  6
Continuous
 62
     7
370
    15
100
AcDbLine
 10
-234.4813173281698
 20
29.05422146116161
 30
0.0
 11
-224.4813173281698
 21
29.05422146116158
 31
0.0
  0
LINE
  5
13F
330
1F
100
AcDbEntity
  8
0
  6
Continuous
 62
     7
370
    15
100
AcDbLine
 10
-224.4813173281698
 20
29.05422146116158
 30
0.0
 11
-224.4813173281698
 21
34.53168636545689
 31
0.0
  0
LINE
  5
140
330
1F
100
AcDbEntity
  8
0
  6
Continuous
 62
     7
370
    15
100
AcDbLine
 10
-254.4813173281698
 20
34.53168636545682
 30
0.0
 11
-264.4813173281698
 21
34.53168636545682
 31
0.0
  0
LINE
  5
141
330
1F
100
AcDbEntity
  8
0
  6
Continuous
 62
     7
370
    15
100
AcDbLine
 10
-264.4813173281698
 20
34.53168636545682
 30
0.0
 11
-264.4813173281698
 21
29.05422146116149
 31
0.0
  0
LINE
  5
142
330
1F
100
AcDbEntity
  8
0
  6
Continuous
 62
     7
370
    15
100
AcDbLine
 10
-264.4813173281698
 20
29.05422146116149
 30
0.0
 11
-254.4813173281698
 21
29.05422146116149
 31
0.0
  0
LINE
  5
143
330
1F
100
AcDbEntity
  8
0
  6
Continuous
 62
     7
370
    15
100
AcDbLine
 10
-254.4813173281698
 20
29.05422146116149
 30
0.0
 11
-254.4813173281698
 21
34.53168636545682
 31
0.0
  0
LINE
  5
144
330
1F
100
AcDbEntity
  8
0
  6
Continuous
 62
     7
370
    15
100
AcDbLine
 10
-284.4813173281697
 20
34.53168636545674
 30
0.0
 11
-294.4813173281698
 21
34.53168636545674
 31
0.0
  0
LINE
  5
145
330
1F
100
AcDbEntity
  8
0
  6
Continuous
 62
     7
370
    15
100
AcDbLine
 10
-294.4813173281698
 20
34.53168636545674
 30
0.0
 11
-294.4813173281698
 21
29.05422146116142
 31
0.0
  0
LINE
  5
146
330
1F
100
AcDbEntity
  8
0
  6
Continuous
 62
     7
370
    15
100
AcDbLine
 10
-294.4813173281698
 20
29.05422146116142
 30
0.0
 11
-284.4813173281697
 21
29.05422146116142
 31
0.0
  0
LINE
  5
147
330
1F
100
AcDbEntity
  8
0
  6
Continuous
 62
     7
370
    15
100
AcDbLine
 10
-284.4813173281697
 20
29.05422146116142
 30
0.0
 11
-284.4813173281697
 21
34.53168636545674
 31
0.0
  0
LINE
  5
148
330
1F
100
AcDbEntity
  8
0
  6
Continuous
 62
     7
370
    15
100
AcDbLine
 10
-316.322667818797
 20
27.80762520339073
 30
0.0
 11
146.677332181203
 21
27.80762520339073
 31
0.0
  0
LINE
  5
149
330
1F
100
AcDbEntity
  8
0
  6
Continuous
 62
     7
370
    15
100
AcDbLine
 10
-316.322667818797
 20
27.80762520339073
 30
0.0
 11
-316.322667818797
 21
35.78740346364765
 31
0.0
  0
LINE
  5
14A
330
1F
100
AcDbEntity
  8
0
  6
Continuous
 62
     7
370
    15
100
AcDbLine
 10
-316.322667818797
 20
35.78740346364765
 30
0.0
 11
146.677332181203
 21
35.78740346364765
 31
0.0
  0
LINE
  5
14B
330
1F
100
AcDbEntity
  8
0
  6
Continuous
 62
     7
370
    15
100
AcDbLine
 10
146.677332181203
 20
27.80762520339073
 30
0.0
 11
146.677332181203
 21
35.78740346364765
 31
0.0
  0
LINE
  5
14C
330
1F
100
AcDbEntity
  8
0
  6
Continuous
 62
     7
370
    15
100
AcDbLine
 10
-299.4813173281698
 20
34.53168636545668
 30
0.0
 11
-309.4813173281698
 21
34.53168636545668
 31
0.0
  0
LINE
  5
14D
330
1F
100
AcDbEntity
  8
0
  6
Continuous
 62
     7
370
    15
100
AcDbLine
 10
-309.4813173281698
 20
34.53168636545668
 30
0.0
 11
-309.4813173281698
 21
29.05422146116139
 31
0.0
  0
LINE
  5
14E
330
1F
100
AcDbEntity
  8
0
  6
Continuous
 62
     7
370
    15
100
AcDbLine
 10
-309.4813173281698
 20
29.05422146116139
 30
0.0
 11
-299.4813173281698
 21
29.05422146116139
 31
0.0
  0
LINE
  5
14F
330
1F
100
AcDbEntity
  8
0
  6
Continuous
 62
     7
370
    15
100
AcDbLine
 10
-299.4813173281698
 20
29.05422146116139
 30
0.0
 11
-299.4813173281698
 21
34.53168636545668
 31
0.0
  0
LINE
  5
150
330
1F
100
AcDbEntity
  8
0
  6
Continuous
 62
     7
370
    15
100
AcDbLine
 10
-269.4813173281697
 20
34.53168636545676
 30
0.0
 11
-279.4813173281697
 21
34.53168636545676
 31
0.0
  0
LINE
  5
151
330
1F
100
AcDbEntity
  8
0
  6
Continuous
 62
     7
370
    15
100
AcDbLine
 10
-279.4813173281697
 20
34.53168636545676
 30
0.0
 11
-279.4813173281697
 21
29.05422146116143
 31
0.0
  0
LINE
  5
152
330
1F
100
AcDbEntity
  8
0
  6
Continuous
 62
     7
370
    15
100
AcDbLine
 10
-279.4813173281697
 20
29.05422146116143
 30
0.0
 11
-269.4813173281697
 21
29.05422146116143
 31
0.0
  0
LINE
  5
153
330
1F
100
AcDbEntity
  8
0
  6
Continuous
 62
     7
370
    15
100
AcDbLine
 10
-269.4813173281697
 20
29.05422146116143
 30
0.0
 11
-269.4813173281697
 21
34.53168636545676
 31
0.0
  0
LINE
  5
154
330
1F
100
AcDbEntity
  8
0
  6
Continuous
 62
     7
370
    15
100
AcDbLine
 10
-239.4813173281698
 20
34.53168636545685
 30
0.0
 11
-249.4813173281698
 21
34.53168636545685
 31
0.0
  0
LINE
  5
155
330
1F
100
AcDbEntity
  8
0
  6
Continuous
 62
     7
370
    15
100
AcDbLine
 10
-249.4813173281698
 20
34.53168636545685
 30
0.0
 11
-249.4813173281698
 21
29.05422146116152
 31
0.0
  0
LINE
  5
156
330
1F
100
AcDbEntity
  8
0
  6
Continuous
 62
     7
370
    15
100
AcDbLine
 10
-249.4813173281698
 20
29.05422146116152
 30
0.0
 11
-239.4813173281698
 21
29.05422146116155
 31
0.0
  0
LINE
  5
157
330
1F
100
AcDbEntity
  8
0
  6
Continuous
 62
     7
370
    15
100
AcDbLine
 10
-239.4813173281698
 20
29.05422146116155
 30
0.0
 11
-239.4813173281698
 21
34.53168636545685
 31
0.0
  0
LINE
  5
158
330
1F
100
AcDbEntity
  8
0
  6
Continuous
 62
     7
370
    15
100
AcDbLine
 10
-209.4813173281697
 20
34.53168636545695
 30
0.0
 11
-219.4813173281698
 21
34.53168636545695
 31
0.0
  0
LINE
  5
159
330
1F
100
AcDbEntity
  8
0
  6
Continuous
 62
     7
370
    15
100
AcDbLine
 10
-219.4813173281698
 20
34.53168636545695
 30
0.0
 11
-219.4813173281698
 21
29.05422146116161
 31
0.0
  0
LINE
  5
15A
330
1F
100
AcDbEntity
  8
0
  6
Continuous
 62
     7
370
    15
100
AcDbLine
 10
-219.4813173281698
 20
29.05422146116161
 30
0.0
 11
-209.4813173281697
 21
29.05422146116161
 31
0.0
  0
LINE
  5
15B
330
1F
100
AcDbEntity
  8
0
  6
Continuous
 62
     7
370
    15
100
AcDbLine
 10
-209.4813173281697
 20
29.05422146116161
 30
0.0
 11
-209.4813173281697
 21
34.53168636545695
 31
0.0
  0
LINE
  5
15C
330
1F
100
AcDbEntity
  8
0
  6
Continuous
 62
     7
370
    15
100
AcDbLine
 10
-179.4813173281697
 20
34.53168636545701
 30
0.0
 11
-189.4813173281697
 21
34.53168636545701
 31
0.0
  0
LINE
  5
15D
330
1F
100
AcDbEntity
  8
0
  6
Continuous
 62
     7
370
    15
100
AcDbLine
 10
-189.4813173281697
 20
34.53168636545701
 30
0.0
 11
-189.4813173281697
 21
29.05422146116172
 31
0.0
  0
LINE
  5
15E
330
1F
100
AcDbEntity
  8
0
  6
Continuous
 62
     7
370
    15
100
AcDbLine
 10
-189.4813173281697
 20
29.05422146116172
 30
0.0
 11
-179.4813173281697
 21
29.05422146116172
 31
0.0
  0
LINE
  5
15F
330
1F
100
AcDbEntity
  8
0
  6
Continuous
 62
     7
370
    15
100
AcDbLine
 10
-179.4813173281697
 20
29.05422146116172
 30
0.0
 11
-179.4813173281697
 21
34.53168636545701
 31
0.0
  0
LINE
  5
160
330
1F
100
AcDbEntity
  8
0
  6
Continuous
 62
     7
370
    15
100
AcDbLine
 10
-149.4813173281697
 20
34.53168636545712
 30
0.0
 11
-159.4813173281697
 21
34.53168636545712
 31
0.0
  0
LINE
  5
161
330
1F
100
AcDbEntity
  8
0
  6
Continuous
 62
     7
370
    15
100
AcDbLine
 10
-159.4813173281697
 20
34.53168636545712
 30
0.0
 11
-159.4813173281697
 21
29.0542214611618
 31
0.0
  0
LINE
  5
162
330
1F
100
AcDbEntity
  8
0
  6
Continuous
 62
     7
370
    15
100
AcDbLine
 10
-159.4813173281697
 20
29.0542214611618
 30
0.0
 11
-149.4813173281697
 21
29.0542214611618
 31
0.0
  0
LINE
  5
163
330
1F
100
AcDbEntity
  8
0
  6
Continuous
 62
     7
370
    15
100
AcDbLine
 10
-149.4813173281697
 20
29.0542214611618
 30
0.0
 11
-149.4813173281697
 21
34.53168636545712
 31
0.0
  0
LINE
  5
164
330
1F
100
AcDbEntity
  8
0
  6
Continuous
 62
     7
370
    15
100
AcDbLine
 10
-119.4813173281698
 20
34.53168636545721
 30
0.0
 11
-129.4813173281698
 21
34.53168636545721
 31
0.0
  0
LINE
  5
165
330
1F
100
AcDbEntity
  8
0
  6
Continuous
 62
     7
370
    15
100
AcDbLine
 10
-129.4813173281698
 20
34.53168636545721
 30
0.0
 11
-129.4813173281698
 21
29.05422146116189
 31
0.0
  0
LINE
  5
166
330
1F
100
AcDbEntity
  8
0
  6
Continuous
 62
     7
370
    15
100
AcDbLine
 10
-129.4813173281698
 20
29.05422146116189
 30
0.0
 11
-119.4813173281698
 21
29.05422146116189
 31
0.0
  0
LINE
  5
167
330
1F
100
AcDbEntity
  8
0
  6
Continuous
 62
     7
370
    15
100
AcDbLine
 10
-119.4813173281698
 20
29.05422146116189
 30
0.0
 11
-119.4813173281698
 21
34.53168636545721
 31
0.0
  0
LINE
  5
168
330
1F
100
AcDbEntity
  8
0
  6
Continuous
 62
     7
370
    15
100
AcDbLine
 10
-89.48131732816973
 20
34.53168636545729
 30
0.0
 11
-99.48131732816975
 21
34.53168636545729
 31
0.0
  0
LINE
  5
169
330
1F
100
AcDbEntity
  8
0
  6
Continuous
 62
     7
370
    15
100
AcDbLine
 10
-99.48131732816975
 20
34.53168636545729
 30
0.0
 11
-99.48131732816975
 21
29.05422146116197
 31
0.0
  0
LINE
  5
16A
330
1F
100
AcDbEntity
  8
0
  6
Continuous
 62
     7
370
    15
100
AcDbLine
 10
-99.48131732816975
 20
29.05422146116197
 30
0.0
 11
-89.48131732816973
 21
29.05422146116197
 31
0.0
  0
LINE
  5
16B
330
1F
100
AcDbEntity
  8
0
  6
Continuous
 62
     7
370
    15
100
AcDbLine
 10
-89.48131732816973
 20
29.05422146116197
 30
0.0
 11
-89.48131732816973
 21
34.53168636545729
 31
0.0
  0
LINE
  5
16C
330
1F
100
AcDbEntity
  8
0
  6
Continuous
 62
     7
370
    15
100
AcDbLine
 10
-59.48131732816978
 20
34.53168636545738
 30
0.0
 11
-69.48131732816978
 21
34.53168636545738
 31
0.0
  0
LINE
  5
16D
330
1F
100
AcDbEntity
  8
0
  6
Continuous
 62
     7
370
    15
100
AcDbLine
 10
-69.48131732816978
 20
34.53168636545738
 30
0.0
 11
-69.48131732816978
 21
29.05422146116205
 31
0.0
  0
LINE
  5
16E
330
1F
100
AcDbEntity
  8
0
  6
Continuous
 62
     7
370
    15
100
AcDbLine
 10
-69.48131732816978
 20
29.05422146116205
 30
0.0
 11
-59.48131732816978
 21
29.05422146116205
 31
0.0
  0
LINE
  5
16F
330
1F
100
AcDbEntity
  8
0
  6
Continuous
 62
     7
370
    15
100
AcDbLine
 10
-59.48131732816978
 20
29.05422146116205
 30
0.0
 11
-59.48131732816978
 21
34.53168636545738
 31
0.0
  0
LINE
  5
170
330
1F
100
AcDbEntity
  8
0
  6
Continuous
 62
     7
370
    15
100
AcDbLine
 10
-29.48131732816978
 20
34.53168636545746
 30
0.0
 11
-39.48131732816978
 21
34.53168636545746
 31
0.0
  0
LINE
  5
171
330
1F
100
AcDbEntity
  8
0
  6
Continuous
 62
     7
370
    15
100
AcDbLine
 10
-39.48131732816978
 20
34.53168636545746
 30
0.0
 11
-39.48131732816978
 21
29.05422146116213
 31
0.0
  0
LINE
  5
172
330
1F
100
AcDbEntity
  8
0
  6
Continuous
 62
     7
370
    15
100
AcDbLine
 10
-39.48131732816978
 20
29.05422146116213
 30
0.0
 11
-29.48131732816978
 21
29.05422146116213
 31
0.0
  0
LINE
  5
173
330
1F
100
AcDbEntity
  8
0
  6
Continuous
 62
     7
370
    15
100
AcDbLine
 10
-29.48131732816978
 20
29.05422146116213
 30
0.0
 11
-29.48131732816978
 21
34.53168636545746
 31
0.0
  0
LINE
  5
174
330
1F
100
AcDbEntity
  8
0
  6
Continuous
 62
     7
370
    15
100
AcDbLine
 10
0.5186826718302769
 20
34.53168636545753
 30
0.0
 11
-9.48131732816978
 21
34.53168636545753
 31
0.0
  0
LINE
  5
175
330
1F
100
AcDbEntity
  8
0
  6
Continuous
 62
     7
370
    15
100
AcDbLine
 10
-9.48131732816978
 20
34.53168636545753
 30
0.0
 11
-9.48131732816978
 21
29.05422146116221
 31
0.0
  0
LINE
  5
176
330
1F
100
AcDbEntity
  8
0
  6
Continuous
 62
     7
370
    15
100
AcDbLine
 10
-9.48131732816978
 20
29.05422146116221
 30
0.0
 11
0.5186826718302769
 21
29.05422146116221
 31
0.0
  0
LINE
  5
177
330
1F
100
AcDbEntity
  8
0
  6
Continuous
 62
     7
370
    15
100
AcDbLine
 10
0.5186826718302769
 20
29.05422146116221
 30
0.0
 11
0.5186826718302769
 21
34.53168636545753
 31
0.0
  0
LINE
  5
178
330
1F
100
AcDbEntity
  8
0
  6
Continuous
 62
     7
370
    15
100
AcDbLine
 10
30.51868267183028
 20
34.53168636545762
 30
0.0
 11
20.51868267183028
 21
34.53168636545762
 31
0.0
  0
LINE
  5
179
330
1F
100
AcDbEntity
  8
0
  6
Continuous
 62
     7
370
    15
100
AcDbLine
 10
20.51868267183028
 20
34.53168636545762
 30
0.0
 11
20.51868267183028
 21
29.0542214611623
 31
0.0
  0
LINE
  5
17A
330
1F
100
AcDbEntity
  8
0
  6
Continuous
 62
     7
370
    15
100
AcDbLine
 10
20.51868267183028
 20
29.0542214611623
 30
0.0
 11
30.51868267183028
 21
29.05422146116233
 31
0.0
  0
LINE
  5
17B
330
1F
100
AcDbEntity
  8
0
  6
Continuous
 62
     7
370
    15
100
AcDbLine
 10
30.51868267183028
 20
29.05422146116233
 30
0.0
 11
30.51868267183028
 21
34.53168636545762
 31
0.0
  0
LINE
  5
17C
330
1F
100
AcDbEntity
  8
0
  6
Continuous
 62
     7
370
    15
100
AcDbLine
 10
60.51868267183022
 20
34.53168636545773
 30
0.0
 11
50.51868267183016
 21
34.53168636545773
 31
0.0
  0
LINE
  5
17D
330
1F
100
AcDbEntity
  8
0
  6
Continuous
 62
     7
370
    15
100
AcDbLine
 10
50.51868267183016
 20
34.53168636545773
 30
0.0
 11
50.51868267183016
 21
29.05422146116239
 31
0.0
  0
LINE
  5
17E
330
1F
100
AcDbEntity
  8
0
  6
Continuous
 62
     7
370
    15
100
AcDbLine
 10
50.51868267183016
 20
29.05422146116239
 30
0.0
 11
60.51868267183022
 21
29.05422146116239
 31
0.0
  0
LINE
  5
17F
330
1F
100
AcDbEntity
  8
0
  6
Continuous
 62
     7
370
    15
100
AcDbLine
 10
60.51868267183022
 20
29.05422146116239
 30
0.0
 11
60.51868267183022
 21
34.53168636545773
 31
0.0
  0
LINE
  5
180
330
1F
100
AcDbEntity
  8
0
  6
Continuous
 62
     7
370
    15
100
AcDbLine
 10
90.51868267183023
 20
34.53168636545779
 30
0.0
 11
80.51868267183023
 21
34.53168636545779
 31
0.0
  0
LINE
  5
181
330
1F
100
AcDbEntity
  8
0
  6
Continuous
 62
     7
370
    15
100
AcDbLine
 10
80.51868267183023
 20
34.53168636545779
 30
0.0
 11
80.51868267183023
 21
29.0542214611625
 31
0.0
  0
LINE
  5
182
330
1F
100
AcDbEntity
  8
0
  6
Continuous
 62
     7
370
    15
100
AcDbLine
 10
80.51868267183023
 20
29.0542214611625
 30
0.0
 11
90.51868267183023
 21
29.0542214611625
 31
0.0
  0
LINE
  5
183
330
1F
100
AcDbEntity
  8
0
  6
Continuous
 62
     7
370
    15
100
AcDbLine
 10
90.51868267183023
 20
29.0542214611625
 30
0.0
 11
90.51868267183023
 21
34.53168636545779
 31
0.0
  0
LINE
  5
184
330
1F
100
AcDbEntity
  8
0
  6
Continuous
 62
     7
370
    15
100
AcDbLine
 10
120.5186826718303
 20
34.5316863654579
 30
0.0
 11
110.5186826718302
 21
34.5316863654579
 31
0.0
  0
LINE
  5
185
330
1F
100
AcDbEntity
  8
0
  6
Continuous
 62
     7
370
    15
100
AcDbLine
 10
110.5186826718302
 20
34.5316863654579
 30
0.0
 11
110.5186826718302
 21
29.05422146116258
 31
0.0
  0
LINE
  5
186
330
1F
100
AcDbEntity
  8
0
  6
Continuous
 62
     7
370
    15
100
AcDbLine
 10
110.5186826718302
 20
29.05422146116258
 30
0.0
 11
120.5186826718303
 21
29.05422146116258
 31
0.0
  0
LINE
  5
187
330
1F
100
AcDbEntity
  8
0
  6
Continuous
 62
     7
370
    15
100
AcDbLine
 10
120.5186826718303
 20
29.05422146116258
 30
0.0
 11
120.5186826718303
 21
34.5316863654579
 31
0.0
  0
LINE
  5
188
330
1F
100
AcDbEntity
  8
0
  6
Continuous
 62
     7
370
    15
100
AcDbLine
 10
-316.322667818797
 20
82.17086796374545
 30
0.0
 11
-316.322667818797
 21
35.78740346364765
 31
0.0
  0
LINE
  5
189
330
1F
100
AcDbEntity
  8
0
  6
Continuous
 62
     7
370
    15
100
AcDbLine
 10
146.677332181203
 20
82.17086796374545
 30
0.0
 11
146.677332181203
 21
35.78740346364765
 31
0.0
  0
LINE
  5
18A
330
1F
100
AcDbEntity
  8
0
  6
Continuous
 62
     7
370
    15
100
AcDbLine
 10
-288.4530863176447
 20
25.80762520339073
 30
0.0
 11
-297.7962320681523
 21
25.80762520339073
 31
0.0
  0
ARC
  5
18B
330
1F
100
AcDbEntity
  8
0
  6
Continuous
 62
     7
370
    15
100
AcDbCircle
 10
-297.7962320681523
 20
28.80762520339073
 30
0.0
 40
3.0
100
AcDbArc
 50
199.4712206344916
 51
270.0
  0
ARC
  5
18C
330
1F
100
AcDbEntity
  8
0
  6
Continuous
 62
     7
370
    15
100
AcDbCircle
 10
-288.4530863176447
 20
28.80762520339073
 30
0.0
 40
3.0
100
AcDbArc
 50
270.0
 51
340.5287793655103
  0
LINE
  5
18D
330
1F
100
AcDbEntity
  8
0
  6
Continuous
 62
     7
370
    15
100
AcDbLine
 10
-268.4530863176448
 20
25.80762520339073
 30
0.0
 11
-277.7962320681524
 21
25.80762520339073
 31
0.0
  0
ARC
  5
18E
330
1F
100
AcDbEntity
  8
0
  6
Continuous
 62
     7
370
    15
100
AcDbCircle
 10
-268.4530863176448
 20
28.80762520339073
 30
0.0
 40
3.0
100
AcDbArc
 50
270.0
 51
340.5287793655103
  0
ARC
  5
18F
330
1F
100
AcDbEntity
  8
0
  6
Continuous
 62
     7
370
    15
100
AcDbCircle
 10
-277.7962320681524
 20
28.80762520339073
 30
0.0
 40
3.0
100
AcDbArc
 50
199.4712206344916
 51
270.0
  0
LINE
  5
190
330
1F
100
AcDbEntity
  8
0
  6
Continuous
 62
     7
370
    15
100
AcDbLine
 10
-248.4530863176448
 20
25.80762520339073
 30
0.0
 11
-257.7962320681524
 21
25.80762520339073
 31
0.0
  0
ARC
  5
191
330
1F
100
AcDbEntity
  8
0
  6
Continuous
 62
     7
370
    15
100
AcDbCircle
 10
-248.4530863176448
 20
28.80762520339073
 30
0.0
 40
3.0
100
AcDbArc
 50
270.0
 51
340.5287793655103
  0
ARC
  5
192
330
1F
100
AcDbEntity
  8
0
  6
Continuous
 62
     7
370
    15
100
AcDbCircle
 10
-257.7962320681524
 20
28.80762520339073
 30
0.0
 40
3.0
100
AcDbArc
 50
199.4712206344916
 51
270.0
  0
LINE
  5
193
330
1F
100
AcDbEntity
  8
0
  6
Continuous
 62
     7
370
    15
100
AcDbLine
 10
-228.4530863176447
 20
25.80762520339073
 30
0.0
 11
-237.7962320681524
 21
25.80762520339073
 31
0.0
  0
ARC
  5
194
330
1F
100
AcDbEntity
  8
0
  6
Continuous
 62
     7
370
    15
100
AcDbCircle
 10
-228.4530863176447
 20
28.80762520339073
 30
0.0
 40
3.0
100
AcDbArc
 50
270.0
 51
340.5287793655103
  0
ARC
  5
195
330
1F
100
AcDbEntity
  8
0
  6
Continuous
 62
     7
370
    15
100
AcDbCircle
 10
-237.7962320681524
 20
28.80762520339073
 30
0.0
 40
3.0
100
AcDbArc
 50
199.4712206344916
 51
270.0
  0
LINE
  5
196
330
1F
100
AcDbEntity
  8
0
  6
Continuous
 62
     7
370
    15
100
AcDbLine
 10
-208.4530863176447
 20
25.80762520339073
 30
0.0
 11
-217.7962320681523
 21
25.80762520339073
 31
0.0
  0
ARC
  5
197
330
1F
100
AcDbEntity
  8
0
  6
Continuous
 62
     7
370
    15
100
AcDbCircle
 10
-217.7962320681523
 20
28.80762520339073
 30
0.0
 40
3.0
100
AcDbArc
 50
199.4712206344916
 51
270.0
  0
ARC
  5
198
330
1F
100
AcDbEntity
  8
0
  6
Continuous
 62
     7
370
    15
100
AcDbCircle
 10
-208.4530863176447
 20
28.80762520339073
 30
0.0
 40
3.0
100
AcDbArc
 50
270.0
 51
340.5287793655103
  0
LINE
  5
199
330
1F
100
AcDbEntity
  8
0
  6
Continuous
 62
     7
370
    15
100
AcDbLine
 10
-188.4530863176447
 20
25.80762520339073
 30
0.0
 11
-197.7962320681523
 21
25.80762520339073
 31
0.0
  0
ARC
  5
19A
330
1F
100
AcDbEntity
  8
0
  6
Continuous
 62
     7
370
    15
100
AcDbCircle
 10
-188.4530863176447
 20
28.80762520339073
 30
0.0
 40
3.0
100
AcDbArc
 50
270.0
 51
340.5287793655103
  0
ARC
  5
19B
330
1F
100
AcDbEntity
  8
0
  6
Continuous
 62
     7
370
    15
100
AcDbCircle
 10
-197.7962320681523
 20
28.80762520339073
 30
0.0
 40
3.0
100
AcDbArc
 50
199.4712206344916
 51
270.0
  0
LINE
  5
19C
330
1F
100
AcDbEntity
  8
0
  6
Continuous
 62
     7
370
    15
100
AcDbLine
 10
-168.4530863176448
 20
25.80762520339073
 30
0.0
 11
-177.7962320681523
 21
25.80762520339073
 31
0.0
  0
ARC
  5
19D
330
1F
100
AcDbEntity
  8
0
  6
Continuous
 62
     7
370
    15
100
AcDbCircle
 10
-177.7962320681523
 20
28.80762520339073
 30
0.0
 40
3.0
100
AcDbArc
 50
199.4712206344916
 51
270.0
  0
ARC
  5
19E
330
1F
100
AcDbEntity
  8
0
  6
Continuous
 62
     7
370
    15
100
AcDbCircle
 10
-168.4530863176448
 20
28.80762520339073
 30
0.0
 40
3.0
100
AcDbArc
 50
270.0
 51
340.5287793655103
  0
LINE
  5
19F
330
1F
100
AcDbEntity
  8
0
  6
Continuous
 62
     7
370
    15
100
AcDbLine
 10
-148.4530863176448
 20
25.80762520339073
 30
0.0
 11
-157.7962320681524
 21
25.80762520339073
 31
0.0
  0
ARC
  5
1A0
330
1F
100
AcDbEntity
  8
0
  6
Continuous
 62
     7
370
    15
100
AcDbCircle
 10
-148.4530863176448
 20
28.80762520339073
 30
0.0
 40
3.0
100
AcDbArc
 50
270.0
 51
340.5287793655103
  0
ARC
  5
1A1
330
1F
100
AcDbEntity
  8
0
  6
Continuous
 62
     7
370
    15
100
AcDbCircle
 10
-157.7962320681524
 20
28.80762520339073
 30
0.0
 40
3.0
100
AcDbArc
 50
199.4712206344916
 51
270.0
  0
LINE
  5
1A2
330
1F
100
AcDbEntity
  8
0
  6
Continuous
 62
     7
370
    15
100
AcDbLine
 10
-128.4530863176447
 20
25.80762520339073
 30
0.0
 11
-137.7962320681524
 21
25.80762520339073
 31
0.0
  0
ARC
  5
1A3
330
1F
100
AcDbEntity
  8
0
  6
Continuous
 62
     7
370
    15
100
AcDbCircle
 10
-137.7962320681524
 20
28.80762520339073
 30
0.0
 40
3.0
100
AcDbArc
 50
199.4712206344916
 51
270.0
  0
ARC
  5
1A4
330
1F
100
AcDbEntity
  8
0
  6
Continuous
 62
     7
370
    15
100
AcDbCircle
 10
-128.4530863176447
 20
28.80762520339073
 30
0.0
 40
3.0
100
AcDbArc
 50
270.0
 51
340.5287793655103
  0
LINE
  5
1A5
330
1F
100
AcDbEntity
  8
0
  6
Continuous
 62
     7
370
    15
100
AcDbLine
 10
-108.4530863176446
 20
25.80762520339073
 30
0.0
 11
-117.7962320681524
 21
25.80762520339073
 31
0.0
  0
ARC
  5
1A6
330
1F
100
AcDbEntity
  8
0
  6
Continuous
 62
     7
370
    15
100
AcDbCircle
 10
-117.7962320681524
 20
28.80762520339073
 30
0.0
 40
3.0
100
AcDbArc
 50
199.4712206344916
 51
270.0
  0
ARC
  5
1A7
330
1F
100
AcDbEntity
  8
0
  6
Continuous
 62
     7
370
    15
100
AcDbCircle
 10
-108.4530863176446
 20
28.80762520339073
 30
0.0
 40
3.0
100
AcDbArc
 50
270.0
 51
340.5287793655101
  0
LINE
  5
1A8
330
1F
100
AcDbEntity
  8
0
  6
Continuous
 62
     7
370
    15
100
AcDbLine
 10
-52.17926962775493
 20
25.80762520339073
 30
0.0
 11
-61.52241537826256
 21
25.80762520339073
 31
0.0
  0
ARC
  5
1A9
330
1F
100
AcDbEntity
  8
0
  6
Continuous
 62
     7
370
    15
100
AcDbCircle
 10
-52.17926962775493
 20
28.80762520339073
 30
0.0
 40
3.000000000000021
100
AcDbArc
 50
270.0
 51
340.5287793655105
  0
ARC
  5
1AA
330
1F
100
AcDbEntity
  8
0
  6
Continuous
 62
     7
370
    15
100
AcDbCircle
 10
-61.52241537826256
 20
28.80762520339073
 30
0.0
 40
3.000000000000021
100
AcDbArc
 50
199.4712206344914
 51
270.0
  0
LINE
  5
1AB
330
1F
100
AcDbEntity
  8
0
  6
Continuous
 62
     7
370
    15
100
AcDbLine
 10
-32.17926962775493
 20
25.80762520339073
 30
0.0
 11
-41.52241537826256
 21
25.80762520339073
 31
0.0
  0
ARC
  5
1AC
330
1F
100
AcDbEntity
  8
0
  6
Continuous
 62
     7
370
    15
100
AcDbCircle
 10
-32.17926962775493
 20
28.80762520339073
 30
0.0
 40
3.000000000000021
100
AcDbArc
 50
270.0
 51
340.5287793655105
  0
ARC
  5
1AD
330
1F
100
AcDbEntity
  8
0
  6
Continuous
 62
     7
370
    15
100
AcDbCircle
 10
-41.52241537826256
 20
28.80762520339073
 30
0.0
 40
3.0
100
AcDbArc
 50
199.4712206344918
 51
270.0
  0
LINE
  5
1AE
330
1F
100
AcDbEntity
  8
0
  6
Continuous
 62
     7
370
    15
100
AcDbLine
 10
-12.17926962775488
 20
25.80762520339073
 30
0.0
 11
-21.52241537826256
 21
25.80762520339073
 31
0.0
  0
ARC
  5
1AF
330
1F
100
AcDbEntity
  8
0
  6
Continuous
 62
     7
370
    15
100
AcDbCircle
 10
-12.17926962775488
 20
28.80762520339073
 30
0.0
 40
3.0
100
AcDbArc
 50
270.0
 51
340.5287793655101
  0
ARC
  5
1B0
330
1F
100
AcDbEntity
  8
0
  6
Continuous
 62
     7
370
    15
100
AcDbCircle
 10
-21.52241537826256
 20
28.80762520339073
 30
0.0
 40
3.0
100
AcDbArc
 50
199.4712206344918
 51
270.0
  0
LINE
  5
1B1
330
1F
100
AcDbEntity
  8
0
  6
Continuous
 62
     7
370
    15
100
AcDbLine
 10
7.820730372245122
 20
25.80762520339073
 30
0.0
 11
-1.522415378262508
 21
25.80762520339073
 31
0.0
  0
ARC
  5
1B2
330
1F
100
AcDbEntity
  8
0
  6
Continuous
 62
     7
370
    15
100
AcDbCircle
 10
-1.522415378262508
 20
28.80762520339073
 30
0.0
 40
3.000000000000021
100
AcDbArc
 50
199.4712206344914
 51
270.0
  0
ARC
  5
1B3
330
1F
100
AcDbEntity
  8
0
  6
Continuous
 62
     7
370
    15
100
AcDbCircle
 10
7.820730372245122
 20
28.80762520339073
 30
0.0
 40
3.000000000000021
100
AcDbArc
 50
270.0
 51
340.5287793655105
  0
LINE
  5
1B4
330
1F
100
AcDbEntity
  8
0
  6
Continuous
 62
     7
370
    15
100
AcDbLine
 10
27.82073037224501
 20
25.80762520339073
 30
0.0
 11
18.47758462173738
 21
25.80762520339073
 31
0.0
  0
ARC
  5
1B5
330
1F
100
AcDbEntity
  8
0
  6
Continuous
 62
     7
370
    15
100
AcDbCircle
 10
18.47758462173738
 20
28.80762520339073
 30
0.0
 40
3.0
100
AcDbArc
 50
199.4712206344924
 51
270.0
  0
ARC
  5
1B6
330
1F
100
AcDbEntity
  8
0
  6
Continuous
 62
     7
370
    15
100
AcDbCircle
 10
27.82073037224501
 20
28.80762520339073
 30
0.0
 40
3.000000000000021
100
AcDbArc
 50
270.0
 51
340.5287793655105
  0
LINE
  5
1B7
330
1F
100
AcDbEntity
  8
0
  6
Continuous
 62
     7
370
    15
100
AcDbLine
 10
47.82073037224506
 20
25.80762520339073
 30
0.0
 11
38.47758462173738
 21
25.80762520339073
 31
0.0
  0
ARC
  5
1B8
330
1F
100
AcDbEntity
  8
0
  6
Continuous
 62
     7
370
    15
100
AcDbCircle
 10
47.82073037224506
 20
28.80762520339073
 30
0.0
 40
3.0
100
AcDbArc
 50
270.0
 51
340.5287793655101
  0
ARC
  5
1B9
330
1F
100
AcDbEntity
  8
0
  6
Continuous
 62
     7
370
    15
100
AcDbCircle
 10
38.47758462173738
 20
28.80762520339073
 30
0.0
 40
3.0
100
AcDbArc
 50
199.4712206344918
 51
270.0
  0
LINE
  5
1BA
330
1F
100
AcDbEntity
  8
0
  6
Continuous
 62
     7
370
    15
100
AcDbLine
 10
67.82073037224506
 20
25.80762520339073
 30
0.0
 11
58.47758462173743
 21
25.80762520339073
 31
0.0
  0
ARC
  5
1BB
330
1F
100
AcDbEntity
  8
0
  6
Continuous
 62
     7
370
    15
100
AcDbCircle
 10
67.82073037224506
 20
28.80762520339073
 30
0.0
 40
3.000000000000021
100
AcDbArc
 50
270.0
 51
340.5287793655105
  0
ARC
  5
1BC
330
1F
100
AcDbEntity
  8
0
  6
Continuous
 62
     7
370
    15
100
AcDbCircle
 10
58.47758462173743
 20
28.80762520339073
 30
0.0
 40
3.000000000000021
100
AcDbArc
 50
199.4712206344914
 51
270.0
  0
LINE
  5
1BD
330
1F
100
AcDbEntity
  8
0
  6
Continuous
 62
     7
370
    15
100
AcDbLine
 10
87.82073037224506
 20
25.80762520339073
 30
0.0
 11
78.47758462173743
 21
25.80762520339073
 31
0.0
  0
ARC
  5
1BE
330
1F
100
AcDbEntity
  8
0
  6
Continuous
 62
     7
370
    15
100
AcDbCircle
 10
87.82073037224506
 20
28.80762520339073
 30
0.0
 40
3.000000000000021
100
AcDbArc
 50
270.0
 51
340.5287793655105
  0
ARC
  5
1BF
330
1F
100
AcDbEntity
  8
0
  6
Continuous
 62
     7
370
    15
100
AcDbCircle
 10
78.47758462173743
 20
28.80762520339073
 30
0.0
 40
3.0
100
AcDbArc
 50
199.4712206344918
 51
270.0
  0
LINE
  5
1C0
330
1F
100
AcDbEntity
  8
0
  6
Continuous
 62
     7
370
    15
100
AcDbLine
 10
107.8207303722451
 20
25.80762520339073
 30
0.0
 11
98.47758462173743
 21
25.80762520339073
 31
0.0
  0
ARC
  5
1C1
330
1F
100
AcDbEntity
  8
0
  6
Continuous
 62
     7
370
    15
100
AcDbCircle
 10
107.8207303722451
 20
28.80762520339073
 30
0.0
 40
3.0
100
AcDbArc
 50
270.0
 51
340.5287793655101
  0
ARC
  5
1C2
330
1F
100
AcDbEntity
  8
0
  6
Continuous
 62
     7
370
    15
100
AcDbCircle
 10
98.47758462173743
 20
28.80762520339073
 30
0.0
 40
3.0
100
AcDbArc
 50
199.4712206344918
 51
270.0
  0
LINE
  5
1C3
330
1F
100
AcDbEntity
  8
0
  6
Continuous
 62
     7
370
    15
100
AcDbLine
 10
127.8207303722451
 20
25.80762520339073
 30
0.0
 11
118.4775846217375
 21
25.80762520339073
 31
0.0
  0
ARC
  5
1C4
330
1F
100
AcDbEntity
  8
0
  6
Continuous
 62
     7
370
    15
100
AcDbCircle
 10
127.8207303722451
 20
28.80762520339073
 30
0.0
 40
3.0
100
AcDbArc
 50
270.0
 51
340.5287793655101
  0
ARC
  5
1C5
330
1F
100
AcDbEntity
  8
0
  6
Continuous
 62
     7
370
    15
100
AcDbCircle
 10
118.4775846217375
 20
28.80762520339073
 30
0.0
 40
3.000000000000021
100
AcDbArc
 50
199.4712206344914
 51
270.0
  0
LINE
  5
1C6
330
1F
100
AcDbEntity
  8
0
  6
Continuous
 62
     7
370
    15
100
AcDbLine
 10
-215.1298087528838
 20
147.8076252033907
 30
0.0
 11
48.87019124711617
 21
147.8076252033907
 31
0.0
  0
LINE
  5
1C7
330
1F
100
AcDbEntity
  8
0
  6
Continuous
 62
     7
370
    15
100
AcDbLine
 10
48.87019124711617
 20
147.8076252033907
 30
0.0
 11
48.87019124711617
 21
87.80762520339076
 31
0.0
  0
LINE
  5
1C8
330
1F
100
AcDbEntity
  8
0
  6
Continuous
 62
     7
370
    15
100
AcDbLine
 10
-206.8352784791639
 20
89.6850509244876
 30
0.0
 11
-206.8352784791639
 21
137.5344252077813
 31
0.0
  0
LINE
  5
1C9
330
1F
100
AcDbEntity
  8
0
  6
Continuous
 62
     7
370
    15
100
AcDbLine
 10
-206.8352784791639
 20
137.5344252077813
 30
0.0
 11
-209.899899037364
 21
137.5344252077813
 31
0.0
  0
LINE
  5
1CA
330
1F
100
AcDbEntity
  8
0
  6
Continuous
 62
     7
370
    15
100
AcDbLine
 10
-209.899899037364
 20
137.5344252077813
 30
0.0
 11
-209.899899037364
 21
89.6850509244876
 31
0.0
  0
LINE
  5
1CB
330
1F
100
AcDbEntity
  8
0
  6
Continuous
 62
     7
370
    15
100
AcDbLine
 10
-209.899899037364
 20
89.6850509244876
 30
0.0
 11
-206.8352784791639
 21
89.6850509244876
 31
0.0
  0
LINE
  5
1CC
330
1F
100
AcDbEntity
  8
0
  6
Continuous
 62
     7
370
    15
100
AcDbLine
 10
-196.8352784791638
 20
89.6850509244876
 30
0.0
 11
-196.8352784791638
 21
137.5344252077813
 31
0.0
  0
LINE
  5
1CD
330
1F
100
AcDbEntity
  8
0
  6
Continuous
 62
     7
370
    15
100
AcDbLine
 10
-196.8352784791638
 20
137.5344252077813
 30
0.0
 11
-199.8998990373639
 21
137.5344252077813
 31
0.0
  0
LINE
  5
1CE
330
1F
100
AcDbEntity
  8
0
  6
Continuous
 62
     7
370
    15
100
AcDbLine
 10
-199.8998990373639
 20
137.5344252077813
 30
0.0
 11
-199.8998990373639
 21
89.6850509244876
 31
0.0
  0
LINE
  5
1CF
330
1F
100
AcDbEntity
  8
0
  6
Continuous
 62
     7
370
    15
100
AcDbLine
 10
-199.8998990373639
 20
89.6850509244876
 30
0.0
 11
-196.8352784791638
 21
89.6850509244876
 31
0.0
  0
LINE
  5
1D0
330
1F
100
AcDbEntity
  8
0
  6
Continuous
 62
     7
370
    15
100
AcDbLine
 10
-186.8352784791638
 20
89.6850509244876
 30
0.0
 11
-186.8352784791638
 21
137.5344252077813
 31
0.0
  0
LINE
  5
1D1
330
1F
100
AcDbEntity
  8
0
  6
Continuous
 62
     7
370
    15
100
AcDbLine
 10
-186.8352784791638
 20
137.5344252077813
 30
0.0
 11
-189.8998990373639
 21
137.5344252077813
 31
0.0
  0
LINE
  5
1D2
330
1F
100
AcDbEntity
  8
0
  6
Continuous
 62
     7
370
    15
100
AcDbLine
 10
-189.8998990373639
 20
137.5344252077813
 30
0.0
 11
-189.8998990373639
 21
89.6850509244876
 31
0.0
  0
LINE
  5
1D3
330
1F
100
AcDbEntity
  8
0
  6
Continuous
 62
     7
370
    15
100
AcDbLine
 10
-189.8998990373639
 20
89.6850509244876
 30
0.0
 11
-186.8352784791638
 21
89.6850509244876
 31
0.0
  0
LINE
  5
1D4
330
1F
100
AcDbEntity
  8
0
  6
Continuous
 62
     7
370
    15
100
AcDbLine
 10
-176.8352784791638
 20
89.6850509244876
 30
0.0
 11
-176.8352784791639
 21
137.5344252077813
 31
0.0
  0
LINE
  5
1D5
330
1F
100
AcDbEntity
  8
0
  6
Continuous
 62
     7
370
    15
100
AcDbLine
 10
-176.8352784791639
 20
137.5344252077813
 30
0.0
 11
-179.899899037364
 21
137.5344252077813
 31
0.0
  0
LINE
  5
1D6
330
1F
100
AcDbEntity
  8
0
  6
Continuous
 62
     7
370
    15
100
AcDbLine
 10
-179.899899037364
 20
137.5344252077813
 30
0.0
 11
-179.8998990373639
 21
89.6850509244876
 31
0.0
  0
LINE
  5
1D7
330
1F
100
AcDbEntity
  8
0
  6
Continuous
 62
     7
370
    15
100
AcDbLine
 10
-179.8998990373639
 20
89.6850509244876
 30
0.0
 11
-176.8352784791638
 21
89.6850509244876
 31
0.0
  0
LINE
  5
1D8
330
1F
100
AcDbEntity
  8
0
  6
Continuous
 62
     7
370
    15
100
AcDbLine
 10
-166.8352784791638
 20
89.6850509244876
 30
0.0
 11
-166.8352784791638
 21
137.5344252077813
 31
0.0
  0
LINE
  5
1D9
330
1F
100
AcDbEntity
  8
0
  6
Continuous
 62
     7
370
    15
100
AcDbLine
 10
-166.8352784791638
 20
137.5344252077813
 30
0.0
 11
-169.8998990373639
 21
137.5344252077813
 31
0.0
  0
LINE
  5
1DA
330
1F
100
AcDbEntity
  8
0
  6
Continuous
 62
     7
370
    15
100
AcDbLine
 10
-169.8998990373639
 20
137.5344252077813
 30
0.0
 11
-169.8998990373639
 21
89.6850509244876
 31
0.0
  0
LINE
  5
1DB
330
1F
100
AcDbEntity
  8
0
  6
Continuous
 62
     7
370
    15
100
AcDbLine
 10
-169.8998990373639
 20
89.6850509244876
 30
0.0
 11
-166.8352784791638
 21
89.6850509244876
 31
0.0
  0
LINE
  5
1DC
330
1F
100
AcDbEntity
  8
0
  6
Continuous
 62
     7
370
    15
100
AcDbLine
 10
-156.8352784791638
 20
89.6850509244876
 30
0.0
 11
-156.8352784791638
 21
137.5344252077813
 31
0.0
  0
LINE
  5
1DD
330
1F
100
AcDbEntity
  8
0
  6
Continuous
 62
     7
370
    15
100
AcDbLine
 10
-156.8352784791638
 20
137.5344252077813
 30
0.0
 11
-159.899899037364
 21
137.5344252077813
 31
0.0
  0
LINE
  5
1DE
330
1F
100
AcDbEntity
  8
0
  6
Continuous
 62
     7
370
    15
100
AcDbLine
 10
-159.899899037364
 20
137.5344252077813
 30
0.0
 11
-159.8998990373639
 21
89.6850509244876
 31
0.0
  0
LINE
  5
1DF
330
1F
100
AcDbEntity
  8
0
  6
Continuous
 62
     7
370
    15
100
AcDbLine
 10
-159.8998990373639
 20
89.6850509244876
 30
0.0
 11
-156.8352784791638
 21
89.6850509244876
 31
0.0
  0
LINE
  5
1E0
330
1F
100
AcDbEntity
  8
0
  6
Continuous
 62
     7
370
    15
100
AcDbLine
 10
-146.8352784791638
 20
89.6850509244876
 30
0.0
 11
-146.8352784791639
 21
137.5344252077813
 31
0.0
  0
LINE
  5
1E1
330
1F
100
AcDbEntity
  8
0
  6
Continuous
 62
     7
370
    15
100
AcDbLine
 10
-146.8352784791639
 20
137.5344252077813
 30
0.0
 11
-149.899899037364
 21
137.5344252077813
 31
0.0
  0
LINE
  5
1E2
330
1F
100
AcDbEntity
  8
0
  6
Continuous
 62
     7
370
    15
100
AcDbLine
 10
-149.899899037364
 20
137.5344252077813
 30
0.0
 11
-149.8998990373639
 21
89.6850509244876
 31
0.0
  0
LINE
  5
1E3
330
1F
100
AcDbEntity
  8
0
  6
Continuous
 62
     7
370
    15
100
AcDbLine
 10
-149.8998990373639
 20
89.6850509244876
 30
0.0
 11
-146.8352784791638
 21
89.6850509244876
 31
0.0
  0
LINE
  5
1E4
330
1F
100
AcDbEntity
  8
0
  6
Continuous
 62
     7
370
    15
100
AcDbLine
 10
-136.8352784791638
 20
89.6850509244876
 30
0.0
 11
-136.8352784791639
 21
137.5344252077813
 31
0.0
  0
LINE
  5
1E5
330
1F
100
AcDbEntity
  8
0
  6
Continuous
 62
     7
370
    15
100
AcDbLine
 10
-136.8352784791639
 20
137.5344252077813
 30
0.0
 11
-139.899899037364
 21
137.5344252077813
 31
0.0
  0
LINE
  5
1E6
330
1F
100
AcDbEntity
  8
0
  6
Continuous
 62
     7
370
    15
100
AcDbLine
 10
-139.899899037364
 20
137.5344252077813
 30
0.0
 11
-139.8998990373639
 21
89.6850509244876
 31
0.0
  0
LINE
  5
1E7
330
1F
100
AcDbEntity
  8
0
  6
Continuous
 62
     7
370
    15
100
AcDbLine
 10
-139.8998990373639
 20
89.6850509244876
 30
0.0
 11
-136.8352784791638
 21
89.6850509244876
 31
0.0
  0
LINE
  5
1E8
330
1F
100
AcDbEntity
  8
0
  6
Continuous
 62
     7
370
    15
100
AcDbLine
 10
-126.8352784791638
 20
89.6850509244876
 30
0.0
 11
-126.8352784791639
 21
137.5344252077813
 31
0.0
  0
LINE
  5
1E9
330
1F
100
AcDbEntity
  8
0
  6
Continuous
 62
     7
370
    15
100
AcDbLine
 10
-126.8352784791639
 20
137.5344252077813
 30
0.0
 11
-129.899899037364
 21
137.5344252077813
 31
0.0
  0
LINE
  5
1EA
330
1F
100
AcDbEntity
  8
0
  6
Continuous
 62
     7
370
    15
100
AcDbLine
 10
-129.899899037364
 20
137.5344252077813
 30
0.0
 11
-129.8998990373639
 21
89.6850509244876
 31
0.0
  0
LINE
  5
1EB
330
1F
100
AcDbEntity
  8
0
  6
Continuous
 62
     7
370
    15
100
AcDbLine
 10
-129.8998990373639
 20
89.6850509244876
 30
0.0
 11
-126.8352784791638
 21
89.6850509244876
 31
0.0
  0
LINE
  5
1EC
330
1F
100
AcDbEntity
  8
0
  6
Continuous
 62
     7
370
    15
100
AcDbLine
 10
-116.8352784791639
 20
89.6850509244876
 30
0.0
 11
-116.8352784791639
 21
137.5344252077813
 31
0.0
  0
LINE
  5
1ED
330
1F
100
AcDbEntity
  8
0
  6
Continuous
 62
     7
370
    15
100
AcDbLine
 10
-116.8352784791639
 20
137.5344252077813
 30
0.0
 11
-119.899899037364
 21
137.5344252077813
 31
0.0
  0
LINE
  5
1EE
330
1F
100
AcDbEntity
  8
0
  6
Continuous
 62
     7
370
    15
100
AcDbLine
 10
-119.899899037364
 20
137.5344252077813
 30
0.0
 11
-119.899899037364
 21
89.6850509244876
 31
0.0
  0
LINE
  5
1EF
330
1F
100
AcDbEntity
  8
0
  6
Continuous
 62
     7
370
    15
100
AcDbLine
 10
-119.899899037364
 20
89.6850509244876
 30
0.0
 11
-116.8352784791639
 21
89.6850509244876
 31
0.0
  0
LINE
  5
1F0
330
1F
100
AcDbEntity
  8
0
  6
Continuous
 62
     7
370
    15
100
AcDbLine
 10
-106.8352784791638
 20
89.6850509244876
 30
0.0
 11
-106.8352784791638
 21
137.5344252077813
 31
0.0
  0
LINE
  5
1F1
330
1F
100
AcDbEntity
  8
0
  6
Continuous
 62
     7
370
    15
100
AcDbLine
 10
-106.8352784791638
 20
137.5344252077813
 30
0.0
 11
-109.899899037364
 21
137.5344252077813
 31
0.0
  0
LINE
  5
1F2
330
1F
100
AcDbEntity
  8
0
  6
Continuous
 62
     7
370
    15
100
AcDbLine
 10
-109.899899037364
 20
137.5344252077813
 30
0.0
 11
-109.899899037364
 21
89.6850509244876
 31
0.0
  0
LINE
  5
1F3
330
1F
100
AcDbEntity
  8
0
  6
Continuous
 62
     7
370
    15
100
AcDbLine
 10
-109.899899037364
 20
89.6850509244876
 30
0.0
 11
-106.8352784791638
 21
89.6850509244876
 31
0.0
  0
LINE
  5
1F4
330
1F
100
AcDbEntity
  8
0
  6
Continuous
 62
     7
370
    15
100
AcDbLine
 10
-96.83527847916389
 20
89.6850509244876
 30
0.0
 11
-96.83527847916389
 21
137.5344252077813
 31
0.0
  0
LINE
  5
1F5
330
1F
100
AcDbEntity
  8
0
  6
Continuous
 62
     7
370
    15
100
AcDbLine
 10
-96.83527847916389
 20
137.5344252077813
 30
0.0
 11
-99.89989903736404
 21
137.5344252077813
 31
0.0
  0
LINE
  5
1F6
330
1F
100
AcDbEntity
  8
0
  6
Continuous
 62
     7
370
    15
100
AcDbLine
 10
-99.89989903736404
 20
137.5344252077813
 30
0.0
 11
-99.89989903736399
 21
89.6850509244876
 31
0.0
  0
LINE
  5
1F7
330
1F
100
AcDbEntity
  8
0
  6
Continuous
 62
     7
370
    15
100
AcDbLine
 10
-99.89989903736399
 20
89.6850509244876
 30
0.0
 11
-96.83527847916389
 21
89.6850509244876
 31
0.0
  0
LINE
  5
1F8
330
1F
100
AcDbEntity
  8
0
  6
Continuous
 62
     7
370
    15
100
AcDbLine
 10
-86.83527847916389
 20
89.6850509244876
 30
0.0
 11
-86.83527847916389
 21
137.5344252077813
 31
0.0
  0
LINE
  5
1F9
330
1F
100
AcDbEntity
  8
0
  6
Continuous
 62
     7
370
    15
100
AcDbLine
 10
-86.83527847916389
 20
137.5344252077813
 30
0.0
 11
-89.89989903736399
 21
137.5344252077813
 31
0.0
  0
LINE
  5
1FA
330
1F
100
AcDbEntity
  8
0
  6
Continuous
 62
     7
370
    15
100
AcDbLine
 10
-89.89989903736399
 20
137.5344252077813
 30
0.0
 11
-89.89989903736399
 21
89.6850509244876
 31
0.0
  0
LINE
  5
1FB
330
1F
100
AcDbEntity
  8
0
  6
Continuous
 62
     7
370
    15
100
AcDbLine
 10
-89.89989903736399
 20
89.6850509244876
 30
0.0
 11
-86.83527847916389
 21
89.6850509244876
 31
0.0
  0
LINE
  5
1FC
330
1F
100
AcDbEntity
  8
0
  6
Continuous
 62
     7
370
    15
100
AcDbLine
 10
-76.83527847916389
 20
89.6850509244876
 30
0.0
 11
-76.83527847916389
 21
137.5344252077813
 31
0.0
  0
LINE
  5
1FD
330
1F
100
AcDbEntity
  8
0
  6
Continuous
 62
     7
370
    15
100
AcDbLine
 10
-76.83527847916389
 20
137.5344252077813
 30
0.0
 11
-79.89989903736398
 21
137.5344252077813
 31
0.0
  0
LINE
  5
1FE
330
1F
100
AcDbEntity
  8
0
  6
Continuous
 62
     7
370
    15
100
AcDbLine
 10
-79.89989903736398
 20
137.5344252077813
 30
0.0
 11
-79.89989903736398
 21
89.6850509244876
 31
0.0
  0
LINE
  5
1FF
330
1F
100
AcDbEntity
  8
0
  6
Continuous
 62
     7
370
    15
100
AcDbLine
 10
-79.89989903736398
 20
89.6850509244876
 30
0.0
 11
-76.83527847916389
 21
89.6850509244876
 31
0.0
  0
LINE
  5
200
330
1F
100
AcDbEntity
  8
0
  6
Continuous
 62
     7
370
    15
100
AcDbLine
 10
-66.83527847916389
 20
89.6850509244876
 30
0.0
 11
-66.835278479164
 21
137.5344252077813
 31
0.0
  0
LINE
  5
201
330
1F
100
AcDbEntity
  8
0
  6
Continuous
 62
     7
370
    15
100
AcDbLine
 10
-66.835278479164
 20
137.5344252077813
 30
0.0
 11
-69.89989903736409
 21
137.5344252077813
 31
0.0
  0
LINE
  5
202
330
1F
100
AcDbEntity
  8
0
  6
Continuous
 62
     7
370
    15
100
AcDbLine
 10
-69.89989903736409
 20
137.5344252077813
 30
0.0
 11
-69.89989903736398
 21
89.6850509244876
 31
0.0
  0
LINE
  5
203
330
1F
100
AcDbEntity
  8
0
  6
Continuous
 62
     7
370
    15
100
AcDbLine
 10
-69.89989903736398
 20
89.6850509244876
 30
0.0
 11
-66.83527847916389
 21
89.6850509244876
 31
0.0
  0
LINE
  5
204
330
1F
100
AcDbEntity
  8
0
  6
Continuous
 62
     7
370
    15
100
AcDbLine
 10
-56.83527847916383
 20
89.6850509244876
 30
0.0
 11
-56.83527847916394
 21
137.5344252077813
 31
0.0
  0
LINE
  5
205
330
1F
100
AcDbEntity
  8
0
  6
Continuous
 62
     7
370
    15
100
AcDbLine
 10
-56.83527847916394
 20
137.5344252077813
 30
0.0
 11
-59.89989903736409
 21
137.5344252077813
 31
0.0
  0
LINE
  5
206
330
1F
100
AcDbEntity
  8
0
  6
Continuous
 62
     7
370
    15
100
AcDbLine
 10
-59.89989903736409
 20
137.5344252077813
 30
0.0
 11
-59.89989903736398
 21
89.6850509244876
 31
0.0
  0
LINE
  5
207
330
1F
100
AcDbEntity
  8
0
  6
Continuous
 62
     7
370
    15
100
AcDbLine
 10
-59.89989903736398
 20
89.6850509244876
 30
0.0
 11
-56.83527847916383
 21
89.6850509244876
 31
0.0
  0
LINE
  5
208
330
1F
100
AcDbEntity
  8
0
  6
Continuous
 62
     7
370
    15
100
AcDbLine
 10
-46.83527847916383
 20
89.6850509244876
 30
0.0
 11
-46.83527847916394
 21
137.5344252077813
 31
0.0
  0
LINE
  5
209
330
1F
100
AcDbEntity
  8
0
  6
Continuous
 62
     7
370
    15
100
AcDbLine
 10
-46.83527847916394
 20
137.5344252077813
 30
0.0
 11
-49.89989903736409
 21
137.5344252077813
 31
0.0
  0
LINE
  5
20A
330
1F
100
AcDbEntity
  8
0
  6
Continuous
 62
     7
370
    15
100
AcDbLine
 10
-49.89989903736409
 20
137.5344252077813
 30
0.0
 11
-49.89989903736398
 21
89.6850509244876
 31
0.0
  0
LINE
  5
20B
330
1F
100
AcDbEntity
  8
0
  6
Continuous
 62
     7
370
    15
100
AcDbLine
 10
-49.89989903736398
 20
89.6850509244876
 30
0.0
 11
-46.83527847916383
 21
89.6850509244876
 31
0.0
  0
LINE
  5
20C
330
1F
100
AcDbEntity
  8
0
  6
Continuous
 62
     7
370
    15
100
AcDbLine
 10
-36.83527847916383
 20
89.6850509244876
 30
0.0
 11
-36.83527847916395
 21
137.5344252077813
 31
0.0
  0
LINE
  5
20D
330
1F
100
AcDbEntity
  8
0
  6
Continuous
 62
     7
370
    15
100
AcDbLine
 10
-36.83527847916395
 20
137.5344252077813
 30
0.0
 11
-39.8998990373641
 21
137.5344252077813
 31
0.0
  0
LINE
  5
20E
330
1F
100
AcDbEntity
  8
0
  6
Continuous
 62
     7
370
    15
100
AcDbLine
 10
-39.8998990373641
 20
137.5344252077813
 30
0.0
 11
-39.89989903736398
 21
89.6850509244876
 31
0.0
  0
LINE
  5
20F
330
1F
100
AcDbEntity
  8
0
  6
Continuous
 62
     7
370
    15
100
AcDbLine
 10
-39.89989903736398
 20
89.6850509244876
 30
0.0
 11
-36.83527847916383
 21
89.6850509244876
 31
0.0
  0
LINE
  5
210
330
1F
100
AcDbEntity
  8
0
  6
Continuous
 62
     7
370
    15
100
AcDbLine
 10
-26.83527847916383
 20
89.6850509244876
 30
0.0
 11
-26.83527847916395
 21
137.5344252077813
 31
0.0
  0
LINE
  5
211
330
1F
100
AcDbEntity
  8
0
  6
Continuous
 62
     7
370
    15
100
AcDbLine
 10
-26.83527847916395
 20
137.5344252077813
 30
0.0
 11
-29.89989903736404
 21
137.5344252077813
 31
0.0
  0
LINE
  5
212
330
1F
100
AcDbEntity
  8
0
  6
Continuous
 62
     7
370
    15
100
AcDbLine
 10
-29.89989903736404
 20
137.5344252077813
 30
0.0
 11
-29.89989903736392
 21
89.6850509244876
 31
0.0
  0
LINE
  5
213
330
1F
100
AcDbEntity
  8
0
  6
Continuous
 62
     7
370
    15
100
AcDbLine
 10
-29.89989903736392
 20
89.6850509244876
 30
0.0
 11
-26.83527847916383
 21
89.6850509244876
 31
0.0
  0
LINE
  5
214
330
1F
100
AcDbEntity
  8
0
  6
Continuous
 62
     7
370
    15
100
AcDbLine
 10
-16.83527847916383
 20
89.6850509244876
 30
0.0
 11
-16.83527847916394
 21
137.5344252077813
 31
0.0
  0
LINE
  5
215
330
1F
100
AcDbEntity
  8
0
  6
Continuous
 62
     7
370
    15
100
AcDbLine
 10
-16.83527847916394
 20
137.5344252077813
 30
0.0
 11
-19.89989903736404
 21
137.5344252077813
 31
0.0
  0
LINE
  5
216
330
1F
100
AcDbEntity
  8
0
  6
Continuous
 62
     7
370
    15
100
AcDbLine
 10
-19.89989903736404
 20
137.5344252077813
 30
0.0
 11
-19.89989903736392
 21
89.6850509244876
 31
0.0
  0
LINE
  5
217
330
1F
100
AcDbEntity
  8
0
  6
Continuous
 62
     7
370
    15
100
AcDbLine
 10
-19.89989903736392
 20
89.6850509244876
 30
0.0
 11
-16.83527847916383
 21
89.6850509244876
 31
0.0
  0
LINE
  5
218
330
1F
100
AcDbEntity
  8
0
  6
Continuous
 62
     7
370
    15
100
AcDbLine
 10
-6.835278479163832
 20
89.6850509244876
 30
0.0
 11
-6.835278479163946
 21
137.5344252077813
 31
0.0
  0
LINE
  5
219
330
1F
100
AcDbEntity
  8
0
  6
Continuous
 62
     7
370
    15
100
AcDbLine
 10
-6.835278479163946
 20
137.5344252077813
 30
0.0
 11
-9.899899037364036
 21
137.5344252077813
 31
0.0
  0
LINE
  5
21A
330
1F
100
AcDbEntity
  8
0
  6
Continuous
 62
     7
370
    15
100
AcDbLine
 10
-9.899899037364036
 20
137.5344252077813
 30
0.0
 11
-9.899899037363923
 21
89.6850509244876
 31
0.0
  0
LINE
  5
21B
330
1F
100
AcDbEntity
  8
0
  6
Continuous
 62
     7
370
    15
100
AcDbLine
 10
-9.899899037363923
 20
89.6850509244876
 30
0.0
 11
-6.835278479163832
 21
89.6850509244876
 31
0.0
  0
LINE
  5
21C
330
1F
100
AcDbEntity
  8
0
  6
Continuous
 62
     7
370
    15
100
AcDbLine
 10
3.16472152083611
 20
89.6850509244876
 30
0.0
 11
3.16472152083611
 21
137.5344252077813
 31
0.0
  0
LINE
  5
21D
330
1F
100
AcDbEntity
  8
0
  6
Continuous
 62
     7
370
    15
100
AcDbLine
 10
3.16472152083611
 20
137.5344252077813
 30
0.0
 11
0.1001009626359632
 21
137.5344252077813
 31
0.0
  0
LINE
  5
21E
330
1F
100
AcDbEntity
  8
0
  6
Continuous
 62
     7
370
    15
100
AcDbLine
 10
0.1001009626359632
 20
137.5344252077813
 30
0.0
 11
0.1001009626359632
 21
89.6850509244876
 31
0.0
  0
LINE
  5
21F
330
1F
100
AcDbEntity
  8
0
  6
Continuous
 62
     7
370
    15
100
AcDbLine
 10
0.1001009626359632
 20
89.6850509244876
 30
0.0
 11
3.16472152083611
 21
89.6850509244876
 31
0.0
  0
LINE
  5
220
330
1F
100
AcDbEntity
  8
0
  6
Continuous
 62
     7
370
    15
100
AcDbLine
 10
13.16472152083611
 20
89.6850509244876
 30
0.0
 11
13.164721520836
 21
137.5344252077813
 31
0.0
  0
LINE
  5
221
330
1F
100
AcDbEntity
  8
0
  6
Continuous
 62
     7
370
    15
100
AcDbLine
 10
13.164721520836
 20
137.5344252077813
 30
0.0
 11
10.10010096263585
 21
137.5344252077813
 31
0.0
  0
LINE
  5
222
330
1F
100
AcDbEntity
  8
0
  6
Continuous
 62
     7
370
    15
100
AcDbLine
 10
10.10010096263585
 20
137.5344252077813
 30
0.0
 11
10.10010096263596
 21
89.6850509244876
 31
0.0
  0
LINE
  5
223
330
1F
100
AcDbEntity
  8
0
  6
Continuous
 62
     7
370
    15
100
AcDbLine
 10
10.10010096263596
 20
89.6850509244876
 30
0.0
 11
13.16472152083611
 21
89.6850509244876
 31
0.0
  0
LINE
  5
224
330
1F
100
AcDbEntity
  8
0
  6
Continuous
 62
     7
370
    15
100
AcDbLine
 10
23.16472152083611
 20
89.6850509244876
 30
0.0
 11
23.164721520836
 21
137.5344252077813
 31
0.0
  0
LINE
  5
225
330
1F
100
AcDbEntity
  8
0
  6
Continuous
 62
     7
370
    15
100
AcDbLine
 10
23.164721520836
 20
137.5344252077813
 30
0.0
 11
20.10010096263585
 21
137.5344252077813
 31
0.0
  0
LINE
  5
226
330
1F
100
AcDbEntity
  8
0
  6
Continuous
 62
     7
370
    15
100
AcDbLine
 10
20.10010096263585
 20
137.5344252077813
 30
0.0
 11
20.10010096263596
 21
89.6850509244876
 31
0.0
  0
LINE
  5
227
330
1F
100
AcDbEntity
  8
0
  6
Continuous
 62
     7
370
    15
100
AcDbLine
 10
20.10010096263596
 20
89.6850509244876
 30
0.0
 11
23.16472152083611
 21
89.6850509244876
 31
0.0
  0
LINE
  5
228
330
1F
100
AcDbEntity
  8
0
  6
Continuous
 62
     7
370
    15
100
AcDbLine
 10
33.16472152083611
 20
89.6850509244876
 30
0.0
 11
33.164721520836
 21
137.5344252077813
 31
0.0
  0
LINE
  5
229
330
1F
100
AcDbEntity
  8
0
  6
Continuous
 62
     7
370
    15
100
AcDbLine
 10
33.164721520836
 20
137.5344252077813
 30
0.0
 11
30.10010096263591
 21
137.5344252077813
 31
0.0
  0
LINE
  5
22A
330
1F
100
AcDbEntity
  8
0
  6
Continuous
 62
     7
370
    15
100
AcDbLine
 10
30.10010096263591
 20
137.5344252077813
 30
0.0
 11
30.10010096263602
 21
89.6850509244876
 31
0.0
  0
LINE
  5
22B
330
1F
100
AcDbEntity
  8
0
  6
Continuous
 62
     7
370
    15
100
AcDbLine
 10
30.10010096263602
 20
89.6850509244876
 30
0.0
 11
33.16472152083611
 21
89.6850509244876
 31
0.0
  0
LINE
  5
22C
330
1F
100
AcDbEntity
  8
0
  6
Continuous
 62
     7
370
    15
100
AcDbLine
 10
43.16472152083611
 20
89.6850509244876
 30
0.0
 11
43.164721520836
 21
137.5344252077813
 31
0.0
  0
LINE
  5
22D
330
1F
100
AcDbEntity
  8
0
  6
Continuous
 62
     7
370
    15
100
AcDbLine
 10
43.164721520836
 20
137.5344252077813
 30
0.0
 11
40.10010096263591
 21
137.5344252077813
 31
0.0
  0
LINE
  5
22E
330
1F
100
AcDbEntity
  8
0
  6
Continuous
 62
     7
370
    15
100
AcDbLine
 10
40.10010096263591
 20
137.5344252077813
 30
0.0
 11
40.10010096263601
 21
89.6850509244876
 31
0.0
  0
LINE
  5
22F
330
1F
100
AcDbEntity
  8
0
  6
Continuous
 62
     7
370
    15
100
AcDbLine
 10
40.10010096263601
 20
89.6850509244876
 30
0.0
 11
43.16472152083611
 21
89.6850509244876
 31
0.0
  0
LINE
  5
230
330
1F
100
AcDbEntity
  8
0
  6
Continuous
 62
     7
370
    15
100
AcDbLine
 10
-215.1298087528838
 20
147.8076252033907
 30
0.0
 11
-215.1298087528838
 21
87.80762520339076
 31
0.0
  0
LINE
  5
231
330
1F
100
AcDbEntity
  8
0
  6
Continuous
 62
     7
370
    15
100
AcDbLine
 10
-215.1298087528838
 20
-185.9907660642593
 30
0.0
 11
-217.1298087528839
 21
-185.9907660642593
 31
0.0
  0
LINE
  5
232
330
1F
100
AcDbEntity
  8
0
  6
Continuous
 62
     7
370
    15
100
AcDbLine
 10
-217.1298087528839
 20
-233.9756038298597
 30
0.0
 11
-217.1298087528839
 21
-185.9907660642593
 31
0.0
  0
LINE
  5
233
330
1F
100
AcDbEntity
  8
0
  6
Continuous
 62
     7
370
    15
100
AcDbLine
 10
-215.1298087528838
 20
-233.9756038298597
 30
0.0
 11
-215.1298087528838
 21
-189.9224634213065
 31
0.0
  0
LINE
  5
234
330
1F
100
AcDbEntity
  8
0
  6
Continuous
 62
     7
370
    15
100
AcDbLine
 10
-215.1298087528838
 20
-311.0082674811934
 30
0.0
 11
-217.1298087528839
 21
-311.0082674811934
 31
0.0
  0
LINE
  5
235
330
1F
100
AcDbEntity
  8
0
  6
Continuous
 62
     7
370
    15
100
AcDbLine
 10
-217.1298087528839
 20
-311.0082674811934
 30
0.0
 11
-217.1298087528839
 21
-263.9756038298598
 31
0.0
  0
LINE
  5
236
330
1F
100
AcDbEntity
  8
0
  6
Continuous
 62
     7
370
    15
100
AcDbLine
 10
-215.1298087528838
 20
-307.0765701241472
 30
0.0
 11
-215.1298087528838
 21
-263.9756038298598
 31
0.0
  0
LINE
  5
237
330
1F
100
AcDbEntity
  8
0
  6
Continuous
 62
     7
370
    15
100
AcDbLine
 10
48.87019124711617
 20
-189.9224634213057
 30
0.0
 11
48.87019124711628
 21
-233.9756038298597
 31
0.0
  0
LINE
  5
238
330
1F
100
AcDbEntity
  8
0
  6
Continuous
 62
     7
370
    15
100
AcDbLine
 10
48.87019124711628
 20
-185.9907660642599
 30
0.0
 11
50.87019124711628
 21
-185.9907660642599
 31
0.0
  0
LINE
  5
239
330
1F
100
AcDbEntity
  8
0
  6
Continuous
 62
     7
370
    15
100
AcDbLine
 10
50.87019124711628
 20
-185.9907660642599
 30
0.0
 11
50.87019124711628
 21
-233.9756038298597
 31
0.0
  0
LINE
  5
23A
330
1F
100
AcDbEntity
  8
0
  6
Continuous
 62
     7
370
    15
100
AcDbLine
 10
48.87019124711628
 20
-311.008267481194
 30
0.0
 11
50.87019124711628
 21
-311.008267481194
 31
0.0
  0
LINE
  5
23B
330
1F
100
AcDbEntity
  8
0
  6
Continuous
 62
     7
370
    15
100
AcDbLine
 10
48.87019124711628
 20
-263.9756038298596
 30
0.0
 11
48.87019124711617
 21
-307.0765701241481
 31
0.0
  0
LINE
  5
23C
330
1F
100
AcDbEntity
  8
0
  6
Continuous
 62
     7
370
    15
100
AcDbLine
 10
50.87019124711628
 20
-263.9756038298596
 30
0.0
 11
50.87019124711628
 21
-311.008267481194
 31
0.0
  0
LINE
  5
23D
330
1F
100
AcDbEntity
  8
0
  6
Continuous
 62
     7
370
    15
100
AcDbLine
 10
52.87019124711616
 20
-263.9756038298596
 30
0.0
 11
52.87019124711616
 21
-233.9756038298595
 31
0.0
  0
LINE
  5
23E
330
1F
100
AcDbEntity
  8
0
  6
Continuous
 62
     7
370
    15
100
AcDbLine
 10
52.87019124711616
 20
-263.9756038298596
 30
0.0
 11
-219.1298087528838
 21
-263.9756038298596
 31
0.0
  0
LINE
  5
23F
330
1F
100
AcDbEntity
  8
0
  6
Continuous
 62
     7
370
    15
100
AcDbLine
 10
-219.1298087528838
 20
-263.9756038298596
 30
0.0
 11
-219.1298087528838
 21
-233.9756038298595
 31
0.0
  0
LINE
  5
240
330
1F
100
AcDbEntity
  8
0
  6
Continuous
 62
     7
370
    15
100
AcDbLine
 10
52.87019124711616
 20
-233.9756038298595
 30
0.0
 11
-219.1298087528838
 21
-233.9756038298595
 31
0.0
  0
LINE
  5
241
330
1F
100
AcDbEntity
  8
0
  6
Continuous
 62
     7
370
    15
100
AcDbLine
 10
-215.1298087528838
 20
-208.6053231628778
 30
0.0
 11
48.87019124711617
 21
-208.6053231628778
 31
0.0
  0
LINE
  5
242
330
1F
100
AcDbEntity
  8
0
  6
Continuous
 62
     7
370
    15
100
AcDbLine
 10
48.87019124711617
 20
-179.8099886309914
 30
0.0
 11
-215.1298087528838
 21
-179.8099886309914
 31
0.0
  0
LINE
  5
243
330
1F
100
AcDbEntity
  8
0
  6
Continuous
 62
     7
370
    15
100
AcDbLine
 10
-215.1298087528838
 20
-179.8099886309914
 30
0.0
 11
-215.1298087528838
 21
-189.9224634213065
 31
0.0
  0
LINE
  5
244
330
1F
100
AcDbEntity
  8
0
  6
Continuous
 62
     7
370
    15
100
AcDbLine
 10
48.87019124711617
 20
-189.9224634213057
 30
0.0
 11
48.87019124711617
 21
-179.8099886309914
 31
0.0
  0
LINE
  5
245
330
1F
100
AcDbEntity
  8
0
  6
Continuous
 62
     7
370
    15
100
AcDbLine
 10
135.5186826718302
 20
-144.6226257045732
 30
0.0
 11
135.5186826718302
 21
-164.6226257045731
 31
0.0
  0
LINE
  5
246
330
1F
100
AcDbEntity
  8
0
  6
Continuous
 62
     7
370
    15
100
AcDbLine
 10
125.5186826718303
 20
-144.6226257045732
 30
0.0
 11
135.5186826718302
 21
-144.6226257045732
 31
0.0
  0
LINE
  5
247
330
1F
100
AcDbEntity
  8
0
  6
Continuous
 62
     7
370
    15
100
AcDbLine
 10
125.5186826718303
 20
-164.6226257045731
 30
0.0
 11
125.5186826718303
 21
-144.6226257045732
 31
0.0
  0
LINE
  5
248
330
1F
100
AcDbEntity
  8
0
  6
Continuous
 62
     7
370
    15
100
AcDbLine
 10
135.5186826718302
 20
-164.6226257045731
 30
0.0
 11
125.5186826718303
 21
-164.6226257045731
 31
0.0
  0
LINE
  5
249
330
1F
100
AcDbEntity
  8
0
  6
Continuous
 62
     7
370
    15
100
AcDbLine
 10
105.5186826718302
 20
-144.6226257045728
 30
0.0
 11
105.5186826718302
 21
-164.6226257045728
 31
0.0
  0
LINE
  5
24A
330
1F
100
AcDbEntity
  8
0
  6
Continuous
 62
     7
370
    15
100
AcDbLine
 10
95.51868267183023
 20
-144.6226257045728
 30
0.0
 11
105.5186826718302
 21
-144.6226257045728
 31
0.0
  0
LINE
  5
24B
330
1F
100
AcDbEntity
  8
0
  6
Continuous
 62
     7
370
    15
100
AcDbLine
 10
95.51868267183023
 20
-164.6226257045728
 30
0.0
 11
95.51868267183023
 21
-144.6226257045728
 31
0.0
  0
LINE
  5
24C
330
1F
100
AcDbEntity
  8
0
  6
Continuous
 62
     7
370
    15
100
AcDbLine
 10
105.5186826718302
 20
-164.6226257045728
 30
0.0
 11
95.51868267183023
 21
-164.6226257045728
 31
0.0
  0
LINE
  5
24D
330
1F
100
AcDbEntity
  8
0
  6
Continuous
 62
     7
370
    15
100
AcDbLine
 10
75.51868267183022
 20
-144.6226257045725
 30
0.0
 11
75.51868267183022
 21
-164.6226257045725
 31
0.0
  0
LINE
  5
24E
330
1F
100
AcDbEntity
  8
0
  6
Continuous
 62
     7
370
    15
100
AcDbLine
 10
65.51868267183022
 20
-144.6226257045725
 30
0.0
 11
75.51868267183022
 21
-144.6226257045725
 31
0.0
  0
LINE
  5
24F
330
1F
100
AcDbEntity
  8
0
  6
Continuous
 62
     7
370
    15
100
AcDbLine
 10
65.51868267183022
 20
-164.6226257045725
 30
0.0
 11
65.51868267183022
 21
-144.6226257045725
 31
0.0
  0
LINE
  5
250
330
1F
100
AcDbEntity
  8
0
  6
Continuous
 62
     7
370
    15
100
AcDbLine
 10
75.51868267183022
 20
-164.6226257045725
 30
0.0
 11
65.51868267183022
 21
-164.6226257045725
 31
0.0
  0
LINE
  5
251
330
1F
100
AcDbEntity
  8
0
  6
Continuous
 62
     7
370
    15
100
AcDbLine
 10
45.51868267183027
 20
-144.6226257045722
 30
0.0
 11
45.51868267183027
 21
-164.6226257045722
 31
0.0
  0
LINE
  5
252
330
1F
100
AcDbEntity
  8
0
  6
Continuous
 62
     7
370
    15
100
AcDbLine
 10
35.51868267183028
 20
-144.6226257045722
 30
0.0
 11
45.51868267183027
 21
-144.6226257045722
 31
0.0
  0
LINE
  5
253
330
1F
100
AcDbEntity
  8
0
  6
Continuous
 62
     7
370
    15
100
AcDbLine
 10
35.51868267183028
 20
-164.6226257045722
 30
0.0
 11
35.51868267183028
 21
-144.6226257045722
 31
0.0
  0
LINE
  5
254
330
1F
100
AcDbEntity
  8
0
  6
Continuous
 62
     7
370
    15
100
AcDbLine
 10
45.51868267183027
 20
-164.6226257045722
 30
0.0
 11
35.51868267183028
 21
-164.6226257045722
 31
0.0
  0
LINE
  5
255
330
1F
100
AcDbEntity
  8
0
  6
Continuous
 62
     7
370
    15
100
AcDbLine
 10
15.51868267183027
 20
-144.6226257045719
 30
0.0
 11
15.51868267183027
 21
-164.6226257045719
 31
0.0
  0
LINE
  5
256
330
1F
100
AcDbEntity
  8
0
  6
Continuous
 62
     7
370
    15
100
AcDbLine
 10
5.518682671830276
 20
-144.6226257045719
 30
0.0
 11
15.51868267183027
 21
-144.6226257045719
 31
0.0
  0
LINE
  5
257
330
1F
100
AcDbEntity
  8
0
  6
Continuous
 62
     7
370
    15
100
AcDbLine
 10
5.518682671830276
 20
-164.6226257045719
 30
0.0
 11
5.518682671830276
 21
-144.6226257045719
 31
0.0
  0
LINE
  5
258
330
1F
100
AcDbEntity
  8
0
  6
Continuous
 62
     7
370
    15
100
AcDbLine
 10
15.51868267183027
 20
-164.6226257045719
 30
0.0
 11
5.518682671830276
 21
-164.6226257045719
 31
0.0
  0
LINE
  5
259
330
1F
100
AcDbEntity
  8
0
  6
Continuous
 62
     7
370
    15
100
AcDbLine
 10
-14.48131732816978
 20
-144.6226257045716
 30
0.0
 11
-14.48131732816978
 21
-164.6226257045716
 31
0.0
  0
LINE
  5
25A
330
1F
100
AcDbEntity
  8
0
  6
Continuous
 62
     7
370
    15
100
AcDbLine
 10
-24.48131732816978
 20
-144.6226257045716
 30
0.0
 11
-14.48131732816978
 21
-144.6226257045716
 31
0.0
  0
LINE
  5
25B
330
1F
100
AcDbEntity
  8
0
  6
Continuous
 62
     7
370
    15
100
AcDbLine
 10
-24.48131732816978
 20
-164.6226257045716
 30
0.0
 11
-24.48131732816978
 21
-144.6226257045716
 31
0.0
  0
LINE
  5
25C
330
1F
100
AcDbEntity
  8
0
  6
Continuous
 62
     7
370
    15
100
AcDbLine
 10
-14.48131732816978
 20
-164.6226257045716
 30
0.0
 11
-24.48131732816978
 21
-164.6226257045716
 31
0.0
  0
LINE
  5
25D
330
1F
100
AcDbEntity
  8
0
  6
Continuous
 62
     7
370
    15
100
AcDbLine
 10
-44.48131732816977
 20
-144.6226257045713
 30
0.0
 11
-44.48131732816977
 21
-164.6226257045713
 31
0.0
  0
LINE
  5
25E
330
1F
100
AcDbEntity
  8
0
  6
Continuous
 62
     7
370
    15
100
AcDbLine
 10
-54.48131732816978
 20
-144.6226257045713
 30
0.0
 11
-44.48131732816977
 21
-144.6226257045713
 31
0.0
  0
LINE
  5
25F
330
1F
100
AcDbEntity
  8
0
  6
Continuous
 62
     7
370
    15
100
AcDbLine
 10
-54.48131732816978
 20
-164.6226257045713
 30
0.0
 11
-54.48131732816978
 21
-144.6226257045713
 31
0.0
  0
LINE
  5
260
330
1F
100
AcDbEntity
  8
0
  6
Continuous
 62
     7
370
    15
100
AcDbLine
 10
-44.48131732816977
 20
-164.6226257045713
 30
0.0
 11
-54.48131732816978
 21
-164.6226257045713
 31
0.0
  0
LINE
  5
261
330
1F
100
AcDbEntity
  8
0
  6
Continuous
 62
     7
370
    15
100
AcDbLine
 10
-74.48131732816984
 20
-144.6226257045709
 30
0.0
 11
-74.48131732816984
 21
-164.6226257045709
 31
0.0
  0
LINE
  5
262
330
1F
100
AcDbEntity
  8
0
  6
Continuous
 62
     7
370
    15
100
AcDbLine
 10
-84.48131732816978
 20
-144.6226257045709
 30
0.0
 11
-74.48131732816984
 21
-144.6226257045709
 31
0.0
  0
LINE
  5
263
330
1F
100
AcDbEntity
  8
0
  6
Continuous
 62
     7
370
    15
100
AcDbLine
 10
-84.48131732816978
 20
-164.6226257045709
 30
0.0
 11
-84.48131732816978
 21
-144.6226257045709
 31
0.0
  0
LINE
  5
264
330
1F
100
AcDbEntity
  8
0
  6
Continuous
 62
     7
370
    15
100
AcDbLine
 10
-74.48131732816984
 20
-164.6226257045709
 30
0.0
 11
-84.48131732816978
 21
-164.6226257045709
 31
0.0
  0
LINE
  5
265
330
1F
100
AcDbEntity
  8
0
  6
Continuous
 62
     7
370
    15
100
AcDbLine
 10
-104.4813173281698
 20
-144.6226257045706
 30
0.0
 11
-104.4813173281697
 21
-164.6226257045707
 31
0.0
  0
LINE
  5
266
330
1F
100
AcDbEntity
  8
0
  6
Continuous
 62
     7
370
    15
100
AcDbLine
 10
-114.4813173281697
 20
-144.6226257045706
 30
0.0
 11
-104.4813173281698
 21
-144.6226257045706
 31
0.0
  0
LINE
  5
267
330
1F
100
AcDbEntity
  8
0
  6
Continuous
 62
     7
370
    15
100
AcDbLine
 10
-114.4813173281697
 20
-164.6226257045707
 30
0.0
 11
-114.4813173281697
 21
-144.6226257045706
 31
0.0
  0
LINE
  5
268
330
1F
100
AcDbEntity
  8
0
  6
Continuous
 62
     7
370
    15
100
AcDbLine
 10
-104.4813173281697
 20
-164.6226257045707
 30
0.0
 11
-114.4813173281697
 21
-164.6226257045707
 31
0.0
  0
LINE
  5
269
330
1F
100
AcDbEntity
  8
0
  6
Continuous
 62
     7
370
    15
100
AcDbLine
 10
-134.4813173281698
 20
-144.6226257045703
 30
0.0
 11
-134.4813173281698
 21
-164.6226257045703
 31
0.0
  0
LINE
  5
26A
330
1F
100
AcDbEntity
  8
0
  6
Continuous
 62
     7
370
    15
100
AcDbLine
 10
-144.4813173281698
 20
-144.6226257045703
 30
0.0
 11
-134.4813173281698
 21
-144.6226257045703
 31
0.0
  0
LINE
  5
26B
330
1F
100
AcDbEntity
  8
0
  6
Continuous
 62
     7
370
    15
100
AcDbLine
 10
-144.4813173281698
 20
-164.6226257045703
 30
0.0
 11
-144.4813173281698
 21
-144.6226257045703
 31
0.0
  0
LINE
  5
26C
330
1F
100
AcDbEntity
  8
0
  6
Continuous
 62
     7
370
    15
100
AcDbLine
 10
-134.4813173281698
 20
-164.6226257045703
 30
0.0
 11
-144.4813173281698
 21
-164.6226257045703
 31
0.0
  0
LINE
  5
26D
330
1F
100
AcDbEntity
  8
0
  6
Continuous
 62
     7
370
    15
100
AcDbLine
 10
-164.4813173281697
 20
-144.62262570457
 30
0.0
 11
-164.4813173281697
 21
-164.62262570457
 31
0.0
  0
LINE
  5
26E
330
1F
100
AcDbEntity
  8
0
  6
Continuous
 62
     7
370
    15
100
AcDbLine
 10
-174.4813173281697
 20
-144.62262570457
 30
0.0
 11
-164.4813173281697
 21
-144.62262570457
 31
0.0
  0
LINE
  5
26F
330
1F
100
AcDbEntity
  8
0
  6
Continuous
 62
     7
370
    15
100
AcDbLine
 10
-174.4813173281697
 20
-164.62262570457
 30
0.0
 11
-174.4813173281697
 21
-144.62262570457
 31
0.0
  0
LINE
  5
270
330
1F
100
AcDbEntity
  8
0
  6
Continuous
 62
     7
370
    15
100
AcDbLine
 10
-164.4813173281697
 20
-164.62262570457
 30
0.0
 11
-174.4813173281697
 21
-164.62262570457
 31
0.0
  0
LINE
  5
271
330
1F
100
AcDbEntity
  8
0
  6
Continuous
 62
     7
370
    15
100
AcDbLine
 10
-194.4813173281698
 20
-144.6226257045697
 30
0.0
 11
-194.4813173281697
 21
-164.6226257045697
 31
0.0
  0
LINE
  5
272
330
1F
100
AcDbEntity
  8
0
  6
Continuous
 62
     7
370
    15
100
AcDbLine
 10
-204.4813173281697
 20
-144.6226257045697
 30
0.0
 11
-194.4813173281698
 21
-144.6226257045697
 31
0.0
  0
LINE
  5
273
330
1F
100
AcDbEntity
  8
0
  6
Continuous
 62
     7
370
    15
100
AcDbLine
 10
-204.4813173281697
 20
-164.6226257045697
 30
0.0
 11
-204.4813173281697
 21
-144.6226257045697
 31
0.0
  0
LINE
  5
274
330
1F
100
AcDbEntity
  8
0
  6
Continuous
 62
     7
370
    15
100
AcDbLine
 10
-194.4813173281697
 20
-164.6226257045697
 30
0.0
 11
-204.4813173281697
 21
-164.6226257045697
 31
0.0
  0
LINE
  5
275
330
1F
100
AcDbEntity
  8
0
  6
Continuous
 62
     7
370
    15
100
AcDbLine
 10
-224.4813173281698
 20
-144.6226257045694
 30
0.0
 11
-224.4813173281698
 21
-164.6226257045694
 31
0.0
  0
LINE
  5
276
330
1F
100
AcDbEntity
  8
0
  6
Continuous
 62
     7
370
    15
100
AcDbLine
 10
-234.4813173281698
 20
-144.6226257045694
 30
0.0
 11
-224.4813173281698
 21
-144.6226257045694
 31
0.0
  0
LINE
  5
277
330
1F
100
AcDbEntity
  8
0
  6
Continuous
 62
     7
370
    15
100
AcDbLine
 10
-234.4813173281698
 20
-164.6226257045694
 30
0.0
 11
-234.4813173281698
 21
-144.6226257045694
 31
0.0
  0
LINE
  5
278
330
1F
100
AcDbEntity
  8
0
  6
Continuous
 62
     7
370
    15
100
AcDbLine
 10
-224.4813173281698
 20
-164.6226257045694
 30
0.0
 11
-234.4813173281698
 21
-164.6226257045694
 31
0.0
  0
LINE
  5
279
330
1F
100
AcDbEntity
  8
0
  6
Continuous
 62
     7
370
    15
100
AcDbLine
 10
-254.4813173281698
 20
-144.6226257045691
 30
0.0
 11
-254.4813173281698
 21
-164.6226257045691
 31
0.0
  0
LINE
  5
27A
330
1F
100
AcDbEntity
  8
0
  6
Continuous
 62
     7
370
    15
100
AcDbLine
 10
-264.4813173281698
 20
-144.6226257045691
 30
0.0
 11
-254.4813173281698
 21
-144.6226257045691
 31
0.0
  0
LINE
  5
27B
330
1F
100
AcDbEntity
  8
0
  6
Continuous
 62
     7
370
    15
100
AcDbLine
 10
-264.4813173281698
 20
-164.6226257045691
 30
0.0
 11
-264.4813173281698
 21
-144.6226257045691
 31
0.0
  0
LINE
  5
27C
330
1F
100
AcDbEntity
  8
0
  6
Continuous
 62
     7
370
    15
100
AcDbLine
 10
-254.4813173281698
 20
-164.6226257045691
 30
0.0
 11
-264.4813173281698
 21
-164.6226257045691
 31
0.0
  0
LINE
  5
27D
330
1F
100
AcDbEntity
  8
0
  6
Continuous
 62
     7
370
    15
100
AcDbLine
 10
-284.4813173281697
 20
-144.6226257045687
 30
0.0
 11
-284.4813173281697
 21
-164.6226257045688
 31
0.0
  0
LINE
  5
27E
330
1F
100
AcDbEntity
  8
0
  6
Continuous
 62
     7
370
    15
100
AcDbLine
 10
-294.4813173281698
 20
-144.6226257045687
 30
0.0
 11
-284.4813173281697
 21
-144.6226257045687
 31
0.0
  0
LINE
  5
27F
330
1F
100
AcDbEntity
  8
0
  6
Continuous
 62
     7
370
    15
100
AcDbLine
 10
-294.4813173281698
 20
-164.6226257045688
 30
0.0
 11
-294.4813173281698
 21
-144.6226257045687
 31
0.0
  0
LINE
  5
280
330
1F
100
AcDbEntity
  8
0
  6
Continuous
 62
     7
370
    15
100
AcDbLine
 10
-284.4813173281697
 20
-164.6226257045688
 30
0.0
 11
-294.4813173281698
 21
-164.6226257045688
 31
0.0
  0
LINE
  5
281
330
1F
100
AcDbEntity
  8
0
  6
Continuous
 62
     7
370
    15
100
AcDbLine
 10
48.87019124711617
 20
-179.8099886309914
 30
0.0
 11
146.677332181203
 21
-179.8099886309914
 31
0.0
  0
LINE
  5
282
330
1F
100
AcDbEntity
  8
0
  6
Continuous
 62
     7
370
    15
100
AcDbLine
 10
-316.322667818797
 20
-179.8099886309914
 30
0.0
 11
-215.1298087528838
 21
-179.8099886309914
 31
0.0
  0
LINE
  5
283
330
1F
100
AcDbEntity
  8
0
  6
Continuous
 62
     7
370
    15
100
AcDbLine
 10
-316.322667818797
 20
-139.2076558969346
 30
0.0
 11
-316.322667818797
 21
-179.8099886309914
 31
0.0
  0
LINE
  5
284
330
1F
100
AcDbEntity
  8
0
  6
Continuous
 62
     7
370
    15
100
AcDbLine
 10
-316.322667818797
 20
-139.2076558969346
 30
0.0
 11
146.677332181203
 21
-139.2076558969346
 31
0.0
  0
LINE
  5
285
330
1F
100
AcDbEntity
  8
0
  6
Continuous
 62
     7
370
    15
100
AcDbLine
 10
146.677332181203
 20
-139.2076558969346
 30
0.0
 11
146.677332181203
 21
-179.8099886309914
 31
0.0
  0
LINE
  5
286
330
1F
100
AcDbEntity
  8
0
  6
Continuous
 62
     7
370
    15
100
AcDbLine
 10
-299.4813173281698
 20
-144.6226257045686
 30
0.0
 11
-299.4813173281698
 21
-164.6226257045686
 31
0.0
  0
LINE
  5
287
330
1F
100
AcDbEntity
  8
0
  6
Continuous
 62
     7
370
    15
100
AcDbLine
 10
-309.4813173281698
 20
-144.6226257045686
 30
0.0
 11
-299.4813173281698
 21
-144.6226257045686
 31
0.0
  0
LINE
  5
288
330
1F
100
AcDbEntity
  8
0
  6
Continuous
 62
     7
370
    15
100
AcDbLine
 10
-309.4813173281698
 20
-164.6226257045686
 30
0.0
 11
-309.4813173281698
 21
-144.6226257045686
 31
0.0
  0
LINE
  5
289
330
1F
100
AcDbEntity
  8
0
  6
Continuous
 62
     7
370
    15
100
AcDbLine
 10
-299.4813173281698
 20
-164.6226257045686
 30
0.0
 11
-309.4813173281698
 21
-164.6226257045686
 31
0.0
  0
LINE
  5
28A
330
1F
100
AcDbEntity
  8
0
  6
Continuous
 62
     7
370
    15
100
AcDbLine
 10
-269.4813173281697
 20
-144.6226257045689
 30
0.0
 11
-269.4813173281697
 21
-164.6226257045689
 31
0.0
  0
LINE
  5
28B
330
1F
100
AcDbEntity
  8
0
  6
Continuous
 62
     7
370
    15
100
AcDbLine
 10
-279.4813173281697
 20
-144.6226257045689
 30
0.0
 11
-269.4813173281697
 21
-144.6226257045689
 31
0.0
  0
LINE
  5
28C
330
1F
100
AcDbEntity
  8
0
  6
Continuous
 62
     7
370
    15
100
AcDbLine
 10
-279.4813173281697
 20
-164.6226257045689
 30
0.0
 11
-279.4813173281697
 21
-144.6226257045689
 31
0.0
  0
LINE
  5
28D
330
1F
100
AcDbEntity
  8
0
  6
Continuous
 62
     7
370
    15
100
AcDbLine
 10
-269.4813173281697
 20
-164.6226257045689
 30
0.0
 11
-279.4813173281697
 21
-164.6226257045689
 31
0.0
  0
LINE
  5
28E
330
1F
100
AcDbEntity
  8
0
  6
Continuous
 62
     7
370
    15
100
AcDbLine
 10
-239.4813173281698
 20
-144.6226257045692
 30
0.0
 11
-239.4813173281698
 21
-164.6226257045693
 31
0.0
  0
LINE
  5
28F
330
1F
100
AcDbEntity
  8
0
  6
Continuous
 62
     7
370
    15
100
AcDbLine
 10
-249.4813173281698
 20
-144.6226257045692
 30
0.0
 11
-239.4813173281698
 21
-144.6226257045692
 31
0.0
  0
LINE
  5
290
330
1F
100
AcDbEntity
  8
0
  6
Continuous
 62
     7
370
    15
100
AcDbLine
 10
-249.4813173281698
 20
-164.6226257045693
 30
0.0
 11
-249.4813173281698
 21
-144.6226257045692
 31
0.0
  0
LINE
  5
291
330
1F
100
AcDbEntity
  8
0
  6
Continuous
 62
     7
370
    15
100
AcDbLine
 10
-239.4813173281698
 20
-164.6226257045693
 30
0.0
 11
-249.4813173281698
 21
-164.6226257045693
 31
0.0
  0
LINE
  5
292
330
1F
100
AcDbEntity
  8
0
  6
Continuous
 62
     7
370
    15
100
AcDbLine
 10
-209.4813173281698
 20
-144.6226257045696
 30
0.0
 11
-209.4813173281697
 21
-164.6226257045695
 31
0.0
  0
LINE
  5
293
330
1F
100
AcDbEntity
  8
0
  6
Continuous
 62
     7
370
    15
100
AcDbLine
 10
-219.4813173281698
 20
-144.6226257045696
 30
0.0
 11
-209.4813173281698
 21
-144.6226257045696
 31
0.0
  0
LINE
  5
294
330
1F
100
AcDbEntity
  8
0
  6
Continuous
 62
     7
370
    15
100
AcDbLine
 10
-219.4813173281698
 20
-164.6226257045695
 30
0.0
 11
-219.4813173281698
 21
-144.6226257045696
 31
0.0
  0
LINE
  5
295
330
1F
100
AcDbEntity
  8
0
  6
Continuous
 62
     7
370
    15
100
AcDbLine
 10
-209.4813173281697
 20
-164.6226257045695
 30
0.0
 11
-219.4813173281698
 21
-164.6226257045695
 31
0.0
  0
LINE
  5
296
330
1F
100
AcDbEntity
  8
0
  6
Continuous
 62
     7
370
    15
100
AcDbLine
 10
-179.4813173281697
 20
-144.6226257045699
 30
0.0
 11
-179.4813173281697
 21
-164.6226257045699
 31
0.0
  0
LINE
  5
297
330
1F
100
AcDbEntity
  8
0
  6
Continuous
 62
     7
370
    15
100
AcDbLine
 10
-189.4813173281697
 20
-144.6226257045699
 30
0.0
 11
-179.4813173281697
 21
-144.6226257045699
 31
0.0
  0
LINE
  5
298
330
1F
100
AcDbEntity
  8
0
  6
Continuous
 62
     7
370
    15
100
AcDbLine
 10
-189.4813173281697
 20
-164.6226257045699
 30
0.0
 11
-189.4813173281697
 21
-144.6226257045699
 31
0.0
  0
LINE
  5
299
330
1F
100
AcDbEntity
  8
0
  6
Continuous
 62
     7
370
    15
100
AcDbLine
 10
-179.4813173281697
 20
-164.6226257045699
 30
0.0
 11
-189.4813173281697
 21
-164.6226257045699
 31
0.0
  0
LINE
  5
29A
330
1F
100
AcDbEntity
  8
0
  6
Continuous
 62
     7
370
    15
100
AcDbLine
 10
-149.4813173281697
 20
-144.6226257045702
 30
0.0
 11
-149.4813173281697
 21
-164.6226257045702
 31
0.0
  0
LINE
  5
29B
330
1F
100
AcDbEntity
  8
0
  6
Continuous
 62
     7
370
    15
100
AcDbLine
 10
-159.4813173281697
 20
-144.6226257045702
 30
0.0
 11
-149.4813173281697
 21
-144.6226257045702
 31
0.0
  0
LINE
  5
29C
330
1F
100
AcDbEntity
  8
0
  6
Continuous
 62
     7
370
    15
100
AcDbLine
 10
-159.4813173281697
 20
-164.6226257045702
 30
0.0
 11
-159.4813173281697
 21
-144.6226257045702
 31
0.0
  0
LINE
  5
29D
330
1F
100
AcDbEntity
  8
0
  6
Continuous
 62
     7
370
    15
100
AcDbLine
 10
-149.4813173281697
 20
-164.6226257045702
 30
0.0
 11
-159.4813173281697
 21
-164.6226257045702
 31
0.0
  0
LINE
  5
29E
330
1F
100
AcDbEntity
  8
0
  6
Continuous
 62
     7
370
    15
100
AcDbLine
 10
-119.4813173281698
 20
-144.6226257045705
 30
0.0
 11
-119.4813173281698
 21
-164.6226257045705
 31
0.0
  0
LINE
  5
29F
330
1F
100
AcDbEntity
  8
0
  6
Continuous
 62
     7
370
    15
100
AcDbLine
 10
-129.4813173281698
 20
-144.6226257045705
 30
0.0
 11
-119.4813173281698
 21
-144.6226257045705
 31
0.0
  0
LINE
  5
2A0
330
1F
100
AcDbEntity
  8
0
  6
Continuous
 62
     7
370
    15
100
AcDbLine
 10
-129.4813173281698
 20
-164.6226257045705
 30
0.0
 11
-129.4813173281698
 21
-144.6226257045705
 31
0.0
  0
LINE
  5
2A1
330
1F
100
AcDbEntity
  8
0
  6
Continuous
 62
     7
370
    15
100
AcDbLine
 10
-119.4813173281698
 20
-164.6226257045705
 30
0.0
 11
-129.4813173281698
 21
-164.6226257045705
 31
0.0
  0
LINE
  5
2A2
330
1F
100
AcDbEntity
  8
0
  6
Continuous
 62
     7
370
    15
100
AcDbLine
 10
-89.48131732816973
 20
-144.6226257045708
 30
0.0
 11
-89.48131732816973
 21
-164.6226257045708
 31
0.0
  0
LINE
  5
2A3
330
1F
100
AcDbEntity
  8
0
  6
Continuous
 62
     7
370
    15
100
AcDbLine
 10
-99.48131732816975
 20
-144.6226257045708
 30
0.0
 11
-89.48131732816973
 21
-144.6226257045708
 31
0.0
  0
LINE
  5
2A4
330
1F
100
AcDbEntity
  8
0
  6
Continuous
 62
     7
370
    15
100
AcDbLine
 10
-99.48131732816975
 20
-164.6226257045708
 30
0.0
 11
-99.48131732816975
 21
-144.6226257045708
 31
0.0
  0
LINE
  5
2A5
330
1F
100
AcDbEntity
  8
0
  6
Continuous
 62
     7
370
    15
100
AcDbLine
 10
-89.48131732816973
 20
-164.6226257045708
 30
0.0
 11
-99.48131732816975
 21
-164.6226257045708
 31
0.0
  0
LINE
  5
2A6
330
1F
100
AcDbEntity
  8
0
  6
Continuous
 62
     7
370
    15
100
AcDbLine
 10
-59.48131732816978
 20
-144.6226257045711
 30
0.0
 11
-59.48131732816978
 21
-164.6226257045711
 31
0.0
  0
LINE
  5
2A7
330
1F
100
AcDbEntity
  8
0
  6
Continuous
 62
     7
370
    15
100
AcDbLine
 10
-69.48131732816978
 20
-144.6226257045711
 30
0.0
 11
-59.48131732816978
 21
-144.6226257045711
 31
0.0
  0
LINE
  5
2A8
330
1F
100
AcDbEntity
  8
0
  6
Continuous
 62
     7
370
    15
100
AcDbLine
 10
-69.48131732816978
 20
-164.6226257045711
 30
0.0
 11
-69.48131732816978
 21
-144.6226257045711
 31
0.0
  0
LINE
  5
2A9
330
1F
100
AcDbEntity
  8
0
  6
Continuous
 62
     7
370
    15
100
AcDbLine
 10
-59.48131732816978
 20
-164.6226257045711
 30
0.0
 11
-69.48131732816978
 21
-164.6226257045711
 31
0.0
  0
LINE
  5
2AA
330
1F
100
AcDbEntity
  8
0
  6
Continuous
 62
     7
370
    15
100
AcDbLine
 10
-29.48131732816978
 20
-144.6226257045714
 30
0.0
 11
-29.48131732816978
 21
-164.6226257045714
 31
0.0
  0
LINE
  5
2AB
330
1F
100
AcDbEntity
  8
0
  6
Continuous
 62
     7
370
    15
100
AcDbLine
 10
-39.48131732816978
 20
-144.6226257045714
 30
0.0
 11
-29.48131732816978
 21
-144.6226257045714
 31
0.0
  0
LINE
  5
2AC
330
1F
100
AcDbEntity
  8
0
  6
Continuous
 62
     7
370
    15
100
AcDbLine
 10
-39.48131732816978
 20
-164.6226257045714
 30
0.0
 11
-39.48131732816978
 21
-144.6226257045714
 31
0.0
  0
LINE
  5
2AD
330
1F
100
AcDbEntity
  8
0
  6
Continuous
 62
     7
370
    15
100
AcDbLine
 10
-29.48131732816978
 20
-164.6226257045714
 30
0.0
 11
-39.48131732816978
 21
-164.6226257045714
 31
0.0
  0
LINE
  5
2AE
330
1F
100
AcDbEntity
  8
0
  6
Continuous
 62
     7
370
    15
100
AcDbLine
 10
0.5186826718302769
 20
-144.6226257045717
 30
0.0
 11
0.5186826718302769
 21
-164.6226257045717
 31
0.0
  0
LINE
  5
2AF
330
1F
100
AcDbEntity
  8
0
  6
Continuous
 62
     7
370
    15
100
AcDbLine
 10
-9.48131732816978
 20
-144.6226257045717
 30
0.0
 11
0.5186826718302769
 21
-144.6226257045717
 31
0.0
  0
LINE
  5
2B0
330
1F
100
AcDbEntity
  8
0
  6
Continuous
 62
     7
370
    15
100
AcDbLine
 10
-9.48131732816978
 20
-164.6226257045717
 30
0.0
 11
-9.48131732816978
 21
-144.6226257045717
 31
0.0
  0
LINE
  5
2B1
330
1F
100
AcDbEntity
  8
0
  6
Continuous
 62
     7
370
    15
100
AcDbLine
 10
0.5186826718302769
 20
-164.6226257045717
 30
0.0
 11
-9.48131732816978
 21
-164.6226257045717
 31
0.0
  0
LINE
  5
2B2
330
1F
100
AcDbEntity
  8
0
  6
Continuous
 62
     7
370
    15
100
AcDbLine
 10
30.51868267183028
 20
-144.6226257045721
 30
0.0
 11
30.51868267183028
 21
-164.622625704572
 31
0.0
  0
LINE
  5
2B3
330
1F
100
AcDbEntity
  8
0
  6
Continuous
 62
     7
370
    15
100
AcDbLine
 10
20.51868267183028
 20
-144.6226257045721
 30
0.0
 11
30.51868267183028
 21
-144.6226257045721
 31
0.0
  0
LINE
  5
2B4
330
1F
100
AcDbEntity
  8
0
  6
Continuous
 62
     7
370
    15
100
AcDbLine
 10
20.51868267183028
 20
-164.622625704572
 30
0.0
 11
20.51868267183028
 21
-144.6226257045721
 31
0.0
  0
LINE
  5
2B5
330
1F
100
AcDbEntity
  8
0
  6
Continuous
 62
     7
370
    15
100
AcDbLine
 10
30.51868267183028
 20
-164.622625704572
 30
0.0
 11
20.51868267183028
 21
-164.622625704572
 31
0.0
  0
LINE
  5
2B6
330
1F
100
AcDbEntity
  8
0
  6
Continuous
 62
     7
370
    15
100
AcDbLine
 10
60.51868267183033
 20
-144.6226257045724
 30
0.0
 11
60.51868267183022
 21
-164.6226257045723
 31
0.0
  0
LINE
  5
2B7
330
1F
100
AcDbEntity
  8
0
  6
Continuous
 62
     7
370
    15
100
AcDbLine
 10
50.51868267183028
 20
-144.6226257045724
 30
0.0
 11
60.51868267183033
 21
-144.6226257045724
 31
0.0
  0
LINE
  5
2B8
330
1F
100
AcDbEntity
  8
0
  6
Continuous
 62
     7
370
    15
100
AcDbLine
 10
50.51868267183028
 20
-164.6226257045723
 30
0.0
 11
50.51868267183028
 21
-144.6226257045724
 31
0.0
  0
LINE
  5
2B9
330
1F
100
AcDbEntity
  8
0
  6
Continuous
 62
     7
370
    15
100
AcDbLine
 10
60.51868267183022
 20
-164.6226257045723
 30
0.0
 11
50.51868267183028
 21
-164.6226257045723
 31
0.0
  0
LINE
  5
2BA
330
1F
100
AcDbEntity
  8
0
  6
Continuous
 62
     7
370
    15
100
AcDbLine
 10
90.51868267183023
 20
-144.6226257045727
 30
0.0
 11
90.51868267183023
 21
-164.6226257045727
 31
0.0
  0
LINE
  5
2BB
330
1F
100
AcDbEntity
  8
0
  6
Continuous
 62
     7
370
    15
100
AcDbLine
 10
80.51868267183023
 20
-144.6226257045727
 30
0.0
 11
90.51868267183023
 21
-144.6226257045727
 31
0.0
  0
LINE
  5
2BC
330
1F
100
AcDbEntity
  8
0
  6
Continuous
 62
     7
370
    15
100
AcDbLine
 10
80.51868267183023
 20
-164.6226257045727
 30
0.0
 11
80.51868267183023
 21
-144.6226257045727
 31
0.0
  0
LINE
  5
2BD
330
1F
100
AcDbEntity
  8
0
  6
Continuous
 62
     7
370
    15
100
AcDbLine
 10
90.51868267183023
 20
-164.6226257045727
 30
0.0
 11
80.51868267183023
 21
-164.6226257045727
 31
0.0
  0
LINE
  5
2BE
330
1F
100
AcDbEntity
  8
0
  6
Continuous
 62
     7
370
    15
100
AcDbLine
 10
120.5186826718303
 20
-144.622625704573
 30
0.0
 11
120.5186826718303
 21
-164.622625704573
 31
0.0
  0
LINE
  5
2BF
330
1F
100
AcDbEntity
  8
0
  6
Continuous
 62
     7
370
    15
100
AcDbLine
 10
110.5186826718302
 20
-144.622625704573
 30
0.0
 11
120.5186826718303
 21
-144.622625704573
 31
0.0
  0
LINE
  5
2C0
330
1F
100
AcDbEntity
  8
0
  6
Continuous
 62
     7
370
    15
100
AcDbLine
 10
110.5186826718302
 20
-164.622625704573
 30
0.0
 11
110.5186826718302
 21
-144.622625704573
 31
0.0
  0
LINE
  5
2C1
330
1F
100
AcDbEntity
  8
0
  6
Continuous
 62
     7
370
    15
100
AcDbLine
 10
120.5186826718303
 20
-164.622625704573
 30
0.0
 11
110.5186826718302
 21
-164.622625704573
 31
0.0
  0
LINE
  5
2C2
330
1F
100
AcDbEntity
  8
0
  6
Continuous
 62
     7
370
    15
100
AcDbLine
 10
146.677332181203
 20
-179.8099886309914
 30
0.0
 11
146.677332181203
 21
-208.6053231628778
 31
0.0
  0
LINE
  5
2C3
330
1F
100
AcDbEntity
  8
0
  6
Continuous
 62
     7
370
    15
100
AcDbLine
 10
-316.322667818797
 20
-179.8099886309914
 30
0.0
 11
-316.322667818797
 21
-208.6053231628778
 31
0.0
  0
LINE
  5
2C4
330
1F
100
AcDbEntity
  8
0
  6
Continuous
 62
     7
370
    15
100
AcDbLine
 10
125.5186826718303
 20
-244.6226257045732
 30
0.0
 11
135.5186826718302
 21
-244.6226257045732
 31
0.0
  0
LINE
  5
2C5
330
1F
100
AcDbEntity
  8
0
  6
Continuous
 62
     7
370
    15
100
AcDbLine
 10
135.5186826718302
 20
-244.6226257045732
 30
0.0
 11
135.5186826718302
 21
-224.6226257045731
 31
0.0
  0
LINE
  5
2C6
330
1F
100
AcDbEntity
  8
0
  6
Continuous
 62
     7
370
    15
100
AcDbLine
 10
135.5186826718302
 20
-224.6226257045731
 30
0.0
 11
125.5186826718303
 21
-224.6226257045731
 31
0.0
  0
LINE
  5
2C7
330
1F
100
AcDbEntity
  8
0
  6
Continuous
 62
     7
370
    15
100
AcDbLine
 10
125.5186826718303
 20
-224.6226257045731
 30
0.0
 11
125.5186826718303
 21
-244.6226257045732
 31
0.0
  0
LINE
  5
2C8
330
1F
100
AcDbEntity
  8
0
  6
Continuous
 62
     7
370
    15
100
AcDbLine
 10
95.51868267183023
 20
-244.6226257045728
 30
0.0
 11
105.5186826718302
 21
-244.6226257045728
 31
0.0
  0
LINE
  5
2C9
330
1F
100
AcDbEntity
  8
0
  6
Continuous
 62
     7
370
    15
100
AcDbLine
 10
105.5186826718302
 20
-244.6226257045728
 30
0.0
 11
105.5186826718302
 21
-224.6226257045728
 31
0.0
  0
LINE
  5
2CA
330
1F
100
AcDbEntity
  8
0
  6
Continuous
 62
     7
370
    15
100
AcDbLine
 10
105.5186826718302
 20
-224.6226257045728
 30
0.0
 11
95.51868267183023
 21
-224.6226257045728
 31
0.0
  0
LINE
  5
2CB
330
1F
100
AcDbEntity
  8
0
  6
Continuous
 62
     7
370
    15
100
AcDbLine
 10
95.51868267183023
 20
-224.6226257045728
 30
0.0
 11
95.51868267183023
 21
-244.6226257045728
 31
0.0
  0
LINE
  5
2CC
330
1F
100
AcDbEntity
  8
0
  6
Continuous
 62
     7
370
    15
100
AcDbLine
 10
65.51868267183022
 20
-244.6226257045726
 30
0.0
 11
75.51868267183022
 21
-244.6226257045726
 31
0.0
  0
LINE
  5
2CD
330
1F
100
AcDbEntity
  8
0
  6
Continuous
 62
     7
370
    15
100
AcDbLine
 10
75.51868267183022
 20
-244.6226257045726
 30
0.0
 11
75.51868267183022
 21
-224.6226257045726
 31
0.0
  0
LINE
  5
2CE
330
1F
100
AcDbEntity
  8
0
  6
Continuous
 62
     7
370
    15
100
AcDbLine
 10
75.51868267183022
 20
-224.6226257045726
 30
0.0
 11
65.51868267183022
 21
-224.6226257045726
 31
0.0
  0
LINE
  5
2CF
330
1F
100
AcDbEntity
  8
0
  6
Continuous
 62
     7
370
    15
100
AcDbLine
 10
65.51868267183022
 20
-224.6226257045726
 30
0.0
 11
65.51868267183022
 21
-244.6226257045726
 31
0.0
  0
LINE
  5
2D0
330
1F
100
AcDbEntity
  8
0
  6
Continuous
 62
     7
370
    15
100
AcDbLine
 10
45.51868267183027
 20
-233.9756038298601
 30
0.0
 11
45.51868267183027
 21
-224.6226257045722
 31
0.0
  0
LINE
  5
2D1
330
1F
100
AcDbEntity
  8
0
  6
Continuous
 62
     7
370
    15
100
AcDbLine
 10
45.51868267183027
 20
-224.6226257045722
 30
0.0
 11
35.51868267183028
 21
-224.6226257045722
 31
0.0
  0
LINE
  5
2D2
330
1F
100
AcDbEntity
  8
0
  6
Continuous
 62
     7
370
    15
100
AcDbLine
 10
35.51868267183028
 20
-224.6226257045722
 30
0.0
 11
35.51868267183028
 21
-233.9756038298601
 31
0.0
  0
LINE
  5
2D3
330
1F
100
AcDbEntity
  8
0
  6
Continuous
 62
     7
370
    15
100
AcDbLine
 10
15.51868267183027
 20
-233.9756038298601
 30
0.0
 11
15.51868267183027
 21
-224.6226257045719
 31
0.0
  0
LINE
  5
2D4
330
1F
100
AcDbEntity
  8
0
  6
Continuous
 62
     7
370
    15
100
AcDbLine
 10
15.51868267183027
 20
-224.6226257045719
 30
0.0
 11
5.518682671830276
 21
-224.6226257045719
 31
0.0
  0
LINE
  5
2D5
330
1F
100
AcDbEntity
  8
0
  6
Continuous
 62
     7
370
    15
100
AcDbLine
 10
5.518682671830276
 20
-224.6226257045719
 30
0.0
 11
5.518682671830276
 21
-233.9756038298601
 31
0.0
  0
LINE
  5
2D6
330
1F
100
AcDbEntity
  8
0
  6
Continuous
 62
     7
370
    15
100
AcDbLine
 10
-14.48131732816978
 20
-233.9756038298601
 30
0.0
 11
-14.48131732816978
 21
-224.6226257045716
 31
0.0
  0
LINE
  5
2D7
330
1F
100
AcDbEntity
  8
0
  6
Continuous
 62
     7
370
    15
100
AcDbLine
 10
-14.48131732816978
 20
-224.6226257045716
 30
0.0
 11
-24.48131732816978
 21
-224.6226257045716
 31
0.0
  0
LINE
  5
2D8
330
1F
100
AcDbEntity
  8
0
  6
Continuous
 62
     7
370
    15
100
AcDbLine
 10
-24.48131732816978
 20
-224.6226257045716
 30
0.0
 11
-24.48131732816978
 21
-233.9756038298601
 31
0.0
  0
LINE
  5
2D9
330
1F
100
AcDbEntity
  8
0
  6
Continuous
 62
     7
370
    15
100
AcDbLine
 10
-44.48131732816977
 20
-233.9756038298601
 30
0.0
 11
-44.48131732816977
 21
-224.6226257045713
 31
0.0
  0
LINE
  5
2DA
330
1F
100
AcDbEntity
  8
0
  6
Continuous
 62
     7
370
    15
100
AcDbLine
 10
-44.48131732816977
 20
-224.6226257045713
 30
0.0
 11
-54.48131732816978
 21
-224.6226257045713
 31
0.0
  0
LINE
  5
2DB
330
1F
100
AcDbEntity
  8
0
  6
Continuous
 62
     7
370
    15
100
AcDbLine
 10
-54.48131732816978
 20
-224.6226257045713
 30
0.0
 11
-54.48131732816978
 21
-233.9756038298601
 31
0.0
  0
LINE
  5
2DC
330
1F
100
AcDbEntity
  8
0
  6
Continuous
 62
     7
370
    15
100
AcDbLine
 10
-74.48131732816984
 20
-233.9756038298601
 30
0.0
 11
-74.48131732816984
 21
-224.6226257045709
 31
0.0
  0
LINE
  5
2DD
330
1F
100
AcDbEntity
  8
0
  6
Continuous
 62
     7
370
    15
100
AcDbLine
 10
-74.48131732816984
 20
-224.6226257045709
 30
0.0
 11
-84.48131732816978
 21
-224.6226257045709
 31
0.0
  0
LINE
  5
2DE
330
1F
100
AcDbEntity
  8
0
  6
Continuous
 62
     7
370
    15
100
AcDbLine
 10
-84.48131732816978
 20
-224.6226257045709
 30
0.0
 11
-84.48131732816978
 21
-233.9756038298601
 31
0.0
  0
LINE
  5
2DF
330
1F
100
AcDbEntity
  8
0
  6
Continuous
 62
     7
370
    15
100
AcDbLine
 10
-104.4813173281697
 20
-233.9756038298601
 30
0.0
 11
-104.4813173281698
 21
-224.6226257045707
 31
0.0
  0
LINE
  5
2E0
330
1F
100
AcDbEntity
  8
0
  6
Continuous
 62
     7
370
    15
100
AcDbLine
 10
-104.4813173281698
 20
-224.6226257045707
 30
0.0
 11
-114.4813173281697
 21
-224.6226257045707
 31
0.0
  0
LINE
  5
2E1
330
1F
100
AcDbEntity
  8
0
  6
Continuous
 62
     7
370
    15
100
AcDbLine
 10
-114.4813173281697
 20
-224.6226257045707
 30
0.0
 11
-114.4813173281697
 21
-233.9756038298601
 31
0.0
  0
LINE
  5
2E2
330
1F
100
AcDbEntity
  8
0
  6
Continuous
 62
     7
370
    15
100
AcDbLine
 10
-134.4813173281698
 20
-233.9756038298601
 30
0.0
 11
-134.4813173281698
 21
-224.6226257045703
 31
0.0
  0
LINE
  5
2E3
330
1F
100
AcDbEntity
  8
0
  6
Continuous
 62
     7
370
    15
100
AcDbLine
 10
-134.4813173281698
 20
-224.6226257045703
 30
0.0
 11
-144.4813173281698
 21
-224.6226257045703
 31
0.0
  0
LINE
  5
2E4
330
1F
100
AcDbEntity
  8
0
  6
Continuous
 62
     7
370
    15
100
AcDbLine
 10
-144.4813173281698
 20
-224.6226257045703
 30
0.0
 11
-144.4813173281698
 21
-233.9756038298601
 31
0.0
  0
LINE
  5
2E5
330
1F
100
AcDbEntity
  8
0
  6
Continuous
 62
     7
370
    15
100
AcDbLine
 10
-164.4813173281697
 20
-233.9756038298601
 30
0.0
 11
-164.4813173281697
 21
-224.6226257045701
 31
0.0
  0
LINE
  5
2E6
330
1F
100
AcDbEntity
  8
0
  6
Continuous
 62
     7
370
    15
100
AcDbLine
 10
-164.4813173281697
 20
-224.6226257045701
 30
0.0
 11
-174.4813173281697
 21
-224.6226257045701
 31
0.0
  0
LINE
  5
2E7
330
1F
100
AcDbEntity
  8
0
  6
Continuous
 62
     7
370
    15
100
AcDbLine
 10
-174.4813173281697
 20
-224.6226257045701
 30
0.0
 11
-174.4813173281697
 21
-233.9756038298601
 31
0.0
  0
LINE
  5
2E8
330
1F
100
AcDbEntity
  8
0
  6
Continuous
 62
     7
370
    15
100
AcDbLine
 10
-194.4813173281697
 20
-233.9756038298601
 30
0.0
 11
-194.4813173281698
 21
-224.6226257045697
 31
0.0
  0
LINE
  5
2E9
330
1F
100
AcDbEntity
  8
0
  6
Continuous
 62
     7
370
    15
100
AcDbLine
 10
-194.4813173281698
 20
-224.6226257045697
 30
0.0
 11
-204.4813173281697
 21
-224.6226257045697
 31
0.0
  0
LINE
  5
2EA
330
1F
100
AcDbEntity
  8
0
  6
Continuous
 62
     7
370
    15
100
AcDbLine
 10
-204.4813173281697
 20
-224.6226257045697
 30
0.0
 11
-204.4813173281697
 21
-233.9756038298601
 31
0.0
  0
LINE
  5
2EB
330
1F
100
AcDbEntity
  8
0
  6
Continuous
 62
     7
370
    15
100
AcDbLine
 10
-234.4813173281698
 20
-244.6226257045694
 30
0.0
 11
-224.4813173281698
 21
-244.6226257045694
 31
0.0
  0
LINE
  5
2EC
330
1F
100
AcDbEntity
  8
0
  6
Continuous
 62
     7
370
    15
100
AcDbLine
 10
-224.4813173281698
 20
-244.6226257045694
 30
0.0
 11
-224.4813173281698
 21
-224.6226257045694
 31
0.0
  0
LINE
  5
2ED
330
1F
100
AcDbEntity
  8
0
  6
Continuous
 62
     7
370
    15
100
AcDbLine
 10
-224.4813173281698
 20
-224.6226257045694
 30
0.0
 11
-234.4813173281698
 21
-224.6226257045694
 31
0.0
  0
LINE
  5
2EE
330
1F
100
AcDbEntity
  8
0
  6
Continuous
 62
     7
370
    15
100
AcDbLine
 10
-234.4813173281698
 20
-224.6226257045694
 30
0.0
 11
-234.4813173281698
 21
-244.6226257045694
 31
0.0
  0
LINE
  5
2EF
330
1F
100
AcDbEntity
  8
0
  6
Continuous
 62
     7
370
    15
100
AcDbLine
 10
-264.4813173281698
 20
-244.6226257045691
 30
0.0
 11
-254.4813173281698
 21
-244.6226257045691
 31
0.0
  0
LINE
  5
2F0
330
1F
100
AcDbEntity
  8
0
  6
Continuous
 62
     7
370
    15
100
AcDbLine
 10
-254.4813173281698
 20
-244.6226257045691
 30
0.0
 11
-254.4813173281698
 21
-224.6226257045691
 31
0.0
  0
LINE
  5
2F1
330
1F
100
AcDbEntity
  8
0
  6
Continuous
 62
     7
370
    15
100
AcDbLine
 10
-254.4813173281698
 20
-224.6226257045691
 30
0.0
 11
-264.4813173281698
 21
-224.6226257045691
 31
0.0
  0
LINE
  5
2F2
330
1F
100
AcDbEntity
  8
0
  6
Continuous
 62
     7
370
    15
100
AcDbLine
 10
-264.4813173281698
 20
-224.6226257045691
 30
0.0
 11
-264.4813173281698
 21
-244.6226257045691
 31
0.0
  0
LINE
  5
2F3
330
1F
100
AcDbEntity
  8
0
  6
Continuous
 62
     7
370
    15
100
AcDbLine
 10
-294.4813173281698
 20
-244.6226257045688
 30
0.0
 11
-284.4813173281697
 21
-244.6226257045688
 31
0.0
  0
LINE
  5
2F4
330
1F
100
AcDbEntity
  8
0
  6
Continuous
 62
     7
370
    15
100
AcDbLine
 10
-284.4813173281697
 20
-244.6226257045688
 30
0.0
 11
-284.4813173281697
 21
-224.6226257045688
 31
0.0
  0
LINE
  5
2F5
330
1F
100
AcDbEntity
  8
0
  6
Continuous
 62
     7
370
    15
100
AcDbLine
 10
-284.4813173281697
 20
-224.6226257045688
 30
0.0
 11
-294.4813173281698
 21
-224.6226257045688
 31
0.0
  0
LINE
  5
2F6
330
1F
100
AcDbEntity
  8
0
  6
Continuous
 62
     7
370
    15
100
AcDbLine
 10
-294.4813173281698
 20
-224.6226257045688
 30
0.0
 11
-294.4813173281698
 21
-244.6226257045688
 31
0.0
  0
LINE
  5
2F7
330
1F
100
AcDbEntity
  8
0
  6
Continuous
 62
     7
370
    15
100
AcDbLine
 10
-316.322667818797
 20
-249.2076558969346
 30
0.0
 11
-219.1298087528838
 21
-249.2076558969346
 31
0.0
  0
LINE
  5
2F8
330
1F
100
AcDbEntity
  8
0
  6
Continuous
 62
     7
370
    15
100
AcDbLine
 10
52.87019124711616
 20
-249.2076558969346
 30
0.0
 11
146.677332181203
 21
-249.2076558969346
 31
0.0
  0
LINE
  5
2F9
330
1F
100
AcDbEntity
  8
0
  6
Continuous
 62
     7
370
    15
100
AcDbLine
 10
-316.322667818797
 20
-249.2076558969346
 30
0.0
 11
-316.322667818797
 21
-208.6053231628778
 31
0.0
  0
LINE
  5
2FA
330
1F
100
AcDbEntity
  8
0
  6
Continuous
 62
     7
370
    15
100
AcDbLine
 10
146.677332181203
 20
-249.2076558969346
 30
0.0
 11
146.677332181203
 21
-208.6053231628778
 31
0.0
  0
LINE
  5
2FB
330
1F
100
AcDbEntity
  8
0
  6
Continuous
 62
     7
370
    15
100
AcDbLine
 10
-309.4813173281698
 20
-244.6226257045686
 30
0.0
 11
-299.4813173281698
 21
-244.6226257045686
 31
0.0
  0
LINE
  5
2FC
330
1F
100
AcDbEntity
  8
0
  6
Continuous
 62
     7
370
    15
100
AcDbLine
 10
-299.4813173281698
 20
-244.6226257045686
 30
0.0
 11
-299.4813173281698
 21
-224.6226257045686
 31
0.0
  0
LINE
  5
2FD
330
1F
100
AcDbEntity
  8
0
  6
Continuous
 62
     7
370
    15
100
AcDbLine
 10
-299.4813173281698
 20
-224.6226257045686
 30
0.0
 11
-309.4813173281698
 21
-224.6226257045686
 31
0.0
  0
LINE
  5
2FE
330
1F
100
AcDbEntity
  8
0
  6
Continuous
 62
     7
370
    15
100
AcDbLine
 10
-309.4813173281698
 20
-224.6226257045686
 30
0.0
 11
-309.4813173281698
 21
-244.6226257045686
 31
0.0
  0
LINE
  5
2FF
330
1F
100
AcDbEntity
  8
0
  6
Continuous
 62
     7
370
    15
100
AcDbLine
 10
-279.4813173281697
 20
-244.622625704569
 30
0.0
 11
-269.4813173281697
 21
-244.622625704569
 31
0.0
  0
LINE
  5
300
330
1F
100
AcDbEntity
  8
0
  6
Continuous
 62
     7
370
    15
100
AcDbLine
 10
-269.4813173281697
 20
-244.622625704569
 30
0.0
 11
-269.4813173281697
 21
-224.622625704569
 31
0.0
  0
LINE
  5
301
330
1F
100
AcDbEntity
  8
0
  6
Continuous
 62
     7
370
    15
100
AcDbLine
 10
-269.4813173281697
 20
-224.622625704569
 30
0.0
 11
-279.4813173281697
 21
-224.622625704569
 31
0.0
  0
LINE
  5
302
330
1F
100
AcDbEntity
  8
0
  6
Continuous
 62
     7
370
    15
100
AcDbLine
 10
-279.4813173281697
 20
-224.622625704569
 30
0.0
 11
-279.4813173281697
 21
-244.622625704569
 31
0.0
  0
LINE
  5
303
330
1F
100
AcDbEntity
  8
0
  6
Continuous
 62
     7
370
    15
100
AcDbLine
 10
-249.4813173281698
 20
-244.6226257045692
 30
0.0
 11
-239.4813173281698
 21
-244.6226257045692
 31
0.0
  0
LINE
  5
304
330
1F
100
AcDbEntity
  8
0
  6
Continuous
 62
     7
370
    15
100
AcDbLine
 10
-239.4813173281698
 20
-244.6226257045692
 30
0.0
 11
-239.4813173281698
 21
-224.6226257045693
 31
0.0
  0
LINE
  5
305
330
1F
100
AcDbEntity
  8
0
  6
Continuous
 62
     7
370
    15
100
AcDbLine
 10
-239.4813173281698
 20
-224.6226257045693
 30
0.0
 11
-249.4813173281698
 21
-224.6226257045693
 31
0.0
  0
LINE
  5
306
330
1F
100
AcDbEntity
  8
0
  6
Continuous
 62
     7
370
    15
100
AcDbLine
 10
-249.4813173281698
 20
-224.6226257045693
 30
0.0
 11
-249.4813173281698
 21
-244.6226257045692
 31
0.0
  0
LINE
  5
307
330
1F
100
AcDbEntity
  8
0
  6
Continuous
 62
     7
370
    15
100
AcDbLine
 10
-219.4813173281698
 20
-244.6226257045696
 30
0.0
 11
-219.1298087528838
 21
-244.6226257045696
 31
0.0
  0
LINE
  5
308
330
1F
100
AcDbEntity
  8
0
  6
Continuous
 62
     7
370
    15
100
AcDbLine
 10
-209.4813173281697
 20
-233.9756038298601
 30
0.0
 11
-209.4813173281698
 21
-224.6226257045695
 31
0.0
  0
LINE
  5
309
330
1F
100
AcDbEntity
  8
0
  6
Continuous
 62
     7
370
    15
100
AcDbLine
 10
-209.4813173281698
 20
-224.6226257045695
 30
0.0
 11
-215.1298087528838
 21
-224.6226257045695
 31
0.0
  0
LINE
  5
30A
330
1F
100
AcDbEntity
  8
0
  6
Continuous
 62
     7
370
    15
100
AcDbLine
 10
-217.1298087528839
 20
-224.6226257045695
 30
0.0
 11
-219.4813173281698
 21
-224.6226257045695
 31
0.0
  0
LINE
  5
30B
330
1F
100
AcDbEntity
  8
0
  6
Continuous
 62
     7
370
    15
100
AcDbLine
 10
-219.4813173281698
 20
-224.6226257045695
 30
0.0
 11
-219.4813173281698
 21
-244.6226257045696
 31
0.0
  0
LINE
  5
30C
330
1F
100
AcDbEntity
  8
0
  6
Continuous
 62
     7
370
    15
100
AcDbLine
 10
-179.4813173281697
 20
-233.9756038298601
 30
0.0
 11
-179.4813173281697
 21
-224.6226257045699
 31
0.0
  0
LINE
  5
30D
330
1F
100
AcDbEntity
  8
0
  6
Continuous
 62
     7
370
    15
100
AcDbLine
 10
-179.4813173281697
 20
-224.6226257045699
 30
0.0
 11
-189.4813173281697
 21
-224.6226257045699
 31
0.0
  0
LINE
  5
30E
330
1F
100
AcDbEntity
  8
0
  6
Continuous
 62
     7
370
    15
100
AcDbLine
 10
-189.4813173281697
 20
-224.6226257045699
 30
0.0
 11
-189.4813173281697
 21
-233.9756038298601
 31
0.0
  0
LINE
  5
30F
330
1F
100
AcDbEntity
  8
0
  6
Continuous
 62
     7
370
    15
100
AcDbLine
 10
-149.4813173281697
 20
-233.9756038298601
 30
0.0
 11
-149.4813173281697
 21
-224.6226257045702
 31
0.0
  0
LINE
  5
310
330
1F
100
AcDbEntity
  8
0
  6
Continuous
 62
     7
370
    15
100
AcDbLine
 10
-149.4813173281697
 20
-224.6226257045702
 30
0.0
 11
-159.4813173281697
 21
-224.6226257045702
 31
0.0
  0
LINE
  5
311
330
1F
100
AcDbEntity
  8
0
  6
Continuous
 62
     7
370
    15
100
AcDbLine
 10
-159.4813173281697
 20
-224.6226257045702
 30
0.0
 11
-159.4813173281697
 21
-233.9756038298601
 31
0.0
  0
LINE
  5
312
330
1F
100
AcDbEntity
  8
0
  6
Continuous
 62
     7
370
    15
100
AcDbLine
 10
-119.4813173281698
 20
-233.9756038298601
 30
0.0
 11
-119.4813173281698
 21
-224.6226257045705
 31
0.0
  0
LINE
  5
313
330
1F
100
AcDbEntity
  8
0
  6
Continuous
 62
     7
370
    15
100
AcDbLine
 10
-119.4813173281698
 20
-224.6226257045705
 30
0.0
 11
-129.4813173281698
 21
-224.6226257045705
 31
0.0
  0
LINE
  5
314
330
1F
100
AcDbEntity
  8
0
  6
Continuous
 62
     7
370
    15
100
AcDbLine
 10
-129.4813173281698
 20
-224.6226257045705
 30
0.0
 11
-129.4813173281698
 21
-233.9756038298601
 31
0.0
  0
LINE
  5
315
330
1F
100
AcDbEntity
  8
0
  6
Continuous
 62
     7
370
    15
100
AcDbLine
 10
-89.48131732816973
 20
-233.9756038298601
 30
0.0
 11
-89.48131732816973
 21
-224.6226257045708
 31
0.0
  0
LINE
  5
316
330
1F
100
AcDbEntity
  8
0
  6
Continuous
 62
     7
370
    15
100
AcDbLine
 10
-89.48131732816973
 20
-224.6226257045708
 30
0.0
 11
-99.48131732816975
 21
-224.6226257045708
 31
0.0
  0
LINE
  5
317
330
1F
100
AcDbEntity
  8
0
  6
Continuous
 62
     7
370
    15
100
AcDbLine
 10
-99.48131732816975
 20
-224.6226257045708
 30
0.0
 11
-99.48131732816975
 21
-233.9756038298601
 31
0.0
  0
LINE
  5
318
330
1F
100
AcDbEntity
  8
0
  6
Continuous
 62
     7
370
    15
100
AcDbLine
 10
-59.48131732816978
 20
-233.9756038298601
 30
0.0
 11
-59.48131732816978
 21
-224.6226257045712
 31
0.0
  0
LINE
  5
319
330
1F
100
AcDbEntity
  8
0
  6
Continuous
 62
     7
370
    15
100
AcDbLine
 10
-59.48131732816978
 20
-224.6226257045712
 30
0.0
 11
-69.48131732816978
 21
-224.6226257045712
 31
0.0
  0
LINE
  5
31A
330
1F
100
AcDbEntity
  8
0
  6
Continuous
 62
     7
370
    15
100
AcDbLine
 10
-69.48131732816978
 20
-224.6226257045712
 30
0.0
 11
-69.48131732816978
 21
-233.9756038298601
 31
0.0
  0
LINE
  5
31B
330
1F
100
AcDbEntity
  8
0
  6
Continuous
 62
     7
370
    15
100
AcDbLine
 10
-29.48131732816978
 20
-233.9756038298601
 30
0.0
 11
-29.48131732816978
 21
-224.6226257045714
 31
0.0
  0
LINE
  5
31C
330
1F
100
AcDbEntity
  8
0
  6
Continuous
 62
     7
370
    15
100
AcDbLine
 10
-29.48131732816978
 20
-224.6226257045714
 30
0.0
 11
-39.48131732816978
 21
-224.6226257045714
 31
0.0
  0
LINE
  5
31D
330
1F
100
AcDbEntity
  8
0
  6
Continuous
 62
     7
370
    15
100
AcDbLine
 10
-39.48131732816978
 20
-224.6226257045714
 30
0.0
 11
-39.48131732816978
 21
-233.9756038298601
 31
0.0
  0
LINE
  5
31E
330
1F
100
AcDbEntity
  8
0
  6
Continuous
 62
     7
370
    15
100
AcDbLine
 10
0.5186826718302769
 20
-233.9756038298601
 30
0.0
 11
0.5186826718302769
 21
-224.6226257045718
 31
0.0
  0
LINE
  5
31F
330
1F
100
AcDbEntity
  8
0
  6
Continuous
 62
     7
370
    15
100
AcDbLine
 10
0.5186826718302769
 20
-224.6226257045718
 30
0.0
 11
-9.48131732816978
 21
-224.6226257045718
 31
0.0
  0
LINE
  5
320
330
1F
100
AcDbEntity
  8
0
  6
Continuous
 62
     7
370
    15
100
AcDbLine
 10
-9.48131732816978
 20
-224.6226257045718
 30
0.0
 11
-9.48131732816978
 21
-233.9756038298601
 31
0.0
  0
LINE
  5
321
330
1F
100
AcDbEntity
  8
0
  6
Continuous
 62
     7
370
    15
100
AcDbLine
 10
30.51868267183028
 20
-233.9756038298601
 30
0.0
 11
30.51868267183028
 21
-224.622625704572
 31
0.0
  0
LINE
  5
322
330
1F
100
AcDbEntity
  8
0
  6
Continuous
 62
     7
370
    15
100
AcDbLine
 10
30.51868267183028
 20
-224.622625704572
 30
0.0
 11
20.51868267183028
 21
-224.622625704572
 31
0.0
  0
LINE
  5
323
330
1F
100
AcDbEntity
  8
0
  6
Continuous
 62
     7
370
    15
100
AcDbLine
 10
20.51868267183028
 20
-224.622625704572
 30
0.0
 11
20.51868267183028
 21
-233.9756038298601
 31
0.0
  0
LINE
  5
324
330
1F
100
AcDbEntity
  8
0
  6
Continuous
 62
     7
370
    15
100
AcDbLine
 10
52.87019124711616
 20
-244.6226257045724
 30
0.0
 11
60.51868267183022
 21
-244.6226257045724
 31
0.0
  0
LINE
  5
325
330
1F
100
AcDbEntity
  8
0
  6
Continuous
 62
     7
370
    15
100
AcDbLine
 10
60.51868267183022
 20
-244.6226257045724
 30
0.0
 11
60.51868267183033
 21
-224.6226257045724
 31
0.0
  0
LINE
  5
326
330
1F
100
AcDbEntity
  8
0
  6
Continuous
 62
     7
370
    15
100
AcDbLine
 10
60.51868267183033
 20
-224.6226257045724
 30
0.0
 11
50.87019124711628
 21
-224.6226257045724
 31
0.0
  0
LINE
  5
327
330
1F
100
AcDbEntity
  8
0
  6
Continuous
 62
     7
370
    15
100
AcDbLine
 10
80.51868267183023
 20
-244.6226257045727
 30
0.0
 11
90.51868267183023
 21
-244.6226257045727
 31
0.0
  0
LINE
  5
328
330
1F
100
AcDbEntity
  8
0
  6
Continuous
 62
     7
370
    15
100
AcDbLine
 10
90.51868267183023
 20
-244.6226257045727
 30
0.0
 11
90.51868267183023
 21
-224.6226257045727
 31
0.0
  0
LINE
  5
329
330
1F
100
AcDbEntity
  8
0
  6
Continuous
 62
     7
370
    15
100
AcDbLine
 10
90.51868267183023
 20
-224.6226257045727
 30
0.0
 11
80.51868267183023
 21
-224.6226257045727
 31
0.0
  0
LINE
  5
32A
330
1F
100
AcDbEntity
  8
0
  6
Continuous
 62
     7
370
    15
100
AcDbLine
 10
80.51868267183023
 20
-224.6226257045727
 30
0.0
 11
80.51868267183023
 21
-244.6226257045727
 31
0.0
  0
LINE
  5
32B
330
1F
100
AcDbEntity
  8
0
  6
Continuous
 62
     7
370
    15
100
AcDbLine
 10
110.5186826718302
 20
-244.622625704573
 30
0.0
 11
120.5186826718303
 21
-244.622625704573
 31
0.0
  0
LINE
  5
32C
330
1F
100
AcDbEntity
  8
0
  6
Continuous
 62
     7
370
    15
100
AcDbLine
 10
120.5186826718303
 20
-244.622625704573
 30
0.0
 11
120.5186826718303
 21
-224.622625704573
 31
0.0
  0
LINE
  5
32D
330
1F
100
AcDbEntity
  8
0
  6
Continuous
 62
     7
370
    15
100
AcDbLine
 10
120.5186826718303
 20
-224.622625704573
 30
0.0
 11
110.5186826718302
 21
-224.622625704573
 31
0.0
  0
LINE
  5
32E
330
1F
100
AcDbEntity
  8
0
  6
Continuous
 62
     7
370
    15
100
AcDbLine
 10
110.5186826718302
 20
-224.622625704573
 30
0.0
 11
110.5186826718302
 21
-244.622625704573
 31
0.0
  0
LINE
  5
32F
330
1F
100
AcDbEntity
  8
0
  6
Continuous
 62
     7
370
    15
100
AcDbLine
 10
-215.1298087528838
 20
-318.6053231628779
 30
0.0
 11
48.87019124711617
 21
-318.6053231628779
 31
0.0
  0
LINE
  5
330
330
1F
100
AcDbEntity
  8
0
  6
Continuous
 62
     7
370
    15
100
AcDbLine
 10
48.87019124711617
 20
-318.6053231628779
 30
0.0
 11
48.87019124711617
 21
-307.0765701241481
 31
0.0
  0
LINE
  5
331
330
1F
100
AcDbEntity
  8
0
  6
Continuous
 62
     7
370
    15
100
AcDbLine
 10
48.87019124711617
 20
-289.8099886309914
 30
0.0
 11
-215.1298087528838
 21
-289.8099886309914
 31
0.0
  0
LINE
  5
332
330
1F
100
AcDbEntity
  8
0
  6
Continuous
 62
     7
370
    15
100
AcDbLine
 10
-215.1298087528838
 20
-307.0765701241472
 30
0.0
 11
-215.1298087528838
 21
-318.6053231628779
 31
0.0
  0
LINE
  5
333
330
1F
100
AcDbEntity
  8
0
  6
Continuous
 62
     7
370
    15
100
AcDbLine
 10
135.5186826718302
 20
-254.6226257045733
 30
0.0
 11
135.5186826718302
 21
-274.6226257045732
 31
0.0
  0
LINE
  5
334
330
1F
100
AcDbEntity
  8
0
  6
Continuous
 62
     7
370
    15
100
AcDbLine
 10
125.5186826718303
 20
-254.6226257045733
 30
0.0
 11
135.5186826718302
 21
-254.6226257045733
 31
0.0
  0
LINE
  5
335
330
1F
100
AcDbEntity
  8
0
  6
Continuous
 62
     7
370
    15
100
AcDbLine
 10
125.5186826718303
 20
-274.6226257045732
 30
0.0
 11
125.5186826718303
 21
-254.6226257045733
 31
0.0
  0
LINE
  5
336
330
1F
100
AcDbEntity
  8
0
  6
Continuous
 62
     7
370
    15
100
AcDbLine
 10
135.5186826718302
 20
-274.6226257045732
 30
0.0
 11
125.5186826718303
 21
-274.6226257045732
 31
0.0
  0
LINE
  5
337
330
1F
100
AcDbEntity
  8
0
  6
Continuous
 62
     7
370
    15
100
AcDbLine
 10
105.5186826718302
 20
-254.6226257045729
 30
0.0
 11
105.5186826718302
 21
-274.6226257045729
 31
0.0
  0
LINE
  5
338
330
1F
100
AcDbEntity
  8
0
  6
Continuous
 62
     7
370
    15
100
AcDbLine
 10
95.51868267183023
 20
-254.6226257045729
 30
0.0
 11
105.5186826718302
 21
-254.6226257045729
 31
0.0
  0
LINE
  5
339
330
1F
100
AcDbEntity
  8
0
  6
Continuous
 62
     7
370
    15
100
AcDbLine
 10
95.51868267183023
 20
-274.6226257045729
 30
0.0
 11
95.51868267183023
 21
-254.6226257045729
 31
0.0
  0
LINE
  5
33A
330
1F
100
AcDbEntity
  8
0
  6
Continuous
 62
     7
370
    15
100
AcDbLine
 10
105.5186826718302
 20
-274.6226257045729
 30
0.0
 11
95.51868267183023
 21
-274.6226257045729
 31
0.0
  0
LINE
  5
33B
330
1F
100
AcDbEntity
  8
0
  6
Continuous
 62
     7
370
    15
100
AcDbLine
 10
75.51868267183022
 20
-254.6226257045726
 30
0.0
 11
75.51868267183022
 21
-274.6226257045726
 31
0.0
  0
LINE
  5
33C
330
1F
100
AcDbEntity
  8
0
  6
Continuous
 62
     7
370
    15
100
AcDbLine
 10
65.51868267183022
 20
-254.6226257045726
 30
0.0
 11
75.51868267183022
 21
-254.6226257045726
 31
0.0
  0
LINE
  5
33D
330
1F
100
AcDbEntity
  8
0
  6
Continuous
 62
     7
370
    15
100
AcDbLine
 10
65.51868267183022
 20
-274.6226257045726
 30
0.0
 11
65.51868267183022
 21
-254.6226257045726
 31
0.0
  0
LINE
  5
33E
330
1F
100
AcDbEntity
  8
0
  6
Continuous
 62
     7
370
    15
100
AcDbLine
 10
75.51868267183022
 20
-274.6226257045726
 30
0.0
 11
65.51868267183022
 21
-274.6226257045726
 31
0.0
  0
LINE
  5
33F
330
1F
100
AcDbEntity
  8
0
  6
Continuous
 62
     7
370
    15
100
AcDbLine
 10
45.51868267183027
 20
-263.97560382986
 30
0.0
 11
45.51868267183027
 21
-274.6226257045723
 31
0.0
  0
LINE
  5
340
330
1F
100
AcDbEntity
  8
0
  6
Continuous
 62
     7
370
    15
100
AcDbLine
 10
35.51868267183028
 20
-274.6226257045723
 30
0.0
 11
35.51868267183028
 21
-263.97560382986
 31
0.0
  0
LINE
  5
341
330
1F
100
AcDbEntity
  8
0
  6
Continuous
 62
     7
370
    15
100
AcDbLine
 10
45.51868267183027
 20
-274.6226257045723
 30
0.0
 11
35.51868267183028
 21
-274.6226257045723
 31
0.0
  0
LINE
  5
342
330
1F
100
AcDbEntity
  8
0
  6
Continuous
 62
     7
370
    15
100
AcDbLine
 10
15.51868267183027
 20
-263.97560382986
 30
0.0
 11
15.51868267183027
 21
-274.622625704572
 31
0.0
  0
LINE
  5
343
330
1F
100
AcDbEntity
  8
0
  6
Continuous
 62
     7
370
    15
100
AcDbLine
 10
5.518682671830276
 20
-274.622625704572
 30
0.0
 11
5.518682671830276
 21
-263.97560382986
 31
0.0
  0
LINE
  5
344
330
1F
100
AcDbEntity
  8
0
  6
Continuous
 62
     7
370
    15
100
AcDbLine
 10
15.51868267183027
 20
-274.622625704572
 30
0.0
 11
5.518682671830276
 21
-274.622625704572
 31
0.0
  0
LINE
  5
345
330
1F
100
AcDbEntity
  8
0
  6
Continuous
 62
     7
370
    15
100
AcDbLine
 10
-14.48131732816978
 20
-263.9756038298601
 30
0.0
 11
-14.48131732816978
 21
-274.6226257045716
 31
0.0
  0
LINE
  5
346
330
1F
100
AcDbEntity
  8
0
  6
Continuous
 62
     7
370
    15
100
AcDbLine
 10
-24.48131732816978
 20
-274.6226257045716
 30
0.0
 11
-24.48131732816978
 21
-263.9756038298601
 31
0.0
  0
LINE
  5
347
330
1F
100
AcDbEntity
  8
0
  6
Continuous
 62
     7
370
    15
100
AcDbLine
 10
-14.48131732816978
 20
-274.6226257045716
 30
0.0
 11
-24.48131732816978
 21
-274.6226257045716
 31
0.0
  0
LINE
  5
348
330
1F
100
AcDbEntity
  8
0
  6
Continuous
 62
     7
370
    15
100
AcDbLine
 10
-44.48131732816977
 20
-263.9756038298601
 30
0.0
 11
-44.48131732816977
 21
-274.6226257045713
 31
0.0
  0
LINE
  5
349
330
1F
100
AcDbEntity
  8
0
  6
Continuous
 62
     7
370
    15
100
AcDbLine
 10
-54.48131732816978
 20
-274.6226257045713
 30
0.0
 11
-54.48131732816978
 21
-263.9756038298601
 31
0.0
  0
LINE
  5
34A
330
1F
100
AcDbEntity
  8
0
  6
Continuous
 62
     7
370
    15
100
AcDbLine
 10
-44.48131732816977
 20
-274.6226257045713
 30
0.0
 11
-54.48131732816978
 21
-274.6226257045713
 31
0.0
  0
LINE
  5
34B
330
1F
100
AcDbEntity
  8
0
  6
Continuous
 62
     7
370
    15
100
AcDbLine
 10
-74.48131732816984
 20
-263.9756038298601
 30
0.0
 11
-74.48131732816984
 21
-274.622625704571
 31
0.0
  0
LINE
  5
34C
330
1F
100
AcDbEntity
  8
0
  6
Continuous
 62
     7
370
    15
100
AcDbLine
 10
-84.48131732816978
 20
-274.622625704571
 30
0.0
 11
-84.48131732816978
 21
-263.9756038298601
 31
0.0
  0
LINE
  5
34D
330
1F
100
AcDbEntity
  8
0
  6
Continuous
 62
     7
370
    15
100
AcDbLine
 10
-74.48131732816984
 20
-274.622625704571
 30
0.0
 11
-84.48131732816978
 21
-274.622625704571
 31
0.0
  0
LINE
  5
34E
330
1F
100
AcDbEntity
  8
0
  6
Continuous
 62
     7
370
    15
100
AcDbLine
 10
-104.4813173281697
 20
-263.9756038298601
 30
0.0
 11
-104.4813173281697
 21
-274.6226257045707
 31
0.0
  0
LINE
  5
34F
330
1F
100
AcDbEntity
  8
0
  6
Continuous
 62
     7
370
    15
100
AcDbLine
 10
-114.4813173281697
 20
-274.6226257045707
 30
0.0
 11
-114.4813173281697
 21
-263.9756038298601
 31
0.0
  0
LINE
  5
350
330
1F
100
AcDbEntity
  8
0
  6
Continuous
 62
     7
370
    15
100
AcDbLine
 10
-104.4813173281697
 20
-274.6226257045707
 30
0.0
 11
-114.4813173281697
 21
-274.6226257045707
 31
0.0
  0
LINE
  5
351
330
1F
100
AcDbEntity
  8
0
  6
Continuous
 62
     7
370
    15
100
AcDbLine
 10
-134.4813173281698
 20
-263.9756038298601
 30
0.0
 11
-134.4813173281698
 21
-274.6226257045704
 31
0.0
  0
LINE
  5
352
330
1F
100
AcDbEntity
  8
0
  6
Continuous
 62
     7
370
    15
100
AcDbLine
 10
-144.4813173281698
 20
-274.6226257045704
 30
0.0
 11
-144.4813173281698
 21
-263.9756038298601
 31
0.0
  0
LINE
  5
353
330
1F
100
AcDbEntity
  8
0
  6
Continuous
 62
     7
370
    15
100
AcDbLine
 10
-134.4813173281698
 20
-274.6226257045704
 30
0.0
 11
-144.4813173281698
 21
-274.6226257045704
 31
0.0
  0
LINE
  5
354
330
1F
100
AcDbEntity
  8
0
  6
Continuous
 62
     7
370
    15
100
AcDbLine
 10
-164.4813173281697
 20
-263.9756038298601
 30
0.0
 11
-164.4813173281697
 21
-274.6226257045701
 31
0.0
  0
LINE
  5
355
330
1F
100
AcDbEntity
  8
0
  6
Continuous
 62
     7
370
    15
100
AcDbLine
 10
-174.4813173281697
 20
-274.6226257045701
 30
0.0
 11
-174.4813173281697
 21
-263.9756038298601
 31
0.0
  0
LINE
  5
356
330
1F
100
AcDbEntity
  8
0
  6
Continuous
 62
     7
370
    15
100
AcDbLine
 10
-164.4813173281697
 20
-274.6226257045701
 30
0.0
 11
-174.4813173281697
 21
-274.6226257045701
 31
0.0
  0
LINE
  5
357
330
1F
100
AcDbEntity
  8
0
  6
Continuous
 62
     7
370
    15
100
AcDbLine
 10
-194.4813173281697
 20
-263.9756038298601
 30
0.0
 11
-194.4813173281697
 21
-274.6226257045698
 31
0.0
  0
LINE
  5
358
330
1F
100
AcDbEntity
  8
0
  6
Continuous
 62
     7
370
    15
100
AcDbLine
 10
-204.4813173281697
 20
-274.6226257045698
 30
0.0
 11
-204.4813173281697
 21
-263.9756038298601
 31
0.0
  0
LINE
  5
359
330
1F
100
AcDbEntity
  8
0
  6
Continuous
 62
     7
370
    15
100
AcDbLine
 10
-194.4813173281697
 20
-274.6226257045698
 30
0.0
 11
-204.4813173281697
 21
-274.6226257045698
 31
0.0
  0
LINE
  5
35A
330
1F
100
AcDbEntity
  8
0
  6
Continuous
 62
     7
370
    15
100
AcDbLine
 10
-224.4813173281698
 20
-254.6226257045695
 30
0.0
 11
-224.4813173281698
 21
-274.6226257045695
 31
0.0
  0
LINE
  5
35B
330
1F
100
AcDbEntity
  8
0
  6
Continuous
 62
     7
370
    15
100
AcDbLine
 10
-234.4813173281698
 20
-254.6226257045695
 30
0.0
 11
-224.4813173281698
 21
-254.6226257045695
 31
0.0
  0
LINE
  5
35C
330
1F
100
AcDbEntity
  8
0
  6
Continuous
 62
     7
370
    15
100
AcDbLine
 10
-234.4813173281698
 20
-274.6226257045695
 30
0.0
 11
-234.4813173281698
 21
-254.6226257045695
 31
0.0
  0
LINE
  5
35D
330
1F
100
AcDbEntity
  8
0
  6
Continuous
 62
     7
370
    15
100
AcDbLine
 10
-224.4813173281698
 20
-274.6226257045695
 30
0.0
 11
-234.4813173281698
 21
-274.6226257045695
 31
0.0
  0
LINE
  5
35E
330
1F
100
AcDbEntity
  8
0
  6
Continuous
 62
     7
370
    15
100
AcDbLine
 10
-254.4813173281698
 20
-254.6226257045692
 30
0.0
 11
-254.4813173281698
 21
-274.6226257045691
 31
0.0
  0
LINE
  5
35F
330
1F
100
AcDbEntity
  8
0
  6
Continuous
 62
     7
370
    15
100
AcDbLine
 10
-264.4813173281698
 20
-254.6226257045692
 30
0.0
 11
-254.4813173281698
 21
-254.6226257045692
 31
0.0
  0
LINE
  5
360
330
1F
100
AcDbEntity
  8
0
  6
Continuous
 62
     7
370
    15
100
AcDbLine
 10
-264.4813173281698
 20
-274.6226257045691
 30
0.0
 11
-264.4813173281698
 21
-254.6226257045692
 31
0.0
  0
LINE
  5
361
330
1F
100
AcDbEntity
  8
0
  6
Continuous
 62
     7
370
    15
100
AcDbLine
 10
-254.4813173281698
 20
-274.6226257045691
 30
0.0
 11
-264.4813173281698
 21
-274.6226257045691
 31
0.0
  0
LINE
  5
362
330
1F
100
AcDbEntity
  8
0
  6
Continuous
 62
     7
370
    15
100
AcDbLine
 10
-284.4813173281697
 20
-254.6226257045688
 30
0.0
 11
-284.4813173281697
 21
-274.6226257045688
 31
0.0
  0
LINE
  5
363
330
1F
100
AcDbEntity
  8
0
  6
Continuous
 62
     7
370
    15
100
AcDbLine
 10
-294.4813173281698
 20
-254.6226257045688
 30
0.0
 11
-284.4813173281697
 21
-254.6226257045688
 31
0.0
  0
LINE
  5
364
330
1F
100
AcDbEntity
  8
0
  6
Continuous
 62
     7
370
    15
100
AcDbLine
 10
-294.4813173281698
 20
-274.6226257045688
 30
0.0
 11
-294.4813173281698
 21
-254.6226257045688
 31
0.0
  0
LINE
  5
365
330
1F
100
AcDbEntity
  8
0
  6
Continuous
 62
     7
370
    15
100
AcDbLine
 10
-284.4813173281697
 20
-274.6226257045688
 30
0.0
 11
-294.4813173281698
 21
-274.6226257045688
 31
0.0
  0
LINE
  5
366
330
1F
100
AcDbEntity
  8
0
  6
Continuous
 62
     7
370
    15
100
AcDbLine
 10
-316.322667818797
 20
-249.2076558969347
 30
0.0
 11
-316.322667818797
 21
-289.8099886309914
 31
0.0
  0
LINE
  5
367
330
1F
100
AcDbEntity
  8
0
  6
Continuous
 62
     7
370
    15
100
AcDbLine
 10
146.677332181203
 20
-249.2076558969347
 30
0.0
 11
146.677332181203
 21
-289.8099886309914
 31
0.0
  0
LINE
  5
368
330
1F
100
AcDbEntity
  8
0
  6
Continuous
 62
     7
370
    15
100
AcDbLine
 10
-299.4813173281698
 20
-254.6226257045687
 30
0.0
 11
-299.4813173281698
 21
-274.6226257045687
 31
0.0
  0
LINE
  5
369
330
1F
100
AcDbEntity
  8
0
  6
Continuous
 62
     7
370
    15
100
AcDbLine
 10
-309.4813173281698
 20
-254.6226257045687
 30
0.0
 11
-299.4813173281698
 21
-254.6226257045687
 31
0.0
  0
LINE
  5
36A
330
1F
100
AcDbEntity
  8
0
  6
Continuous
 62
     7
370
    15
100
AcDbLine
 10
-309.4813173281698
 20
-274.6226257045687
 30
0.0
 11
-309.4813173281698
 21
-254.6226257045687
 31
0.0
  0
LINE
  5
36B
330
1F
100
AcDbEntity
  8
0
  6
Continuous
 62
     7
370
    15
100
AcDbLine
 10
-299.4813173281698
 20
-274.6226257045687
 30
0.0
 11
-309.4813173281698
 21
-274.6226257045687
 31
0.0
  0
LINE
  5
36C
330
1F
100
AcDbEntity
  8
0
  6
Continuous
 62
     7
370
    15
100
AcDbLine
 10
-269.4813173281697
 20
-254.622625704569
 30
0.0
 11
-269.4813173281697
 21
-274.6226257045691
 31
0.0
  0
LINE
  5
36D
330
1F
100
AcDbEntity
  8
0
  6
Continuous
 62
     7
370
    15
100
AcDbLine
 10
-279.4813173281697
 20
-254.622625704569
 30
0.0
 11
-269.4813173281697
 21
-254.622625704569
 31
0.0
  0
LINE
  5
36E
330
1F
100
AcDbEntity
  8
0
  6
Continuous
 62
     7
370
    15
100
AcDbLine
 10
-279.4813173281697
 20
-274.6226257045691
 30
0.0
 11
-279.4813173281697
 21
-254.622625704569
 31
0.0
  0
LINE
  5
36F
330
1F
100
AcDbEntity
  8
0
  6
Continuous
 62
     7
370
    15
100
AcDbLine
 10
-269.4813173281697
 20
-274.6226257045691
 30
0.0
 11
-279.4813173281697
 21
-274.6226257045691
 31
0.0
  0
LINE
  5
370
330
1F
100
AcDbEntity
  8
0
  6
Continuous
 62
     7
370
    15
100
AcDbLine
 10
-239.4813173281698
 20
-254.6226257045693
 30
0.0
 11
-239.4813173281698
 21
-274.6226257045693
 31
0.0
  0
LINE
  5
371
330
1F
100
AcDbEntity
  8
0
  6
Continuous
 62
     7
370
    15
100
AcDbLine
 10
-249.4813173281698
 20
-254.6226257045693
 30
0.0
 11
-239.4813173281698
 21
-254.6226257045693
 31
0.0
  0
LINE
  5
372
330
1F
100
AcDbEntity
  8
0
  6
Continuous
 62
     7
370
    15
100
AcDbLine
 10
-249.4813173281698
 20
-274.6226257045693
 30
0.0
 11
-249.4813173281698
 21
-254.6226257045693
 31
0.0
  0
LINE
  5
373
330
1F
100
AcDbEntity
  8
0
  6
Continuous
 62
     7
370
    15
100
AcDbLine
 10
-239.4813173281698
 20
-274.6226257045693
 30
0.0
 11
-249.4813173281698
 21
-274.6226257045693
 31
0.0
  0
LINE
  5
374
330
1F
100
AcDbEntity
  8
0
  6
Continuous
 62
     7
370
    15
100
AcDbLine
 10
-209.4813173281697
 20
-263.9756038298601
 30
0.0
 11
-209.4813173281697
 21
-274.6226257045696
 31
0.0
  0
LINE
  5
375
330
1F
100
AcDbEntity
  8
0
  6
Continuous
 62
     7
370
    15
100
AcDbLine
 10
-219.4813173281698
 20
-254.6226257045696
 30
0.0
 11
-219.1298087528838
 21
-254.6226257045696
 31
0.0
  0
LINE
  5
376
330
1F
100
AcDbEntity
  8
0
  6
Continuous
 62
     7
370
    15
100
AcDbLine
 10
-219.4813173281698
 20
-274.6226257045696
 30
0.0
 11
-219.4813173281698
 21
-254.6226257045696
 31
0.0
  0
LINE
  5
377
330
1F
100
AcDbEntity
  8
0
  6
Continuous
 62
     7
370
    15
100
AcDbLine
 10
-209.4813173281697
 20
-274.6226257045696
 30
0.0
 11
-215.1298087528838
 21
-274.6226257045696
 31
0.0
  0
LINE
  5
378
330
1F
100
AcDbEntity
  8
0
  6
Continuous
 62
     7
370
    15
100
AcDbLine
 10
-217.1298087528839
 20
-274.6226257045696
 30
0.0
 11
-219.4813173281698
 21
-274.6226257045696
 31
0.0
  0
LINE
  5
379
330
1F
100
AcDbEntity
  8
0
  6
Continuous
 62
     7
370
    15
100
AcDbLine
 10
-179.4813173281697
 20
-263.9756038298601
 30
0.0
 11
-179.4813173281697
 21
-274.6226257045699
 31
0.0
  0
LINE
  5
37A
330
1F
100
AcDbEntity
  8
0
  6
Continuous
 62
     7
370
    15
100
AcDbLine
 10
-189.4813173281697
 20
-274.6226257045699
 30
0.0
 11
-189.4813173281697
 21
-263.9756038298601
 31
0.0
  0
LINE
  5
37B
330
1F
100
AcDbEntity
  8
0
  6
Continuous
 62
     7
370
    15
100
AcDbLine
 10
-179.4813173281697
 20
-274.6226257045699
 30
0.0
 11
-189.4813173281697
 21
-274.6226257045699
 31
0.0
  0
LINE
  5
37C
330
1F
100
AcDbEntity
  8
0
  6
Continuous
 62
     7
370
    15
100
AcDbLine
 10
-149.4813173281697
 20
-263.9756038298601
 30
0.0
 11
-149.4813173281697
 21
-274.6226257045702
 31
0.0
  0
LINE
  5
37D
330
1F
100
AcDbEntity
  8
0
  6
Continuous
 62
     7
370
    15
100
AcDbLine
 10
-159.4813173281697
 20
-274.6226257045702
 30
0.0
 11
-159.4813173281697
 21
-263.9756038298601
 31
0.0
  0
LINE
  5
37E
330
1F
100
AcDbEntity
  8
0
  6
Continuous
 62
     7
370
    15
100
AcDbLine
 10
-149.4813173281697
 20
-274.6226257045702
 30
0.0
 11
-159.4813173281697
 21
-274.6226257045702
 31
0.0
  0
LINE
  5
37F
330
1F
100
AcDbEntity
  8
0
  6
Continuous
 62
     7
370
    15
100
AcDbLine
 10
-119.4813173281698
 20
-263.9756038298601
 30
0.0
 11
-119.4813173281698
 21
-274.6226257045705
 31
0.0
  0
LINE
  5
380
330
1F
100
AcDbEntity
  8
0
  6
Continuous
 62
     7
370
    15
100
AcDbLine
 10
-129.4813173281698
 20
-274.6226257045705
 30
0.0
 11
-129.4813173281698
 21
-263.9756038298601
 31
0.0
  0
LINE
  5
381
330
1F
100
AcDbEntity
  8
0
  6
Continuous
 62
     7
370
    15
100
AcDbLine
 10
-119.4813173281698
 20
-274.6226257045705
 30
0.0
 11
-129.4813173281698
 21
-274.6226257045705
 31
0.0
  0
LINE
  5
382
330
1F
100
AcDbEntity
  8
0
  6
Continuous
 62
     7
370
    15
100
AcDbLine
 10
-89.48131732816973
 20
-263.9756038298601
 30
0.0
 11
-89.48131732816973
 21
-274.6226257045709
 31
0.0
  0
LINE
  5
383
330
1F
100
AcDbEntity
  8
0
  6
Continuous
 62
     7
370
    15
100
AcDbLine
 10
-99.48131732816975
 20
-274.6226257045709
 30
0.0
 11
-99.48131732816975
 21
-263.9756038298601
 31
0.0
  0
LINE
  5
384
330
1F
100
AcDbEntity
  8
0
  6
Continuous
 62
     7
370
    15
100
AcDbLine
 10
-89.48131732816973
 20
-274.6226257045709
 30
0.0
 11
-99.48131732816975
 21
-274.6226257045709
 31
0.0
  0
LINE
  5
385
330
1F
100
AcDbEntity
  8
0
  6
Continuous
 62
     7
370
    15
100
AcDbLine
 10
-59.48131732816978
 20
-263.9756038298601
 30
0.0
 11
-59.48131732816978
 21
-274.6226257045712
 31
0.0
  0
LINE
  5
386
330
1F
100
AcDbEntity
  8
0
  6
Continuous
 62
     7
370
    15
100
AcDbLine
 10
-69.48131732816978
 20
-274.6226257045712
 30
0.0
 11
-69.48131732816978
 21
-263.9756038298601
 31
0.0
  0
LINE
  5
387
330
1F
100
AcDbEntity
  8
0
  6
Continuous
 62
     7
370
    15
100
AcDbLine
 10
-59.48131732816978
 20
-274.6226257045712
 30
0.0
 11
-69.48131732816978
 21
-274.6226257045712
 31
0.0
  0
LINE
  5
388
330
1F
100
AcDbEntity
  8
0
  6
Continuous
 62
     7
370
    15
100
AcDbLine
 10
-29.48131732816978
 20
-263.9756038298601
 30
0.0
 11
-29.48131732816978
 21
-274.6226257045715
 31
0.0
  0
LINE
  5
389
330
1F
100
AcDbEntity
  8
0
  6
Continuous
 62
     7
370
    15
100
AcDbLine
 10
-39.48131732816978
 20
-274.6226257045715
 30
0.0
 11
-39.48131732816978
 21
-263.9756038298601
 31
0.0
  0
LINE
  5
38A
330
1F
100
AcDbEntity
  8
0
  6
Continuous
 62
     7
370
    15
100
AcDbLine
 10
-29.48131732816978
 20
-274.6226257045715
 30
0.0
 11
-39.48131732816978
 21
-274.6226257045715
 31
0.0
  0
LINE
  5
38B
330
1F
100
AcDbEntity
  8
0
  6
Continuous
 62
     7
370
    15
100
AcDbLine
 10
0.5186826718302769
 20
-263.97560382986
 30
0.0
 11
0.5186826718302769
 21
-274.6226257045718
 31
0.0
  0
LINE
  5
38C
330
1F
100
AcDbEntity
  8
0
  6
Continuous
 62
     7
370
    15
100
AcDbLine
 10
-9.48131732816978
 20
-274.6226257045718
 30
0.0
 11
-9.48131732816978
 21
-263.9756038298601
 31
0.0
  0
LINE
  5
38D
330
1F
100
AcDbEntity
  8
0
  6
Continuous
 62
     7
370
    15
100
AcDbLine
 10
0.5186826718302769
 20
-274.6226257045718
 30
0.0
 11
-9.48131732816978
 21
-274.6226257045718
 31
0.0
  0
LINE
  5
38E
330
1F
100
AcDbEntity
  8
0
  6
Continuous
 62
     7
370
    15
100
AcDbLine
 10
30.51868267183028
 20
-263.97560382986
 30
0.0
 11
30.51868267183028
 21
-274.6226257045721
 31
0.0
  0
LINE
  5
38F
330
1F
100
AcDbEntity
  8
0
  6
Continuous
 62
     7
370
    15
100
AcDbLine
 10
20.51868267183028
 20
-274.6226257045721
 30
0.0
 11
20.51868267183028
 21
-263.97560382986
 31
0.0
  0
LINE
  5
390
330
1F
100
AcDbEntity
  8
0
  6
Continuous
 62
     7
370
    15
100
AcDbLine
 10
30.51868267183028
 20
-274.6226257045721
 30
0.0
 11
20.51868267183028
 21
-274.6226257045721
 31
0.0
  0
LINE
  5
391
330
1F
100
AcDbEntity
  8
0
  6
Continuous
 62
     7
370
    15
100
AcDbLine
 10
60.51868267183033
 20
-254.6226257045724
 30
0.0
 11
60.51868267183022
 21
-274.6226257045724
 31
0.0
  0
LINE
  5
392
330
1F
100
AcDbEntity
  8
0
  6
Continuous
 62
     7
370
    15
100
AcDbLine
 10
52.87019124711616
 20
-254.6226257045724
 30
0.0
 11
60.51868267183033
 21
-254.6226257045724
 31
0.0
  0
LINE
  5
393
330
1F
100
AcDbEntity
  8
0
  6
Continuous
 62
     7
370
    15
100
AcDbLine
 10
60.51868267183022
 20
-274.6226257045724
 30
0.0
 11
50.87019124711628
 21
-274.6226257045724
 31
0.0
  0
LINE
  5
394
330
1F
100
AcDbEntity
  8
0
  6
Continuous
 62
     7
370
    15
100
AcDbLine
 10
90.51868267183023
 20
-254.6226257045728
 30
0.0
 11
90.51868267183023
 21
-274.6226257045728
 31
0.0
  0
LINE
  5
395
330
1F
100
AcDbEntity
  8
0
  6
Continuous
 62
     7
370
    15
100
AcDbLine
 10
80.51868267183023
 20
-254.6226257045728
 30
0.0
 11
90.51868267183023
 21
-254.6226257045728
 31
0.0
  0
LINE
  5
396
330
1F
100
AcDbEntity
  8
0
  6
Continuous
 62
     7
370
    15
100
AcDbLine
 10
80.51868267183023
 20
-274.6226257045728
 30
0.0
 11
80.51868267183023
 21
-254.6226257045728
 31
0.0
  0
LINE
  5
397
330
1F
100
AcDbEntity
  8
0
  6
Continuous
 62
     7
370
    15
100
AcDbLine
 10
90.51868267183023
 20
-274.6226257045728
 30
0.0
 11
80.51868267183023
 21
-274.6226257045728
 31
0.0
  0
LINE
  5
398
330
1F
100
AcDbEntity
  8
0
  6
Continuous
 62
     7
370
    15
100
AcDbLine
 10
120.5186826718303
 20
-254.6226257045731
 30
0.0
 11
120.5186826718303
 21
-274.6226257045731
 31
0.0
  0
LINE
  5
399
330
1F
100
AcDbEntity
  8
0
  6
Continuous
 62
     7
370
    15
100
AcDbLine
 10
110.5186826718302
 20
-254.6226257045731
 30
0.0
 11
120.5186826718303
 21
-254.6226257045731
 31
0.0
  0
LINE
  5
39A
330
1F
100
AcDbEntity
  8
0
  6
Continuous
 62
     7
370
    15
100
AcDbLine
 10
110.5186826718302
 20
-274.6226257045731
 30
0.0
 11
110.5186826718302
 21
-254.6226257045731
 31
0.0
  0
LINE
  5
39B
330
1F
100
AcDbEntity
  8
0
  6
Continuous
 62
     7
370
    15
100
AcDbLine
 10
120.5186826718303
 20
-274.6226257045731
 30
0.0
 11
110.5186826718302
 21
-274.6226257045731
 31
0.0
  0
LINE
  5
39C
330
1F
100
AcDbEntity
  8
0
  6
Continuous
 62
     7
370
    15
100
AcDbLine
 10
146.677332181203
 20
-289.8099886309914
 30
0.0
 11
146.677332181203
 21
-318.6053231628779
 31
0.0
  0
LINE
  5
39D
330
1F
100
AcDbEntity
  8
0
  6
Continuous
 62
     7
370
    15
100
AcDbLine
 10
48.87019124711617
 20
-318.6053231628779
 30
0.0
 11
146.677332181203
 21
-318.6053231628779
 31
0.0
  0
LINE
  5
39E
330
1F
100
AcDbEntity
  8
0
  6
Continuous
 62
     7
370
    15
100
AcDbLine
 10
-316.322667818797
 20
-318.6053231628779
 30
0.0
 11
-215.1298087528838
 21
-318.6053231628779
 31
0.0
  0
LINE
  5
39F
330
1F
100
AcDbEntity
  8
0
  6
Continuous
 62
     7
370
    15
100
AcDbLine
 10
-316.322667818797
 20
-289.8099886309914
 30
0.0
 11
-316.322667818797
 21
-318.6053231628779
 31
0.0
  0
LINE
  5
3A0
330
1F
100
AcDbEntity
  8
0
  6
Continuous
 62
     7
370
    15
100
AcDbLine
 10
125.5186826718303
 20
-354.6226257045733
 30
0.0
 11
135.5186826718302
 21
-354.6226257045733
 31
0.0
  0
LINE
  5
3A1
330
1F
100
AcDbEntity
  8
0
  6
Continuous
 62
     7
370
    15
100
AcDbLine
 10
135.5186826718302
 20
-354.6226257045733
 30
0.0
 11
135.5186826718302
 21
-334.6226257045732
 31
0.0
  0
LINE
  5
3A2
330
1F
100
AcDbEntity
  8
0
  6
Continuous
 62
     7
370
    15
100
AcDbLine
 10
135.5186826718302
 20
-334.6226257045732
 30
0.0
 11
125.5186826718303
 21
-334.6226257045732
 31
0.0
  0
LINE
  5
3A3
330
1F
100
AcDbEntity
  8
0
  6
Continuous
 62
     7
370
    15
100
AcDbLine
 10
125.5186826718303
 20
-334.6226257045732
 30
0.0
 11
125.5186826718303
 21
-354.6226257045733
 31
0.0
  0
LINE
  5
3A4
330
1F
100
AcDbEntity
  8
0
  6
Continuous
 62
     7
370
    15
100
AcDbLine
 10
95.51868267183023
 20
-354.6226257045729
 30
0.0
 11
105.5186826718302
 21
-354.6226257045729
 31
0.0
  0
LINE
  5
3A5
330
1F
100
AcDbEntity
  8
0
  6
Continuous
 62
     7
370
    15
100
AcDbLine
 10
105.5186826718302
 20
-354.6226257045729
 30
0.0
 11
105.5186826718302
 21
-334.6226257045729
 31
0.0
  0
LINE
  5
3A6
330
1F
100
AcDbEntity
  8
0
  6
Continuous
 62
     7
370
    15
100
AcDbLine
 10
105.5186826718302
 20
-334.6226257045729
 30
0.0
 11
95.51868267183023
 21
-334.6226257045729
 31
0.0
  0
LINE
  5
3A7
330
1F
100
AcDbEntity
  8
0
  6
Continuous
 62
     7
370
    15
100
AcDbLine
 10
95.51868267183023
 20
-334.6226257045729
 30
0.0
 11
95.51868267183023
 21
-354.6226257045729
 31
0.0
  0
LINE
  5
3A8
330
1F
100
AcDbEntity
  8
0
  6
Continuous
 62
     7
370
    15
100
AcDbLine
 10
65.51868267183022
 20
-354.6226257045726
 30
0.0
 11
75.51868267183022
 21
-354.6226257045726
 31
0.0
  0
LINE
  5
3A9
330
1F
100
AcDbEntity
  8
0
  6
Continuous
 62
     7
370
    15
100
AcDbLine
 10
75.51868267183022
 20
-354.6226257045726
 30
0.0
 11
75.51868267183022
 21
-334.6226257045726
 31
0.0
  0
LINE
  5
3AA
330
1F
100
AcDbEntity
  8
0
  6
Continuous
 62
     7
370
    15
100
AcDbLine
 10
75.51868267183022
 20
-334.6226257045726
 30
0.0
 11
65.51868267183022
 21
-334.6226257045726
 31
0.0
  0
LINE
  5
3AB
330
1F
100
AcDbEntity
  8
0
  6
Continuous
 62
     7
370
    15
100
AcDbLine
 10
65.51868267183022
 20
-334.6226257045726
 30
0.0
 11
65.51868267183022
 21
-354.6226257045726
 31
0.0
  0
LINE
  5
3AC
330
1F
100
AcDbEntity
  8
0
  6
Continuous
 62
     7
370
    15
100
AcDbLine
 10
35.51868267183028
 20
-354.6226257045723
 30
0.0
 11
45.51868267183027
 21
-354.6226257045723
 31
0.0
  0
LINE
  5
3AD
330
1F
100
AcDbEntity
  8
0
  6
Continuous
 62
     7
370
    15
100
AcDbLine
 10
45.51868267183027
 20
-354.6226257045723
 30
0.0
 11
45.51868267183027
 21
-334.6226257045723
 31
0.0
  0
LINE
  5
3AE
330
1F
100
AcDbEntity
  8
0
  6
Continuous
 62
     7
370
    15
100
AcDbLine
 10
45.51868267183027
 20
-334.6226257045723
 30
0.0
 11
35.51868267183028
 21
-334.6226257045723
 31
0.0
  0
LINE
  5
3AF
330
1F
100
AcDbEntity
  8
0
  6
Continuous
 62
     7
370
    15
100
AcDbLine
 10
35.51868267183028
 20
-334.6226257045723
 30
0.0
 11
35.51868267183028
 21
-354.6226257045723
 31
0.0
  0
LINE
  5
3B0
330
1F
100
AcDbEntity
  8
0
  6
Continuous
 62
     7
370
    15
100
AcDbLine
 10
5.518682671830276
 20
-354.6226257045719
 30
0.0
 11
15.51868267183027
 21
-354.6226257045719
 31
0.0
  0
LINE
  5
3B1
330
1F
100
AcDbEntity
  8
0
  6
Continuous
 62
     7
370
    15
100
AcDbLine
 10
15.51868267183027
 20
-354.6226257045719
 30
0.0
 11
15.51868267183027
 21
-334.622625704572
 31
0.0
  0
LINE
  5
3B2
330
1F
100
AcDbEntity
  8
0
  6
Continuous
 62
     7
370
    15
100
AcDbLine
 10
15.51868267183027
 20
-334.622625704572
 30
0.0
 11
5.518682671830276
 21
-334.622625704572
 31
0.0
  0
LINE
  5
3B3
330
1F
100
AcDbEntity
  8
0
  6
Continuous
 62
     7
370
    15
100
AcDbLine
 10
5.518682671830276
 20
-334.622625704572
 30
0.0
 11
5.518682671830276
 21
-354.6226257045719
 31
0.0
  0
LINE
  5
3B4
330
1F
100
AcDbEntity
  8
0
  6
Continuous
 62
     7
370
    15
100
AcDbLine
 10
-24.48131732816978
 20
-354.6226257045717
 30
0.0
 11
-14.48131732816978
 21
-354.6226257045717
 31
0.0
  0
LINE
  5
3B5
330
1F
100
AcDbEntity
  8
0
  6
Continuous
 62
     7
370
    15
100
AcDbLine
 10
-14.48131732816978
 20
-354.6226257045717
 30
0.0
 11
-14.48131732816978
 21
-334.6226257045716
 31
0.0
  0
LINE
  5
3B6
330
1F
100
AcDbEntity
  8
0
  6
Continuous
 62
     7
370
    15
100
AcDbLine
 10
-14.48131732816978
 20
-334.6226257045716
 30
0.0
 11
-24.48131732816978
 21
-334.6226257045716
 31
0.0
  0
LINE
  5
3B7
330
1F
100
AcDbEntity
  8
0
  6
Continuous
 62
     7
370
    15
100
AcDbLine
 10
-24.48131732816978
 20
-334.6226257045716
 30
0.0
 11
-24.48131732816978
 21
-354.6226257045717
 31
0.0
  0
LINE
  5
3B8
330
1F
100
AcDbEntity
  8
0
  6
Continuous
 62
     7
370
    15
100
AcDbLine
 10
-54.48131732816978
 20
-354.6226257045713
 30
0.0
 11
-44.48131732816977
 21
-354.6226257045713
 31
0.0
  0
LINE
  5
3B9
330
1F
100
AcDbEntity
  8
0
  6
Continuous
 62
     7
370
    15
100
AcDbLine
 10
-44.48131732816977
 20
-354.6226257045713
 30
0.0
 11
-44.48131732816977
 21
-334.6226257045713
 31
0.0
  0
LINE
  5
3BA
330
1F
100
AcDbEntity
  8
0
  6
Continuous
 62
     7
370
    15
100
AcDbLine
 10
-44.48131732816977
 20
-334.6226257045713
 30
0.0
 11
-54.48131732816978
 21
-334.6226257045713
 31
0.0
  0
LINE
  5
3BB
330
1F
100
AcDbEntity
  8
0
  6
Continuous
 62
     7
370
    15
100
AcDbLine
 10
-54.48131732816978
 20
-334.6226257045713
 30
0.0
 11
-54.48131732816978
 21
-354.6226257045713
 31
0.0
  0
LINE
  5
3BC
330
1F
100
AcDbEntity
  8
0
  6
Continuous
 62
     7
370
    15
100
AcDbLine
 10
-84.48131732816978
 20
-354.622625704571
 30
0.0
 11
-74.48131732816984
 21
-354.622625704571
 31
0.0
  0
LINE
  5
3BD
330
1F
100
AcDbEntity
  8
0
  6
Continuous
 62
     7
370
    15
100
AcDbLine
 10
-74.48131732816984
 20
-354.622625704571
 30
0.0
 11
-74.48131732816984
 21
-334.622625704571
 31
0.0
  0
LINE
  5
3BE
330
1F
100
AcDbEntity
  8
0
  6
Continuous
 62
     7
370
    15
100
AcDbLine
 10
-74.48131732816984
 20
-334.622625704571
 30
0.0
 11
-84.48131732816978
 21
-334.622625704571
 31
0.0
  0
LINE
  5
3BF
330
1F
100
AcDbEntity
  8
0
  6
Continuous
 62
     7
370
    15
100
AcDbLine
 10
-84.48131732816978
 20
-334.622625704571
 30
0.0
 11
-84.48131732816978
 21
-354.622625704571
 31
0.0
  0
LINE
  5
3C0
330
1F
100
AcDbEntity
  8
0
  6
Continuous
 62
     7
370
    15
100
AcDbLine
 10
-114.4813173281697
 20
-354.6226257045707
 30
0.0
 11
-104.4813173281697
 21
-354.6226257045707
 31
0.0
  0
LINE
  5
3C1
330
1F
100
AcDbEntity
  8
0
  6
Continuous
 62
     7
370
    15
100
AcDbLine
 10
-104.4813173281697
 20
-354.6226257045707
 30
0.0
 11
-104.4813173281698
 21
-334.6226257045707
 31
0.0
  0
LINE
  5
3C2
330
1F
100
AcDbEntity
  8
0
  6
Continuous
 62
     7
370
    15
100
AcDbLine
 10
-104.4813173281698
 20
-334.6226257045707
 30
0.0
 11
-114.4813173281697
 21
-334.6226257045707
 31
0.0
  0
LINE
  5
3C3
330
1F
100
AcDbEntity
  8
0
  6
Continuous
 62
     7
370
    15
100
AcDbLine
 10
-114.4813173281697
 20
-334.6226257045707
 30
0.0
 11
-114.4813173281697
 21
-354.6226257045707
 31
0.0
  0
LINE
  5
3C4
330
1F
100
AcDbEntity
  8
0
  6
Continuous
 62
     7
370
    15
100
AcDbLine
 10
-144.4813173281698
 20
-354.6226257045704
 30
0.0
 11
-134.4813173281698
 21
-354.6226257045704
 31
0.0
  0
LINE
  5
3C5
330
1F
100
AcDbEntity
  8
0
  6
Continuous
 62
     7
370
    15
100
AcDbLine
 10
-134.4813173281698
 20
-354.6226257045704
 30
0.0
 11
-134.4813173281698
 21
-334.6226257045704
 31
0.0
  0
LINE
  5
3C6
330
1F
100
AcDbEntity
  8
0
  6
Continuous
 62
     7
370
    15
100
AcDbLine
 10
-134.4813173281698
 20
-334.6226257045704
 30
0.0
 11
-144.4813173281698
 21
-334.6226257045704
 31
0.0
  0
LINE
  5
3C7
330
1F
100
AcDbEntity
  8
0
  6
Continuous
 62
     7
370
    15
100
AcDbLine
 10
-144.4813173281698
 20
-334.6226257045704
 30
0.0
 11
-144.4813173281698
 21
-354.6226257045704
 31
0.0
  0
LINE
  5
3C8
330
1F
100
AcDbEntity
  8
0
  6
Continuous
 62
     7
370
    15
100
AcDbLine
 10
-174.4813173281697
 20
-354.6226257045701
 30
0.0
 11
-164.4813173281697
 21
-354.6226257045701
 31
0.0
  0
LINE
  5
3C9
330
1F
100
AcDbEntity
  8
0
  6
Continuous
 62
     7
370
    15
100
AcDbLine
 10
-164.4813173281697
 20
-354.6226257045701
 30
0.0
 11
-164.4813173281697
 21
-334.6226257045701
 31
0.0
  0
LINE
  5
3CA
330
1F
100
AcDbEntity
  8
0
  6
Continuous
 62
     7
370
    15
100
AcDbLine
 10
-164.4813173281697
 20
-334.6226257045701
 30
0.0
 11
-174.4813173281697
 21
-334.6226257045701
 31
0.0
  0
LINE
  5
3CB
330
1F
100
AcDbEntity
  8
0
  6
Continuous
 62
     7
370
    15
100
AcDbLine
 10
-174.4813173281697
 20
-334.6226257045701
 30
0.0
 11
-174.4813173281697
 21
-354.6226257045701
 31
0.0
  0
LINE
  5
3CC
330
1F
100
AcDbEntity
  8
0
  6
Continuous
 62
     7
370
    15
100
AcDbLine
 10
-204.4813173281697
 20
-354.6226257045698
 30
0.0
 11
-194.4813173281697
 21
-354.6226257045698
 31
0.0
  0
LINE
  5
3CD
330
1F
100
AcDbEntity
  8
0
  6
Continuous
 62
     7
370
    15
100
AcDbLine
 10
-194.4813173281697
 20
-354.6226257045698
 30
0.0
 11
-194.4813173281698
 21
-334.6226257045698
 31
0.0
  0
LINE
  5
3CE
330
1F
100
AcDbEntity
  8
0
  6
Continuous
 62
     7
370
    15
100
AcDbLine
 10
-194.4813173281698
 20
-334.6226257045698
 30
0.0
 11
-204.4813173281697
 21
-334.6226257045698
 31
0.0
  0
LINE
  5
3CF
330
1F
100
AcDbEntity
  8
0
  6
Continuous
 62
     7
370
    15
100
AcDbLine
 10
-204.4813173281697
 20
-334.6226257045698
 30
0.0
 11
-204.4813173281697
 21
-354.6226257045698
 31
0.0
  0
LINE
  5
3D0
330
1F
100
AcDbEntity
  8
0
  6
Continuous
 62
     7
370
    15
100
AcDbLine
 10
-234.4813173281698
 20
-354.6226257045694
 30
0.0
 11
-224.4813173281698
 21
-354.6226257045694
 31
0.0
  0
LINE
  5
3D1
330
1F
100
AcDbEntity
  8
0
  6
Continuous
 62
     7
370
    15
100
AcDbLine
 10
-224.4813173281698
 20
-354.6226257045694
 30
0.0
 11
-224.4813173281698
 21
-334.6226257045694
 31
0.0
  0
LINE
  5
3D2
330
1F
100
AcDbEntity
  8
0
  6
Continuous
 62
     7
370
    15
100
AcDbLine
 10
-224.4813173281698
 20
-334.6226257045694
 30
0.0
 11
-234.4813173281698
 21
-334.6226257045694
 31
0.0
  0
LINE
  5
3D3
330
1F
100
AcDbEntity
  8
0
  6
Continuous
 62
     7
370
    15
100
AcDbLine
 10
-234.4813173281698
 20
-334.6226257045694
 30
0.0
 11
-234.4813173281698
 21
-354.6226257045694
 31
0.0
  0
LINE
  5
3D4
330
1F
100
AcDbEntity
  8
0
  6
Continuous
 62
     7
370
    15
100
AcDbLine
 10
-264.4813173281698
 20
-354.6226257045691
 30
0.0
 11
-254.4813173281698
 21
-354.6226257045691
 31
0.0
  0
LINE
  5
3D5
330
1F
100
AcDbEntity
  8
0
  6
Continuous
 62
     7
370
    15
100
AcDbLine
 10
-254.4813173281698
 20
-354.6226257045691
 30
0.0
 11
-254.4813173281698
 21
-334.6226257045691
 31
0.0
  0
LINE
  5
3D6
330
1F
100
AcDbEntity
  8
0
  6
Continuous
 62
     7
370
    15
100
AcDbLine
 10
-254.4813173281698
 20
-334.6226257045691
 30
0.0
 11
-264.4813173281698
 21
-334.6226257045691
 31
0.0
  0
LINE
  5
3D7
330
1F
100
AcDbEntity
  8
0
  6
Continuous
 62
     7
370
    15
100
AcDbLine
 10
-264.4813173281698
 20
-334.6226257045691
 30
0.0
 11
-264.4813173281698
 21
-354.6226257045691
 31
0.0
  0
LINE
  5
3D8
330
1F
100
AcDbEntity
  8
0
  6
Continuous
 62
     7
370
    15
100
AcDbLine
 10
-294.4813173281698
 20
-354.6226257045689
 30
0.0
 11
-284.4813173281697
 21
-354.6226257045689
 31
0.0
  0
LINE
  5
3D9
330
1F
100
AcDbEntity
  8
0
  6
Continuous
 62
     7
370
    15
100
AcDbLine
 10
-284.4813173281697
 20
-354.6226257045689
 30
0.0
 11
-284.4813173281697
 21
-334.6226257045688
 31
0.0
  0
LINE
  5
3DA
330
1F
100
AcDbEntity
  8
0
  6
Continuous
 62
     7
370
    15
100
AcDbLine
 10
-284.4813173281697
 20
-334.6226257045688
 30
0.0
 11
-294.4813173281698
 21
-334.6226257045688
 31
0.0
  0
LINE
  5
3DB
330
1F
100
AcDbEntity
  8
0
  6
Continuous
 62
     7
370
    15
100
AcDbLine
 10
-294.4813173281698
 20
-334.6226257045688
 30
0.0
 11
-294.4813173281698
 21
-354.6226257045689
 31
0.0
  0
LINE
  5
3DC
330
1F
100
AcDbEntity
  8
0
  6
Continuous
 62
     7
370
    15
100
AcDbLine
 10
-316.322667818797
 20
-359.2076558969347
 30
0.0
 11
146.677332181203
 21
-359.2076558969347
 31
0.0
  0
LINE
  5
3DD
330
1F
100
AcDbEntity
  8
0
  6
Continuous
 62
     7
370
    15
100
AcDbLine
 10
-316.322667818797
 20
-359.2076558969347
 30
0.0
 11
-316.322667818797
 21
-318.6053231628779
 31
0.0
  0
LINE
  5
3DE
330
1F
100
AcDbEntity
  8
0
  6
Continuous
 62
     7
370
    15
100
AcDbLine
 10
146.677332181203
 20
-359.2076558969347
 30
0.0
 11
146.677332181203
 21
-318.6053231628779
 31
0.0
  0
LINE
  5
3DF
330
1F
100
AcDbEntity
  8
0
  6
Continuous
 62
     7
370
    15
100
AcDbLine
 10
-309.4813173281698
 20
-354.6226257045687
 30
0.0
 11
-299.4813173281698
 21
-354.6226257045687
 31
0.0
  0
LINE
  5
3E0
330
1F
100
AcDbEntity
  8
0
  6
Continuous
 62
     7
370
    15
100
AcDbLine
 10
-299.4813173281698
 20
-354.6226257045687
 30
0.0
 11
-299.4813173281698
 21
-334.6226257045686
 31
0.0
  0
LINE
  5
3E1
330
1F
100
AcDbEntity
  8
0
  6
Continuous
 62
     7
370
    15
100
AcDbLine
 10
-299.4813173281698
 20
-334.6226257045686
 30
0.0
 11
-309.4813173281698
 21
-334.6226257045686
 31
0.0
  0
LINE
  5
3E2
330
1F
100
AcDbEntity
  8
0
  6
Continuous
 62
     7
370
    15
100
AcDbLine
 10
-309.4813173281698
 20
-334.6226257045686
 30
0.0
 11
-309.4813173281698
 21
-354.6226257045687
 31
0.0
  0
LINE
  5
3E3
330
1F
100
AcDbEntity
  8
0
  6
Continuous
 62
     7
370
    15
100
AcDbLine
 10
-279.4813173281697
 20
-354.622625704569
 30
0.0
 11
-269.4813173281697
 21
-354.622625704569
 31
0.0
  0
LINE
  5
3E4
330
1F
100
AcDbEntity
  8
0
  6
Continuous
 62
     7
370
    15
100
AcDbLine
 10
-269.4813173281697
 20
-354.622625704569
 30
0.0
 11
-269.4813173281697
 21
-334.622625704569
 31
0.0
  0
LINE
  5
3E5
330
1F
100
AcDbEntity
  8
0
  6
Continuous
 62
     7
370
    15
100
AcDbLine
 10
-269.4813173281697
 20
-334.622625704569
 30
0.0
 11
-279.4813173281697
 21
-334.622625704569
 31
0.0
  0
LINE
  5
3E6
330
1F
100
AcDbEntity
  8
0
  6
Continuous
 62
     7
370
    15
100
AcDbLine
 10
-279.4813173281697
 20
-334.622625704569
 30
0.0
 11
-279.4813173281697
 21
-354.622625704569
 31
0.0
  0
LINE
  5
3E7
330
1F
100
AcDbEntity
  8
0
  6
Continuous
 62
     7
370
    15
100
AcDbLine
 10
-249.4813173281698
 20
-354.6226257045693
 30
0.0
 11
-239.4813173281698
 21
-354.6226257045693
 31
0.0
  0
LINE
  5
3E8
330
1F
100
AcDbEntity
  8
0
  6
Continuous
 62
     7
370
    15
100
AcDbLine
 10
-239.4813173281698
 20
-354.6226257045693
 30
0.0
 11
-239.4813173281698
 21
-334.6226257045693
 31
0.0
  0
LINE
  5
3E9
330
1F
100
AcDbEntity
  8
0
  6
Continuous
 62
     7
370
    15
100
AcDbLine
 10
-239.4813173281698
 20
-334.6226257045693
 30
0.0
 11
-249.4813173281698
 21
-334.6226257045693
 31
0.0
  0
LINE
  5
3EA
330
1F
100
AcDbEntity
  8
0
  6
Continuous
 62
     7
370
    15
100
AcDbLine
 10
-249.4813173281698
 20
-334.6226257045693
 30
0.0
 11
-249.4813173281698
 21
-354.6226257045693
 31
0.0
  0
LINE
  5
3EB
330
1F
100
AcDbEntity
  8
0
  6
Continuous
 62
     7
370
    15
100
AcDbLine
 10
-219.4813173281698
 20
-354.6226257045696
 30
0.0
 11
-209.4813173281697
 21
-354.6226257045696
 31
0.0
  0
LINE
  5
3EC
330
1F
100
AcDbEntity
  8
0
  6
Continuous
 62
     7
370
    15
100
AcDbLine
 10
-209.4813173281697
 20
-354.6226257045696
 30
0.0
 11
-209.4813173281698
 21
-334.6226257045696
 31
0.0
  0
LINE
  5
3ED
330
1F
100
AcDbEntity
  8
0
  6
Continuous
 62
     7
370
    15
100
AcDbLine
 10
-209.4813173281698
 20
-334.6226257045696
 30
0.0
 11
-219.4813173281698
 21
-334.6226257045696
 31
0.0
  0
LINE
  5
3EE
330
1F
100
AcDbEntity
  8
0
  6
Continuous
 62
     7
370
    15
100
AcDbLine
 10
-219.4813173281698
 20
-334.6226257045696
 30
0.0
 11
-219.4813173281698
 21
-354.6226257045696
 31
0.0
  0
LINE
  5
3EF
330
1F
100
AcDbEntity
  8
0
  6
Continuous
 62
     7
370
    15
100
AcDbLine
 10
-189.4813173281697
 20
-354.6226257045699
 30
0.0
 11
-179.4813173281697
 21
-354.6226257045699
 31
0.0
  0
LINE
  5
3F0
330
1F
100
AcDbEntity
  8
0
  6
Continuous
 62
     7
370
    15
100
AcDbLine
 10
-179.4813173281697
 20
-354.6226257045699
 30
0.0
 11
-179.4813173281697
 21
-334.6226257045699
 31
0.0
  0
LINE
  5
3F1
330
1F
100
AcDbEntity
  8
0
  6
Continuous
 62
     7
370
    15
100
AcDbLine
 10
-179.4813173281697
 20
-334.6226257045699
 30
0.0
 11
-189.4813173281697
 21
-334.6226257045699
 31
0.0
  0
LINE
  5
3F2
330
1F
100
AcDbEntity
  8
0
  6
Continuous
 62
     7
370
    15
100
AcDbLine
 10
-189.4813173281697
 20
-334.6226257045699
 30
0.0
 11
-189.4813173281697
 21
-354.6226257045699
 31
0.0
  0
LINE
  5
3F3
330
1F
100
AcDbEntity
  8
0
  6
Continuous
 62
     7
370
    15
100
AcDbLine
 10
-159.4813173281697
 20
-354.6226257045702
 30
0.0
 11
-149.4813173281697
 21
-354.6226257045702
 31
0.0
  0
LINE
  5
3F4
330
1F
100
AcDbEntity
  8
0
  6
Continuous
 62
     7
370
    15
100
AcDbLine
 10
-149.4813173281697
 20
-354.6226257045702
 30
0.0
 11
-149.4813173281697
 21
-334.6226257045702
 31
0.0
  0
LINE
  5
3F5
330
1F
100
AcDbEntity
  8
0
  6
Continuous
 62
     7
370
    15
100
AcDbLine
 10
-149.4813173281697
 20
-334.6226257045702
 30
0.0
 11
-159.4813173281697
 21
-334.6226257045702
 31
0.0
  0
LINE
  5
3F6
330
1F
100
AcDbEntity
  8
0
  6
Continuous
 62
     7
370
    15
100
AcDbLine
 10
-159.4813173281697
 20
-334.6226257045702
 30
0.0
 11
-159.4813173281697
 21
-354.6226257045702
 31
0.0
  0
LINE
  5
3F7
330
1F
100
AcDbEntity
  8
0
  6
Continuous
 62
     7
370
    15
100
AcDbLine
 10
-129.4813173281698
 20
-354.6226257045706
 30
0.0
 11
-119.4813173281698
 21
-354.6226257045706
 31
0.0
  0
LINE
  5
3F8
330
1F
100
AcDbEntity
  8
0
  6
Continuous
 62
     7
370
    15
100
AcDbLine
 10
-119.4813173281698
 20
-354.6226257045706
 30
0.0
 11
-119.4813173281698
 21
-334.6226257045706
 31
0.0
  0
LINE
  5
3F9
330
1F
100
AcDbEntity
  8
0
  6
Continuous
 62
     7
370
    15
100
AcDbLine
 10
-119.4813173281698
 20
-334.6226257045706
 30
0.0
 11
-129.4813173281698
 21
-334.6226257045706
 31
0.0
  0
LINE
  5
3FA
330
1F
100
AcDbEntity
  8
0
  6
Continuous
 62
     7
370
    15
100
AcDbLine
 10
-129.4813173281698
 20
-334.6226257045706
 30
0.0
 11
-129.4813173281698
 21
-354.6226257045706
 31
0.0
  0
LINE
  5
3FB
330
1F
100
AcDbEntity
  8
0
  6
Continuous
 62
     7
370
    15
100
AcDbLine
 10
-99.48131732816975
 20
-354.6226257045709
 30
0.0
 11
-89.48131732816973
 21
-354.6226257045709
 31
0.0
  0
LINE
  5
3FC
330
1F
100
AcDbEntity
  8
0
  6
Continuous
 62
     7
370
    15
100
AcDbLine
 10
-89.48131732816973
 20
-354.6226257045709
 30
0.0
 11
-89.48131732816973
 21
-334.6226257045708
 31
0.0
  0
LINE
  5
3FD
330
1F
100
AcDbEntity
  8
0
  6
Continuous
 62
     7
370
    15
100
AcDbLine
 10
-89.48131732816973
 20
-334.6226257045708
 30
0.0
 11
-99.48131732816975
 21
-334.6226257045708
 31
0.0
  0
LINE
  5
3FE
330
1F
100
AcDbEntity
  8
0
  6
Continuous
 62
     7
370
    15
100
AcDbLine
 10
-99.48131732816975
 20
-334.6226257045708
 30
0.0
 11
-99.48131732816975
 21
-354.6226257045709
 31
0.0
  0
LINE
  5
3FF
330
1F
100
AcDbEntity
  8
0
  6
Continuous
 62
     7
370
    15
100
AcDbLine
 10
-69.48131732816978
 20
-354.6226257045712
 30
0.0
 11
-59.48131732816978
 21
-354.6226257045712
 31
0.0
  0
LINE
  5
400
330
1F
100
AcDbEntity
  8
0
  6
Continuous
 62
     7
370
    15
100
AcDbLine
 10
-59.48131732816978
 20
-354.6226257045712
 30
0.0
 11
-59.48131732816978
 21
-334.6226257045712
 31
0.0
  0
LINE
  5
401
330
1F
100
AcDbEntity
  8
0
  6
Continuous
 62
     7
370
    15
100
AcDbLine
 10
-59.48131732816978
 20
-334.6226257045712
 30
0.0
 11
-69.48131732816978
 21
-334.6226257045712
 31
0.0
  0
LINE
  5
402
330
1F
100
AcDbEntity
  8
0
  6
Continuous
 62
     7
370
    15
100
AcDbLine
 10
-69.48131732816978
 20
-334.6226257045712
 30
0.0
 11
-69.48131732816978
 21
-354.6226257045712
 31
0.0
  0
LINE
  5
403
330
1F
100
AcDbEntity
  8
0
  6
Continuous
 62
     7
370
    15
100
AcDbLine
 10
-39.48131732816978
 20
-354.6226257045715
 30
0.0
 11
-29.48131732816978
 21
-354.6226257045715
 31
0.0
  0
LINE
  5
404
330
1F
100
AcDbEntity
  8
0
  6
Continuous
 62
     7
370
    15
100
AcDbLine
 10
-29.48131732816978
 20
-354.6226257045715
 30
0.0
 11
-29.48131732816978
 21
-334.6226257045715
 31
0.0
  0
LINE
  5
405
330
1F
100
AcDbEntity
  8
0
  6
Continuous
 62
     7
370
    15
100
AcDbLine
 10
-29.48131732816978
 20
-334.6226257045715
 30
0.0
 11
-39.48131732816978
 21
-334.6226257045715
 31
0.0
  0
LINE
  5
406
330
1F
100
AcDbEntity
  8
0
  6
Continuous
 62
     7
370
    15
100
AcDbLine
 10
-39.48131732816978
 20
-334.6226257045715
 30
0.0
 11
-39.48131732816978
 21
-354.6226257045715
 31
0.0
  0
LINE
  5
407
330
1F
100
AcDbEntity
  8
0
  6
Continuous
 62
     7
370
    15
100
AcDbLine
 10
-9.48131732816978
 20
-354.6226257045717
 30
0.0
 11
0.5186826718302769
 21
-354.6226257045717
 31
0.0
  0
LINE
  5
408
330
1F
100
AcDbEntity
  8
0
  6
Continuous
 62
     7
370
    15
100
AcDbLine
 10
0.5186826718302769
 20
-354.6226257045717
 30
0.0
 11
0.5186826718302769
 21
-334.6226257045718
 31
0.0
  0
LINE
  5
409
330
1F
100
AcDbEntity
  8
0
  6
Continuous
 62
     7
370
    15
100
AcDbLine
 10
0.5186826718302769
 20
-334.6226257045718
 30
0.0
 11
-9.48131732816978
 21
-334.6226257045718
 31
0.0
  0
LINE
  5
40A
330
1F
100
AcDbEntity
  8
0
  6
Continuous
 62
     7
370
    15
100
AcDbLine
 10
-9.48131732816978
 20
-334.6226257045718
 30
0.0
 11
-9.48131732816978
 21
-354.6226257045717
 31
0.0
  0
LINE
  5
40B
330
1F
100
AcDbEntity
  8
0
  6
Continuous
 62
     7
370
    15
100
AcDbLine
 10
20.51868267183028
 20
-354.6226257045721
 30
0.0
 11
30.51868267183028
 21
-354.6226257045721
 31
0.0
  0
LINE
  5
40C
330
1F
100
AcDbEntity
  8
0
  6
Continuous
 62
     7
370
    15
100
AcDbLine
 10
30.51868267183028
 20
-354.6226257045721
 30
0.0
 11
30.51868267183028
 21
-334.6226257045721
 31
0.0
  0
LINE
  5
40D
330
1F
100
AcDbEntity
  8
0
  6
Continuous
 62
     7
370
    15
100
AcDbLine
 10
30.51868267183028
 20
-334.6226257045721
 30
0.0
 11
20.51868267183028
 21
-334.6226257045721
 31
0.0
  0
LINE
  5
40E
330
1F
100
AcDbEntity
  8
0
  6
Continuous
 62
     7
370
    15
100
AcDbLine
 10
20.51868267183028
 20
-334.6226257045721
 30
0.0
 11
20.51868267183028
 21
-354.6226257045721
 31
0.0
  0
LINE
  5
40F
330
1F
100
AcDbEntity
  8
0
  6
Continuous
 62
     7
370
    15
100
AcDbLine
 10
50.51868267183028
 20
-354.6226257045725
 30
0.0
 11
60.51868267183022
 21
-354.6226257045725
 31
0.0
  0
LINE
  5
410
330
1F
100
AcDbEntity
  8
0
  6
Continuous
 62
     7
370
    15
100
AcDbLine
 10
60.51868267183022
 20
-354.6226257045725
 30
0.0
 11
60.51868267183033
 21
-334.6226257045724
 31
0.0
  0
LINE
  5
411
330
1F
100
AcDbEntity
  8
0
  6
Continuous
 62
     7
370
    15
100
AcDbLine
 10
60.51868267183033
 20
-334.6226257045724
 30
0.0
 11
50.51868267183028
 21
-334.6226257045724
 31
0.0
  0
LINE
  5
412
330
1F
100
AcDbEntity
  8
0
  6
Continuous
 62
     7
370
    15
100
AcDbLine
 10
50.51868267183028
 20
-334.6226257045724
 30
0.0
 11
50.51868267183028
 21
-354.6226257045725
 31
0.0
  0
LINE
  5
413
330
1F
100
AcDbEntity
  8
0
  6
Continuous
 62
     7
370
    15
100
AcDbLine
 10
80.51868267183023
 20
-354.6226257045728
 30
0.0
 11
90.51868267183023
 21
-354.6226257045728
 31
0.0
  0
LINE
  5
414
330
1F
100
AcDbEntity
  8
0
  6
Continuous
 62
     7
370
    15
100
AcDbLine
 10
90.51868267183023
 20
-354.6226257045728
 30
0.0
 11
90.51868267183023
 21
-334.6226257045728
 31
0.0
  0
LINE
  5
415
330
1F
100
AcDbEntity
  8
0
  6
Continuous
 62
     7
370
    15
100
AcDbLine
 10
90.51868267183023
 20
-334.6226257045728
 30
0.0
 11
80.51868267183023
 21
-334.6226257045728
 31
0.0
  0
LINE
  5
416
330
1F
100
AcDbEntity
  8
0
  6
Continuous
 62
     7
370
    15
100
AcDbLine
 10
80.51868267183023
 20
-334.6226257045728
 30
0.0
 11
80.51868267183023
 21
-354.6226257045728
 31
0.0
  0
LINE
  5
417
330
1F
100
AcDbEntity
  8
0
  6
Continuous
 62
     7
370
    15
100
AcDbLine
 10
110.5186826718302
 20
-354.6226257045731
 30
0.0
 11
120.5186826718303
 21
-354.6226257045731
 31
0.0
  0
LINE
  5
418
330
1F
100
AcDbEntity
  8
0
  6
Continuous
 62
     7
370
    15
100
AcDbLine
 10
120.5186826718303
 20
-354.6226257045731
 30
0.0
 11
120.5186826718303
 21
-334.6226257045731
 31
0.0
  0
LINE
  5
419
330
1F
100
AcDbEntity
  8
0
  6
Continuous
 62
     7
370
    15
100
AcDbLine
 10
120.5186826718303
 20
-334.6226257045731
 30
0.0
 11
110.5186826718302
 21
-334.6226257045731
 31
0.0
  0
LINE
  5
41A
330
1F
100
AcDbEntity
  8
0
  6
Continuous
 62
     7
370
    15
100
AcDbLine
 10
110.5186826718302
 20
-334.6226257045731
 30
0.0
 11
110.5186826718302
 21
-354.6226257045731
 31
0.0
  0
LINE
  5
41B
330
1F
100
AcDbEntity
  8
0
  6
Continuous
 62
     8
370
    15
100
AcDbLine
 10
50.87019124711628
 20
-208.6053231628778
 30
0.0
 11
146.677332181203
 21
-208.6053231628778
 31
0.0
  0
LINE
  5
41C
330
1F
100
AcDbEntity
  8
0
  6
Continuous
 62
     8
370
    15
100
AcDbLine
 10
-316.322667818797
 20
-208.6053231628778
 30
0.0
 11
-217.1298087528839
 21
-208.6053231628778
 31
0.0
  0
LINE
  5
41D
330
1F
100
AcDbEntity
  8
0
  6
Continuous
 62
     8
370
    15
100
AcDbLine
 10
50.87019124711628
 20
-289.8099886309914
 30
0.0
 11
146.677332181203
 21
-289.8099886309914
 31
0.0
  0
LINE
  5
41E
330
1F
100
AcDbEntity
  8
0
  6
Continuous
 62
     8
370
    15
100
AcDbLine
 10
-316.322667818797
 20
-289.8099886309914
 30
0.0
 11
-217.1298087528839
 21
-289.8099886309914
 31
0.0
  0
ENDSEC
  0
SECTION
  2
OBJECTS
  0
DICTIONARY
  5
C
330
0
100
AcDbDictionary
281
     1
  3
ACAD_COLOR
350
44A
  3
ACAD_GROUP
350
D
  3
ACAD_LAYOUT
350
1A
  3
ACAD_MATERIAL
350
420
  3
ACAD_MLEADERSTYLE
350
45F
  3
ACAD_MLINESTYLE
350
17
  3
ACAD_PLOTSETTINGS
350
19
  3
ACAD_PLOTSTYLENAME
350
E
  3
ACAD_SCALELIST
350
44D
  3
ACAD_TABLESTYLE
350
44B
  3
ACAD_VISUALSTYLE
350
439
  3
ACDB_RECOMPOSE_DATA
350
487
  3
AcDbVariableDictionary
350
47D
  0
DICTIONARY
  5
47B
330
10
100
AcDbDictionary
280
     1
281
     1
  3
ADSK_XREC_LAYER_RECONCILED
360
47C
  0
DICTIONARY
  5
44A
102
{ACAD_REACTORS
330
C
102
}
330
C
100
AcDbDictionary
281
     1
  0
DICTIONARY
  5
D
102
{ACAD_REACTORS
330
C
102
}
330
C
100
AcDbDictionary
281
     1
  0
DICTIONARY
  5
1A
102
{ACAD_REACTORS
330
C
102
}
330
C
100
AcDbDictionary
281
     1
  3
Layout1
350
1E
  3
Layout2
350
26
  3
Model
350
22
  0
DICTIONARY
  5
420
102
{ACAD_REACTORS
330
C
102
}
330
C
100
AcDbDictionary
281
     1
  3
ByBlock
350
429
  3
ByLayer
350
421
  3
Global
350
431
  0
DICTIONARY
  5
45F
102
{ACAD_REACTORS
330
C
102
}
330
C
100
AcDbDictionary
281
     1
  3
Standard
350
460
  0
DICTIONARY
  5
17
102
{ACAD_REACTORS
330
C
102
}
330
C
100
AcDbDictionary
281
     1
  3
Standard
350
18
  0
DICTIONARY
  5
19
102
{ACAD_REACTORS
330
C
102
}
330
C
100
AcDbDictionary
281
     1
  0
ACDBDICTIONARYWDFLT
  5
E
102
{ACAD_REACTORS
330
C
102
}
330
C
100
AcDbDictionary
281
     1
  3
Normal
350
F
100
AcDbDictionaryWithDefault
340
F
  0
DICTIONARY
  5
44D
102
{ACAD_REACTORS
330
C
102
}
330
C
100
AcDbDictionary
281
     1
  3
A0
350
44E
  3
A1
350
44F
  3
A2
350
450
  3
A3
350
451
  3
A4
350
452
  3
A5
350
453
  3
A6
350
454
  3
A7
350
455
  3
A8
350
456
  3
A9
350
457
  3
B0
350
458
  3
B1
350
459
  3
B2
350
45A
  3
B3
350
45B
  3
B4
350
45C
  3
B5
350
45D
  3
B6
350
45E
  0
DICTIONARY
  5
44B
102
{ACAD_REACTORS
330
C
102
}
330
C
100
AcDbDictionary
281
     1
  3
Standard
350
44C
  0
DICTIONARY
  5
439
102
{ACAD_REACTORS
330
C
102
}
330
C
100
AcDbDictionary
281
     1
  3
2dWireframe
350
43F
  3
3D Hidden
350
441
  3
3dWireframe
350
440
  3
Basic
350
43E
  3
Brighten
350
445
  3
ColorChange
350
449
  3
Conceptual
350
442
  3
Dim
350
444
  3
Facepattern
350
448
  3
Flat
350
43A
  3
FlatWithEdges
350
43B
  3
Gouraud
350
43C
  3
GouraudWithEdges
350
43D
  3
Linepattern
350
447
  3
Realistic
350
443
  3
Thicken
350
446
  0
XRECORD
  5
487
102
{ACAD_REACTORS
330
C
102
}
330
C
100
AcDbXrecord
280
     1
 90
        1
330
44C
  0
DICTIONARY
  5
47D
102
{ACAD_REACTORS
330
C
102
}
330
C
100
AcDbDictionary
281
     1
  3
CANNOSCALE
350
481
  3
CMLEADERSTYLE
350
47F
  3
CTABLESTYLE
350
47E
  3
LAYEREVAL
350
483
  3
LAYERNOTIFY
350
484
  3
LIGHTINGUNITS
350
482
  3
MSLTSCALE
350
480
  0
XRECORD
  5
47C
102
{ACAD_REACTORS
330
47B
102
}
330
47B
100
AcDbXrecord
280
     1
290
     1
  0
LAYOUT
  5
1E
102
{ACAD_REACTORS
330
1A
102
}
330
1A
100
AcDbPlotSettings
  1

  2
none_device
  4

  6

 40
0.0
 41
0.0
 42
0.0
 43
0.0
 44
0.0
 45
0.0
 46
0.0
 47
0.0
 48
0.0
 49
0.0
140
0.0
141
0.0
142
1.0
143
1.0
 70
   688
 72
     0
 73
     0
 74
     5
  7

 75
    16
147
1.0
 76
     0
 77
     2
 78
   300
148
0.0
149
0.0
100
AcDbLayout
  1
Layout1
 70
     1
 71
     1
 10
0.0
 20
0.0
 11
420.0
 21
297.0
 12
0.0
 22
0.0
 32
0.0
 14
1.000000000000000E+20
 24
1.000000000000000E+20
 34
1.000000000000000E+20
 15
-1.000000000000000E+20
 25
-1.000000000000000E+20
 35
-1.000000000000000E+20
146
0.0
 13
0.0
 23
0.0
 33
0.0
 16
1.0
 26
0.0
 36
0.0
 17
0.0
 27
1.0
 37
0.0
 76
     0
330
1B
  0
LAYOUT
  5
26
102
{ACAD_REACTORS
330
1A
102
}
330
1A
100
AcDbPlotSettings
  1

  2
none_device
  4

  6

 40
0.0
 41
0.0
 42
0.0
 43
0.0
 44
0.0
 45
0.0
 46
0.0
 47
0.0
 48
0.0
 49
0.0
140
0.0
141
0.0
142
1.0
143
1.0
 70
   688
 72
     0
 73
     0
 74
     5
  7

 75
    16
147
1.0
 76
     0
 77
     2
 78
   300
148
0.0
149
0.0
100
AcDbLayout
  1
Layout2
 70
     1
 71
     2
 10
0.0
 20
0.0
 11
0.0
 21
0.0
 12
0.0
 22
0.0
 32
0.0
 14
0.0
 24
0.0
 34
0.0
 15
0.0
 25
0.0
 35
0.0
146
0.0
 13
0.0
 23
0.0
 33
0.0
 16
1.0
 26
0.0
 36
0.0
 17
0.0
 27
1.0
 37
0.0
 76
     0
330
23
  0
LAYOUT
  5
22
102
{ACAD_REACTORS
330
1A
102
}
330
1A
100
AcDbPlotSettings
  1

  2
none_device
  4

  6

 40
0.0
 41
0.0
 42
0.0
 43
0.0
 44
0.0
 45
0.0
 46
0.0
 47
0.0
 48
0.0
 49
0.0
140
0.0
141
0.0
142
1.0
143
1.0
 70
  1712
 72
     0
 73
     0
 74
     0
  7

 75
     0
147
1.0
 76
     0
 77
     2
 78
   300
148
0.0
149
0.0
100
AcDbLayout
  1
Model
 70
     1
 71
     0
 10
0.0
 20
0.0
 11
279.4
 21
215.9
 12
0.0
 22
0.0
 32
0.0
 14
0.0
 24
0.0
 34
0.0
 15
279.4
 25
215.9
 35
0.0
146
0.0
 13
0.0
 23
0.0
 33
0.0
 16
1.0
 26
0.0
 36
0.0
 17
0.0
 27
1.0
 37
0.0
 76
     0
330
1F
331
29
  0
MATERIAL
  5
429
102
{ACAD_XDICTIONARY
360
42A
102
}
102
{ACAD_REACTORS
330
420
102
}
330
420
100
AcDbMaterial
  1
ByBlock
 72
     0
 43
0.0008202099737533
 43
0.0
 43
0.0
 43
0.0
 43
0.0
 43
0.0008202099737533
 43
0.0
 43
0.0
 43
0.0
 43
0.0
 43
1.0
 43
0.0
 43
0.0
 43
0.0
 43
0.0
 43
1.0
 77
     0
 47
0.0008202099737533
 47
0.0
 47
0.0
 47
0.0
 47
0.0
 47
0.0008202099737533
 47
0.0
 47
0.0
 47
0.0
 47
0.0
 47
1.0
 47
0.0
 47
0.0
 47
0.0
 47
0.0
 47
1.0
171
     0
 49
0.0008202099737533
 49
0.0
 49
0.0
 49
0.0
 49
0.0
 49
0.0008202099737533
 49
0.0
 49
0.0
 49
0.0
 49
0.0
 49
1.0
 49
0.0
 49
0.0
 49
0.0
 49
0.0
 49
1.0
175
     0
142
0.0008202099737533
142
0.0
142
0.0
142
0.0
142
0.0
142
0.0008202099737533
142
0.0
142
0.0
142
0.0
142
0.0
142
1.0
142
0.0
142
0.0
142
0.0
142
0.0
142
1.0
179
     0
144
0.0008202099737533
144
0.0
144
0.0
144
0.0
144
0.0
144
0.0008202099737533
144
0.0
144
0.0
144
0.0
144
0.0
144
1.0
144
0.0
144
0.0
144
0.0
144
0.0
144
1.0
147
0.0008202099737533
147
0.0
147
0.0
147
0.0
147
0.0
147
0.0008202099737533
147
0.0
147
0.0
147
0.0
147
0.0
147
1.0
147
0.0
147
0.0
147
0.0
147
0.0
147
1.0
  0
MATERIAL
  5
421
102
{ACAD_XDICTIONARY
360
422
102
}
102
{ACAD_REACTORS
330
420
102
}
330
420
100
AcDbMaterial
  1
ByLayer
 72
     0
 43
0.0008202099737533
 43
0.0
 43
0.0
 43
0.0
 43
0.0
 43
0.0008202099737533
 43
0.0
 43
0.0
 43
0.0
 43
0.0
 43
1.0
 43
0.0
 43
0.0
 43
0.0
 43
0.0
 43
1.0
 77
     0
 47
0.0008202099737533
 47
0.0
 47
0.0
 47
0.0
 47
0.0
 47
0.0008202099737533
 47
0.0
 47
0.0
 47
0.0
 47
0.0
 47
1.0
 47
0.0
 47
0.0
 47
0.0
 47
0.0
 47
1.0
171
     0
 49
0.0008202099737533
 49
0.0
 49
0.0
 49
0.0
 49
0.0
 49
0.0008202099737533
 49
0.0
 49
0.0
 49
0.0
 49
0.0
 49
1.0
 49
0.0
 49
0.0
 49
0.0
 49
0.0
 49
1.0
175
     0
142
0.0008202099737533
142
0.0
142
0.0
142
0.0
142
0.0
142
0.0008202099737533
142
0.0
142
0.0
142
0.0
142
0.0
142
1.0
142
0.0
142
0.0
142
0.0
142
0.0
142
1.0
179
     0
144
0.0008202099737533
144
0.0
144
0.0
144
0.0
144
0.0
144
0.0008202099737533
144
0.0
144
0.0
144
0.0
144
0.0
144
1.0
144
0.0
144
0.0
144
0.0
144
0.0
144
1.0
147
0.0008202099737533
147
0.0
147
0.0
147
0.0
147
0.0
147
0.0008202099737533
147
0.0
147
0.0
147
0.0
147
0.0
147
1.0
147
0.0
147
0.0
147
0.0
147
0.0
147
1.0
  0
MATERIAL
  5
431
102
{ACAD_XDICTIONARY
360
432
102
}
102
{ACAD_REACTORS
330
420
102
}
330
420
100
AcDbMaterial
  1
Global
 72
     0
 43
0.0008202099737533
 43
0.0
 43
0.0
 43
0.0
 43
0.0
 43
0.0008202099737533
 43
0.0
 43
0.0
 43
0.0
 43
0.0
 43
1.0
 43
0.0
 43
0.0
 43
0.0
 43
0.0
 43
1.0
 77
     0
 47
0.0008202099737533
 47
0.0
 47
0.0
 47
0.0
 47
0.0
 47
0.0008202099737533
 47
0.0
 47
0.0
 47
0.0
 47
0.0
 47
1.0
 47
0.0
 47
0.0
 47
0.0
 47
0.0
 47
1.0
171
     0
 49
0.0008202099737533
 49
0.0
 49
0.0
 49
0.0
 49
0.0
 49
0.0008202099737533
 49
0.0
 49
0.0
 49
0.0
 49
0.0
 49
1.0
 49
0.0
 49
0.0
 49
0.0
 49
0.0
 49
1.0
175
     0
142
0.0008202099737533
142
0.0
142
0.0
142
0.0
142
0.0
142
0.0008202099737533
142
0.0
142
0.0
142
0.0
142
0.0
142
1.0
142
0.0
142
0.0
142
0.0
142
0.0
142
1.0
179
     0
144
0.0008202099737533
144
0.0
144
0.0
144
0.0
144
0.0
144
0.0008202099737533
144
0.0
144
0.0
144
0.0
144
0.0
144
1.0
144
0.0
144
0.0
144
0.0
144
0.0
144
1.0
147
0.0008202099737533
147
0.0
147
0.0
147
0.0
147
0.0
147
0.0008202099737533
147
0.0
147
0.0
147
0.0
147
0.0
147
1.0
147
0.0
147
0.0
147
0.0
147
0.0
147
1.0
  0
MLEADERSTYLE
  5
460
102
{ACAD_REACTORS
330
45F
102
}
330
45F
100
AcDbMLeaderStyle
170
     2
171
     1
172
     0
 90
        2
 40
0.0
 41
0.0
173
     1
 91
-1056964608
340
14
 92
       -2
290
     1
 42
2.0
291
     1
 43
0.36
  3
Standard
 44
4.0
300

342
11
174
     1
178
     6
175
     1
176
     0
 93
-1056964608
 45
4.0
292
     0
297
     0
 46
4.0
 94
-1056964608
 47
1.0
 49
1.0
140
1.0
293
     1
141
0.0
294
     1
177
     0
142
1.0
295
     1
296
     0
143
0.125
1001
ACAD_MLEADERVER
1070
     2
  0
MLINESTYLE
  5
18
102
{ACAD_REACTORS
330
17
102
}
330
17
100
AcDbMlineStyle
  2
STANDARD
 70
     0
  3

 62
   256
 51
90.0
 52
90.0
 71
     2
 49
0.5
 62
   256
  6
BYLAYER
 49
-0.5
 62
   256
  6
BYLAYER
  0
ACDBPLACEHOLDER
  5
F
102
{ACAD_REACTORS
330
E
102
}
330
E
  0
SCALE
  5
44E
102
{ACAD_REACTORS
330
44D
102
}
330
44D
100
AcDbScale
 70
     0
300
1:1
140
1.0
141
1.0
290
     1
  0
SCALE
  5
44F
102
{ACAD_REACTORS
330
44D
102
}
330
44D
100
AcDbScale
 70
     0
300
1:2
140
1.0
141
2.0
290
     0
  0
SCALE
  5
450
102
{ACAD_REACTORS
330
44D
102
}
330
44D
100
AcDbScale
 70
     0
300
1:4
140
1.0
141
4.0
290
     0
  0
SCALE
  5
451
102
{ACAD_REACTORS
330
44D
102
}
330
44D
100
AcDbScale
 70
     0
300
1:5
140
1.0
141
5.0
290
     0
  0
SCALE
  5
452
102
{ACAD_REACTORS
330
44D
102
}
330
44D
100
AcDbScale
 70
     0
300
1:8
140
1.0
141
8.0
290
     0
  0
SCALE
  5
453
102
{ACAD_REACTORS
330
44D
102
}
330
44D
100
AcDbScale
 70
     0
300
1:10
140
1.0
141
10.0
290
     0
  0
SCALE
  5
454
102
{ACAD_REACTORS
330
44D
102
}
330
44D
100
AcDbScale
 70
     0
300
1:16
140
1.0
141
16.0
290
     0
  0
SCALE
  5
455
102
{ACAD_REACTORS
330
44D
102
}
330
44D
100
AcDbScale
 70
     0
300
1:20
140
1.0
141
20.0
290
     0
  0
SCALE
  5
456
102
{ACAD_REACTORS
330
44D
102
}
330
44D
100
AcDbScale
 70
     0
300
1:30
140
1.0
141
30.0
290
     0
  0
SCALE
  5
457
102
{ACAD_REACTORS
330
44D
102
}
330
44D
100
AcDbScale
 70
     0
300
1:40
140
1.0
141
40.0
290
     0
  0
SCALE
  5
458
102
{ACAD_REACTORS
330
44D
102
}
330
44D
100
AcDbScale
 70
     0
300
1:50
140
1.0
141
50.0
290
     0
  0
SCALE
  5
459
102
{ACAD_REACTORS
330
44D
102
}
330
44D
100
AcDbScale
 70
     0
300
1:100
140
1.0
141
100.0
290
     0
  0
SCALE
  5
45A
102
{ACAD_REACTORS
330
44D
102
}
330
44D
100
AcDbScale
 70
     0
300
2:1
140
2.0
141
1.0
290
     0
  0
SCALE
  5
45B
102
{ACAD_REACTORS
330
44D
102
}
330
44D
100
AcDbScale
 70
     0
300
4:1
140
4.0
141
1.0
290
     0
  0
SCALE
  5
45C
102
{ACAD_REACTORS
330
44D
102
}
330
44D
100
AcDbScale
 70
     0
300
8:1
140
8.0
141
1.0
290
     0
  0
SCALE
  5
45D
102
{ACAD_REACTORS
330
44D
102
}
330
44D
100
AcDbScale
 70
     0
300
10:1
140
10.0
141
1.0
290
     0
  0
SCALE
  5
45E
102
{ACAD_REACTORS
330
44D
102
}
330
44D
100
AcDbScale
 70
     0
300
100:1
140
100.0
141
1.0
290
     0
  0
TABLESTYLE
  5
44C
102
{ACAD_XDICTIONARY
360
485
102
}
102
{ACAD_REACTORS
330
44B
102
}
330
44B
100
AcDbTableStyle
  3
Standard
 70
     0
 71
     0
 40
1.5
 41
1.5
280
     0
281
     0
  7
Standard
140
4.5
170
     2
 62
     0
 63
     7
283
     0
 90
      512
 91
        0
  1

274
    -2
284
     1
 64
     0
275
    -2
285
     1
 65
     0
276
    -2
286
     1
 66
     0
277
    -2
287
     1
 67
     0
278
    -2
288
     1
 68
     0
279
    -2
289
     1
 69
     0
  7
Standard
140
6.0
170
     5
 62
     0
 63
     7
283
     0
 90
      512
 91
        0
  1

274
    -2
284
     1
 64
     0
275
    -2
285
     1
 65
     0
276
    -2
286
     1
 66
     0
277
    -2
287
     1
 67
     0
278
    -2
288
     1
 68
     0
279
    -2
289
     1
 69
     0
  7
Standard
140
4.5
170
     5
 62
     0
 63
     7
283
     0
 90
      512
 91
        0
  1

274
    -2
284
     1
 64
     0
275
    -2
285
     1
 65
     0
276
    -2
286
     1
 66
     0
277
    -2
287
     1
 67
     0
278
    -2
288
     1
 68
     0
279
    -2
289
     1
 69
     0
  0
VISUALSTYLE
  5
43F
102
{ACAD_REACTORS
330
439
102
}
330
439
100
AcDbVisualStyle
  2
2dWireframe
 70
     4
 71
     0
 72
     2
 73
     0
 90
        0
 40
-0.6
 41
-30.0
 62
     5
 63
     7
421
 16777215
 74
     1
 91
        4
 64
     7
 65
   257
 75
     1
175
     1
 42
1.0
 92
        0
 66
   257
 43
1.0
 76
     1
 77
     6
 78
     2
 67
     7
 79
     5
170
     0
171
     0
290
     0
174
     0
 93
        1
 44
0.0
173
     0
291
     0
 45
0.0
  0
VISUALSTYLE
  5
441
102
{ACAD_REACTORS
330
439
102
}
330
439
100
AcDbVisualStyle
  2
3D Hidden
 70
     6
 71
     1
 72
     2
 73
     2
 90
        0
 40
-0.6
 41
-30.0
 62
     5
 63
     7
421
 16777215
 74
     2
 91
        2
 64
     7
 65
   257
 75
     2
175
     1
 42
40.0
 92
        0
 66
   257
 43
1.0
 76
     1
 77
     6
 78
     2
 67
     7
 79
     3
170
     0
171
     0
290
     0
174
     0
 93
        1
 44
0.0
173
     0
291
     0
 45
0.0
  0
VISUALSTYLE
  5
440
102
{ACAD_REACTORS
330
439
102
}
330
439
100
AcDbVisualStyle
  2
3dWireframe
 70
     5
 71
     0
 72
     2
 73
     0
 90
        0
 40
-0.6
 41
-30.0
 62
     5
 63
     7
421
 16777215
 74
     1
 91
        4
 64
     7
 65
   257
 75
     1
175
     1
 42
1.0
 92
        0
 66
   257
 43
1.0
 76
     1
 77
     6
 78
     2
 67
     7
 79
     5
170
     0
171
     0
290
     0
174
     0
 93
        1
 44
0.0
173
     0
291
     0
 45
0.0
  0
VISUALSTYLE
  5
43E
102
{ACAD_REACTORS
330
439
102
}
330
439
100
AcDbVisualStyle
  2
Basic
 70
     7
 71
     1
 72
     0
 73
     1
 90
        0
 40
-0.6
 41
-30.0
 62
     5
 63
     7
421
 16777215
 74
     0
 91
        4
 64
     7
 65
   257
 75
     1
175
     1
 42
1.0
 92
        8
 66
     7
 43
1.0
 76
     1
 77
     6
 78
     2
 67
     7
 79
     5
170
     0
171
     0
290
     0
174
     0
 93
        1
 44
0.0
173
     0
291
     1
 45
0.0
  0
VISUALSTYLE
  5
445
102
{ACAD_REACTORS
330
439
102
}
330
439
100
AcDbVisualStyle
  2
Brighten
 70
    12
 71
     2
 72
     2
 73
     0
 90
        0
 40
-0.6
 41
-30.0
 62
     5
 63
     7
421
 16777215
 74
     1
 91
        4
 64
     7
 65
   257
 75
     1
175
     1
 42
1.0
 92
        8
 66
     7
 43
1.0
 76
     1
 77
     6
 78
     2
 67
     7
 79
     5
170
     0
171
     0
290
     0
174
     0
 93
        1
 44
50.0
173
     0
291
     1
 45
0.0
  0
VISUALSTYLE
  5
449
102
{ACAD_REACTORS
330
439
102
}
330
439
100
AcDbVisualStyle
  2
ColorChange
 70
    16
 71
     2
 72
     2
 73
     3
 90
        0
 40
-0.6
 41
-30.0
 62
     5
 63
     8
421
  8421504
 74
     1
 91
        4
 64
     7
 65
   257
 75
     1
175
     1
 42
1.0
 92
        8
 66
     8
424
  8421504
 43
1.0
 76
     1
 77
     6
 78
     2
 67
     7
 79
     5
170
     0
171
     0
290
     0
174
     0
 93
        1
 44
0.0
173
     0
291
     1
 45
0.0
  0
VISUALSTYLE
  5
442
102
{ACAD_REACTORS
330
439
102
}
330
439
100
AcDbVisualStyle
  2
Conceptual
 70
     9
 71
     3
 72
     2
 73
     0
 90
        0
 40
-0.6
 41
-30.0
 62
     5
 63
     7
421
 16777215
 74
     2
 91
        2
 64
     7
 65
   257
 75
     1
175
     1
 42
40.0
 92
        8
 66
     7
 43
1.0
 76
     1
 77
     6
 78
     2
 67
     7
 79
     3
170
     0
171
     0
290
     0
174
     0
 93
        1
 44
0.0
173
     0
291
     0
 45
0.0
  0
VISUALSTYLE
  5
444
102
{ACAD_REACTORS
330
439
102
}
330
439
100
AcDbVisualStyle
  2
Dim
 70
    11
 71
     2
 72
     2
 73
     0
 90
        0
 40
-0.6
 41
-30.0
 62
     5
 63
     7
421
 16777215
 74
     1
 91
        4
 64
     7
 65
   257
 75
     1
175
     1
 42
1.0
 92
        8
 66
     7
 43
1.0
 76
     1
 77
     6
 78
     2
 67
     7
 79
     5
170
     0
171
     0
290
     0
174
     0
 93
        1
 44
-50.0
173
     0
291
     1
 45
0.0
  0
VISUALSTYLE
  5
448
102
{ACAD_REACTORS
330
439
102
}
330
439
100
AcDbVisualStyle
  2
Facepattern
 70
    15
 71
     2
 72
     2
 73
     0
 90
        0
 40
-0.6
 41
-30.0
 62
     5
 63
     7
421
 16777215
 74
     1
 91
        4
 64
     7
 65
   257
 75
     1
175
     1
 42
1.0
 92
        8
 66
     7
 43
1.0
 76
     1
 77
     6
 78
     2
 67
     7
 79
     5
170
     0
171
     0
290
     0
174
     0
 93
        1
 44
0.0
173
     0
291
     1
 45
0.0
  0
VISUALSTYLE
  5
43A
102
{ACAD_REACTORS
330
439
102
}
330
439
100
AcDbVisualStyle
  2
Flat
 70
     0
 71
     2
 72
     1
 73
     1
 90
        2
 40
-0.6
 41
30.0
 62
     5
 63
     7
421
 16777215
 74
     0
 91
        4
 64
     7
 65
   257
 75
     1
175
     1
 42
1.0
 92
        8
 66
     7
 43
1.0
 76
     1
 77
     6
 78
     2
 67
     7
 79
     5
170
     0
171
     0
290
     0
174
     0
 93
       13
 44
0.0
173
     0
291
     1
 45
0.0
  0
VISUALSTYLE
  5
43B
102
{ACAD_REACTORS
330
439
102
}
330
439
100
AcDbVisualStyle
  2
FlatWithEdges
 70
     1
 71
     2
 72
     1
 73
     1
 90
        2
 40
-0.6
 41
30.0
 62
     5
 63
     7
421
 16777215
 74
     1
 91
        4
 64
     7
 65
   257
 75
     1
175
     1
 42
1.0
 92
        0
 66
   257
 43
1.0
 76
     1
 77
     6
 78
     2
 67
     7
 79
     5
170
     0
171
     0
290
     0
174
     0
 93
       13
 44
0.0
173
     0
291
     1
 45
0.0
  0
VISUALSTYLE
  5
43C
102
{ACAD_REACTORS
330
439
102
}
330
439
100
AcDbVisualStyle
  2
Gouraud
 70
     2
 71
     2
 72
     2
 73
     1
 90
        2
 40
-0.6
 41
30.0
 62
     5
 63
     7
421
 16777215
 74
     0
 91
        4
 64
     7
 65
   257
 75
     1
175
     1
 42
1.0
 92
        0
 66
     7
 43
1.0
 76
     1
 77
     6
 78
     2
 67
     7
 79
     5
170
     0
171
     0
290
     0
174
     0
 93
       13
 44
0.0
173
     0
291
     1
 45
0.0
  0
VISUALSTYLE
  5
43D
102
{ACAD_REACTORS
330
439
102
}
330
439
100
AcDbVisualStyle
  2
GouraudWithEdges
 70
     3
 71
     2
 72
     2
 73
     1
 90
        2
 40
-0.6
 41
30.0
 62
     5
 63
     7
421
 16777215
 74
     1
 91
        4
 64
     7
 65
   257
 75
     1
175
     1
 42
1.0
 92
        0
 66
   257
 43
1.0
 76
     1
 77
     6
 78
     2
 67
     7
 79
     5
170
     0
171
     0
290
     0
174
     0
 93
       13
 44
0.0
173
     0
291
     1
 45
0.0
  0
VISUALSTYLE
  5
447
102
{ACAD_REACTORS
330
439
102
}
330
439
100
AcDbVisualStyle
  2
Linepattern
 70
    14
 71
     2
 72
     2
 73
     0
 90
        0
 40
-0.6
 41
-30.0
 62
     5
 63
     7
421
 16777215
 74
     1
 91
        4
 64
     7
 65
   257
 75
     7
175
     7
 42
1.0
 92
        8
 66
     7
 43
1.0
 76
     1
 77
     6
 78
     2
 67
     7
 79
     5
170
     0
171
     0
290
     0
174
     0
 93
        1
 44
0.0
173
     0
291
     1
 45
0.0
  0
VISUALSTYLE
  5
443
102
{ACAD_REACTORS
330
439
102
}
330
439
100
AcDbVisualStyle
  2
Realistic
 70
     8
 71
     2
 72
     2
 73
     0
 90
        0
 40
-0.6
 41
-30.0
 62
     5
 63
     7
421
 16777215
 74
     1
 91
        0
 64
     7
 65
   257
 75
     1
175
     1
 42
1.0
 92
        8
 66
     8
424
  7895160
 43
1.0
 76
     1
 77
     6
 78
     2
 67
     7
 79
     5
170
     0
171
     0
290
     0
174
     0
 93
       13
 44
0.0
173
     0
291
     0
 45
0.0
  0
VISUALSTYLE
  5
446
102
{ACAD_REACTORS
330
439
102
}
330
439
100
AcDbVisualStyle
  2
Thicken
 70
    13
 71
     2
 72
     2
 73
     0
 90
        0
 40
-0.6
 41
-30.0
 62
     5
 63
     7
421
 16777215
 74
     1
 91
        4
 64
     7
 65
   257
 75
     1
175
     1
 42
1.0
 92
       12
 66
     7
 43
1.0
 76
     1
 77
     6
 78
     2
 67
     7
 79
     5
170
     0
171
     0
290
     0
174
     0
 93
        1
 44
0.0
173
     0
291
     1
 45
0.0
  0
DICTIONARYVAR
  5
481
102
{ACAD_REACTORS
330
47D
102
}
330
47D
100
DictionaryVariables
280
     0
  1
1:1
  0
DICTIONARYVAR
  5
47F
102
{ACAD_REACTORS
330
47D
102
}
330
47D
100
DictionaryVariables
280
     0
  1
STANDARD
  0
DICTIONARYVAR
  5
47E
102
{ACAD_REACTORS
330
47D
102
}
330
47D
100
DictionaryVariables
280
     0
  1
STANDARD
  0
DICTIONARYVAR
  5
483
102
{ACAD_REACTORS
330
47D
102
}
330
47D
100
DictionaryVariables
280
     0
  1
1
  0
DICTIONARYVAR
  5
484
102
{ACAD_REACTORS
330
47D
102
}
330
47D
100
DictionaryVariables
280
     0
  1
15
  0
DICTIONARYVAR
  5
482
102
{ACAD_REACTORS
330
47D
102
}
330
47D
100
DictionaryVariables
280
     0
  1
0
  0
DICTIONARYVAR
  5
480
102
{ACAD_REACTORS
330
47D
102
}
330
47D
100
DictionaryVariables
280
     0
  1
0
  0
DICTIONARY
  5
42A
330
429
100
AcDbDictionary
280
     1
281
     1
  3
BUMPTILE
360
42C
  3
DIFFUSETILE
360
42B
  3
OPACITYTILE
360
42F
  3
REFLECTIONTILE
360
42E
  3
REFRACTIONTILE
360
430
  3
SPECULARTILE
360
42D
  0
DICTIONARY
  5
422
330
421
100
AcDbDictionary
280
     1
281
     1
  3
BUMPTILE
360
424
  3
DIFFUSETILE
360
423
  3
OPACITYTILE
360
427
  3
REFLECTIONTILE
360
426
  3
REFRACTIONTILE
360
428
  3
SPECULARTILE
360
425
  0
DICTIONARY
  5
432
330
431
100
AcDbDictionary
280
     1
281
     1
  3
BUMPTILE
360
434
  3
DIFFUSETILE
360
433
  3
OPACITYTILE
360
437
  3
REFLECTIONTILE
360
436
  3
REFRACTIONTILE
360
438
  3
SPECULARTILE
360
435
  0
DICTIONARY
  5
485
330
44C
100
AcDbDictionary
280
     1
281
     1
  3
ACAD_ROUNDTRIP_2008_TABLESTYLE_CELLSTYLEMAP
360
486
  0
XRECORD
  5
42C
102
{ACAD_REACTORS
330
42A
102
}
330
42A
100
AcDbXrecord
280
     1
270
     1
271
     1
  0
XRECORD
  5
42B
102
{ACAD_REACTORS
330
42A
102
}
330
42A
100
AcDbXrecord
280
     1
270
     1
271
     1
  0
XRECORD
  5
42F
102
{ACAD_REACTORS
330
42A
102
}
330
42A
100
AcDbXrecord
280
     1
270
     1
271
     1
  0
XRECORD
  5
42E
102
{ACAD_REACTORS
330
42A
102
}
330
42A
100
AcDbXrecord
280
     1
270
     1
271
     1
  0
XRECORD
  5
430
102
{ACAD_REACTORS
330
42A
102
}
330
42A
100
AcDbXrecord
280
     1
270
     1
271
     1
  0
XRECORD
  5
42D
102
{ACAD_REACTORS
330
42A
102
}
330
42A
100
AcDbXrecord
280
     1
270
     1
271
     1
  0
XRECORD
  5
424
102
{ACAD_REACTORS
330
422
102
}
330
422
100
AcDbXrecord
280
     1
270
     1
271
     1
  0
XRECORD
  5
423
102
{ACAD_REACTORS
330
422
102
}
330
422
100
AcDbXrecord
280
     1
270
     1
271
     1
  0
XRECORD
  5
427
102
{ACAD_REACTORS
330
422
102
}
330
422
100
AcDbXrecord
280
     1
270
     1
271
     1
  0
XRECORD
  5
426
102
{ACAD_REACTORS
330
422
102
}
330
422
100
AcDbXrecord
280
     1
270
     1
271
     1
  0
XRECORD
  5
428
102
{ACAD_REACTORS
330
422
102
}
330
422
100
AcDbXrecord
280
     1
270
     1
271
     1
  0
XRECORD
  5
425
102
{ACAD_REACTORS
330
422
102
}
330
422
100
AcDbXrecord
280
     1
270
     1
271
     1
  0
XRECORD
  5
434
102
{ACAD_REACTORS
330
432
102
}
330
432
100
AcDbXrecord
280
     1
270
     1
271
     1
  0
XRECORD
  5
433
102
{ACAD_REACTORS
330
432
102
}
330
432
100
AcDbXrecord
280
     1
270
     1
271
     1
  0
XRECORD
  5
437
102
{ACAD_REACTORS
330
432
102
}
330
432
100
AcDbXrecord
280
     1
270
     1
271
     1
  0
XRECORD
  5
436
102
{ACAD_REACTORS
330
432
102
}
330
432
100
AcDbXrecord
280
     1
270
     1
271
     1
  0
XRECORD
  5
438
102
{ACAD_REACTORS
330
432
102
}
330
432
100
AcDbXrecord
280
     1
270
     1
271
     1
  0
XRECORD
  5
435
102
{ACAD_REACTORS
330
432
102
}
330
432
100
AcDbXrecord
280
     1
270
     1
271
     1
  0
CELLSTYLEMAP
  5
486
102
{ACAD_REACTORS
330
485
102
}
330
485
100
AcDbCellStyleMap
 90
        3
300
CELLSTYLE
  1
TABLEFORMAT_BEGIN
 90
        5
170
     1
 91
        0
 92
    32768
 62
   257
 93
        1
300
CONTENTFORMAT
  1
CONTENTFORMAT_BEGIN
 90
        0
 91
        0
 92
      512
 93
        0
300

 40
0.0
140
1.0
 94
        5
 62
     0
340
11
144
6.0
309
CONTENTFORMAT_END
171
     1
301
MARGIN
  1
CELLMARGIN_BEGIN
 40
1.5
 40
1.5
 40
1.5
 40
1.5
 40
4.5
 40
4.5
309
CELLMARGIN_END
 94
        6
 95
        1
302
GRIDFORMAT
  1
GRIDFORMAT_BEGIN
 90
        0
 91
        1
 62
     0
 92
       -2
340
0
 93
        0
 40
1.125
309
GRIDFORMAT_END
 95
        2
302
GRIDFORMAT
  1
GRIDFORMAT_BEGIN
 90
        0
 91
        1
 62
     0
 92
       -2
340
0
 93
        0
 40
1.125
309
GRIDFORMAT_END
 95
        4
302
GRIDFORMAT
  1
GRIDFORMAT_BEGIN
 90
        0
 91
        1
 62
     0
 92
       -2
340
0
 93
        0
 40
1.125
309
GRIDFORMAT_END
 95
        8
302
GRIDFORMAT
  1
GRIDFORMAT_BEGIN
 90
        0
 91
        1
 62
     0
 92
       -2
340
0
 93
        0
 40
1.125
309
GRIDFORMAT_END
 95
       16
302
GRIDFORMAT
  1
GRIDFORMAT_BEGIN
 90
        0
 91
        1
 62
     0
 92
       -2
340
0
 93
        0
 40
1.125
309
GRIDFORMAT_END
 95
       32
302
GRIDFORMAT
  1
GRIDFORMAT_BEGIN
 90
        0
 91
        1
 62
     0
 92
       -2
340
0
 93
        0
 40
1.125
309
GRIDFORMAT_END
309
TABLEFORMAT_END
  1
CELLSTYLE_BEGIN
 90
        1
 91
        1
300
_TITLE
309
CELLSTYLE_END
300
CELLSTYLE
  1
TABLEFORMAT_BEGIN
 90
        5
170
     1
 91
        0
 92
        0
 62
   257
 93
        1
300
CONTENTFORMAT
  1
CONTENTFORMAT_BEGIN
 90
        0
 91
        0
 92
      512
 93
        0
300

 40
0.0
140
1.0
 94
        5
 62
     0
340
11
144
4.5
309
CONTENTFORMAT_END
171
     1
301
MARGIN
  1
CELLMARGIN_BEGIN
 40
1.5
 40
1.5
 40
1.5
 40
1.5
 40
4.5
 40
4.5
309
CELLMARGIN_END
 94
        6
 95
        1
302
GRIDFORMAT
  1
GRIDFORMAT_BEGIN
 90
        0
 91
        1
 62
     0
 92
       -2
340
0
 93
        0
 40
1.125
309
GRIDFORMAT_END
 95
        2
302
GRIDFORMAT
  1
GRIDFORMAT_BEGIN
 90
        0
 91
        1
 62
     0
 92
       -2
340
0
 93
        0
 40
1.125
309
GRIDFORMAT_END
 95
        4
302
GRIDFORMAT
  1
GRIDFORMAT_BEGIN
 90
        0
 91
        1
 62
     0
 92
       -2
340
0
 93
        0
 40
1.125
309
GRIDFORMAT_END
 95
        8
302
GRIDFORMAT
  1
GRIDFORMAT_BEGIN
 90
        0
 91
        1
 62
     0
 92
       -2
340
0
 93
        0
 40
1.125
309
GRIDFORMAT_END
 95
       16
302
GRIDFORMAT
  1
GRIDFORMAT_BEGIN
 90
        0
 91
        1
 62
     0
 92
       -2
340
0
 93
        0
 40
1.125
309
GRIDFORMAT_END
 95
       32
302
GRIDFORMAT
  1
GRIDFORMAT_BEGIN
 90
        0
 91
        1
 62
     0
 92
       -2
340
0
 93
        0
 40
1.125
309
GRIDFORMAT_END
309
TABLEFORMAT_END
  1
CELLSTYLE_BEGIN
 90
        2
 91
        1
300
_HEADER
309
CELLSTYLE_END
300
CELLSTYLE
  1
TABLEFORMAT_BEGIN
 90
        5
170
     1
 91
        0
 92
        0
 62
   257
 93
        1
300
CONTENTFORMAT
  1
CONTENTFORMAT_BEGIN
 90
        0
 91
        0
 92
      512
 93
        0
300

 40
0.0
140
1.0
 94
        2
 62
     0
340
11
144
4.5
309
CONTENTFORMAT_END
171
     1
301
MARGIN
  1
CELLMARGIN_BEGIN
 40
1.5
 40
1.5
 40
1.5
 40
1.5
 40
4.5
 40
4.5
309
CELLMARGIN_END
 94
        6
 95
        1
302
GRIDFORMAT
  1
GRIDFORMAT_BEGIN
 90
        0
 91
        1
 62
     0
 92
       -2
340
0
 93
        0
 40
1.125
309
GRIDFORMAT_END
 95
        2
302
GRIDFORMAT
  1
GRIDFORMAT_BEGIN
 90
        0
 91
        1
 62
     0
 92
       -2
340
0
 93
        0
 40
1.125
309
GRIDFORMAT_END
 95
        4
302
GRIDFORMAT
  1
GRIDFORMAT_BEGIN
 90
        0
 91
        1
 62
     0
 92
       -2
340
0
 93
        0
 40
1.125
309
GRIDFORMAT_END
 95
        8
302
GRIDFORMAT
  1
GRIDFORMAT_BEGIN
 90
        0
 91
        1
 62
     0
 92
       -2
340
0
 93
        0
 40
1.125
309
GRIDFORMAT_END
 95
       16
302
GRIDFORMAT
  1
GRIDFORMAT_BEGIN
 90
        0
 91
        1
 62
     0
 92
       -2
340
0
 93
        0
 40
1.125
309
GRIDFORMAT_END
 95
       32
302
GRIDFORMAT
  1
GRIDFORMAT_BEGIN
 90
        0
 91
        1
 62
     0
 92
       -2
340
0
 93
        0
 40
1.125
309
GRIDFORMAT_END
309
TABLEFORMAT_END
  1
CELLSTYLE_BEGIN
 90
        3
 91
        2
300
_DATA
309
CELLSTYLE_END
  0
ENDSEC
  0
EOF
