  0
SECTION
  2
HEADER
  9
$ACADVER
  1
AC1015
  9
$ACADMAINTVER
 70
     6
  9
$DWGCODEPAGE
  3
ANSI_1251
  9
$INSBASE
 10
0.0
 20
0.0
 30
0.0
  9
$EXTMIN
 10
0.0
 20
0.0
 30
0.0
  9
$EXTMAX
 10
279.4
 20
215.9
 30
0.0
  9
$LIMMIN
 10
0.0
 20
0.0
  9
$LIMMAX
 10
279.4
 20
215.9
  9
$ORTHOMODE
 70
     0
  9
$REGENMODE
 70
     1
  9
$FILLMODE
 70
     1
  9
$QTEXTMODE
 70
     0
  9
$MIRRTEXT
 70
     1
  9
$LTSCALE
 40
1.0
  9
$ATTMODE
 70
     1
  9
$TEXTSIZE
 40
3.5
  9
$TRACEWID
 40
1.0
  9
$TEXTSTYLE
  7
Standard
  9
$CLAYER
  8
0
  9
$CELTYPE
  6
ByLayer
  9
$CECOLOR
 62
   256
  9
$CELTSCALE
 40
1.0
  9
$DISPSILH
 70
     0
  9
$DIMSCALE
 40
1.0
  9
$DIMASZ
 40
3.5
  9
$DIMEXO
 40
0.01
  9
$DIMDLI
 40
3.75
  9
$DIMRND
 40
0.0
  9
$DIMDLE
 40
0.0
  9
$DIMEXE
 40
1.0
  9
$DIMTP
 40
0.0
  9
$DIMTM
 40
0.0
  9
$DIMTXT
 40
3.5
  9
$DIMCEN
 40
2.5
  9
$DIMTSZ
 40
0.0
  9
$DIMTOL
 70
     0
  9
$DIMLIM
 70
     0
  9
$DIMTIH
 70
     1
  9
$DIMTOH
 70
     1
  9
$DIMSE1
 70
     0
  9
$DIMSE2
 70
     0
  9
$DIMTAD
 70
     1
  9
$DIMZIN
 70
     0
  9
$DIMBLK
  1

  9
$DIMASO
 70
     1
  9
$DIMSHO
 70
     1
  9
$DIMPOST
  1

  9
$DIMAPOST
  1

  9
$DIMALT
 70
     0
  9
$DIMALTD
 70
     3
  9
$DIMALTF
 40
0.0393700787
  9
$DIMLFAC
 40
1.0
  9
$DIMTOFL
 70
     1
  9
$DIMTVP
 40
0.0
  9
$DIMTIX
 70
     0
  9
$DIMSOXD
 70
     0
  9
$DIMSAH
 70
     0
  9
$DIMBLK1
  1

  9
$DIMBLK2
  1

  9
$DIMSTYLE
  2
ISO-25
  9
$DIMCLRD
 70
     0
  9
$DIMCLRE
 70
     0
  9
$DIMCLRT
 70
     0
  9
$DIMTFAC
 40
1.0
  9
$DIMGAP
 40
3.0
  9
$DIMJUST
 70
     0
  9
$DIMSD1
 70
     0
  9
$DIMSD2
 70
     0
  9
$DIMTOLJ
 70
     0
  9
$DIMTZIN
 70
     0
  9
$DIMALTZ
 70
     0
  9
$DIMALTTZ
 70
     0
  9
$DIMUPT
 70
     0
  9
$DIMDEC
 70
     2
  9
$DIMTDEC
 70
     3
  9
$DIMALTU
 70
     2
  9
$DIMALTTD
 70
     3
  9
$DIMTXSTY
  7
Standard
  9
$DIMAUNIT
 70
     0
  9
$DIMADEC
 70
     2
  9
$DIMALTRND
 40
0.0
  9
$DIMAZIN
 70
     0
  9
$DIMDSEP
 70
    44
  9
$DIMATFIT
 70
     3
  9
$DIMFRAC
 70
     0
  9
$DIMLDRBLK
  1

  9
$DIMLUNIT
 70
     2
  9
$DIMLWD
 70
    -2
  9
$DIMLWE
 70
    -2
  9
$DIMTMOVE
 70
     0
  9
$LUNITS
 70
     2
  9
$LUPREC
 70
     2
  9
$SKETCHINC
 40
1.0
  9
$FILLETRAD
 40
10.0
  9
$AUNITS
 70
     0
  9
$AUPREC
 70
     2
  9
$MENU
  1
.
  9
$ELEVATION
 40
0.0
  9
$PELEVATION
 40
0.0
  9
$THICKNESS
 40
0.0
  9
$LIMCHECK
 70
     0
  9
$CHAMFERA
 40
10.0
  9
$CHAMFERB
 40
10.0
  9
$CHAMFERC
 40
20.0
  9
$CHAMFERD
 40
0.0
  9
$SKPOLY
 70
     0
  9
$TDCREATE
 40
2458115.417051875
  9
$TDUCREATE
 40
2458115.333718542
  9
$TDUPDATE
 40
2458115.417052315
  9
$TDUUPDATE
 40
2458115.333718982
  9
$TDINDWG
 40
0.0000000116
  9
$TDUSRTIMER
 40
0.0000000116
  9
$USRTIMER
 70
     1
  9
$ANGBASE
 50
0.0
  9
$ANGDIR
 70
     0
  9
$PDMODE
 70
     0
  9
$PDSIZE
 40
-1.0
  9
$PLINEWID
 40
0.0
  9
$SPLFRAME
 70
     0
  9
$SPLINETYPE
 70
     6
  9
$SPLINESEGS
 70
     8
  9
$HANDSEED
  5
AD
  9
$SURFTAB1
 70
     6
  9
$SURFTAB2
 70
     6
  9
$SURFTYPE
 70
     6
  9
$SURFU
 70
     6
  9
$SURFV
 70
     6
  9
$UCSBASE
  2

  9
$UCSNAME
  2

  9
$UCSORG
 10
0.0
 20
0.0
 30
0.0
  9
$UCSXDIR
 10
1.0
 20
0.0
 30
0.0
  9
$UCSYDIR
 10
0.0
 20
1.0
 30
0.0
  9
$UCSORTHOREF
  2

  9
$UCSORTHOVIEW
 70
     0
  9
$UCSORGTOP
 10
0.0
 20
0.0
 30
0.0
  9
$UCSORGBOTTOM
 10
0.0
 20
0.0
 30
0.0
  9
$UCSORGLEFT
 10
0.0
 20
0.0
 30
0.0
  9
$UCSORGRIGHT
 10
0.0
 20
0.0
 30
0.0
  9
$UCSORGFRONT
 10
0.0
 20
0.0
 30
0.0
  9
$UCSORGBACK
 10
0.0
 20
0.0
 30
0.0
  9
$PUCSBASE
  2

  9
$PUCSNAME
  2

  9
$PUCSORG
 10
0.0
 20
0.0
 30
0.0
  9
$PUCSXDIR
 10
1.0
 20
0.0
 30
0.0
  9
$PUCSYDIR
 10
0.0
 20
1.0
 30
0.0
  9
$PUCSORTHOREF
  2

  9
$PUCSORTHOVIEW
 70
     0
  9
$PUCSORGTOP
 10
0.0
 20
0.0
 30
0.0
  9
$PUCSORGBOTTOM
 10
0.0
 20
0.0
 30
0.0
  9
$PUCSORGLEFT
 10
0.0
 20
0.0
 30
0.0
  9
$PUCSORGRIGHT
 10
0.0
 20
0.0
 30
0.0
  9
$PUCSORGFRONT
 10
0.0
 20
0.0
 30
0.0
  9
$PUCSORGBACK
 10
0.0
 20
0.0
 30
0.0
  9
$USERI1
 70
     0
  9
$USERI2
 70
     0
  9
$USERI3
 70
     0
  9
$USERI4
 70
     0
  9
$USERI5
 70
     0
  9
$USERR1
 40
0.0
  9
$USERR2
 40
0.0
  9
$USERR3
 40
0.0
  9
$USERR4
 40
0.0
  9
$USERR5
 40
0.0
  9
$WORLDVIEW
 70
     1
  9
$SHADEDGE
 70
     3
  9
$SHADEDIF
 70
    70
  9
$TILEMODE
 70
     1
  9
$MAXACTVP
 70
    64
  9
$PINSBASE
 10
0.0
 20
0.0
 30
0.0
  9
$PLIMCHECK
 70
     0
  9
$PEXTMIN
 10
1.0000000000E+20
 20
1.0000000000E+20
 30
1.0000000000E+20
  9
$PEXTMAX
 10
-1.0000000000E+20
 20
-1.0000000000E+20
 30
-1.0000000000E+20
  9
$PLIMMIN
 10
0.0
 20
0.0
  9
$PLIMMAX
 10
420.0
 20
297.0
  9
$UNITMODE
 70
     0
  9
$VISRETAIN
 70
     1
  9
$PLINEGEN
 70
     0
  9
$PSLTSCALE
 70
     1
  9
$TREEDEPTH
 70
  3020
  9
$CMLSTYLE
  2
Standard
  9
$CMLJUST
 70
     0
  9
$CMLSCALE
 40
20.0
  9
$PROXYGRAPHICS
 70
     1
  9
$MEASUREMENT
 70
     1
  9
$CELWEIGHT
370
    -1
  9
$ENDCAPS
280
     0
  9
$JOINSTYLE
280
     0
  9
$LWDISPLAY
290
     1
  9
$INSUNITS
 70
     4
  9
$HYPERLINKBASE
  1

  9
$STYLESHEET
  1

  9
$XEDIT
290
     1
  9
$CEPSNTYPE
380
     0
  9
$PSTYLEMODE
290
     1
  9
$FINGERPRINTGUID
  2
{53EDCC88-1D4D-4766-8CDE-BCCF1CFF8C82}
  9
$VERSIONGUID
  2
{FAEB1C32-E019-11D5-929B-00C0DF256EC4}
  9
$EXTNAMES
290
     1
  9
$PSVPSCALE
 40
0.0
  9
$OLESTARTUP
290
     0
  0
ENDSEC
  0
SECTION
  2
CLASSES
  0
CLASS
  1
ACDBDICTIONARYWDFLT
  2
AcDbDictionaryWithDefault
  3
ObjectDBX Classes
 90
        0
280
     0
281
     0
  0
CLASS
  1
VISUALSTYLE
  2
AcDbVisualStyle
  3
ObjectDBX Classes
 90
     4095
280
     0
281
     0
  0
CLASS
  1
MATERIAL
  2
AcDbMaterial
  3
ObjectDBX Classes
 90
     1153
280
     0
281
     0
  0
CLASS
  1
ACDBPLACEHOLDER
  2
AcDbPlaceHolder
  3
ObjectDBX Classes
 90
        0
280
     0
281
     0
  0
CLASS
  1
LAYOUT
  2
AcDbLayout
  3
ObjectDBX Classes
 90
        0
280
     0
281
     0
  0
ENDSEC
  0
SECTION
  2
TABLES
  0
TABLE
  2
VPORT
  5
8
330
0
100
AcDbSymbolTable
 70
     1
  0
VPORT
  5
29
330
8
100
AcDbSymbolTableRecord
100
AcDbViewportTableRecord
  2
*Active
 70
     0
 10
0.0
 20
0.0
 11
1.0
 21
1.0
 12
139.7
 22
107.95
 13
0.0
 23
0.0
 14
10.0
 24
10.0
 15
10.0
 25
10.0
 16
0.0
 26
0.0
 36
1.0
 17
0.0
 27
0.0
 37
0.0
 40
215.9
 41
1.2941176471
 42
50.0
 43
0.0
 44
0.0
 50
0.0
 51
0.0
 71
     0
 72
  2000
 73
     1
 74
     3
 75
     0
 76
     0
 77
     0
 78
     0
281
     0
 65
     1
110
0.0
120
0.0
130
0.0
111
1.0
121
0.0
131
0.0
112
0.0
122
1.0
132
0.0
 79
     0
146
0.0
  0
ENDTAB
  0
TABLE
  2
LTYPE
  5
5
330
0
100
AcDbSymbolTable
 70
     6
  0
LTYPE
  5
14
330
5
100
AcDbSymbolTableRecord
100
AcDbLinetypeTableRecord
  2
ByBlock
 70
     0
  3

 72
    65
 73
     0
 40
0.0
  0
LTYPE
  5
15
330
5
100
AcDbSymbolTableRecord
100
AcDbLinetypeTableRecord
  2
ByLayer
 70
     0
  3

 72
    65
 73
     0
 40
0.0
  0
LTYPE
  5
16
330
5
100
AcDbSymbolTableRecord
100
AcDbLinetypeTableRecord
  2
Continuous
 70
     0
  3
Solid line
 72
    65
 73
     0
 40
0.0
  0
LTYPE
  5
3F
330
5
100
AcDbSymbolTableRecord
100
AcDbLinetypeTableRecord
  2
HIDDEN
 70
     0
  3
Hidden __ __ __ __ __ __ __ __ __ __ __ __ __ __
 72
    65
 73
     2
 40
1.905
 49
1.27
 74
     0
 49
-0.635
 74
     0
  0
LTYPE
  5
40
330
5
100
AcDbSymbolTableRecord
100
AcDbLinetypeTableRecord
  2
PHANTOM
 70
     0
  3
Phantom ______  __  __  ______  __  __  ______
 72
    65
 73
     6
 40
12.7
 49
6.35
 74
     0
 49
-1.27
 74
     0
 49
1.27
 74
     0
 49
-1.27
 74
     0
 49
1.27
 74
     0
 49
-1.27
 74
     0
  0
LTYPE
  5
41
330
5
100
AcDbSymbolTableRecord
100
AcDbLinetypeTableRecord
  2
CENTER
 70
     0
  3
Center ____ _ ____ _ ____ _ ____ _ ____ _ ____
 72
    65
 73
     4
 40
10.16
 49
6.35
 74
     0
 49
-1.27
 74
     0
 49
1.27
 74
     0
 49
-1.27
 74
     0
  0
LTYPE
  5
42
330
5
100
AcDbSymbolTableRecord
100
AcDbLinetypeTableRecord
  2
CENTERX2
 70
     0
  3
Center (2x) ________  __  ________  __  _____
 72
    65
 73
     4
 40
20.32
 49
12.7
 74
     0
 49
-2.54
 74
     0
 49
2.54
 74
     0
 49
-2.54
 74
     0
  0
LTYPE
  5
43
330
5
100
AcDbSymbolTableRecord
100
AcDbLinetypeTableRecord
  2
DOT2
 70
     0
  3
Dot (.5x) ........................................
 72
    65
 73
     2
 40
0.635
 49
0.0
 74
     0
 49
-0.635
 74
     0
  0
ENDTAB
  0
TABLE
  2
LAYER
  5
2
330
0
100
AcDbSymbolTable
 70
     1
  0
LAYER
  5
10
330
2
100
AcDbSymbolTableRecord
100
AcDbLayerTableRecord
  2
0
 70
     0
 62
     7
  6
Continuous
370
    -3
390
F
  0
ENDTAB
  0
TABLE
  2
STYLE
  5
3
330
0
100
AcDbSymbolTable
 70
     1
  0
STYLE
  5
11
330
3
100
AcDbSymbolTableRecord
100
AcDbTextStyleTableRecord
  2
Standard
 70
     0
 40
0.0
 41
1.0
 50
0.0
 71
     0
 42
3.5
  3
txt
  4

  0
ENDTAB
  0
TABLE
  2
VIEW
  5
6
330
0
100
AcDbSymbolTable
 70
     0
  0
ENDTAB
  0
TABLE
  2
UCS
  5
7
330
0
100
AcDbSymbolTable
 70
     0
  0
ENDTAB
  0
TABLE
  2
APPID
  5
9
330
0
100
AcDbSymbolTable
 70
     1
  0
APPID
  5
12
330
9
100
AcDbSymbolTableRecord
100
AcDbRegAppTableRecord
  2
ACAD
 70
     0
  0
ENDTAB
  0
TABLE
  2
DIMSTYLE
  5
A
330
0
100
AcDbSymbolTable
 70
     1
100
AcDbDimStyleTable
  0
DIMSTYLE
105
27
330
A
100
AcDbSymbolTableRecord
100
AcDbDimStyleTableRecord
  2
ISO-25
 70
     0
 41
2.5
 42
0.625
 43
3.75
 44
1.25
 73
     0
 74
     0
 77
     1
 78
     8
140
2.5
141
2.5
143
0.0393700787
147
0.625
171
     3
172
     1
178
     0
271
     2
272
     2
274
     3
278
    44
283
     0
284
     8
340
11
  0
ENDTAB
  0
TABLE
  2
BLOCK_RECORD
  5
1
330
0
100
AcDbSymbolTable
 70
     1
  0
BLOCK_RECORD
  5
1F
330
1
100
AcDbSymbolTableRecord
100
AcDbBlockTableRecord
  2
*Model_Space
340
22
  0
BLOCK_RECORD
  5
1B
330
1
100
AcDbSymbolTableRecord
100
AcDbBlockTableRecord
  2
*Paper_Space
340
1E
  0
BLOCK_RECORD
  5
23
330
1
100
AcDbSymbolTableRecord
100
AcDbBlockTableRecord
  2
*Paper_Space0
340
26
  0
ENDTAB
  0
ENDSEC
  0
SECTION
  2
BLOCKS
  0
BLOCK
  5
20
330
1F
100
AcDbEntity
  8
0
100
AcDbBlockBegin
  2
*Model_Space
 70
     0
 10
0.0
 20
0.0
 30
0.0
  3
*Model_Space
  1

  0
ENDBLK
  5
21
330
1F
100
AcDbEntity
  8
0
100
AcDbBlockEnd
  0
BLOCK
  5
1C
330
1B
100
AcDbEntity
 67
     1
  8
0
100
AcDbBlockBegin
  2
*Paper_Space
 70
     0
 10
0.0
 20
0.0
 30
0.0
  3
*Paper_Space
  1

  0
ENDBLK
  5
1D
330
1B
100
AcDbEntity
 67
     1
  8
0
100
AcDbBlockEnd
  0
BLOCK
  5
24
330
23
100
AcDbEntity
  8
0
100
AcDbBlockBegin
  2
*Paper_Space0
 70
     0
 10
0.0
 20
0.0
 30
0.0
  3
*Paper_Space0
  1

  0
ENDBLK
  5
25
330
23
100
AcDbEntity
  8
0
100
AcDbBlockEnd
  0
ENDSEC
  0
SECTION
  2
ENTITIES
  0
ARC
  5
44
330
1F
100
AcDbEntity
  8
0
  6
Continuous
 62
     7
370
    15
100
AcDbCircle
 10
69.7219813123
 20
183.0164736842
 30
0.0
 40
10.0
100
AcDbArc
 50
90.0
 51
180.0
  0
LINE
  5
45
330
1F
100
AcDbEntity
  8
0
  6
Continuous
 62
     7
370
    15
100
AcDbLine
 10
59.7219813123
 20
183.0164736842
 30
0.0
 11
59.7219813123
 21
150.0164736842
 31
0.0
  0
LINE
  5
46
330
1F
100
AcDbEntity
  8
0
  6
Continuous
 62
     7
370
    15
100
AcDbLine
 10
112.7817151517
 20
120.0164736842
 30
0.0
 11
112.7817151517
 21
140.0164736842
 31
0.0
  0
LINE
  5
47
330
1F
100
AcDbEntity
  8
0
  6
Continuous
 62
     7
370
    15
100
AcDbLine
 10
49.1686848483
 20
140.0164736842
 30
0.0
 11
49.1686848483
 21
120.0164736842
 31
0.0
  0
LINE
  5
48
330
1F
100
AcDbEntity
  8
0
  6
Continuous
 62
     7
370
    15
100
AcDbLine
 10
106.8046656144
 20
140.0164736842
 30
0.0
 11
106.8046656144
 21
150.0164736842
 31
0.0
  0
LINE
  5
49
330
1F
100
AcDbEntity
  8
0
  6
Continuous
 62
     7
370
    15
100
AcDbLine
 10
55.1457343856
 20
150.0164736842
 30
0.0
 11
55.1457343856
 21
140.0164736842
 31
0.0
  0
LINE
  5
4A
330
1F
100
AcDbEntity
  8
0
  6
Continuous
 62
     7
370
    15
100
AcDbLine
 10
95.5240293443
 20
183.0164736842
 30
0.0
 11
93.4675285083
 21
183.0164736842
 31
0.0
  0
LWPOLYLINE
  5
4B
330
1F
100
AcDbEntity
  8
0
  6
Continuous
 62
     7
370
    15
100
AcDbPolyline
 90
       14
 70
   128
 43
0.0
 10
93.4675285083
 20
183.0164736842
 10
93.4246723456
 20
184.2218404868
 10
93.2967287966
 20
185.4096303271
 10
93.0855635665
 20
186.5625225546
 10
92.7942559197
 20
187.6637054046
 10
92.4270537779
 20
188.6971211515
 10
91.989311775
 20
189.6477002666
 10
91.4874131752
 20
190.5015811659
 10
90.9286767902
 20
191.2463123431
 10
90.3212502547
 20
191.8710339407
 10
89.6739912154
 20
192.3666361111
 10
88.9963381665
 20
192.7258918585
 10
88.2981728156
 20
192.9435624252
 10
87.5896759854
 20
193.0164736842
  0
LINE
  5
4C
330
1F
100
AcDbEntity
  8
0
  6
Continuous
 62
     7
370
    15
100
AcDbLine
 10
87.5896759854
 20
193.0164736842
 30
0.0
 11
88.678558285
 21
193.0164736842
 31
0.0
  0
LWPOLYLINE
  5
4D
330
1F
100
AcDbEntity
  8
0
  6
Continuous
 62
     7
370
    15
100
AcDbPolyline
 90
       14
 70
   128
 43
0.0
 10
88.678558285
 20
193.0164736842
 10
89.5036886413
 20
192.9435624252
 10
90.3167867389
 20
192.7258918585
 10
91.1059957767
 20
192.3666361111
 10
91.8598073098
 20
191.8710339407
 10
92.5672290686
 20
191.2463123431
 10
93.2179452508
 20
190.5015811659
 10
93.8024669492
 20
189.6477002666
 10
94.3122705212
 20
188.6971211515
 10
94.7399218829
 20
187.6637054046
 10
95.0791849143
 20
186.5625225546
 10
95.3251123965
 20
185.4096303271
 10
95.4741181529
 20
184.2218404868
 10
95.5240293443
 20
183.0164736842
  0
LINE
  5
4E
330
1F
100
AcDbEntity
  8
0
  6
Continuous
 62
     7
370
    15
100
AcDbLine
 10
87.5896759854
 20
193.0164736842
 30
0.0
 11
86.3964794482
 21
193.0164736842
 31
0.0
  0
LINE
  5
4F
330
1F
100
AcDbEntity
  8
0
  6
Continuous
 62
     7
370
    15
100
AcDbLine
 10
93.4675285083
 20
183.0164736842
 30
0.0
 11
93.4675285083
 21
150.0164736842
 31
0.0
  0
LINE
  5
50
330
1F
100
AcDbEntity
  8
0
  6
Continuous
 62
     7
370
    15
100
AcDbLine
 10
95.5240293443
 20
183.0164736842
 30
0.0
 11
95.5240293443
 21
150.0164736842
 31
0.0
  0
LINE
  5
51
330
1F
100
AcDbEntity
  8
0
  6
Continuous
 62
     7
370
    15
100
AcDbLine
 10
85.1177860957
 20
193.0164736842
 30
0.0
 11
83.7737616857
 21
193.0164736842
 31
0.0
  0
LWPOLYLINE
  5
52
330
1F
100
AcDbEntity
  8
0
  6
Continuous
 62
     7
370
    15
100
AcDbPolyline
 90
       14
 70
   128
 43
0.0
 10
88.7990316225
 20
183.0164736842
 10
88.7721911979
 20
184.2218404868
 10
88.6920613179
 20
185.4096303271
 10
88.5598104566
 20
186.5625225546
 10
88.3773671293
 20
187.6637054046
 10
88.1473917706
 20
188.6971211515
 10
87.8732379392
 20
189.6477002666
 10
87.5589034151
 20
190.5015811659
 10
87.2089719035
 20
191.2463123431
 10
86.828546194
 20
191.8710339407
 10
86.4231737499
 20
192.3666361111
 10
85.9987658143
 20
192.7258918585
 10
85.5615112107
 20
192.9435624252
 10
85.1177860957
 20
193.0164736842
  0
LINE
  5
53
330
1F
100
AcDbEntity
  8
0
  6
Continuous
 62
     7
370
    15
100
AcDbLine
 10
88.7990316225
 20
183.0164736842
 30
0.0
 11
88.7990316225
 21
150.0164736842
 31
0.0
  0
LINE
  5
54
330
1F
100
AcDbEntity
  8
0
  6
Continuous
 62
     7
370
    15
100
AcDbLine
 10
91.2140161893
 20
183.0164736842
 30
0.0
 11
88.7990316225
 21
183.0164736842
 31
0.0
  0
LINE
  5
55
330
1F
100
AcDbEntity
  8
0
  6
Continuous
 62
     7
370
    15
100
AcDbLine
 10
85.1177860957
 20
193.0164736842
 30
0.0
 11
86.3964794482
 21
193.0164736842
 31
0.0
  0
LWPOLYLINE
  5
56
330
1F
100
AcDbEntity
  8
0
  6
Continuous
 62
     7
370
    15
100
AcDbPolyline
 90
       14
 70
   128
 43
0.0
 10
86.3964794482
 20
193.0164736842
 10
86.977169334
 20
192.9435624252
 10
87.5493914537
 20
192.7258918585
 10
88.1048015201
 20
192.3666361111
 10
88.635300404
 20
191.8710339407
 10
89.1331522369
 20
191.2463123431
 10
89.5910972181
 20
190.5015811659
 10
90.0024574786
 20
189.6477002666
 10
90.3612344595
 20
188.6971211515
 10
90.6621963844
 20
187.6637054046
 10
90.9009545508
 20
186.5625225546
 10
91.0740273271
 20
185.4096303271
 10
91.1788909223
 20
184.2218404868
 10
91.2140161893
 20
183.0164736842
  0
LINE
  5
57
330
1F
100
AcDbEntity
  8
0
  6
Continuous
 62
     7
370
    15
100
AcDbLine
 10
91.2140161893
 20
183.0164736842
 30
0.0
 11
91.2140161893
 21
150.0164736842
 31
0.0
  0
LINE
  5
58
330
1F
100
AcDbEntity
  8
0
  6
Continuous
 62
     7
370
    15
100
AcDbLine
 10
81.8705823671
 20
193.0164736842
 30
0.0
 11
81.8705823671
 21
150.0164736842
 31
0.0
  0
LINE
  5
59
330
1F
100
AcDbEntity
  8
0
  6
Continuous
 62
     7
370
    15
100
AcDbLine
 10
82.3856022861
 20
193.0164736842
 30
0.0
 11
81.8705823671
 21
193.0164736842
 31
0.0
  0
LWPOLYLINE
  5
5A
330
1F
100
AcDbEntity
  8
0
  6
Continuous
 62
     7
370
    15
100
AcDbPolyline
 90
       14
 70
   128
 43
0.0
 10
83.6389346218
 20
183.0164736842
 10
83.6297964179
 20
184.2218404868
 10
83.6025150619
 20
185.4096303271
 10
83.5574883774
 20
186.5625225546
 10
83.4953729549
 20
187.6637054046
 10
83.417074577
 20
188.6971211515
 10
83.3237350104
 20
189.6477002666
 10
83.2167153562
 20
190.5015811659
 10
83.0975762019
 20
191.2463123431
 10
82.9680548648
 20
191.8710339407
 10
82.8300400574
 20
192.3666361111
 10
82.6855443466
 20
192.7258918585
 10
82.5366748051
 20
192.9435624252
 10
82.3856022861
 20
193.0164736842
  0
LINE
  5
5B
330
1F
100
AcDbEntity
  8
0
  6
Continuous
 62
     7
370
    15
100
AcDbLine
 10
83.6389346218
 20
183.0164736842
 30
0.0
 11
83.6389346218
 21
150.0164736842
 31
0.0
  0
LINE
  5
5C
330
1F
100
AcDbEntity
  8
0
  6
Continuous
 62
     7
370
    15
100
AcDbLine
 10
86.2606605573
 20
183.0164736842
 30
0.0
 11
83.6389346218
 21
183.0164736842
 31
0.0
  0
LINE
  5
5D
330
1F
100
AcDbEntity
  8
0
  6
Continuous
 62
     7
370
    15
100
AcDbLine
 10
82.3856022861
 20
193.0164736842
 30
0.0
 11
83.7737616857
 21
193.0164736842
 31
0.0
  0
LWPOLYLINE
  5
5E
330
1F
100
AcDbEntity
  8
0
  6
Continuous
 62
     7
370
    15
100
AcDbPolyline
 90
       14
 70
   128
 43
0.0
 10
83.7737616857
 20
193.0164736842
 10
84.0735242198
 20
192.9435624252
 10
84.3689155412
 20
192.7258918585
 10
84.6556281791
 20
192.3666361111
 10
84.9294812179
 20
191.8710339407
 10
85.1864812633
 20
191.2463123431
 10
85.4228806762
 20
190.5015811659
 10
85.6352322207
 20
189.6477002666
 10
85.8204393331
 20
188.6971211515
 10
85.9758012768
 20
187.6637054046
 10
86.0990525246
 20
186.5625225546
 10
86.1883957959
 20
185.4096303271
 10
86.2425282645
 20
184.2218404868
 10
86.2606605573
 20
183.0164736842
  0
LINE
  5
5F
330
1F
100
AcDbEntity
  8
0
  6
Continuous
 62
     7
370
    15
100
AcDbLine
 10
86.2606605573
 20
183.0164736842
 30
0.0
 11
86.2606605573
 21
150.0164736842
 31
0.0
  0
LINE
  5
60
330
1F
100
AcDbEntity
  8
0
  6
Continuous
 62
     7
370
    15
100
AcDbLine
 10
80.9752
 20
183.0164736842
 30
0.0
 11
78.3114653782
 21
183.0164736842
 31
0.0
  0
LWPOLYLINE
  5
61
330
1F
100
AcDbEntity
  8
0
  6
Continuous
 62
     7
370
    15
100
AcDbPolyline
 90
       14
 70
   128
 43
0.0
 10
78.3114653782
 20
183.0164736842
 10
78.3206035821
 20
184.2218404868
 10
78.3478849381
 20
185.4096303271
 10
78.3929116226
 20
186.5625225546
 10
78.4550270451
 20
187.6637054046
 10
78.533325423
 20
188.6971211515
 10
78.6266649896
 20
189.6477002666
 10
78.7336846438
 20
190.5015811659
 10
78.8528237981
 20
191.2463123431
 10
78.9823451352
 20
191.8710339407
 10
79.1203599426
 20
192.3666361111
 10
79.2648556534
 20
192.7258918585
 10
79.4137251949
 20
192.9435624252
 10
79.5647977139
 20
193.0164736842
  0
LINE
  5
62
330
1F
100
AcDbEntity
  8
0
  6
Continuous
 62
     7
370
    15
100
AcDbLine
 10
79.5647977139
 20
193.0164736842
 30
0.0
 11
80.9752
 21
193.0164736842
 31
0.0
  0
LINE
  5
63
330
1F
100
AcDbEntity
  8
0
  6
Continuous
 62
     7
370
    15
100
AcDbLine
 10
80.9752
 20
193.0164736842
 30
0.0
 11
80.9752
 21
183.0164736842
 31
0.0
  0
LINE
  5
64
330
1F
100
AcDbEntity
  8
0
  6
Continuous
 62
     7
370
    15
100
AcDbLine
 10
78.3114653782
 20
183.0164736842
 30
0.0
 11
78.3114653782
 21
150.0164736842
 31
0.0
  0
LINE
  5
65
330
1F
100
AcDbEntity
  8
0
  6
Continuous
 62
     7
370
    15
100
AcDbLine
 10
80.9752
 20
183.0164736842
 30
0.0
 11
80.9752
 21
150.0164736842
 31
0.0
  0
LINE
  5
66
330
1F
100
AcDbEntity
  8
0
  6
Continuous
 62
     7
370
    15
100
AcDbLine
 10
75.6897394427
 20
183.0164736842
 30
0.0
 11
73.1513683775
 21
183.0164736842
 31
0.0
  0
LWPOLYLINE
  5
67
330
1F
100
AcDbEntity
  8
0
  6
Continuous
 62
     7
370
    15
100
AcDbPolyline
 90
       14
 70
   128
 43
0.0
 10
73.1513683775
 20
183.0164736842
 10
73.1782088021
 20
184.2218404868
 10
73.2583386821
 20
185.4096303271
 10
73.3905895434
 20
186.5625225546
 10
73.5730328707
 20
187.6637054046
 10
73.8030082294
 20
188.6971211515
 10
74.0771620608
 20
189.6477002666
 10
74.3914965849
 20
190.5015811659
 10
74.7414280965
 20
191.2463123431
 10
75.121853806
 20
191.8710339407
 10
75.5272262501
 20
192.3666361111
 10
75.9516341857
 20
192.7258918585
 10
76.3888887893
 20
192.9435624252
 10
76.8326139043
 20
193.0164736842
  0
LINE
  5
68
330
1F
100
AcDbEntity
  8
0
  6
Continuous
 62
     7
370
    15
100
AcDbLine
 10
76.8326139043
 20
193.0164736842
 30
0.0
 11
78.1766383143
 21
193.0164736842
 31
0.0
  0
LWPOLYLINE
  5
69
330
1F
100
AcDbEntity
  8
0
  6
Continuous
 62
     7
370
    15
100
AcDbPolyline
 90
       14
 70
   128
 43
0.0
 10
78.1766383143
 20
193.0164736842
 10
77.8768757802
 20
192.9435624252
 10
77.5814844588
 20
192.7258918585
 10
77.2947718209
 20
192.3666361111
 10
77.0209187821
 20
191.8710339407
 10
76.7639187367
 20
191.2463123431
 10
76.5275193238
 20
190.5015811659
 10
76.3151677793
 20
189.6477002666
 10
76.1299606669
 20
188.6971211515
 10
75.9745987232
 20
187.6637054046
 10
75.8513474754
 20
186.5625225546
 10
75.7620042041
 20
185.4096303271
 10
75.7078717355
 20
184.2218404868
 10
75.6897394427
 20
183.0164736842
  0
LINE
  5
6A
330
1F
100
AcDbEntity
  8
0
  6
Continuous
 62
     7
370
    15
100
AcDbLine
 10
79.1985559806
 20
193.0164736842
 30
0.0
 11
79.1985559806
 21
192.5800020876
 31
0.0
  0
LINE
  5
6B
330
1F
100
AcDbEntity
  8
0
  6
Continuous
 62
     7
370
    15
100
AcDbLine
 10
75.6897394427
 20
183.0164736842
 30
0.0
 11
75.6897394427
 21
150.0164736842
 31
0.0
  0
LINE
  5
6C
330
1F
100
AcDbEntity
  8
0
  6
Continuous
 62
     7
370
    15
100
AcDbLine
 10
79.1985559806
 20
193.0164736842
 30
0.0
 11
78.1766383143
 21
193.0164736842
 31
0.0
  0
LINE
  5
6D
330
1F
100
AcDbEntity
  8
0
  6
Continuous
 62
     7
370
    15
100
AcDbLine
 10
73.1513683775
 20
183.0164736842
 30
0.0
 11
73.1513683775
 21
150.0164736842
 31
0.0
  0
LINE
  5
6E
330
1F
100
AcDbEntity
  8
0
  6
Continuous
 62
     7
370
    15
100
AcDbLine
 10
70.7363838107
 20
183.0164736842
 30
0.0
 11
68.4828714917
 21
183.0164736842
 31
0.0
  0
LWPOLYLINE
  5
6F
330
1F
100
AcDbEntity
  8
0
  6
Continuous
 62
     7
370
    15
100
AcDbPolyline
 90
       14
 70
   128
 43
0.0
 10
68.4828714917
 20
183.0164736842
 10
68.5257276544
 20
184.2218404868
 10
68.6536712034
 20
185.4096303271
 10
68.8648364335
 20
186.5625225546
 10
69.1561440803
 20
187.6637054046
 10
69.5233462221
 20
188.6971211515
 10
69.961088225
 20
189.6477002666
 10
70.4629868248
 20
190.5015811659
 10
71.0217232098
 20
191.2463123431
 10
71.6291497453
 20
191.8710339407
 10
72.2764087846
 20
192.3666361111
 10
72.9540618335
 20
192.7258918585
 10
73.6522271844
 20
192.9435624252
 10
74.3607240146
 20
193.0164736842
  0
LINE
  5
70
330
1F
100
AcDbEntity
  8
0
  6
Continuous
 62
     7
370
    15
100
AcDbLine
 10
74.3607240146
 20
193.0164736842
 30
0.0
 11
75.5539205518
 21
193.0164736842
 31
0.0
  0
LWPOLYLINE
  5
71
330
1F
100
AcDbEntity
  8
0
  6
Continuous
 62
     7
370
    15
100
AcDbPolyline
 90
       14
 70
   128
 43
0.0
 10
75.5539205518
 20
193.0164736842
 10
74.973230666
 20
192.9435624252
 10
74.4010085463
 20
192.7258918585
 10
73.8455984799
 20
192.3666361111
 10
73.315099596
 20
191.8710339407
 10
72.8172477631
 20
191.2463123431
 10
72.3593027819
 20
190.5015811659
 10
71.9479425214
 20
189.6477002666
 10
71.5891655405
 20
188.6971211515
 10
71.2882036156
 20
187.6637054046
 10
71.0494454492
 20
186.5625225546
 10
70.8763726729
 20
185.4096303271
 10
70.7715090777
 20
184.2218404868
 10
70.7363838107
 20
183.0164736842
  0
LINE
  5
72
330
1F
100
AcDbEntity
  8
0
  6
Continuous
 62
     7
370
    15
100
AcDbLine
 10
70.7363838107
 20
183.0164736842
 30
0.0
 11
70.7363838107
 21
150.0164736842
 31
0.0
  0
LINE
  5
73
330
1F
100
AcDbEntity
  8
0
  6
Continuous
 62
     7
370
    15
100
AcDbLine
 10
76.8326139043
 20
193.0164736842
 30
0.0
 11
75.5539205518
 21
193.0164736842
 31
0.0
  0
LINE
  5
74
330
1F
100
AcDbEntity
  8
0
  6
Continuous
 62
     7
370
    15
100
AcDbLine
 10
68.4828714917
 20
183.0164736842
 30
0.0
 11
68.4828714917
 21
150.0164736842
 31
0.0
  0
LINE
  5
75
330
1F
100
AcDbEntity
  8
0
  6
Continuous
 62
     7
370
    15
100
AcDbLine
 10
66.4263706557
 20
183.0164736842
 30
0.0
 11
64.5993135496
 21
183.0164736842
 31
0.0
  0
LWPOLYLINE
  5
76
330
1F
100
AcDbEntity
  8
0
  6
Continuous
 62
     7
370
    15
100
AcDbPolyline
 90
       14
 70
   128
 43
0.0
 10
64.5993135496
 20
183.0164736842
 10
64.6554926402
 20
184.2218404868
 10
64.8232106944
 20
185.4096303271
 10
65.1000220053
 20
186.5625225546
 10
65.4818900407
 20
187.6637054046
 10
65.9632463047
 20
188.6971211515
 10
66.5370715391
 20
189.6477002666
 10
67.1949980797
 20
190.5015811659
 10
67.9274318762
 20
191.2463123431
 10
68.7236923945
 20
191.8710339407
 10
69.5721683631
 20
192.3666361111
 10
70.4604870919
 20
192.7258918585
 10
71.3756948935
 20
192.9435624252
 10
72.3044459773
 20
193.0164736842
  0
LINE
  5
77
330
1F
100
AcDbEntity
  8
0
  6
Continuous
 62
     7
370
    15
100
AcDbLine
 10
72.3044459773
 20
193.0164736842
 30
0.0
 11
73.271841715
 21
193.0164736842
 31
0.0
  0
LWPOLYLINE
  5
78
330
1F
100
AcDbEntity
  8
0
  6
Continuous
 62
     7
370
    15
100
AcDbPolyline
 90
       14
 70
   128
 43
0.0
 10
73.271841715
 20
193.0164736842
 10
72.4467113587
 20
192.9435624252
 10
71.6336132611
 20
192.7258918585
 10
70.8444042233
 20
192.3666361111
 10
70.0905926902
 20
191.8710339407
 10
69.3831709314
 20
191.2463123431
 10
68.7324547492
 20
190.5015811659
 10
68.1479330508
 20
189.6477002666
 10
67.6381294788
 20
188.6971211515
 10
67.2104781171
 20
187.6637054046
 10
66.8712150857
 20
186.5625225546
 10
66.6252876035
 20
185.4096303271
 10
66.4762818471
 20
184.2218404868
 10
66.4263706557
 20
183.0164736842
  0
LINE
  5
79
330
1F
100
AcDbEntity
  8
0
  6
Continuous
 62
     7
370
    15
100
AcDbLine
 10
66.4263706557
 20
183.0164736842
 30
0.0
 11
66.4263706557
 21
150.0164736842
 31
0.0
  0
LINE
  5
7A
330
1F
100
AcDbEntity
  8
0
  6
Continuous
 62
     7
370
    15
100
AcDbLine
 10
74.3607240146
 20
193.0164736842
 30
0.0
 11
73.271841715
 21
193.0164736842
 31
0.0
  0
LINE
  5
7B
330
1F
100
AcDbEntity
  8
0
  6
Continuous
 62
     7
370
    15
100
AcDbLine
 10
64.5993135496
 20
183.0164736842
 30
0.0
 11
64.5993135496
 21
150.0164736842
 31
0.0
  0
LINE
  5
7C
330
1F
100
AcDbEntity
  8
0
  6
Continuous
 62
     7
370
    15
100
AcDbLine
 10
63.0305139552
 20
183.0164736842
 30
0.0
 11
61.7447127794
 21
183.0164736842
 31
0.0
  0
ARC
  5
7D
330
1F
100
AcDbEntity
  8
0
  6
Continuous
 62
     7
370
    15
100
AcDbCircle
 10
71.2796179023
 20
183.4825935608
 30
0.0
 40
9.546291606713394
100
AcDbArc
 50
92.921993125
 51
182.7987124338
  0
LINE
  5
7E
330
1F
100
AcDbEntity
  8
0
  6
Continuous
 62
     7
370
    15
100
AcDbLine
 10
70.7929833041
 20
193.0164736842
 30
0.0
 11
71.4737932102
 21
193.0164736842
 31
0.0
  0
LWPOLYLINE
  5
7F
330
1F
100
AcDbEntity
  8
0
  6
Continuous
 62
     7
370
    15
100
AcDbPolyline
 90
       14
 70
   128
 43
0.0
 10
71.4737932102
 20
193.0164736842
 10
70.4560683584
 20
192.9435624252
 10
69.4531842266
 20
192.7258918585
 10
68.4797651237
 20
192.3666361111
 10
67.5500056924
 20
191.8710339407
 10
66.6774639187
 20
191.2463123431
 10
65.8748634264
 20
190.5015811659
 10
65.153907938
 20
189.6477002666
 10
64.5251106081
 20
188.6971211515
 10
63.9976407176
 20
187.6637054046
 10
63.5791899653
 20
186.5625225546
 10
63.2758603053
 20
185.4096303271
 10
63.0920749673
 20
184.2218404868
 10
63.0305139552
 20
183.0164736842
  0
LINE
  5
80
330
1F
100
AcDbEntity
  8
0
  6
Continuous
 62
     7
370
    15
100
AcDbLine
 10
63.0305139552
 20
183.0164736842
 30
0.0
 11
63.0305139552
 21
150.0164736842
 31
0.0
  0
LINE
  5
81
330
1F
100
AcDbEntity
  8
0
  6
Continuous
 62
     7
370
    15
100
AcDbLine
 10
72.3044459773
 20
193.0164736842
 30
0.0
 11
71.4737932102
 21
193.0164736842
 31
0.0
  0
LINE
  5
82
330
1F
100
AcDbEntity
  8
0
  6
Continuous
 62
     7
370
    15
100
AcDbLine
 10
61.7447127794
 20
183.0164736842
 30
0.0
 11
61.7447127794
 21
150.0164736842
 31
0.0
  0
LINE
  5
83
330
1F
100
AcDbEntity
  8
0
  6
Continuous
 62
     7
370
    15
100
AcDbLine
 10
60.7621878749
 20
183.0164736842
 30
0.0
 11
60.7621878749
 21
150.0164736842
 31
0.0
  0
ARC
  5
84
330
1F
100
AcDbEntity
  8
0
  6
Continuous
 62
     7
370
    15
100
AcDbCircle
 10
70.5309118507
 20
183.2484075771
 30
0.0
 40
9.77147693271162
100
AcDbArc
 50
91.513909493
 51
181.3600893079
  0
LINE
  5
85
330
1F
100
AcDbEntity
  8
0
  6
Continuous
 62
     7
370
    15
100
AcDbLine
 10
60.7621878749
 20
183.0164736842
 30
0.0
 11
60.0984342462
 21
183.0164736842
 31
0.0
  0
ARC
  5
86
330
1F
100
AcDbEntity
  8
0
  6
Continuous
 62
     7
370
    15
100
AcDbCircle
 10
70.0081255067
 20
183.1067515151
 30
0.0
 40
9.910102469973674
100
AcDbArc
 50
90.5019536164
 51
180.5219532545
  0
LINE
  5
87
330
1F
100
AcDbEntity
  8
0
  6
Continuous
 62
     7
370
    15
100
AcDbLine
 10
69.9213067535
 20
193.0164736842
 30
0.0
 11
70.2727530378
 21
193.0164736842
 31
0.0
  0
LINE
  5
88
330
1F
100
AcDbEntity
  8
0
  6
Continuous
 62
     7
370
    15
100
AcDbLine
 10
60.0984342462
 20
183.0164736842
 30
0.0
 11
60.0984342462
 21
150.0164736842
 31
0.0
  0
LINE
  5
89
330
1F
100
AcDbEntity
  8
0
  6
Continuous
 62
     7
370
    15
100
AcDbLine
 10
59.7639196846
 20
183.0164736842
 30
0.0
 11
59.7639196846
 21
150.0164736842
 31
0.0
  0
ARC
  5
8A
330
1F
100
AcDbEntity
  8
0
  6
Continuous
 62
     7
370
    15
100
AcDbCircle
 10
69.7543441813
 20
183.0260497615
 30
0.0
 40
9.990429086115016
100
AcDbArc
 50
90.0582523029
 51
180.0549194526
  0
LINE
  5
8B
330
1F
100
AcDbEntity
  8
0
  6
Continuous
 62
     7
370
    15
100
AcDbLine
 10
98.9198860448
 20
183.0164736842
 30
0.0
 11
97.3510864504
 21
183.0164736842
 31
0.0
  0
LWPOLYLINE
  5
8C
330
1F
100
AcDbEntity
  8
0
  6
Continuous
 62
     7
370
    15
100
AcDbPolyline
 90
       14
 70
   128
 43
0.0
 10
97.3510864504
 20
183.0164736842
 10
97.2949073598
 20
184.2218404868
 10
97.1271893056
 20
185.4096303271
 10
96.8503779947
 20
186.5625225546
 10
96.4685099593
 20
187.6637054046
 10
95.9871536953
 20
188.6971211515
 10
95.4133284609
 20
189.6477002666
 10
94.7554019203
 20
190.5015811659
 10
94.0229681238
 20
191.2463123431
 10
93.2267076055
 20
191.8710339407
 10
92.3782316369
 20
192.3666361111
 10
91.4899129081
 20
192.7258918585
 10
90.5747051065
 20
192.9435624252
 10
89.6459540227
 20
193.0164736842
  0
LINE
  5
8D
330
1F
100
AcDbEntity
  8
0
  6
Continuous
 62
     7
370
    15
100
AcDbLine
 10
89.6459540227
 20
193.0164736842
 30
0.0
 11
90.4766067898
 21
193.0164736842
 31
0.0
  0
LWPOLYLINE
  5
8E
330
1F
100
AcDbEntity
  8
0
  6
Continuous
 62
     7
370
    15
100
AcDbPolyline
 90
       14
 70
   128
 43
0.0
 10
90.4766067898
 20
193.0164736842
 10
91.4943316416
 20
192.9435624252
 10
92.4972157734
 20
192.7258918585
 10
93.4706348763
 20
192.3666361111
 10
94.4003943076
 20
191.8710339407
 10
95.2729360813
 20
191.2463123431
 10
96.0755365736
 20
190.5015811659
 10
96.796492062
 20
189.6477002666
 10
97.4252893919
 20
188.6971211515
 10
97.9527592824
 20
187.6637054046
 10
98.3712100347
 20
186.5625225546
 10
98.6745396947
 20
185.4096303271
 10
98.8583250327
 20
184.2218404868
 10
98.9198860448
 20
183.0164736842
  0
LINE
  5
8F
330
1F
100
AcDbEntity
  8
0
  6
Continuous
 62
     7
370
    15
100
AcDbLine
 10
89.6459540227
 20
193.0164736842
 30
0.0
 11
88.678558285
 21
193.0164736842
 31
0.0
  0
LINE
  5
90
330
1F
100
AcDbEntity
  8
0
  6
Continuous
 62
     7
370
    15
100
AcDbLine
 10
97.3510864504
 20
183.0164736842
 30
0.0
 11
97.3510864504
 21
150.0164736842
 31
0.0
  0
LINE
  5
91
330
1F
100
AcDbEntity
  8
0
  6
Continuous
 62
     7
370
    15
100
AcDbLine
 10
98.9198860448
 20
183.0164736842
 30
0.0
 11
98.9198860448
 21
150.0164736842
 31
0.0
  0
LINE
  5
92
330
1F
100
AcDbEntity
  8
0
  6
Continuous
 62
     7
370
    15
100
AcDbLine
 10
91.1574166959
 20
193.0164736842
 30
0.0
 11
90.4766067898
 21
193.0164736842
 31
0.0
  0
ARC
  5
93
330
1F
100
AcDbEntity
  8
0
  6
Continuous
 62
     7
370
    15
100
AcDbCircle
 10
90.6707820977
 20
183.4825935608
 30
0.0
 40
9.546291606713392
100
AcDbArc
 50
357.2012875662
 51
87.078006875
  0
LINE
  5
94
330
1F
100
AcDbEntity
  8
0
  6
Continuous
 62
     7
370
    15
100
AcDbLine
 10
100.2056872206
 20
183.0164736842
 30
0.0
 11
100.2056872206
 21
150.0164736842
 31
0.0
  0
LINE
  5
95
330
1F
100
AcDbEntity
  8
0
  6
Continuous
 62
     7
370
    15
100
AcDbLine
 10
101.1882121251
 20
183.0164736842
 30
0.0
 11
100.2056872206
 21
183.0164736842
 31
0.0
  0
LINE
  5
96
330
1F
100
AcDbEntity
  8
0
  6
Continuous
 62
     7
370
    15
100
AcDbLine
 10
91.1574166959
 20
193.0164736842
 30
0.0
 11
91.6776469622
 21
193.0164736842
 31
0.0
  0
ARC
  5
97
330
1F
100
AcDbEntity
  8
0
  6
Continuous
 62
     7
370
    15
100
AcDbCircle
 10
91.4194881493
 20
183.2484075771
 30
0.0
 40
9.771476932711627
100
AcDbArc
 50
358.6399106921
 51
88.486090507
  0
LINE
  5
98
330
1F
100
AcDbEntity
  8
0
  6
Continuous
 62
     7
370
    15
100
AcDbLine
 10
101.1882121251
 20
183.0164736842
 30
0.0
 11
101.1882121251
 21
150.0164736842
 31
0.0
  0
LINE
  5
99
330
1F
100
AcDbEntity
  8
0
  6
Continuous
 62
     7
370
    15
100
AcDbLine
 10
102.1864803154
 20
183.0164736842
 30
0.0
 11
101.8519657538
 21
183.0164736842
 31
0.0
  0
ARC
  5
9A
330
1F
100
AcDbEntity
  8
0
  6
Continuous
 62
     7
370
    15
100
AcDbCircle
 10
91.9422744933
 20
183.1067515151
 30
0.0
 40
9.91010246997366
100
AcDbArc
 50
359.4780467455
 51
89.4980463836
  0
ARC
  5
9B
330
1F
100
AcDbEntity
  8
0
  6
Continuous
 62
     7
370
    15
100
AcDbCircle
 10
92.1960558187
 20
183.0260497615
 30
0.0
 40
9.990429086115016
100
AcDbArc
 50
359.9450805474
 51
89.9417476971
  0
LINE
  5
9C
330
1F
100
AcDbEntity
  8
0
  6
Continuous
 62
     7
370
    15
100
AcDbLine
 10
101.8519657538
 20
183.0164736842
 30
0.0
 11
101.8519657538
 21
150.0164736842
 31
0.0
  0
LINE
  5
9D
330
1F
100
AcDbEntity
  8
0
  6
Continuous
 62
     7
370
    15
100
AcDbLine
 10
102.1864803154
 20
183.0164736842
 30
0.0
 11
102.1864803154
 21
150.0164736842
 31
0.0
  0
LINE
  5
9E
330
1F
100
AcDbEntity
  8
0
  6
Continuous
 62
     7
370
    15
100
AcDbLine
 10
120.9752
 20
117.0164736842
 30
0.0
 11
40.9752
 21
117.0164736842
 31
0.0
  0
LINE
  5
9F
330
1F
100
AcDbEntity
  8
0
  6
Continuous
 62
     7
370
    15
100
AcDbLine
 10
40.9752
 20
117.0164736842
 30
0.0
 11
40.9752
 21
120.0164736842
 31
0.0
  0
LINE
  5
A0
330
1F
100
AcDbEntity
  8
0
  6
Continuous
 62
     7
370
    15
100
AcDbLine
 10
120.9752
 20
120.0164736842
 30
0.0
 11
40.9752
 21
120.0164736842
 31
0.0
  0
LINE
  5
A1
330
1F
100
AcDbEntity
  8
0
  6
Continuous
 62
     7
370
    15
100
AcDbLine
 10
120.9752
 20
117.0164736842
 30
0.0
 11
120.9752
 21
120.0164736842
 31
0.0
  0
LINE
  5
A2
330
1F
100
AcDbEntity
  8
0
  6
Continuous
 62
     7
370
    15
100
AcDbLine
 10
80.9752
 20
140.0164736842
 30
0.0
 11
112.7817151517
 21
140.0164736842
 31
0.0
  0
LINE
  5
A3
330
1F
100
AcDbEntity
  8
0
  6
Continuous
 62
     7
370
    15
100
AcDbLine
 10
49.1686848483
 20
140.0164736842
 30
0.0
 11
80.9752
 21
140.0164736842
 31
0.0
  0
LINE
  5
A4
330
1F
100
AcDbEntity
  8
0
  6
Continuous
 62
     7
370
    15
100
AcDbLine
 10
80.9752
 20
150.0164736842
 30
0.0
 11
106.8046656144
 21
150.0164736842
 31
0.0
  0
LINE
  5
A5
330
1F
100
AcDbEntity
  8
0
  6
Continuous
 62
     7
370
    15
100
AcDbLine
 10
55.1457343856
 20
150.0164736842
 30
0.0
 11
80.9752
 21
150.0164736842
 31
0.0
  0
LINE
  5
A6
330
1F
100
AcDbEntity
  8
0
  6
Continuous
 62
     8
370
    15
100
AcDbLine
 10
59.7639196846
 20
183.0164736842
 30
0.0
 11
59.7219813123
 21
183.0164736842
 31
0.0
  0
LINE
  5
A7
330
1F
100
AcDbEntity
  8
0
  6
Continuous
 62
     7
370
    15
100
AcDbLine
 10
40.9752
 20
22.6814580722
 30
0.0
 11
120.9752
 21
22.6814580722
 31
0.0
  0
LINE
  5
A8
330
1F
100
AcDbEntity
  8
0
  6
Continuous
 62
     7
370
    15
100
AcDbLine
 10
40.9752
 20
102.6814580722
 30
0.0
 11
40.9752
 21
22.6814580722
 31
0.0
  0
CIRCLE
  5
A9
330
1F
100
AcDbEntity
  8
0
  6
Continuous
 62
     7
370
    15
100
AcDbCircle
 10
80.9752
 20
62.6814580722
 30
0.0
 40
28.28502436119948
  0
LINE
  5
AA
330
1F
100
AcDbEntity
  8
0
  6
Continuous
 62
     7
370
    15
100
AcDbLine
 10
120.9752
 20
102.6814580722
 30
0.0
 11
40.9752
 21
102.6814580722
 31
0.0
  0
LINE
  5
AB
330
1F
100
AcDbEntity
  8
0
  6
Continuous
 62
     7
370
    15
100
AcDbLine
 10
120.9752
 20
22.6814580722
 30
0.0
 11
120.9752
 21
102.6814580722
 31
0.0
  0
CIRCLE
  5
AC
330
1F
100
AcDbEntity
  8
0
  6
Continuous
 62
     7
370
    15
100
AcDbCircle
 10
80.9752
 20
62.6814580722
 30
0.0
 40
21.25321868765027
  0
ENDSEC
  0
SECTION
  2
OBJECTS
  0
DICTIONARY
  5
C
330
0
100
AcDbDictionary
281
     1
  3
ACAD_GROUP
350
D
  3
ACAD_LAYOUT
350
1A
  3
ACAD_MLINESTYLE
350
17
  3
ACAD_PLOTSETTINGS
350
19
  3
ACAD_PLOTSTYLENAME
350
E
  0
DICTIONARY
  5
D
102
{ACAD_REACTORS
330
C
102
}
330
C
100
AcDbDictionary
281
     1
  0
DICTIONARY
  5
1A
102
{ACAD_REACTORS
330
C
102
}
330
C
100
AcDbDictionary
281
     1
  3
Layout1
350
1E
  3
Layout2
350
26
  3
Model
350
22
  0
DICTIONARY
  5
17
102
{ACAD_REACTORS
330
C
102
}
330
C
100
AcDbDictionary
281
     1
  3
Standard
350
18
  0
DICTIONARY
  5
19
102
{ACAD_REACTORS
330
C
102
}
330
C
100
AcDbDictionary
281
     1
  0
ACDBDICTIONARYWDFLT
  5
E
102
{ACAD_REACTORS
330
C
102
}
330
C
100
AcDbDictionary
281
     1
  3
Normal
350
F
100
AcDbDictionaryWithDefault
340
F
  0
LAYOUT
  5
1E
102
{ACAD_REACTORS
330
1A
102
}
330
1A
100
AcDbPlotSettings
  1

  2
none_device
  4

  6

 40
0.0
 41
0.0
 42
0.0
 43
0.0
 44
0.0
 45
0.0
 46
0.0
 47
0.0
 48
0.0
 49
0.0
140
0.0
141
0.0
142
1.0
143
1.0
 70
   688
 72
     0
 73
     0
 74
     5
  7

 75
    16
147
1.0
148
0.0
149
0.0
100
AcDbLayout
  1
Layout1
 70
     1
 71
     1
 10
0.0
 20
0.0
 11
420.0
 21
297.0
 12
0.0
 22
0.0
 32
0.0
 14
1.0000000000E+20
 24
1.0000000000E+20
 34
1.0000000000E+20
 15
-1.0000000000E+20
 25
-1.0000000000E+20
 35
-1.0000000000E+20
146
0.0
 13
0.0
 23
0.0
 33
0.0
 16
1.0
 26
0.0
 36
0.0
 17
0.0
 27
1.0
 37
0.0
 76
     0
330
1B
  0
LAYOUT
  5
26
102
{ACAD_REACTORS
330
1A
102
}
330
1A
100
AcDbPlotSettings
  1

  2
none_device
  4

  6

 40
0.0
 41
0.0
 42
0.0
 43
0.0
 44
0.0
 45
0.0
 46
0.0
 47
0.0
 48
0.0
 49
0.0
140
0.0
141
0.0
142
1.0
143
1.0
 70
   688
 72
     0
 73
     0
 74
     5
  7

 75
    16
147
1.0
148
0.0
149
0.0
100
AcDbLayout
  1
Layout2
 70
     1
 71
     2
 10
0.0
 20
0.0
 11
0.0
 21
0.0
 12
0.0
 22
0.0
 32
0.0
 14
0.0
 24
0.0
 34
0.0
 15
0.0
 25
0.0
 35
0.0
146
0.0
 13
0.0
 23
0.0
 33
0.0
 16
1.0
 26
0.0
 36
0.0
 17
0.0
 27
1.0
 37
0.0
 76
     0
330
23
  0
LAYOUT
  5
22
102
{ACAD_REACTORS
330
1A
102
}
330
1A
100
AcDbPlotSettings
  1

  2
none_device
  4

  6

 40
0.0
 41
0.0
 42
0.0
 43
0.0
 44
0.0
 45
0.0
 46
0.0
 47
0.0
 48
0.0
 49
0.0
140
0.0
141
0.0
142
1.0
143
1.0
 70
  1712
 72
     0
 73
     0
 74
     0
  7

 75
     0
147
1.0
148
0.0
149
0.0
100
AcDbLayout
  1
Model
 70
     1
 71
     0
 10
0.0
 20
0.0
 11
279.4
 21
215.9
 12
0.0
 22
0.0
 32
0.0
 14
0.0
 24
0.0
 34
0.0
 15
279.4
 25
215.9
 35
0.0
146
0.0
 13
0.0
 23
0.0
 33
0.0
 16
1.0
 26
0.0
 36
0.0
 17
0.0
 27
1.0
 37
0.0
 76
     0
330
1F
331
29
  0
MLINESTYLE
  5
18
102
{ACAD_REACTORS
330
17
102
}
330
17
100
AcDbMlineStyle
  2
Standard
 70
     0
  3

 62
   256
 51
90.0
 52
90.0
 71
     2
 49
0.5
 62
   256
  6
BYLAYER
 49
-0.5
 62
   256
  6
BYLAYER
  0
ACDBPLACEHOLDER
  5
F
102
{ACAD_REACTORS
330
E
102
}
330
E
  0
ENDSEC
  0
EOF
