  0
SECTION
  2
HEADER
  9
$ACADVER
  1
AC1015
  9
$ACADMAINTVER
 70
     6
  9
$DWGCODEPAGE
  3
ANSI_1251
  9
$INSBASE
 10
0.0
 20
0.0
 30
0.0
  9
$EXTMIN
 10
0.0
 20
0.0
 30
0.0
  9
$EXTMAX
 10
2794.0
 20
2159.0
 30
0.0
  9
$LIMMIN
 10
0.0
 20
0.0
  9
$LIMMAX
 10
2794.0
 20
2159.0
  9
$ORTHOMODE
 70
     0
  9
$REGENMODE
 70
     1
  9
$FILLMODE
 70
     1
  9
$QTEXTMODE
 70
     0
  9
$MIRRTEXT
 70
     1
  9
$LTSCALE
 40
10.0
  9
$ATTMODE
 70
     1
  9
$TEXTSIZE
 40
35.0
  9
$TRACEWID
 40
1.0
  9
$TEXTSTYLE
  7
Standard
  9
$CLAYER
  8
0
  9
$CELTYPE
  6
ByLayer
  9
$CECOLOR
 62
   256
  9
$CELTSCALE
 40
1.0
  9
$DISPSILH
 70
     0
  9
$DIMSCALE
 40
1.0
  9
$DIMASZ
 40
35.0
  9
$DIMEXO
 40
0.1
  9
$DIMDLI
 40
3.75
  9
$DIMRND
 40
0.0
  9
$DIMDLE
 40
0.0
  9
$DIMEXE
 40
10.0
  9
$DIMTP
 40
0.0
  9
$DIMTM
 40
0.0
  9
$DIMTXT
 40
35.0
  9
$DIMCEN
 40
2.5
  9
$DIMTSZ
 40
0.0
  9
$DIMTOL
 70
     0
  9
$DIMLIM
 70
     0
  9
$DIMTIH
 70
     1
  9
$DIMTOH
 70
     1
  9
$DIMSE1
 70
     0
  9
$DIMSE2
 70
     0
  9
$DIMTAD
 70
     1
  9
$DIMZIN
 70
     0
  9
$DIMBLK
  1

  9
$DIMASO
 70
     1
  9
$DIMSHO
 70
     1
  9
$DIMPOST
  1

  9
$DIMAPOST
  1

  9
$DIMALT
 70
     0
  9
$DIMALTD
 70
     3
  9
$DIMALTF
 40
0.0393700787
  9
$DIMLFAC
 40
1.0
  9
$DIMTOFL
 70
     1
  9
$DIMTVP
 40
0.0
  9
$DIMTIX
 70
     0
  9
$DIMSOXD
 70
     0
  9
$DIMSAH
 70
     0
  9
$DIMBLK1
  1

  9
$DIMBLK2
  1

  9
$DIMSTYLE
  2
ISO-25
  9
$DIMCLRD
 70
     0
  9
$DIMCLRE
 70
     0
  9
$DIMCLRT
 70
     0
  9
$DIMTFAC
 40
1.0
  9
$DIMGAP
 40
30.0
  9
$DIMJUST
 70
     0
  9
$DIMSD1
 70
     0
  9
$DIMSD2
 70
     0
  9
$DIMTOLJ
 70
     0
  9
$DIMTZIN
 70
     0
  9
$DIMALTZ
 70
     0
  9
$DIMALTTZ
 70
     0
  9
$DIMUPT
 70
     0
  9
$DIMDEC
 70
     2
  9
$DIMTDEC
 70
     3
  9
$DIMALTU
 70
     2
  9
$DIMALTTD
 70
     3
  9
$DIMTXSTY
  7
Standard
  9
$DIMAUNIT
 70
     0
  9
$DIMADEC
 70
     2
  9
$DIMALTRND
 40
0.0
  9
$DIMAZIN
 70
     0
  9
$DIMDSEP
 70
    44
  9
$DIMATFIT
 70
     3
  9
$DIMFRAC
 70
     0
  9
$DIMLDRBLK
  1

  9
$DIMLUNIT
 70
     2
  9
$DIMLWD
 70
    -2
  9
$DIMLWE
 70
    -2
  9
$DIMTMOVE
 70
     0
  9
$LUNITS
 70
     2
  9
$LUPREC
 70
     2
  9
$SKETCHINC
 40
1.0
  9
$FILLETRAD
 40
10.0
  9
$AUNITS
 70
     0
  9
$AUPREC
 70
     2
  9
$MENU
  1
.
  9
$ELEVATION
 40
0.0
  9
$PELEVATION
 40
0.0
  9
$THICKNESS
 40
0.0
  9
$LIMCHECK
 70
     0
  9
$CHAMFERA
 40
10.0
  9
$CHAMFERB
 40
10.0
  9
$CHAMFERC
 40
20.0
  9
$CHAMFERD
 40
0.0
  9
$SKPOLY
 70
     0
  9
$TDCREATE
 40
2458134.010072812
  9
$TDUCREATE
 40
2458133.926739479
  9
$TDUPDATE
 40
2458134.010074016
  9
$TDUUPDATE
 40
2458133.926740683
  9
$TDINDWG
 40
0.0000000116
  9
$TDUSRTIMER
 40
0.0000000116
  9
$USRTIMER
 70
     1
  9
$ANGBASE
 50
0.0
  9
$ANGDIR
 70
     0
  9
$PDMODE
 70
     0
  9
$PDSIZE
 40
-1.0
  9
$PLINEWID
 40
0.0
  9
$SPLFRAME
 70
     0
  9
$SPLINETYPE
 70
     6
  9
$SPLINESEGS
 70
     8
  9
$HANDSEED
  5
281
  9
$SURFTAB1
 70
     6
  9
$SURFTAB2
 70
     6
  9
$SURFTYPE
 70
     6
  9
$SURFU
 70
     6
  9
$SURFV
 70
     6
  9
$UCSBASE
  2

  9
$UCSNAME
  2

  9
$UCSORG
 10
0.0
 20
0.0
 30
0.0
  9
$UCSXDIR
 10
1.0
 20
0.0
 30
0.0
  9
$UCSYDIR
 10
0.0
 20
1.0
 30
0.0
  9
$UCSORTHOREF
  2

  9
$UCSORTHOVIEW
 70
     0
  9
$UCSORGTOP
 10
0.0
 20
0.0
 30
0.0
  9
$UCSORGBOTTOM
 10
0.0
 20
0.0
 30
0.0
  9
$UCSORGLEFT
 10
0.0
 20
0.0
 30
0.0
  9
$UCSORGRIGHT
 10
0.0
 20
0.0
 30
0.0
  9
$UCSORGFRONT
 10
0.0
 20
0.0
 30
0.0
  9
$UCSORGBACK
 10
0.0
 20
0.0
 30
0.0
  9
$PUCSBASE
  2

  9
$PUCSNAME
  2

  9
$PUCSORG
 10
0.0
 20
0.0
 30
0.0
  9
$PUCSXDIR
 10
1.0
 20
0.0
 30
0.0
  9
$PUCSYDIR
 10
0.0
 20
1.0
 30
0.0
  9
$PUCSORTHOREF
  2

  9
$PUCSORTHOVIEW
 70
     0
  9
$PUCSORGTOP
 10
0.0
 20
0.0
 30
0.0
  9
$PUCSORGBOTTOM
 10
0.0
 20
0.0
 30
0.0
  9
$PUCSORGLEFT
 10
0.0
 20
0.0
 30
0.0
  9
$PUCSORGRIGHT
 10
0.0
 20
0.0
 30
0.0
  9
$PUCSORGFRONT
 10
0.0
 20
0.0
 30
0.0
  9
$PUCSORGBACK
 10
0.0
 20
0.0
 30
0.0
  9
$USERI1
 70
     0
  9
$USERI2
 70
     0
  9
$USERI3
 70
     0
  9
$USERI4
 70
     0
  9
$USERI5
 70
     0
  9
$USERR1
 40
0.0
  9
$USERR2
 40
0.0
  9
$USERR3
 40
0.0
  9
$USERR4
 40
0.0
  9
$USERR5
 40
0.0
  9
$WORLDVIEW
 70
     1
  9
$SHADEDGE
 70
     3
  9
$SHADEDIF
 70
    70
  9
$TILEMODE
 70
     1
  9
$MAXACTVP
 70
    64
  9
$PINSBASE
 10
0.0
 20
0.0
 30
0.0
  9
$PLIMCHECK
 70
     0
  9
$PEXTMIN
 10
1.0000000000E+20
 20
1.0000000000E+20
 30
1.0000000000E+20
  9
$PEXTMAX
 10
-1.0000000000E+20
 20
-1.0000000000E+20
 30
-1.0000000000E+20
  9
$PLIMMIN
 10
0.0
 20
0.0
  9
$PLIMMAX
 10
420.0
 20
297.0
  9
$UNITMODE
 70
     0
  9
$VISRETAIN
 70
     1
  9
$PLINEGEN
 70
     0
  9
$PSLTSCALE
 70
     1
  9
$TREEDEPTH
 70
  3020
  9
$CMLSTYLE
  2
Standard
  9
$CMLJUST
 70
     0
  9
$CMLSCALE
 40
20.0
  9
$PROXYGRAPHICS
 70
     1
  9
$MEASUREMENT
 70
     1
  9
$CELWEIGHT
370
    -1
  9
$ENDCAPS
280
     0
  9
$JOINSTYLE
280
     0
  9
$LWDISPLAY
290
     1
  9
$INSUNITS
 70
     4
  9
$HYPERLINKBASE
  1

  9
$STYLESHEET
  1

  9
$XEDIT
290
     1
  9
$CEPSNTYPE
380
     0
  9
$PSTYLEMODE
290
     1
  9
$FINGERPRINTGUID
  2
{3B1F783C-3032-428C-BC5B-E43D715BF540}
  9
$VERSIONGUID
  2
{FAEB1C32-E019-11D5-929B-00C0DF256EC4}
  9
$EXTNAMES
290
     1
  9
$PSVPSCALE
 40
0.0
  9
$OLESTARTUP
290
     0
  0
ENDSEC
  0
SECTION
  2
CLASSES
  0
CLASS
  1
ACDBDICTIONARYWDFLT
  2
AcDbDictionaryWithDefault
  3
ObjectDBX Classes
 90
        0
280
     0
281
     0
  0
CLASS
  1
VISUALSTYLE
  2
AcDbVisualStyle
  3
ObjectDBX Classes
 90
     4095
280
     0
281
     0
  0
CLASS
  1
MATERIAL
  2
AcDbMaterial
  3
ObjectDBX Classes
 90
     1153
280
     0
281
     0
  0
CLASS
  1
ACDBPLACEHOLDER
  2
AcDbPlaceHolder
  3
ObjectDBX Classes
 90
        0
280
     0
281
     0
  0
CLASS
  1
LAYOUT
  2
AcDbLayout
  3
ObjectDBX Classes
 90
        0
280
     0
281
     0
  0
ENDSEC
  0
SECTION
  2
TABLES
  0
TABLE
  2
VPORT
  5
8
330
0
100
AcDbSymbolTable
 70
     1
  0
VPORT
  5
29
330
8
100
AcDbSymbolTableRecord
100
AcDbViewportTableRecord
  2
*Active
 70
     0
 10
0.0
 20
0.0
 11
1.0
 21
1.0
 12
1397.0
 22
1079.5
 13
0.0
 23
0.0
 14
10.0
 24
10.0
 15
10.0
 25
10.0
 16
0.0
 26
0.0
 36
1.0
 17
0.0
 27
0.0
 37
0.0
 40
2159.0
 41
1.2941176471
 42
50.0
 43
0.0
 44
0.0
 50
0.0
 51
0.0
 71
     0
 72
  2000
 73
     1
 74
     3
 75
     0
 76
     0
 77
     0
 78
     0
281
     0
 65
     1
110
0.0
120
0.0
130
0.0
111
1.0
121
0.0
131
0.0
112
0.0
122
1.0
132
0.0
 79
     0
146
0.0
  0
ENDTAB
  0
TABLE
  2
LTYPE
  5
5
330
0
100
AcDbSymbolTable
 70
     6
  0
LTYPE
  5
14
330
5
100
AcDbSymbolTableRecord
100
AcDbLinetypeTableRecord
  2
ByBlock
 70
     0
  3

 72
    65
 73
     0
 40
0.0
  0
LTYPE
  5
15
330
5
100
AcDbSymbolTableRecord
100
AcDbLinetypeTableRecord
  2
ByLayer
 70
     0
  3

 72
    65
 73
     0
 40
0.0
  0
LTYPE
  5
16
330
5
100
AcDbSymbolTableRecord
100
AcDbLinetypeTableRecord
  2
Continuous
 70
     0
  3
Solid line
 72
    65
 73
     0
 40
0.0
  0
LTYPE
  5
3F
330
5
100
AcDbSymbolTableRecord
100
AcDbLinetypeTableRecord
  2
HIDDEN
 70
     0
  3
Hidden __ __ __ __ __ __ __ __ __ __ __ __ __ __
 72
    65
 73
     2
 40
1.905
 49
1.27
 74
     0
 49
-0.635
 74
     0
  0
LTYPE
  5
40
330
5
100
AcDbSymbolTableRecord
100
AcDbLinetypeTableRecord
  2
PHANTOM
 70
     0
  3
Phantom ______  __  __  ______  __  __  ______
 72
    65
 73
     6
 40
12.7
 49
6.35
 74
     0
 49
-1.27
 74
     0
 49
1.27
 74
     0
 49
-1.27
 74
     0
 49
1.27
 74
     0
 49
-1.27
 74
     0
  0
LTYPE
  5
41
330
5
100
AcDbSymbolTableRecord
100
AcDbLinetypeTableRecord
  2
CENTER
 70
     0
  3
Center ____ _ ____ _ ____ _ ____ _ ____ _ ____
 72
    65
 73
     4
 40
10.16
 49
6.35
 74
     0
 49
-1.27
 74
     0
 49
1.27
 74
     0
 49
-1.27
 74
     0
  0
LTYPE
  5
42
330
5
100
AcDbSymbolTableRecord
100
AcDbLinetypeTableRecord
  2
CENTERX2
 70
     0
  3
Center (2x) ________  __  ________  __  _____
 72
    65
 73
     4
 40
20.32
 49
12.7
 74
     0
 49
-2.54
 74
     0
 49
2.54
 74
     0
 49
-2.54
 74
     0
  0
LTYPE
  5
43
330
5
100
AcDbSymbolTableRecord
100
AcDbLinetypeTableRecord
  2
DOT2
 70
     0
  3
Dot (.5x) ........................................
 72
    65
 73
     2
 40
0.635
 49
0.0
 74
     0
 49
-0.635
 74
     0
  0
ENDTAB
  0
TABLE
  2
LAYER
  5
2
330
0
100
AcDbSymbolTable
 70
     1
  0
LAYER
  5
10
330
2
100
AcDbSymbolTableRecord
100
AcDbLayerTableRecord
  2
0
 70
     0
 62
     7
  6
Continuous
370
    -3
390
F
  0
ENDTAB
  0
TABLE
  2
STYLE
  5
3
330
0
100
AcDbSymbolTable
 70
     1
  0
STYLE
  5
11
330
3
100
AcDbSymbolTableRecord
100
AcDbTextStyleTableRecord
  2
Standard
 70
     0
 40
0.0
 41
1.0
 50
0.0
 71
     0
 42
35.0
  3
txt
  4

  0
ENDTAB
  0
TABLE
  2
VIEW
  5
6
330
0
100
AcDbSymbolTable
 70
     0
  0
ENDTAB
  0
TABLE
  2
UCS
  5
7
330
0
100
AcDbSymbolTable
 70
     0
  0
ENDTAB
  0
TABLE
  2
APPID
  5
9
330
0
100
AcDbSymbolTable
 70
     1
  0
APPID
  5
12
330
9
100
AcDbSymbolTableRecord
100
AcDbRegAppTableRecord
  2
ACAD
 70
     0
  0
ENDTAB
  0
TABLE
  2
DIMSTYLE
  5
A
330
0
100
AcDbSymbolTable
 70
     1
100
AcDbDimStyleTable
  0
DIMSTYLE
105
27
330
A
100
AcDbSymbolTableRecord
100
AcDbDimStyleTableRecord
  2
ISO-25
 70
     0
 41
2.5
 42
0.625
 43
3.75
 44
1.25
 73
     0
 74
     0
 77
     1
 78
     8
140
2.5
141
2.5
143
0.0393700787
147
0.625
171
     3
172
     1
178
     0
271
     2
272
     2
274
     3
278
    44
283
     0
284
     8
340
11
  0
ENDTAB
  0
TABLE
  2
BLOCK_RECORD
  5
1
330
0
100
AcDbSymbolTable
 70
     1
  0
BLOCK_RECORD
  5
1F
330
1
100
AcDbSymbolTableRecord
100
AcDbBlockTableRecord
  2
*Model_Space
340
22
  0
BLOCK_RECORD
  5
1B
330
1
100
AcDbSymbolTableRecord
100
AcDbBlockTableRecord
  2
*Paper_Space
340
1E
  0
BLOCK_RECORD
  5
23
330
1
100
AcDbSymbolTableRecord
100
AcDbBlockTableRecord
  2
*Paper_Space0
340
26
  0
ENDTAB
  0
ENDSEC
  0
SECTION
  2
BLOCKS
  0
BLOCK
  5
20
330
1F
100
AcDbEntity
  8
0
100
AcDbBlockBegin
  2
*Model_Space
 70
     0
 10
0.0
 20
0.0
 30
0.0
  3
*Model_Space
  1

  0
ENDBLK
  5
21
330
1F
100
AcDbEntity
  8
0
100
AcDbBlockEnd
  0
BLOCK
  5
1C
330
1B
100
AcDbEntity
 67
     1
  8
0
100
AcDbBlockBegin
  2
*Paper_Space
 70
     0
 10
0.0
 20
0.0
 30
0.0
  3
*Paper_Space
  1

  0
ENDBLK
  5
1D
330
1B
100
AcDbEntity
 67
     1
  8
0
100
AcDbBlockEnd
  0
BLOCK
  5
24
330
23
100
AcDbEntity
  8
0
100
AcDbBlockBegin
  2
*Paper_Space0
 70
     0
 10
0.0
 20
0.0
 30
0.0
  3
*Paper_Space0
  1

  0
ENDBLK
  5
25
330
23
100
AcDbEntity
  8
0
100
AcDbBlockEnd
  0
ENDSEC
  0
SECTION
  2
ENTITIES
  0
LINE
  5
44
330
1F
100
AcDbEntity
  8
0
  6
Continuous
 62
     7
370
    15
100
AcDbLine
 10
1132.1559567514
 20
1483.363071997
 30
0.0
 11
1206.1559567514
 21
1483.363071997
 31
0.0
  0
LINE
  5
45
330
1F
100
AcDbEntity
  8
0
  6
Continuous
 62
     7
370
    15
100
AcDbLine
 10
1206.1559567514
 20
1530.4889775678
 30
0.0
 11
1135.9044518312
 21
1530.4889775678
 31
0.0
  0
LINE
  5
46
330
1F
100
AcDbEntity
  8
0
  6
Continuous
 62
     7
370
    15
100
AcDbLine
 10
518.3824946837
 20
1627.5130445228
 30
0.0
 11
518.3824946837
 21
1625.5130445228
 31
0.0
  0
LINE
  5
47
330
1F
100
AcDbEntity
  8
0
  6
Continuous
 62
     7
370
    15
100
AcDbLine
 10
538.3824946837
 20
1625.5130445228
 30
0.0
 11
538.3824946837
 21
1627.5130445228
 31
0.0
  0
LINE
  5
48
330
1F
100
AcDbEntity
  8
0
  6
Continuous
 62
     7
370
    15
100
AcDbLine
 10
356.9417875519
 20
1627.5130445228
 30
0.0
 11
356.9417875519
 21
1625.5130445228
 31
0.0
  0
LINE
  5
49
330
1F
100
AcDbEntity
  8
0
  6
Continuous
 62
     7
370
    15
100
AcDbLine
 10
376.9417875519
 20
1625.5130445228
 30
0.0
 11
376.9417875519
 21
1627.5130445228
 31
0.0
  0
LINE
  5
4A
330
1F
100
AcDbEntity
  8
0
  6
Continuous
 62
     7
370
    15
100
AcDbLine
 10
250.5113189122
 20
1627.5130445228
 30
0.0
 11
250.5113189122
 21
1625.5130445228
 31
0.0
  0
LINE
  5
4B
330
1F
100
AcDbEntity
  8
0
  6
Continuous
 62
     7
370
    15
100
AcDbLine
 10
270.5113189122
 20
1625.5130445228
 30
0.0
 11
270.5113189122
 21
1627.5130445228
 31
0.0
  0
LINE
  5
4C
330
1F
100
AcDbEntity
  8
0
  6
Continuous
 62
     7
370
    15
100
AcDbLine
 10
623.3036226225
 20
1627.5130445228
 30
0.0
 11
623.3036226225
 21
1625.5130445228
 31
0.0
  0
LINE
  5
4D
330
1F
100
AcDbEntity
  8
0
  6
Continuous
 62
     7
370
    15
100
AcDbLine
 10
643.3036226225
 20
1625.5130445228
 30
0.0
 11
643.3036226225
 21
1627.5130445228
 31
0.0
  0
LINE
  5
4E
330
1F
100
AcDbEntity
  8
0
  6
Continuous
 62
     7
370
    15
100
AcDbLine
 10
1206.1559567514
 20
1506.9260247824
 30
0.0
 11
1206.1559567514
 21
1530.4889775678
 31
0.0
  0
LINE
  5
4F
330
1F
100
AcDbEntity
  8
0
  6
Continuous
 62
     7
370
    15
100
AcDbLine
 10
1206.1559567514
 20
1483.363071997
 30
0.0
 11
1206.1559567514
 21
1506.9260247824
 31
0.0
  0
LINE
  5
50
330
1F
100
AcDbEntity
  8
0
  6
Continuous
 62
     7
370
    15
100
AcDbLine
 10
1132.1559567514
 20
1483.363071997
 30
0.0
 11
1132.1559567514
 21
1484.2814382508
 31
0.0
  0
ARC
  5
51
330
1F
100
AcDbEntity
  8
0
  6
Continuous
 62
     7
370
    15
100
AcDbCircle
 10
653.2765718072
 20
1484.6729640046
 30
0.0
 40
152.8423612001299
100
AcDbArc
 50
64.1151283418
 51
69.156884405
  0
LINE
  5
52
330
1F
100
AcDbEntity
  8
0
  6
Continuous
 62
     7
370
    15
100
AcDbLine
 10
715.6364407313
 20
1613.1843911268
 30
0.0
 11
720.002083276
 21
1622.1811219315
 31
0.0
  0
ARC
  5
53
330
1F
100
AcDbEntity
  8
0
  6
Continuous
 62
     7
370
    15
100
AcDbCircle
 10
653.2765718072
 20
1484.6729640046
 30
0.0
 40
142.84236120013
100
AcDbArc
 50
64.1151283418
 51
89.6762259401
  0
SPLINE
  5
54
330
1F
100
AcDbEntity
  8
0
  6
Continuous
 62
     7
370
    15
100
AcDbSpline
210
0.0
220
0.0
230
1.0
 70
    24
 71
     3
 72
    54
 73
    50
 74
     0
 42
0.00000001
 43
0.00000001
 12
1.0
 22
0.0
 32
0.0
 13
1.0
 23
0.0
 33
0.0
 40
0.0
 40
0.0
 40
0.0
 40
0.0
 40
0.1249999999999991
 40
0.1249999999999991
 40
0.1874999999999986
 40
0.1874999999999986
 40
0.2187499999999983
 40
0.2187499999999983
 40
0.2499999999999979
 40
0.2499999999999979
 40
0.3749999999999976
 40
0.3749999999999976
 40
0.4999999999999971
 40
0.4999999999999971
 40
0.5312499999999972
 40
0.5312499999999972
 40
0.5624999999999973
 40
0.5624999999999973
 40
0.6249999999999976
 40
0.6249999999999976
 40
0.7499999999999981
 40
0.7499999999999981
 40
0.8124999999999989
 40
0.8124999999999989
 40
0.8749999999999996
 40
0.8749999999999996
 40
0.9062499999999999
 40
0.9062499999999999
 40
0.9375000000000002
 40
0.9375000000000002
 40
0.9531250000000004
 40
0.9531250000000004
 40
0.9687500000000007
 40
0.9687500000000007
 40
0.9765625000000008
 40
0.9765625000000008
 40
0.9843750000000008
 40
0.9843750000000008
 40
0.9882812500000004
 40
0.9882812500000004
 40
0.9921875000000001
 40
0.9921875000000001
 40
0.994140625
 40
0.994140625
 40
0.99609375
 40
0.99609375
 40
0.998046875
 40
0.998046875
 40
1.0
 40
1.0
 40
1.0
 40
1.0
 10
803.3040161626088
 20
1501.193562237241
 30
0.0
 10
803.304016162609
 20
1501.193562237241
 30
0.0
 10
803.2070156758687
 20
1501.399469956057
 30
0.0
 10
802.9157905031745
 20
1502.01766799801
 30
0.0
 10
802.7943286623492
 20
1502.275501039967
 30
0.0
 10
802.5746241775528
 20
1502.741878589178
 30
0.0
 10
802.4950135811273
 20
1502.910871929876
 30
0.0
 10
802.323779589337
 20
1503.274358772243
 30
0.0
 10
802.2321585297053
 20
1503.468847315737
 30
0.0
 10
801.7440699993282
 20
1504.504936919487
 30
0.0
 10
801.2580598197344
 20
1505.536614705492
 30
0.0
 10
800.0892835521097
 20
1508.017633751486
 30
0.0
 10
799.4065694591071
 20
1509.466864639061
 30
0.0
 10
798.4198825267988
 20
1511.561353669425
 30
0.0
 10
798.2158506222298
 20
1511.994462259364
 30
0.0
 10
797.7940093957807
 20
1512.889925442692
 30
0.0
 10
797.5758031569686
 20
1513.353122591234
 30
0.0
 10
796.9028144679694
 20
1514.781708883919
 30
0.0
 10
796.4311696879497
 20
1515.782892527518
 30
0.0
 10
794.9470632048483
 20
1518.933278579024
 30
0.0
 10
793.8658145110555
 20
1521.228498525786
 30
0.0
 10
792.099473244273
 20
1524.977998276938
 30
0.0
 10
791.486547490849
 20
1526.279086013014
 30
0.0
 10
790.2095901141171
 20
1528.989746436529
 30
0.0
 10
789.5444136432787
 20
1530.401749348301
 30
0.0
 10
788.5160133471611
 20
1532.584785393991
 30
0.0
 10
788.1677156053945
 20
1533.324134194044
 30
0.0
 10
787.4589164193649
 20
1534.828737195522
 30
0.0
 10
787.09904490189
 20
1535.592654220275
 30
0.0
 10
786.5489387004275
 20
1536.760391794139
 30
0.0
 10
786.3637792229521
 20
1537.153438951998
 30
0.0
 10
785.9893985451184
 20
1537.948155287268
 30
0.0
 10
785.800121174795
 20
1538.349943699435
 30
0.0
 10
785.5114281392104
 20
1538.962766649021
 30
0.0
 10
785.4144287099115
 20
1539.168672123154
 30
0.0
 10
785.2179997611341
 20
1539.585641543736
 30
0.0
 10
785.1186847984336
 20
1539.796462314859
 30
0.0
 10
784.9666567379032
 20
1540.119179779398
 30
0.0
 10
784.915483658611
 20
1540.227807399486
 30
0.0
 10
784.8116791561436
 20
1540.448158338168
 30
0.0
 10
784.7590675090169
 20
1540.55983967717
 30
0.0
 10
784.6787432160341
 20
1540.730348016762
 30
0.0
 10
784.651555984374
 20
1540.788059694715
 30
0.0
 10
784.5973545360133
 20
1540.903115783231
 30
0.0
 10
784.5700335707376
 20
1540.961111344128
 30
0.0
 10
784.5197125045254
 20
1541.067930354015
 30
0.0
 10
784.4967521744609
 20
1541.116669379413
 30
0.0
 10
784.4706121446158
 20
1541.172158110409
 30
0.0
 10
784.4663894034243
 20
1541.181121931469
 30
0.0
 10
784.4663894034242
 20
1541.181121931469
 30
0.0
  0
SPLINE
  5
55
330
1F
100
AcDbEntity
  8
0
  6
Continuous
 62
     7
370
    15
100
AcDbSpline
210
0.0
220
0.0
230
1.0
 70
     8
 71
     3
 72
    30
 73
    26
 74
     0
 42
0.00000001
 43
0.00000001
 12
1.0
 22
0.0
 32
0.0
 13
1.0
 23
0.0
 33
0.0
 40
0.0
 40
0.0
 40
0.0
 40
0.0
 40
0.1249999999999998
 40
0.1249999999999998
 40
0.2499999999999997
 40
0.2499999999999997
 40
0.2812499999999992
 40
0.2812499999999992
 40
0.3124999999999988
 40
0.3124999999999988
 40
0.3749999999999981
 40
0.3749999999999981
 40
0.4999999999999973
 40
0.4999999999999973
 40
0.5624999999999976
 40
0.5624999999999976
 40
0.5937499999999978
 40
0.5937499999999978
 40
0.624999999999998
 40
0.624999999999998
 40
0.7499999999999986
 40
0.7499999999999986
 40
0.8749999999999992
 40
0.8749999999999992
 40
1.0
 40
1.0
 40
1.0
 40
1.0
 10
784.4663894034247
 20
1541.181121931468
 30
0.0
 10
783.1447867829642
 20
1544.249365758089
 30
0.0
 10
781.6472630886395
 20
1547.430085480539
 30
0.0
 10
778.2444665327209
 20
1553.958719855937
 30
0.0
 10
776.3392977543452
 20
1557.306847759741
 30
0.0
 10
773.6631207892702
 20
1561.562689859295
 30
0.0
 10
773.1131251861739
 20
1562.417391615415
 30
0.0
 10
771.9825074921524
 20
1564.132994104297
 30
0.0
 10
771.401271424223
 20
1564.994782034318
 30
0.0
 10
769.6138492976728
 20
1567.582395623064
 30
0.0
 10
768.3750082266529
 20
1569.294610782664
 30
0.0
 10
764.5152562066713
 20
1574.383762195007
 30
0.0
 10
761.7512394168616
 20
1577.713134019456
 30
0.0
 10
757.3108916579413
 20
1582.579154286221
 30
0.0
 10
755.7816936331037
 20
1584.17984736426
 30
0.0
 10
753.4129629135915
 20
1586.544884818062
 30
0.0
 10
752.6108946804072
 20
1587.327230095073
 30
0.0
 10
750.9815261857646
 20
1588.879239905502
 30
0.0
 10
750.153291466795
 20
1589.649750093066
 30
0.0
 10
745.9588297155075
 20
1593.459395337972
 30
0.0
 10
742.4712586635055
 20
1596.336015159518
 30
0.0
 10
735.2406192033411
 20
1601.746548091973
 30
0.0
 10
731.4975400118723
 20
1604.280489745937
 30
0.0
 10
723.7580359536412
 20
1608.998517663591
 30
0.0
 10
719.7616280979431
 20
1611.18265362196
 30
0.0
 10
715.6364407313281
 20
1613.184391126789
 30
0.0
  0
SPLINE
  5
56
330
1F
100
AcDbEntity
  8
0
  6
Continuous
 62
     7
370
    15
100
AcDbSpline
210
0.0
220
0.0
230
1.0
 70
     8
 71
     3
 72
    56
 73
    52
 74
     0
 42
0.00000001
 43
0.00000001
 12
1.0
 22
0.0
 32
0.0
 13
1.0
 23
0.0
 33
0.0
 40
0.0
 40
0.0
 40
0.0
 40
0.0
 40
0.0624999999999999
 40
0.0624999999999999
 40
0.1249999999999999
 40
0.1249999999999999
 40
0.1874999999999998
 40
0.1874999999999998
 40
0.2031250000000001
 40
0.2031250000000001
 40
0.2187500000000004
 40
0.2187500000000004
 40
0.2500000000000004
 40
0.2500000000000004
 40
0.3125000000000012
 40
0.3125000000000012
 40
0.3750000000000021
 40
0.3750000000000021
 40
0.3906250000000022
 40
0.3906250000000022
 40
0.4062500000000023
 40
0.4062500000000023
 40
0.4375000000000024
 40
0.4375000000000024
 40
0.5000000000000022
 40
0.5000000000000022
 40
0.531250000000002
 40
0.531250000000002
 40
0.546875000000002
 40
0.546875000000002
 40
0.5625000000000019
 40
0.5625000000000019
 40
0.6250000000000017
 40
0.6250000000000017
 40
0.6875000000000014
 40
0.6875000000000014
 40
0.7187500000000014
 40
0.7187500000000014
 40
0.7343750000000014
 40
0.7343750000000014
 40
0.7500000000000014
 40
0.7500000000000014
 40
0.8125000000000011
 40
0.8125000000000011
 40
0.8750000000000009
 40
0.8750000000000009
 40
0.9062500000000007
 40
0.9062500000000007
 40
0.9375000000000003
 40
0.9375000000000003
 40
1.0
 40
1.0
 40
1.0
 40
1.0
 10
720.0020832760337
 20
1622.181121931468
 30
0.0
 10
724.0807800529981
 20
1620.023639547055
 30
0.0
 10
728.0263786715173
 20
1617.692660393413
 30
0.0
 10
735.661936769643
 20
1612.704563261111
 30
0.0
 10
739.351859519834
 20
1610.047382361074
 30
0.0
 10
746.4806458093722
 20
1604.420462241101
 30
0.0
 10
749.919495210586
 20
1601.450682057709
 30
0.0
 10
754.0608133922502
 20
1597.548111883876
 30
0.0
 10
754.881202703546
 20
1596.758068476598
 30
0.0
 10
756.5061762818365
 20
1595.159002792261
 30
0.0
 10
757.3103366444503
 20
1594.35033183573
 30
0.0
 10
759.6843564286655
 20
1591.911490393072
 30
0.0
 10
761.2207624539469
 20
1590.263633022704
 30
0.0
 10
765.6950867924994
 20
1585.261109400913
 30
0.0
 10
768.4982510273254
 20
1581.847506478091
 30
0.0
 10
773.7621619705452
 20
1574.898720719416
 30
0.0
 10
776.2228645324572
 20
1571.363424784225
 30
0.0
 10
779.0928319323178
 20
1566.890964446109
 30
0.0
 10
779.6568408346964
 20
1565.993216854074
 30
0.0
 10
780.7563631445284
 20
1564.206420113022
 30
0.0
 10
781.292938711727
 20
1563.315749026059
 30
0.0
 10
782.8644434405496
 20
1560.652903102832
 30
0.0
 10
783.8611685713033
 20
1558.889896948917
 30
0.0
 10
786.708484059662
 20
1553.645320215664
 30
0.0
 10
788.4164268801322
 20
1550.20810956991
 30
0.0
 10
790.7282610817774
 20
1545.172550619201
 30
0.0
 10
791.4571352014334
 20
1543.514087358009
 30
0.0
 10
792.4918136272273
 20
1541.060677205173
 30
0.0
 10
792.8269316309998
 20
1540.248590533332
 30
0.0
 10
793.4782504857315
 20
1538.636588541434
 30
0.0
 10
793.7949208142797
 20
1537.835452417587
 30
0.0
 10
795.3268394997835
 20
1533.876867082539
 30
0.0
 10
796.3800038687475
 20
1530.883577426465
 30
0.0
 10
798.213669745141
 20
1525.25831816822
 30
0.0
 10
798.9940003588284
 20
1522.626248586206
 30
0.0
 10
800.0019390956063
 20
1518.965900846857
 30
0.0
 10
800.3107189098912
 20
1517.793818394301
 30
0.0
 10
800.7374914101227
 20
1516.110662160261
 30
0.0
 10
800.8734762201344
 20
1515.562873152112
 30
0.0
 10
801.132483579233
 20
1514.499226372726
 30
0.0
 10
801.2557131593279
 20
1513.982556484382
 30
0.0
 10
801.8428344157827
 20
1511.474475910507
 30
0.0
 10
802.2203855582063
 20
1509.708223215306
 30
0.0
 10
802.8385763036061
 20
1506.653853162705
 30
0.0
 10
803.0791150441008
 20
1505.365685590563
 30
0.0
 10
803.3600077147931
 20
1503.803090575801
 30
0.0
 10
803.4402648723014
 20
1503.343552880761
 30
0.0
 10
803.5751729825799
 20
1502.55819933958
 30
0.0
 10
803.6300611138452
 20
1502.231092189718
 30
0.0
 10
803.7606000755915
 20
1501.445173471162
 30
0.0
 10
803.8026656931
 20
1501.181121931468
 30
0.0
 10
803.8026656930999
 20
1501.181121931468
 30
0.0
  0
ARC
  5
57
330
1F
100
AcDbEntity
  8
0
  6
Continuous
 62
     7
370
    15
100
AcDbCircle
 10
803.8026656931
 20
1511.1811219315
 30
0.0
 40
10.00000000000011
100
AcDbArc
 50
267.1417633017
 51
270.0
  0
SPLINE
  5
58
330
1F
100
AcDbEntity
  8
0
  6
Continuous
 62
     7
370
    15
100
AcDbSpline
210
0.0
220
0.0
230
1.0
 70
     8
 71
     3
 72
    14
 73
    10
 74
     0
 42
0.00000001
 43
0.00000001
 12
1.0
 22
0.0
 32
0.0
 13
1.0
 23
0.0
 33
0.0
 40
0.0
 40
0.0
 40
0.0
 40
0.0
 40
0.25
 40
0.25
 40
0.5
 40
0.5
 40
0.75
 40
0.75
 40
1.0
 40
1.0
 40
1.0
 40
1.0
 10
1007.886839137881
 20
1622.181121931468
 30
0.0
 10
1019.538625025579
 20
1619.842027913159
 30
0.0
 10
1031.152847437284
 20
1617.363543502949
 30
0.0
 10
1054.304627729859
 20
1612.129326588091
 30
0.0
 10
1065.842188514222
 20
1609.373591882198
 30
0.0
 10
1088.838723099217
 20
1603.586169819239
 30
0.0
 10
1100.297701958608
 20
1600.554479179603
 30
0.0
 10
1123.134646635327
 20
1594.216286594908
 30
0.0
 10
1134.51262139014
 20
1590.909779263994
 30
0.0
 10
1145.848523905904
 20
1587.466422523444
 30
0.0
  0
SPLINE
  5
59
330
1F
100
AcDbEntity
  8
0
  6
Continuous
 62
     7
370
    15
100
AcDbSpline
210
0.0
220
0.0
230
1.0
 70
     8
 71
     3
 72
    36
 73
    32
 74
     0
 42
0.00000001
 43
0.00000001
 12
1.0
 22
0.0
 32
0.0
 13
1.0
 23
0.0
 33
0.0
 40
0.0
 40
0.0
 40
0.0
 40
0.0
 40
0.1250000000000004
 40
0.1250000000000004
 40
0.2500000000000007
 40
0.2500000000000007
 40
0.2812500000000007
 40
0.2812500000000007
 40
0.3125000000000007
 40
0.3125000000000007
 40
0.3750000000000005
 40
0.3750000000000005
 40
0.4999999999999994
 40
0.4999999999999994
 40
0.5312499999999994
 40
0.5312499999999994
 40
0.5624999999999993
 40
0.5624999999999993
 40
0.624999999999999
 40
0.624999999999999
 40
0.749999999999999
 40
0.749999999999999
 40
0.8124999999999991
 40
0.8124999999999991
 40
0.8281249999999992
 40
0.8281249999999992
 40
0.8437499999999992
 40
0.8437499999999992
 40
0.8749999999999994
 40
0.8749999999999994
 40
1.0
 40
1.0
 40
1.0
 40
1.0
 10
1145.848523905904
 20
1587.466422523443
 30
0.0
 10
1144.4555455499
 20
1581.119067014468
 30
0.0
 10
1142.826177866717
 20
1575.080169414164
 30
0.0
 10
1139.199428865487
 20
1563.54534721627
 30
0.0
 10
1137.201264823521
 20
1558.049895940003
 30
0.0
 10
1134.53070507458
 20
1551.503617899825
 30
0.0
 10
1133.987084732788
 20
1550.208710269995
 30
0.0
 10
1132.892815689635
 20
1547.671204475789
 30
0.0
 10
1132.341323449742
 20
1546.426424626561
 30
0.0
 10
1130.676609843836
 20
1542.761839898806
 30
0.0
 10
1129.553135090221
 20
1540.4116538266
 30
0.0
 10
1126.164555679236
 20
1533.627676131772
 30
0.0
 10
1123.880308557562
 20
1529.458416979942
 30
0.0
 10
1121.078286100211
 20
1524.680185371388
 30
0.0
 10
1120.520253941947
 20
1523.745765814851
 30
0.0
 10
1119.413704085641
 20
1521.923598544382
 30
0.0
 10
1118.868012981281
 20
1521.040473040431
 30
0.0
 10
1117.257122780564
 20
1518.473519557731
 30
0.0
 10
1116.218045098782
 20
1516.871941223847
 30
0.0
 10
1113.234698025873
 20
1512.391211272007
 30
0.0
 10
1111.422743201105
 20
1509.833027710324
 30
0.0
 10
1109.109891014625
 20
1506.670352330464
 30
0.0
 10
1108.406801587589
 20
1505.729272754208
 30
0.0
 10
1107.630743482331
 20
1504.704099605567
 30
0.0
 10
1107.480893466398
 20
1504.506923544538
 30
0.0
 10
1107.193481179317
 20
1504.129998259132
 30
0.0
 10
1107.05572523136
 20
1503.949992895361
 30
0.0
 10
1106.660642998577
 20
1503.435294688241
 30
0.0
 10
1106.421504034518
 20
1503.125907974643
 30
0.0
 10
1105.351428292937
 20
1501.747694680274
 30
0.0
 10
1104.898097507057
 20
1501.181121931468
 30
0.0
 10
1104.898097507057
 20
1501.181121931468
 30
0.0
  0
LINE
  5
5A
330
1F
100
AcDbEntity
  8
0
  6
Continuous
 62
     7
370
    15
100
AcDbLine
 10
1104.8980975071
 20
1501.1811219315
 30
0.0
 11
803.8026656931
 21
1501.1811219315
 31
0.0
  0
LINE
  5
5B
330
1F
100
AcDbEntity
  8
0
  6
Continuous
 62
     7
370
    15
100
AcDbLine
 10
720.002083276
 20
1622.1811219315
 30
0.0
 11
1007.8868391379
 21
1622.1811219315
 31
0.0
  0
LINE
  5
5C
330
1F
100
AcDbEntity
  8
0
  6
Continuous
 62
     7
370
    15
100
AcDbLine
 10
300.1559567514
 20
1649.1811219315
 30
0.0
 11
300.1559567514
 21
1627.5130445228
 31
0.0
  0
LINE
  5
5D
330
1F
100
AcDbEntity
  8
0
  6
Continuous
 62
     7
370
    15
100
AcDbLine
 10
250.1559567514
 20
1627.5130445228
 30
0.0
 11
250.1559567514
 21
1649.1811219315
 31
0.0
  0
LINE
  5
5E
330
1F
100
AcDbEntity
  8
0
  6
Continuous
 62
     7
370
    15
100
AcDbLine
 10
250.1559567514
 20
1649.1811219315
 30
0.0
 11
300.1559567514
 21
1649.1811219315
 31
0.0
  0
LINE
  5
5F
330
1F
100
AcDbEntity
  8
0
  6
Continuous
 62
     7
370
    15
100
AcDbLine
 10
300.1559567514
 20
1627.5130445228
 30
0.0
 11
250.1559567514
 21
1627.5130445228
 31
0.0
  0
ARC
  5
60
330
1F
100
AcDbEntity
  8
0
  6
Continuous
 62
     7
370
    15
100
AcDbCircle
 10
718.462983851
 20
180.4670368206
 30
0.0
 40
1470.478041732076
100
AcDbArc
 50
78.6487638673
 51
87.1933016932
  0
LINE
  5
61
330
1F
100
AcDbEntity
  8
0
  6
Continuous
 62
     7
370
    15
100
AcDbLine
 10
300.1559567514
 20
1649.1811219315
 30
0.0
 11
790.4672018741
 21
1649.1811219315
 31
0.0
  0
LINE
  5
62
330
1F
100
AcDbEntity
  8
0
  6
Continuous
 62
     7
370
    15
100
AcDbLine
 10
300.1559567514
 20
1627.5130445228
 30
0.0
 11
707.659462267
 21
1627.5130445228
 31
0.0
  0
LINE
  5
63
330
1F
100
AcDbEntity
  8
0
  6
Continuous
 62
     7
370
    15
100
AcDbLine
 10
538.3824946837
 20
1625.5130445228
 30
0.0
 11
518.3824946837
 21
1625.5130445228
 31
0.0
  0
LINE
  5
64
330
1F
100
AcDbEntity
  8
0
  6
Continuous
 62
     7
370
    15
100
AcDbLine
 10
376.9417875519
 20
1625.5130445228
 30
0.0
 11
356.9417875519
 21
1625.5130445228
 31
0.0
  0
ARC
  5
65
330
1F
100
AcDbEntity
  8
0
  6
Continuous
 62
     7
370
    15
100
AcDbCircle
 10
439.743621526
 20
1232.6401956322
 30
0.0
 40
457.656886670528
100
AcDbArc
 50
106.5406649262
 51
114.4725481349
  0
LINE
  5
66
330
1F
100
AcDbEntity
  8
0
  6
Continuous
 62
     7
370
    15
100
AcDbLine
 10
309.4506359151
 20
1671.3582871415
 30
0.0
 11
629.9493853894
 21
1671.3582871415
 31
0.0
  0
LINE
  5
67
330
1F
100
AcDbEntity
  8
0
  6
Continuous
 62
     7
370
    15
100
AcDbLine
 10
629.9493853894
 20
1671.3582871415
 30
0.0
 11
646.6539510567
 21
1649.1909947532
 31
0.0
  0
LINE
  5
68
330
1F
100
AcDbEntity
  8
0
  6
Continuous
 62
     7
370
    15
100
AcDbLine
 10
646.6539510567
 20
1649.1909947532
 30
0.0
 11
646.458765828
 21
1649.1811219315
 31
0.0
  0
LINE
  5
69
330
1F
100
AcDbEntity
  8
0
  6
Continuous
 62
     7
370
    15
100
AcDbLine
 10
646.6541813032
 20
1649.1906892116
 30
0.0
 11
646.6613909008
 21
1649.1811219315
 31
0.0
  0
LWPOLYLINE
  5
6A
330
1F
100
AcDbEntity
  8
0
  6
Continuous
 62
     7
370
    15
100
AcDbPolyline
 90
        9
 70
   128
 43
0.0
 10
646.458765828
 20
1649.1811219315
 10
646.4831926928
 20
1649.1823192634
 10
646.5076195774
 20
1649.183516189
 10
646.532046482
 20
1649.1847127084
 10
646.5564734065
 20
1649.1859088216
 10
646.5809003508
 20
1649.1871045285
 10
646.6053273151
 20
1649.1882998291
 10
646.6297542992
 20
1649.1894947235
 10
646.6541813032
 20
1649.1906892116
  0
LINE
  5
6B
330
1F
100
AcDbEntity
  8
0
  6
Continuous
 62
     7
370
    15
100
AcDbLine
 10
270.5113189122
 20
1625.5130445228
 30
0.0
 11
250.5113189122
 21
1625.5130445228
 31
0.0
  0
LINE
  5
6C
330
1F
100
AcDbEntity
  8
0
  6
Continuous
 62
     7
370
    15
100
AcDbLine
 10
643.3036226225
 20
1625.5130445228
 30
0.0
 11
623.3036226225
 21
1625.5130445228
 31
0.0
  0
LINE
  5
6D
330
1F
100
AcDbEntity
  8
0
  6
Continuous
 62
     7
370
    15
100
AcDbLine
 10
1117.438218182
 20
1518.7744511544
 30
0.0
 11
1135.9044518312
 21
1514.2502980057
 31
0.0
  0
LINE
  5
6E
330
1F
100
AcDbEntity
  8
0
  6
Continuous
 62
     7
370
    15
100
AcDbLine
 10
1135.9044518312
 20
1514.2502980057
 30
0.0
 11
1135.9044518312
 21
1483.363071997
 31
0.0
  0
LINE
  5
6F
330
1F
100
AcDbEntity
  8
0
  6
Continuous
 62
     7
370
    15
100
AcDbLine
 10
1135.9044518312
 20
1483.363071997
 30
0.0
 11
1063.1765263071
 21
1501.1811219315
 31
0.0
  0
LINE
  5
70
330
1F
100
AcDbEntity
  8
0
  6
Continuous
 62
     7
370
    15
100
AcDbLine
 10
1135.9044518312
 20
1514.2502980057
 30
0.0
 11
1135.9044518312
 21
1530.4889775678
 31
0.0
  0
LINE
  5
71
330
1F
100
AcDbEntity
  8
0
  6
Continuous
 62
     7
370
    15
100
AcDbLine
 10
1135.9044518312
 20
1530.4889775678
 30
0.0
 11
1127.9178499281
 21
1537.1444791537
 31
0.0
  0
LINE
  5
72
330
1F
100
AcDbEntity
  8
0
  6
Continuous
 62
     7
370
    15
100
AcDbLine
 10
1775.3979422713
 20
1627.5130445228
 30
0.0
 11
1775.3979422713
 21
1625.5130445228
 31
0.0
  0
LINE
  5
73
330
1F
100
AcDbEntity
  8
0
  6
Continuous
 62
     7
370
    15
100
AcDbLine
 10
1795.3979422713
 20
1625.5130445228
 30
0.0
 11
1795.3979422713
 21
1627.5130445228
 31
0.0
  0
LINE
  5
74
330
1F
100
AcDbEntity
  8
0
  6
Continuous
 62
     7
370
    15
100
AcDbLine
 10
1936.8386494032
 20
1627.5130445228
 30
0.0
 11
1936.8386494032
 21
1625.5130445228
 31
0.0
  0
LINE
  5
75
330
1F
100
AcDbEntity
  8
0
  6
Continuous
 62
     7
370
    15
100
AcDbLine
 10
1956.8386494032
 20
1625.5130445228
 30
0.0
 11
1956.8386494032
 21
1627.5130445228
 31
0.0
  0
LINE
  5
76
330
1F
100
AcDbEntity
  8
0
  6
Continuous
 62
     7
370
    15
100
AcDbLine
 10
1649.740160143
 20
1627.5130445228
 30
0.0
 11
1649.740160143
 21
1625.5130445228
 31
0.0
  0
LINE
  5
77
330
1F
100
AcDbEntity
  8
0
  6
Continuous
 62
     7
370
    15
100
AcDbLine
 10
1669.740160143
 20
1625.5130445228
 30
0.0
 11
1669.740160143
 21
1627.5130445228
 31
0.0
  0
LINE
  5
78
330
1F
100
AcDbEntity
  8
0
  6
Continuous
 62
     7
370
    15
100
AcDbLine
 10
2025.3271049962
 20
1627.5130445228
 30
0.0
 11
2025.3271049962
 21
1625.5130445228
 31
0.0
  0
LINE
  5
79
330
1F
100
AcDbEntity
  8
0
  6
Continuous
 62
     7
370
    15
100
AcDbLine
 10
2045.3271049962
 20
1625.5130445228
 30
0.0
 11
2045.3271049962
 21
1627.5130445228
 31
0.0
  0
LINE
  5
7A
330
1F
100
AcDbEntity
  8
0
  6
Continuous
 62
     7
370
    15
100
AcDbLine
 10
1768.8060790981
 20
1627.5130445228
 30
0.0
 11
1768.8060790981
 21
1625.5130445228
 31
0.0
  0
LINE
  5
7B
330
1F
100
AcDbEntity
  8
0
  6
Continuous
 62
     7
370
    15
100
AcDbLine
 10
1930.24678623
 20
1627.5130445228
 30
0.0
 11
1930.24678623
 21
1625.5130445228
 31
0.0
  0
SPLINE
  5
7C
330
1F
100
AcDbEntity
  8
0
  6
Continuous
 62
     7
370
    15
100
AcDbSpline
210
0.0
220
0.0
230
1.0
 70
     8
 71
     3
 72
    21
 73
    17
 74
     0
 42
0.00000001
 43
0.00000001
 12
1.0
 22
0.0
 32
0.0
 13
1.0
 23
0.0
 33
0.0
 40
0.0
 40
0.0
 40
0.0
 40
0.0
 40
0.059491725887722
 40
0.1494464079794824
 40
0.2393615899264032
 40
0.3278702081446137
 40
0.4114764222922154
 40
0.4932029999770713
 40
0.5722083438062039
 40
0.6479129096340698
 40
0.7197977979751793
 40
0.7807131816383525
 40
0.8335770047486958
 40
0.8866502361577752
 40
0.9472063811588548
 40
1.0
 40
1.0
 40
1.0
 40
1.0
 10
1971.372354744521
 20
1626.236704515743
 30
0.0
 10
1972.113622225219
 20
1626.236442592573
 30
0.0
 10
1973.975725915931
 20
1626.235784627514
 30
0.0
 10
1976.942711749838
 20
1626.189482038848
 30
0.0
 10
1980.220843794255
 20
1626.10521483903
 30
0.0
 10
1983.342065966548
 20
1625.985856896642
 30
0.0
 10
1986.254162146263
 20
1625.829751257047
 30
0.0
 10
1988.920557412818
 20
1625.637873046924
 30
0.0
 10
1991.333184594409
 20
1625.410712780396
 30
0.0
 10
1993.44769629379
 20
1625.155257318866
 30
0.0
 10
1995.171607023421
 20
1624.89198466698
 30
0.0
 10
1996.482627235182
 20
1624.644669836707
 30
0.0
 10
1997.441123045903
 20
1624.427227460343
 30
0.0
 10
1998.108777336143
 20
1624.245032780593
 30
0.0
 10
1998.553058314371
 20
1624.093424548268
 30
0.0
 10
1998.591063263048
 20
1624.076445264528
 30
0.0
 10
1998.608764391895
 20
1624.068537018374
 30
0.0
  0
SPLINE
  5
7D
330
1F
100
AcDbEntity
  8
0
  6
Continuous
 62
     7
370
    15
100
AcDbSpline
210
0.0
220
0.0
230
1.0
 70
     8
 71
     3
 72
    22
 73
    18
 74
     0
 42
0.00000001
 43
0.00000001
 12
1.0
 22
0.0
 32
0.0
 13
1.0
 23
0.0
 33
0.0
 40
0.0
 40
0.0
 40
0.0
 40
0.0
 40
0.0227849028285712
 40
0.0779734560452098
 40
0.1346601760359383
 40
0.1867141648921891
 40
0.2417058127095853
 40
0.302770140676623
 40
0.3690776626214922
 40
0.4404812254135401
 40
0.5164602379139004
 40
0.5962475659055848
 40
0.6789310692624361
 40
0.7637296668199783
 40
0.8490472012861684
 40
0.9382216842081437
 40
1.0
 40
1.0
 40
1.0
 40
1.0
 10
1694.911416040326
 20
1624.076950387275
 30
0.0
 10
1694.903529262983
 20
1624.07341711331
 30
0.0
 10
1694.876539493
 20
1624.061325704178
 30
0.0
 10
1695.120026147782
 20
1624.156996626781
 30
0.0
 10
1695.629642095402
 20
1624.312807257088
 30
0.0
 10
1696.384573712119
 20
1624.505456043789
 30
0.0
 10
1697.44329491273
 20
1624.728966338275
 30
0.0
 10
1698.812065484341
 20
1624.968141625496
 30
0.0
 10
1700.523888274116
 20
1625.212731440648
 30
0.0
 10
1702.560987423331
 20
1625.44717355271
 30
0.0
 10
1704.904533930387
 20
1625.660576451892
 30
0.0
 10
1707.520350913774
 20
1625.844598186017
 30
0.0
 10
1710.364785695199
 20
1625.994470613531
 30
0.0
 10
1713.380668619928
 20
1626.107777409496
 30
0.0
 10
1716.549004818354
 20
1626.188858544781
 30
0.0
 10
1719.47781388707
 20
1626.235104741419
 30
0.0
 10
1721.359289277084
 20
1626.236262836412
 30
0.0
 10
1722.129294085138
 20
1626.236736793561
 30
0.0
  0
LINE
  5
7E
330
1F
100
AcDbEntity
  8
0
  6
Continuous
 62
     7
370
    15
100
AcDbLine
 10
1722.1288172659
 20
1626.2325172995
 30
0.0
 11
1768.8060790981
 21
1626.2325172995
 31
0.0
  0
LINE
  5
7F
330
1F
100
AcDbEntity
  8
0
  6
Continuous
 62
     7
370
    15
100
AcDbLine
 10
1795.3979422713
 20
1626.2325172995
 30
0.0
 11
1930.24678623
 21
1626.2325172995
 31
0.0
  0
LINE
  5
80
330
1F
100
AcDbEntity
  8
0
  6
Continuous
 62
     7
370
    15
100
AcDbLine
 10
1956.8386494032
 20
1626.2325172995
 30
0.0
 11
1971.372776433
 21
1626.2325172995
 31
0.0
  0
ARC
  5
81
330
1F
100
AcDbEntity
  8
0
  6
Continuous
 62
     7
370
    15
100
AcDbCircle
 10
1838.0269816938
 20
1506.9260247824
 30
0.0
 40
23.56295278542536
100
AcDbArc
 50
253.9508707973
 51
286.0491292027
  0
LINE
  5
82
330
1F
100
AcDbEntity
  8
0
  6
Continuous
 62
     7
370
    15
100
AcDbLine
 10
1693.7770482897
 20
1649.1811219315
 30
0.0
 11
1693.7770482897
 21
1627.5130445228
 31
0.0
  0
LINE
  5
83
330
1F
100
AcDbEntity
  8
0
  6
Continuous
 62
     7
370
    15
100
AcDbLine
 10
1693.7770482897
 20
1627.5130445228
 30
0.0
 11
1643.7770482897
 21
1627.5130445228
 31
0.0
  0
LINE
  5
84
330
1F
100
AcDbEntity
  8
0
  6
Continuous
 62
     7
370
    15
100
AcDbLine
 10
1643.7770482897
 20
1627.5130445228
 30
0.0
 11
1643.7770482897
 21
1649.1811219315
 31
0.0
  0
LINE
  5
85
330
1F
100
AcDbEntity
  8
0
  6
Continuous
 62
     7
370
    15
100
AcDbLine
 10
1643.7770482897
 20
1649.1811219315
 30
0.0
 11
1692.7770482897
 21
1649.1811219315
 31
0.0
  0
LINE
  5
86
330
1F
100
AcDbEntity
  8
0
  6
Continuous
 62
     7
370
    15
100
AcDbLine
 10
1693.7770482897
 20
1649.1811219315
 30
0.0
 11
1702.1566333174
 21
1649.1811219315
 31
0.0
  0
LINE
  5
87
330
1F
100
AcDbEntity
  8
0
  6
Continuous
 62
     7
370
    15
100
AcDbLine
 10
1692.7770482897
 20
1649.1811219315
 30
0.0
 11
1693.7770482897
 21
1649.1811219315
 31
0.0
  0
LINE
  5
88
330
1F
100
AcDbEntity
  8
0
  6
Continuous
 62
     7
370
    15
100
AcDbLine
 10
1692.7770482897
 20
1649.1811219315
 30
0.0
 11
1692.7770482897
 21
1671.3582871415
 31
0.0
  0
LINE
  5
89
330
1F
100
AcDbEntity
  8
0
  6
Continuous
 62
     7
370
    15
100
AcDbLine
 10
1692.7770482897
 20
1671.3582871415
 30
0.0
 11
1702.1566333174
 21
1671.3582871415
 31
0.0
  0
LINE
  5
8A
330
1F
100
AcDbEntity
  8
0
  6
Continuous
 62
     7
370
    15
100
AcDbLine
 10
1702.1566333174
 20
1671.3582871415
 30
0.0
 11
1702.1566333174
 21
1649.1811219315
 31
0.0
  0
LINE
  5
8B
330
1F
100
AcDbEntity
  8
0
  6
Continuous
 62
     7
370
    15
100
AcDbLine
 10
1702.1566333174
 20
1649.1811219315
 30
0.0
 11
1709.4725935243
 21
1649.1811219315
 31
0.0
  0
LINE
  5
8C
330
1F
100
AcDbEntity
  8
0
  6
Continuous
 62
     7
370
    15
100
AcDbLine
 10
1709.4725935243
 20
1649.1811219315
 30
0.0
 11
1717.1566333174
 21
1649.1811219315
 31
0.0
  0
LINE
  5
8D
330
1F
100
AcDbEntity
  8
0
  6
Continuous
 62
     7
370
    15
100
AcDbLine
 10
1717.1566333174
 20
1649.1811219315
 30
0.0
 11
1724.4725935243
 21
1649.1811219315
 31
0.0
  0
LINE
  5
8E
330
1F
100
AcDbEntity
  8
0
  6
Continuous
 62
     7
370
    15
100
AcDbLine
 10
1724.4725935243
 20
1649.1811219315
 30
0.0
 11
1732.1566333174
 21
1649.1811219315
 31
0.0
  0
LINE
  5
8F
330
1F
100
AcDbEntity
  8
0
  6
Continuous
 62
     7
370
    15
100
AcDbLine
 10
1732.1566333174
 20
1649.1811219315
 30
0.0
 11
1739.4725935243
 21
1649.1811219315
 31
0.0
  0
LINE
  5
90
330
1F
100
AcDbEntity
  8
0
  6
Continuous
 62
     7
370
    15
100
AcDbLine
 10
1739.4725935243
 20
1649.1811219315
 30
0.0
 11
1747.1566333174
 21
1649.1811219315
 31
0.0
  0
LINE
  5
91
330
1F
100
AcDbEntity
  8
0
  6
Continuous
 62
     7
370
    15
100
AcDbLine
 10
1747.1566333174
 20
1649.1811219315
 30
0.0
 11
1754.4725935243
 21
1649.1811219315
 31
0.0
  0
LINE
  5
92
330
1F
100
AcDbEntity
  8
0
  6
Continuous
 62
     7
370
    15
100
AcDbLine
 10
1754.4725935243
 20
1649.1811219315
 30
0.0
 11
1762.1566333174
 21
1649.1811219315
 31
0.0
  0
LINE
  5
93
330
1F
100
AcDbEntity
  8
0
  6
Continuous
 62
     7
370
    15
100
AcDbLine
 10
1762.1566333174
 20
1649.1811219315
 30
0.0
 11
1769.4725935243
 21
1649.1811219315
 31
0.0
  0
LINE
  5
94
330
1F
100
AcDbEntity
  8
0
  6
Continuous
 62
     7
370
    15
100
AcDbLine
 10
1769.4725935243
 20
1649.1811219315
 30
0.0
 11
1777.1566333174
 21
1649.1811219315
 31
0.0
  0
LINE
  5
95
330
1F
100
AcDbEntity
  8
0
  6
Continuous
 62
     7
370
    15
100
AcDbLine
 10
1777.1566333174
 20
1649.1811219315
 30
0.0
 11
1784.4725935243
 21
1649.1811219315
 31
0.0
  0
LINE
  5
96
330
1F
100
AcDbEntity
  8
0
  6
Continuous
 62
     7
370
    15
100
AcDbLine
 10
1784.4725935243
 20
1649.1811219315
 30
0.0
 11
1792.1566333174
 21
1649.1811219315
 31
0.0
  0
LINE
  5
97
330
1F
100
AcDbEntity
  8
0
  6
Continuous
 62
     7
370
    15
100
AcDbLine
 10
1792.1566333174
 20
1649.1811219315
 30
0.0
 11
1799.4725935243
 21
1649.1811219315
 31
0.0
  0
LINE
  5
98
330
1F
100
AcDbEntity
  8
0
  6
Continuous
 62
     7
370
    15
100
AcDbLine
 10
1799.4725935243
 20
1649.1811219315
 30
0.0
 11
1807.1566333174
 21
1649.1811219315
 31
0.0
  0
LINE
  5
99
330
1F
100
AcDbEntity
  8
0
  6
Continuous
 62
     7
370
    15
100
AcDbLine
 10
1807.1566333174
 20
1649.1811219315
 30
0.0
 11
1814.4725935243
 21
1649.1811219315
 31
0.0
  0
LINE
  5
9A
330
1F
100
AcDbEntity
  8
0
  6
Continuous
 62
     7
370
    15
100
AcDbLine
 10
1814.4725935243
 20
1649.1811219315
 30
0.0
 11
1822.1566333174
 21
1649.1811219315
 31
0.0
  0
LINE
  5
9B
330
1F
100
AcDbEntity
  8
0
  6
Continuous
 62
     7
370
    15
100
AcDbLine
 10
1822.1566333174
 20
1649.1811219315
 30
0.0
 11
1829.4725935243
 21
1649.1811219315
 31
0.0
  0
LINE
  5
9C
330
1F
100
AcDbEntity
  8
0
  6
Continuous
 62
     7
370
    15
100
AcDbLine
 10
1829.4725935243
 20
1649.1811219315
 30
0.0
 11
1837.1566333174
 21
1649.1811219315
 31
0.0
  0
LINE
  5
9D
330
1F
100
AcDbEntity
  8
0
  6
Continuous
 62
     7
370
    15
100
AcDbLine
 10
1837.1566333174
 20
1649.1811219315
 30
0.0
 11
1844.4725935243
 21
1649.1811219315
 31
0.0
  0
LINE
  5
9E
330
1F
100
AcDbEntity
  8
0
  6
Continuous
 62
     7
370
    15
100
AcDbLine
 10
1844.4725935243
 20
1649.1811219315
 30
0.0
 11
1852.1566333174
 21
1649.1811219315
 31
0.0
  0
LINE
  5
9F
330
1F
100
AcDbEntity
  8
0
  6
Continuous
 62
     7
370
    15
100
AcDbLine
 10
1852.1566333174
 20
1649.1811219315
 30
0.0
 11
1859.4725935243
 21
1649.1811219315
 31
0.0
  0
LINE
  5
A0
330
1F
100
AcDbEntity
  8
0
  6
Continuous
 62
     7
370
    15
100
AcDbLine
 10
1859.4725935243
 20
1649.1811219315
 30
0.0
 11
1867.1566333174
 21
1649.1811219315
 31
0.0
  0
LINE
  5
A1
330
1F
100
AcDbEntity
  8
0
  6
Continuous
 62
     7
370
    15
100
AcDbLine
 10
1867.1566333174
 20
1649.1811219315
 30
0.0
 11
1874.4725935243
 21
1649.1811219315
 31
0.0
  0
LINE
  5
A2
330
1F
100
AcDbEntity
  8
0
  6
Continuous
 62
     7
370
    15
100
AcDbLine
 10
1874.4725935243
 20
1649.1811219315
 30
0.0
 11
1882.1566333174
 21
1649.1811219315
 31
0.0
  0
LINE
  5
A3
330
1F
100
AcDbEntity
  8
0
  6
Continuous
 62
     7
370
    15
100
AcDbLine
 10
1882.1566333174
 20
1649.1811219315
 30
0.0
 11
1889.4725935243
 21
1649.1811219315
 31
0.0
  0
LINE
  5
A4
330
1F
100
AcDbEntity
  8
0
  6
Continuous
 62
     7
370
    15
100
AcDbLine
 10
1889.4725935243
 20
1649.1811219315
 30
0.0
 11
1897.1566333174
 21
1649.1811219315
 31
0.0
  0
LINE
  5
A5
330
1F
100
AcDbEntity
  8
0
  6
Continuous
 62
     7
370
    15
100
AcDbLine
 10
1897.1566333174
 20
1649.1811219315
 30
0.0
 11
1904.4725935243
 21
1649.1811219315
 31
0.0
  0
LINE
  5
A6
330
1F
100
AcDbEntity
  8
0
  6
Continuous
 62
     7
370
    15
100
AcDbLine
 10
1904.4725935243
 20
1649.1811219315
 30
0.0
 11
1912.1566333174
 21
1649.1811219315
 31
0.0
  0
LINE
  5
A7
330
1F
100
AcDbEntity
  8
0
  6
Continuous
 62
     7
370
    15
100
AcDbLine
 10
1912.1566333174
 20
1649.1811219315
 30
0.0
 11
1919.4725935243
 21
1649.1811219315
 31
0.0
  0
LINE
  5
A8
330
1F
100
AcDbEntity
  8
0
  6
Continuous
 62
     7
370
    15
100
AcDbLine
 10
1919.4725935243
 20
1649.1811219315
 30
0.0
 11
1927.1566333174
 21
1649.1811219315
 31
0.0
  0
LINE
  5
A9
330
1F
100
AcDbEntity
  8
0
  6
Continuous
 62
     7
370
    15
100
AcDbLine
 10
1927.1566333174
 20
1649.1811219315
 30
0.0
 11
1934.4725935243
 21
1649.1811219315
 31
0.0
  0
LINE
  5
AA
330
1F
100
AcDbEntity
  8
0
  6
Continuous
 62
     7
370
    15
100
AcDbLine
 10
1934.4725935243
 20
1649.1811219315
 30
0.0
 11
1942.1566333174
 21
1649.1811219315
 31
0.0
  0
LINE
  5
AB
330
1F
100
AcDbEntity
  8
0
  6
Continuous
 62
     7
370
    15
100
AcDbLine
 10
1942.1566333174
 20
1649.1811219315
 30
0.0
 11
1949.4725935243
 21
1649.1811219315
 31
0.0
  0
LINE
  5
AC
330
1F
100
AcDbEntity
  8
0
  6
Continuous
 62
     7
370
    15
100
AcDbLine
 10
1949.4725935243
 20
1649.1811219315
 30
0.0
 11
1957.1566333174
 21
1649.1811219315
 31
0.0
  0
LINE
  5
AD
330
1F
100
AcDbEntity
  8
0
  6
Continuous
 62
     7
370
    15
100
AcDbLine
 10
1957.1566333174
 20
1649.1811219315
 30
0.0
 11
1964.4725935243
 21
1649.1811219315
 31
0.0
  0
LINE
  5
AE
330
1F
100
AcDbEntity
  8
0
  6
Continuous
 62
     7
370
    15
100
AcDbLine
 10
1964.4725935243
 20
1649.1811219315
 30
0.0
 11
1972.1566333174
 21
1649.1811219315
 31
0.0
  0
LINE
  5
AF
330
1F
100
AcDbEntity
  8
0
  6
Continuous
 62
     7
370
    15
100
AcDbLine
 10
1972.1566333174
 20
1649.1811219315
 30
0.0
 11
1979.4725935243
 21
1649.1811219315
 31
0.0
  0
LINE
  5
B0
330
1F
100
AcDbEntity
  8
0
  6
Continuous
 62
     7
370
    15
100
AcDbLine
 10
1979.4725935243
 20
1649.1811219315
 30
0.0
 11
1987.1566333174
 21
1649.1811219315
 31
0.0
  0
LINE
  5
B1
330
1F
100
AcDbEntity
  8
0
  6
Continuous
 62
     7
370
    15
100
AcDbLine
 10
1987.1566333174
 20
1649.1811219315
 30
0.0
 11
1994.4725935243
 21
1649.1811219315
 31
0.0
  0
LINE
  5
B2
330
1F
100
AcDbEntity
  8
0
  6
Continuous
 62
     7
370
    15
100
AcDbLine
 10
1994.4725935243
 20
1649.1811219315
 30
0.0
 11
2003.7770482897
 21
1649.1811219315
 31
0.0
  0
LINE
  5
B3
330
1F
100
AcDbEntity
  8
0
  6
Continuous
 62
     7
370
    15
100
AcDbLine
 10
2003.7770482897
 20
1627.5130445228
 30
0.0
 11
2003.7770482897
 21
1649.1811219315
 31
0.0
  0
LINE
  5
B4
330
1F
100
AcDbEntity
  8
0
  6
Continuous
 62
     7
370
    15
100
AcDbLine
 10
1693.7770482897
 20
1627.5130445228
 30
0.0
 11
2003.7770482897
 21
1627.5130445228
 31
0.0
  0
LINE
  5
B5
330
1F
100
AcDbEntity
  8
0
  6
Continuous
 62
     7
370
    15
100
AcDbLine
 10
1709.4725935243
 20
1649.1811219315
 30
0.0
 11
1709.4725935243
 21
1671.3582871415
 31
0.0
  0
LINE
  5
B6
330
1F
100
AcDbEntity
  8
0
  6
Continuous
 62
     7
370
    15
100
AcDbLine
 10
1709.4725935243
 20
1671.3582871415
 30
0.0
 11
1717.1566333174
 21
1671.3582871415
 31
0.0
  0
LINE
  5
B7
330
1F
100
AcDbEntity
  8
0
  6
Continuous
 62
     7
370
    15
100
AcDbLine
 10
1717.1566333174
 20
1671.3582871415
 30
0.0
 11
1717.1566333174
 21
1649.1811219315
 31
0.0
  0
LINE
  5
B8
330
1F
100
AcDbEntity
  8
0
  6
Continuous
 62
     7
370
    15
100
AcDbLine
 10
1724.4725935243
 20
1671.3582871415
 30
0.0
 11
1732.1566333174
 21
1671.3582871415
 31
0.0
  0
LINE
  5
B9
330
1F
100
AcDbEntity
  8
0
  6
Continuous
 62
     7
370
    15
100
AcDbLine
 10
1732.1566333174
 20
1671.3582871415
 30
0.0
 11
1732.1566333174
 21
1649.1811219315
 31
0.0
  0
LINE
  5
BA
330
1F
100
AcDbEntity
  8
0
  6
Continuous
 62
     7
370
    15
100
AcDbLine
 10
1724.4725935243
 20
1649.1811219315
 30
0.0
 11
1724.4725935243
 21
1671.3582871415
 31
0.0
  0
LINE
  5
BB
330
1F
100
AcDbEntity
  8
0
  6
Continuous
 62
     7
370
    15
100
AcDbLine
 10
1739.4725935243
 20
1671.3582871415
 30
0.0
 11
1747.1566333174
 21
1671.3582871415
 31
0.0
  0
LINE
  5
BC
330
1F
100
AcDbEntity
  8
0
  6
Continuous
 62
     7
370
    15
100
AcDbLine
 10
1747.1566333174
 20
1671.3582871415
 30
0.0
 11
1747.1566333174
 21
1649.1811219315
 31
0.0
  0
LINE
  5
BD
330
1F
100
AcDbEntity
  8
0
  6
Continuous
 62
     7
370
    15
100
AcDbLine
 10
1739.4725935243
 20
1649.1811219315
 30
0.0
 11
1739.4725935243
 21
1671.3582871415
 31
0.0
  0
LINE
  5
BE
330
1F
100
AcDbEntity
  8
0
  6
Continuous
 62
     7
370
    15
100
AcDbLine
 10
1754.4725935243
 20
1649.1811219315
 30
0.0
 11
1754.4725935243
 21
1671.3582871415
 31
0.0
  0
LINE
  5
BF
330
1F
100
AcDbEntity
  8
0
  6
Continuous
 62
     7
370
    15
100
AcDbLine
 10
1754.4725935243
 20
1671.3582871415
 30
0.0
 11
1762.1566333174
 21
1671.3582871415
 31
0.0
  0
LINE
  5
C0
330
1F
100
AcDbEntity
  8
0
  6
Continuous
 62
     7
370
    15
100
AcDbLine
 10
1762.1566333174
 20
1671.3582871415
 30
0.0
 11
1762.1566333174
 21
1649.1811219315
 31
0.0
  0
LINE
  5
C1
330
1F
100
AcDbEntity
  8
0
  6
Continuous
 62
     7
370
    15
100
AcDbLine
 10
1769.4725935243
 20
1649.1811219315
 30
0.0
 11
1769.4725935243
 21
1671.3582871415
 31
0.0
  0
LINE
  5
C2
330
1F
100
AcDbEntity
  8
0
  6
Continuous
 62
     7
370
    15
100
AcDbLine
 10
1769.4725935243
 20
1671.3582871415
 30
0.0
 11
1777.1566333174
 21
1671.3582871415
 31
0.0
  0
LINE
  5
C3
330
1F
100
AcDbEntity
  8
0
  6
Continuous
 62
     7
370
    15
100
AcDbLine
 10
1777.1566333174
 20
1671.3582871415
 30
0.0
 11
1777.1566333174
 21
1649.1811219315
 31
0.0
  0
LINE
  5
C4
330
1F
100
AcDbEntity
  8
0
  6
Continuous
 62
     7
370
    15
100
AcDbLine
 10
1784.4725935243
 20
1649.1811219315
 30
0.0
 11
1784.4725935243
 21
1671.3582871415
 31
0.0
  0
LINE
  5
C5
330
1F
100
AcDbEntity
  8
0
  6
Continuous
 62
     7
370
    15
100
AcDbLine
 10
1784.4725935243
 20
1671.3582871415
 30
0.0
 11
1792.1566333174
 21
1671.3582871415
 31
0.0
  0
LINE
  5
C6
330
1F
100
AcDbEntity
  8
0
  6
Continuous
 62
     7
370
    15
100
AcDbLine
 10
1792.1566333174
 20
1671.3582871415
 30
0.0
 11
1792.1566333174
 21
1649.1811219315
 31
0.0
  0
LINE
  5
C7
330
1F
100
AcDbEntity
  8
0
  6
Continuous
 62
     7
370
    15
100
AcDbLine
 10
1799.4725935243
 20
1649.1811219315
 30
0.0
 11
1799.4725935243
 21
1671.3582871415
 31
0.0
  0
LINE
  5
C8
330
1F
100
AcDbEntity
  8
0
  6
Continuous
 62
     7
370
    15
100
AcDbLine
 10
1799.4725935243
 20
1671.3582871415
 30
0.0
 11
1807.1566333174
 21
1671.3582871415
 31
0.0
  0
LINE
  5
C9
330
1F
100
AcDbEntity
  8
0
  6
Continuous
 62
     7
370
    15
100
AcDbLine
 10
1807.1566333174
 20
1671.3582871415
 30
0.0
 11
1807.1566333174
 21
1649.1811219315
 31
0.0
  0
LINE
  5
CA
330
1F
100
AcDbEntity
  8
0
  6
Continuous
 62
     7
370
    15
100
AcDbLine
 10
1814.4725935243
 20
1649.1811219315
 30
0.0
 11
1814.4725935243
 21
1671.3582871415
 31
0.0
  0
LINE
  5
CB
330
1F
100
AcDbEntity
  8
0
  6
Continuous
 62
     7
370
    15
100
AcDbLine
 10
1814.4725935243
 20
1671.3582871415
 30
0.0
 11
1822.1566333174
 21
1671.3582871415
 31
0.0
  0
LINE
  5
CC
330
1F
100
AcDbEntity
  8
0
  6
Continuous
 62
     7
370
    15
100
AcDbLine
 10
1822.1566333174
 20
1671.3582871415
 30
0.0
 11
1822.1566333174
 21
1649.1811219315
 31
0.0
  0
LINE
  5
CD
330
1F
100
AcDbEntity
  8
0
  6
Continuous
 62
     7
370
    15
100
AcDbLine
 10
1829.4725935243
 20
1671.3582871415
 30
0.0
 11
1837.1566333174
 21
1671.3582871415
 31
0.0
  0
LINE
  5
CE
330
1F
100
AcDbEntity
  8
0
  6
Continuous
 62
     7
370
    15
100
AcDbLine
 10
1837.1566333174
 20
1671.3582871415
 30
0.0
 11
1837.1566333174
 21
1649.1811219315
 31
0.0
  0
LINE
  5
CF
330
1F
100
AcDbEntity
  8
0
  6
Continuous
 62
     7
370
    15
100
AcDbLine
 10
1829.4725935243
 20
1649.1811219315
 30
0.0
 11
1829.4725935243
 21
1671.3582871415
 31
0.0
  0
LINE
  5
D0
330
1F
100
AcDbEntity
  8
0
  6
Continuous
 62
     7
370
    15
100
AcDbLine
 10
1844.4725935243
 20
1671.3582871415
 30
0.0
 11
1852.1566333174
 21
1671.3582871415
 31
0.0
  0
LINE
  5
D1
330
1F
100
AcDbEntity
  8
0
  6
Continuous
 62
     7
370
    15
100
AcDbLine
 10
1852.1566333174
 20
1671.3582871415
 30
0.0
 11
1852.1566333174
 21
1649.1811219315
 31
0.0
  0
LINE
  5
D2
330
1F
100
AcDbEntity
  8
0
  6
Continuous
 62
     7
370
    15
100
AcDbLine
 10
1844.4725935243
 20
1649.1811219315
 30
0.0
 11
1844.4725935243
 21
1671.3582871415
 31
0.0
  0
LINE
  5
D3
330
1F
100
AcDbEntity
  8
0
  6
Continuous
 62
     7
370
    15
100
AcDbLine
 10
1859.4725935243
 20
1649.1811219315
 30
0.0
 11
1859.4725935243
 21
1671.3582871415
 31
0.0
  0
LINE
  5
D4
330
1F
100
AcDbEntity
  8
0
  6
Continuous
 62
     7
370
    15
100
AcDbLine
 10
1859.4725935243
 20
1671.3582871415
 30
0.0
 11
1867.1566333174
 21
1671.3582871415
 31
0.0
  0
LINE
  5
D5
330
1F
100
AcDbEntity
  8
0
  6
Continuous
 62
     7
370
    15
100
AcDbLine
 10
1867.1566333174
 20
1671.3582871415
 30
0.0
 11
1867.1566333174
 21
1649.1811219315
 31
0.0
  0
LINE
  5
D6
330
1F
100
AcDbEntity
  8
0
  6
Continuous
 62
     7
370
    15
100
AcDbLine
 10
1874.4725935243
 20
1671.3582871415
 30
0.0
 11
1882.1566333174
 21
1671.3582871415
 31
0.0
  0
LINE
  5
D7
330
1F
100
AcDbEntity
  8
0
  6
Continuous
 62
     7
370
    15
100
AcDbLine
 10
1882.1566333174
 20
1671.3582871415
 30
0.0
 11
1882.1566333174
 21
1649.1811219315
 31
0.0
  0
LINE
  5
D8
330
1F
100
AcDbEntity
  8
0
  6
Continuous
 62
     7
370
    15
100
AcDbLine
 10
1874.4725935243
 20
1649.1811219315
 30
0.0
 11
1874.4725935243
 21
1671.3582871415
 31
0.0
  0
LINE
  5
D9
330
1F
100
AcDbEntity
  8
0
  6
Continuous
 62
     7
370
    15
100
AcDbLine
 10
1889.4725935243
 20
1649.1811219315
 30
0.0
 11
1889.4725935243
 21
1671.3582871415
 31
0.0
  0
LINE
  5
DA
330
1F
100
AcDbEntity
  8
0
  6
Continuous
 62
     7
370
    15
100
AcDbLine
 10
1889.4725935243
 20
1671.3582871415
 30
0.0
 11
1897.1566333174
 21
1671.3582871415
 31
0.0
  0
LINE
  5
DB
330
1F
100
AcDbEntity
  8
0
  6
Continuous
 62
     7
370
    15
100
AcDbLine
 10
1897.1566333174
 20
1671.3582871415
 30
0.0
 11
1897.1566333174
 21
1649.1811219315
 31
0.0
  0
LINE
  5
DC
330
1F
100
AcDbEntity
  8
0
  6
Continuous
 62
     7
370
    15
100
AcDbLine
 10
1904.4725935243
 20
1671.3582871415
 30
0.0
 11
1912.1566333174
 21
1671.3582871415
 31
0.0
  0
LINE
  5
DD
330
1F
100
AcDbEntity
  8
0
  6
Continuous
 62
     7
370
    15
100
AcDbLine
 10
1912.1566333174
 20
1671.3582871415
 30
0.0
 11
1912.1566333174
 21
1649.1811219315
 31
0.0
  0
LINE
  5
DE
330
1F
100
AcDbEntity
  8
0
  6
Continuous
 62
     7
370
    15
100
AcDbLine
 10
1904.4725935243
 20
1649.1811219315
 30
0.0
 11
1904.4725935243
 21
1671.3582871415
 31
0.0
  0
LINE
  5
DF
330
1F
100
AcDbEntity
  8
0
  6
Continuous
 62
     7
370
    15
100
AcDbLine
 10
1919.4725935243
 20
1649.1811219315
 30
0.0
 11
1919.4725935243
 21
1671.3582871415
 31
0.0
  0
LINE
  5
E0
330
1F
100
AcDbEntity
  8
0
  6
Continuous
 62
     7
370
    15
100
AcDbLine
 10
1919.4725935243
 20
1671.3582871415
 30
0.0
 11
1927.1566333174
 21
1671.3582871415
 31
0.0
  0
LINE
  5
E1
330
1F
100
AcDbEntity
  8
0
  6
Continuous
 62
     7
370
    15
100
AcDbLine
 10
1927.1566333174
 20
1671.3582871415
 30
0.0
 11
1927.1566333174
 21
1649.1811219315
 31
0.0
  0
LINE
  5
E2
330
1F
100
AcDbEntity
  8
0
  6
Continuous
 62
     7
370
    15
100
AcDbLine
 10
1934.4725935243
 20
1649.1811219315
 30
0.0
 11
1934.4725935243
 21
1671.3582871415
 31
0.0
  0
LINE
  5
E3
330
1F
100
AcDbEntity
  8
0
  6
Continuous
 62
     7
370
    15
100
AcDbLine
 10
1934.4725935243
 20
1671.3582871415
 30
0.0
 11
1942.1566333174
 21
1671.3582871415
 31
0.0
  0
LINE
  5
E4
330
1F
100
AcDbEntity
  8
0
  6
Continuous
 62
     7
370
    15
100
AcDbLine
 10
1942.1566333174
 20
1671.3582871415
 30
0.0
 11
1942.1566333174
 21
1649.1811219315
 31
0.0
  0
LINE
  5
E5
330
1F
100
AcDbEntity
  8
0
  6
Continuous
 62
     7
370
    15
100
AcDbLine
 10
1949.4725935243
 20
1649.1811219315
 30
0.0
 11
1949.4725935243
 21
1671.3582871415
 31
0.0
  0
LINE
  5
E6
330
1F
100
AcDbEntity
  8
0
  6
Continuous
 62
     7
370
    15
100
AcDbLine
 10
1949.4725935243
 20
1671.3582871415
 30
0.0
 11
1957.1566333174
 21
1671.3582871415
 31
0.0
  0
LINE
  5
E7
330
1F
100
AcDbEntity
  8
0
  6
Continuous
 62
     7
370
    15
100
AcDbLine
 10
1957.1566333174
 20
1671.3582871415
 30
0.0
 11
1957.1566333174
 21
1649.1811219315
 31
0.0
  0
LINE
  5
E8
330
1F
100
AcDbEntity
  8
0
  6
Continuous
 62
     7
370
    15
100
AcDbLine
 10
1964.4725935243
 20
1671.3582871415
 30
0.0
 11
1972.1566333174
 21
1671.3582871415
 31
0.0
  0
LINE
  5
E9
330
1F
100
AcDbEntity
  8
0
  6
Continuous
 62
     7
370
    15
100
AcDbLine
 10
1972.1566333174
 20
1671.3582871415
 30
0.0
 11
1972.1566333174
 21
1649.1811219315
 31
0.0
  0
LINE
  5
EA
330
1F
100
AcDbEntity
  8
0
  6
Continuous
 62
     7
370
    15
100
AcDbLine
 10
1964.4725935243
 20
1649.1811219315
 30
0.0
 11
1964.4725935243
 21
1671.3582871415
 31
0.0
  0
LINE
  5
EB
330
1F
100
AcDbEntity
  8
0
  6
Continuous
 62
     7
370
    15
100
AcDbLine
 10
1979.4725935243
 20
1649.1811219315
 30
0.0
 11
1979.4725935243
 21
1671.3582871415
 31
0.0
  0
LINE
  5
EC
330
1F
100
AcDbEntity
  8
0
  6
Continuous
 62
     7
370
    15
100
AcDbLine
 10
1979.4725935243
 20
1671.3582871415
 30
0.0
 11
1987.1566333174
 21
1671.3582871415
 31
0.0
  0
LINE
  5
ED
330
1F
100
AcDbEntity
  8
0
  6
Continuous
 62
     7
370
    15
100
AcDbLine
 10
1987.1566333174
 20
1671.3582871415
 30
0.0
 11
1987.1566333174
 21
1649.1811219315
 31
0.0
  0
LINE
  5
EE
330
1F
100
AcDbEntity
  8
0
  6
Continuous
 62
     7
370
    15
100
AcDbLine
 10
1994.4725935243
 20
1671.3582871415
 30
0.0
 11
2003.7770482897
 21
1671.3582871415
 31
0.0
  0
LINE
  5
EF
330
1F
100
AcDbEntity
  8
0
  6
Continuous
 62
     7
370
    15
100
AcDbLine
 10
2003.7770482897
 20
1649.1811219315
 30
0.0
 11
2003.7770482897
 21
1671.3582871415
 31
0.0
  0
LINE
  5
F0
330
1F
100
AcDbEntity
  8
0
  6
Continuous
 62
     7
370
    15
100
AcDbLine
 10
1994.4725935243
 20
1649.1811219315
 30
0.0
 11
1994.4725935243
 21
1671.3582871415
 31
0.0
  0
LINE
  5
F1
330
1F
100
AcDbEntity
  8
0
  6
Continuous
 62
     7
370
    15
100
AcDbLine
 10
2053.7770482897
 20
1649.1811219315
 30
0.0
 11
2053.7770482897
 21
1627.5130445228
 31
0.0
  0
LINE
  5
F2
330
1F
100
AcDbEntity
  8
0
  6
Continuous
 62
     7
370
    15
100
AcDbLine
 10
2003.7770482897
 20
1649.1811219315
 30
0.0
 11
2053.7770482897
 21
1649.1811219315
 31
0.0
  0
LINE
  5
F3
330
1F
100
AcDbEntity
  8
0
  6
Continuous
 62
     7
370
    15
100
AcDbLine
 10
2053.7770482897
 20
1627.5130445228
 30
0.0
 11
2003.7770482897
 21
1627.5130445228
 31
0.0
  0
LINE
  5
F4
330
1F
100
AcDbEntity
  8
0
  6
Continuous
 62
     7
370
    15
100
AcDbLine
 10
1795.3979422713
 20
1625.5130445228
 30
0.0
 11
1775.3979422713
 21
1625.5130445228
 31
0.0
  0
LINE
  5
F5
330
1F
100
AcDbEntity
  8
0
  6
Continuous
 62
     7
370
    15
100
AcDbLine
 10
1956.8386494032
 20
1625.5130445228
 30
0.0
 11
1936.8386494032
 21
1625.5130445228
 31
0.0
  0
LINE
  5
F6
330
1F
100
AcDbEntity
  8
0
  6
Continuous
 62
     7
370
    15
100
AcDbLine
 10
1669.740160143
 20
1625.5130445228
 30
0.0
 11
1649.740160143
 21
1625.5130445228
 31
0.0
  0
LINE
  5
F7
330
1F
100
AcDbEntity
  8
0
  6
Continuous
 62
     7
370
    15
100
AcDbLine
 10
2045.3271049962
 20
1625.5130445228
 30
0.0
 11
2025.3271049962
 21
1625.5130445228
 31
0.0
  0
LINE
  5
F8
330
1F
100
AcDbEntity
  8
0
  6
Continuous
 62
     7
370
    15
100
AcDbLine
 10
1775.3979422713
 20
1625.5130445228
 30
0.0
 11
1768.8060790981
 21
1625.5130445228
 31
0.0
  0
LINE
  5
F9
330
1F
100
AcDbEntity
  8
0
  6
Continuous
 62
     7
370
    15
100
AcDbLine
 10
1936.8386494032
 20
1625.5130445228
 30
0.0
 11
1930.24678623
 21
1625.5130445228
 31
0.0
  0
ARC
  5
FA
330
1F
100
AcDbEntity
  8
0
  6
Continuous
 62
     7
370
    15
100
AcDbCircle
 10
2044.2535191604
 20
1622.7107263856
 30
0.0
 40
9.538243441767051
100
AcDbArc
 50
267.1366702108
 51
356.8170540575
  0
LINE
  5
FB
330
1F
100
AcDbEntity
  8
0
  6
Continuous
 62
     7
370
    15
100
AcDbLine
 10
2053.7770482897
 20
1627.5130445228
 30
0.0
 11
2053.7770482897
 21
1622.1811219315
 31
0.0
  0
LINE
  5
FC
330
1F
100
AcDbEntity
  8
0
  6
Continuous
 62
     7
370
    15
100
AcDbLine
 10
1674.8882280727
 20
1541.1811219315
 30
0.0
 11
2012.6846139002
 21
1541.1811219315
 31
0.0
  0
SPLINE
  5
FD
330
1F
100
AcDbEntity
  8
0
  6
Continuous
 62
     7
370
    15
100
AcDbSpline
210
0.0
220
0.0
230
1.0
 70
     8
 71
     3
 72
    32
 73
    28
 74
     0
 42
0.00000001
 43
0.00000001
 12
1.0
 22
0.0
 32
0.0
 13
1.0
 23
0.0
 33
0.0
 40
0.0
 40
0.0
 40
0.0
 40
0.0
 40
0.1250000000000001
 40
0.1250000000000001
 40
0.2500000000000003
 40
0.2500000000000003
 40
0.3124999999999996
 40
0.3124999999999996
 40
0.3437499999999993
 40
0.3437499999999993
 40
0.3749999999999989
 40
0.3749999999999989
 40
0.4999999999999989
 40
0.4999999999999989
 40
0.6249999999999988
 40
0.6249999999999988
 40
0.6562499999999986
 40
0.6562499999999986
 40
0.6874999999999982
 40
0.6874999999999982
 40
0.749999999999998
 40
0.749999999999998
 40
0.8749999999999984
 40
0.8749999999999984
 40
0.9374999999999992
 40
0.9374999999999992
 40
1.0
 40
1.0
 40
1.0
 40
1.0
 10
1643.777048289709
 20
1622.181121931468
 30
0.0
 10
1643.777048289709
 20
1620.660508266378
 30
0.0
 10
1643.804738459324
 20
1618.836597403854
 30
0.0
 10
1643.99588655411
 20
1614.605070201605
 30
0.0
 10
1644.159082775864
 20
1612.197370464145
 30
0.0
 10
1644.585899840948
 20
1608.147944847034
 30
0.0
 10
1644.758740399032
 20
1606.724987507079
 30
0.0
 10
1645.076521525965
 20
1604.479272520916
 30
0.0
 10
1645.19240340273
 20
1603.711036825366
 30
0.0
 10
1645.445279608277
 20
1602.142151899733
 30
0.0
 10
1645.581912465741
 20
1601.343630695537
 30
0.0
 10
1646.320413818097
 20
1597.282751075488
 30
0.0
 10
1647.087491730244
 20
1593.815946834945
 30
0.0
 10
1649.097320869299
 20
1586.493371296837
 30
0.0
 10
1650.339516437079
 20
1582.637344791486
 30
0.0
 10
1652.283945599839
 20
1577.600094182603
 30
0.0
 10
1652.692512172513
 20
1576.581781084499
 30
0.0
 10
1653.551822546879
 20
1574.524094320196
 30
0.0
 10
1654.003614767197
 20
1573.482420419916
 30
0.0
 10
1655.419063684722
 20
1570.34388033582
 30
0.0
 10
1656.438337220797
 20
1568.24263181334
 30
0.0
 10
1659.737322203681
 20
1561.929947063607
 30
0.0
 10
1662.257626261173
 20
1557.709397024028
 30
0.0
 10
1666.583733534759
 20
1551.431339325181
 30
0.0
 10
1668.117305397984
 20
1549.346869741606
 30
0.0
 10
1671.377457699024
 20
1545.210668733873
 30
0.0
 10
1673.090316147864
 20
1543.176334052212
 30
0.0
 10
1674.888228072731
 20
1541.181121931468
 30
0.0
  0
SPLINE
  5
FE
330
1F
100
AcDbEntity
  8
0
  6
Continuous
 62
     7
370
    15
100
AcDbSpline
210
0.0
220
0.0
230
1.0
 70
     8
 71
     3
 72
    30
 73
    26
 74
     0
 42
0.00000001
 43
0.00000001
 12
1.0
 22
0.0
 32
0.0
 13
1.0
 23
0.0
 33
0.0
 40
0.0
 40
0.0
 40
0.0
 40
0.0
 40
0.1249999999999998
 40
0.1249999999999998
 40
0.2499999999999997
 40
0.2499999999999997
 40
0.2812499999999992
 40
0.2812499999999992
 40
0.3124999999999988
 40
0.3124999999999988
 40
0.3749999999999981
 40
0.3749999999999981
 40
0.4999999999999973
 40
0.4999999999999973
 40
0.5624999999999976
 40
0.5624999999999976
 40
0.5937499999999978
 40
0.5937499999999978
 40
0.624999999999998
 40
0.624999999999998
 40
0.7499999999999986
 40
0.7499999999999986
 40
0.8749999999999992
 40
0.8749999999999992
 40
1.0
 40
1.0
 40
1.0
 40
1.0
 10
2012.684613900198
 20
1541.181121931468
 30
0.0
 10
2015.85000677139
 20
1544.249365758089
 30
0.0
 10
2018.741917226291
 20
1547.430085480539
 30
0.0
 10
2024.013832876401
 20
1553.958719855937
 30
0.0
 10
2026.393634885212
 20
1557.306847759741
 30
0.0
 10
2029.063827223908
 20
1561.562689859295
 30
0.0
 10
2029.582621104877
 20
1562.417391615415
 30
0.0
 10
2030.590054619959
 20
1564.132994104297
 30
0.0
 10
2031.07917898454
 20
1564.994782034318
 30
0.0
 10
2032.498674904291
 20
1567.582395623064
 30
0.0
 10
2033.37268651967
 20
1569.294610782664
 30
0.0
 10
2035.797113720376
 20
1574.383762195007
 30
0.0
 10
2037.150375658413
 20
1577.713134019456
 30
0.0
 10
2038.852087168399
 20
1582.579154286221
 30
0.0
 10
2039.364498021654
 20
1584.17984736426
 30
0.0
 10
2040.058269961894
 20
1586.544884818062
 30
0.0
 10
2040.277048378232
 20
1587.327230095073
 30
0.0
 10
2040.690830724917
 20
1588.879239905502
 30
0.0
 10
2040.88603629267
 20
1589.649750093066
 30
0.0
 10
2041.803258616074
 20
1593.459395337972
 30
0.0
 10
2042.342248540482
 20
1596.336015159518
 30
0.0
 10
2043.13897561902
 20
1601.746548091973
 30
0.0
 10
2043.396343956329
 20
1604.280489745937
 30
0.0
 10
2043.715482465366
 20
1608.998517663591
 30
0.0
 10
2043.777048289709
 20
1611.18265362196
 30
0.0
 10
2043.777048289709
 20
1613.184391126789
 30
0.0
  0
SPLINE
  5
FF
330
1F
100
AcDbEntity
  8
0
  6
Continuous
 62
     7
370
    15
100
AcDbSpline
210
0.0
220
0.0
230
1.0
 70
     8
 71
     3
 72
    32
 73
    28
 74
     0
 42
0.00000001
 43
0.00000001
 12
1.0
 22
0.0
 32
0.0
 13
1.0
 23
0.0
 33
0.0
 40
0.0
 40
0.0
 40
0.0
 40
0.0
 40
0.1250000000000074
 40
0.1250000000000074
 40
0.187500000000011
 40
0.187500000000011
 40
0.2500000000000147
 40
0.2500000000000147
 40
0.3125000000000184
 40
0.3125000000000184
 40
0.34375000000002
 40
0.34375000000002
 40
0.3750000000000217
 40
0.3750000000000217
 40
0.5000000000000207
 40
0.5000000000000207
 40
0.5625000000000182
 40
0.5625000000000182
 40
0.6250000000000158
 40
0.6250000000000158
 40
0.7500000000000097
 40
0.7500000000000097
 40
0.8125000000000067
 40
0.8125000000000067
 40
0.8750000000000036
 40
0.8750000000000036
 40
1.0
 40
1.0
 40
1.0
 40
1.0
 10
1681.128817265906
 20
1616.972571066808
 30
0.0
 10
1681.128817265906
 20
1617.950784342013
 30
0.0
 10
1681.400772421108
 20
1618.84869683311
 30
0.0
 10
1682.229419574888
 20
1620.083141703447
 30
0.0
 10
1682.578880097856
 20
1620.477500476271
 30
0.0
 10
1683.405858762316
 20
1621.21347263487
 30
0.0
 10
1683.883920033275
 20
1621.557099357266
 30
0.0
 10
1684.966032170514
 20
1622.200519441643
 30
0.0
 10
1685.570090181209
 20
1622.500304323004
 30
0.0
 10
1686.570873987577
 20
1622.920160646986
 30
0.0
 10
1686.920277225519
 20
1623.055137182378
 30
0.0
 10
1687.651051395826
 20
1623.315592561072
 30
0.0
 10
1688.032910627361
 20
1623.441152569578
 30
0.0
 10
1689.997370141456
 20
1624.038965337822
 30
0.0
 10
1691.761471755861
 20
1624.429045143481
 30
0.0
 10
1694.673274338467
 20
1624.919207744104
 30
0.0
 10
1695.688496628596
 20
1625.066580374009
 30
0.0
 10
1697.808155294239
 20
1625.333702977617
 30
0.0
 10
1698.895944791072
 20
1625.451386737883
 30
0.0
 10
1702.236605959932
 20
1625.765606263506
 30
0.0
 10
1704.566686500593
 20
1625.923937677336
 30
0.0
 10
1708.209457261727
 20
1626.107366454083
 30
0.0
 10
1709.452048190879
 20
1626.159398813723
 30
0.0
 10
1711.944315313575
 20
1626.246035988801
 30
0.0
 10
1713.198607871762
 20
1626.280922593743
 30
0.0
 10
1716.985199806119
 20
1626.363648797917
 30
0.0
 10
1719.541000274588
 20
1626.390069412607
 30
0.0
 10
1722.128817265906
 20
1626.390069412607
 30
0.0
  0
LINE
  5
100
330
1F
100
AcDbEntity
  8
0
  6
Continuous
 62
     7
370
    15
100
AcDbLine
 10
1681.1288172659
 20
1599.071093027
 30
0.0
 11
1681.1288172659
 21
1616.9725710668
 31
0.0
  0
SPLINE
  5
101
330
1F
100
AcDbEntity
  8
0
  6
Continuous
 62
     7
370
    15
100
AcDbSpline
210
0.0
220
0.0
230
1.0
 70
     8
 71
     3
 72
    36
 73
    32
 74
     0
 42
0.00000001
 43
0.00000001
 12
1.0
 22
0.0
 32
0.0
 13
1.0
 23
0.0
 33
0.0
 40
0.0
 40
0.0
 40
0.0
 40
0.0
 40
0.0625000000000006
 40
0.0625000000000006
 40
0.1250000000000012
 40
0.1250000000000012
 40
0.1562500000000003
 40
0.1562500000000003
 40
0.1874999999999994
 40
0.1874999999999994
 40
0.2499999999999975
 40
0.2499999999999975
 40
0.2812499999999978
 40
0.2812499999999978
 40
0.3124999999999981
 40
0.3124999999999981
 40
0.3749999999999959
 40
0.3749999999999959
 40
0.4374999999999937
 40
0.4374999999999937
 40
0.4687499999999928
 40
0.4687499999999928
 40
0.4999999999999919
 40
0.4999999999999919
 40
0.6249999999999942
 40
0.6249999999999942
 40
0.7499999999999966
 40
0.7499999999999966
 40
0.8749999999999983
 40
0.8749999999999983
 40
1.0
 40
1.0
 40
1.0
 40
1.0
 10
1722.128817265906
 20
1559.777730398818
 30
0.0
 10
1720.579401684501
 20
1559.777730398818
 30
0.0
 10
1719.030257191122
 20
1559.904548820263
 30
0.0
 10
1716.014126984604
 20
1560.385263795644
 30
0.0
 10
1714.539338474958
 20
1560.738000781269
 30
0.0
 10
1712.371754987591
 20
1561.415112264685
 30
0.0
 10
1711.655597330609
 20
1561.666134424656
 30
0.0
 10
1710.257201325227
 20
1562.206344421459
 30
0.0
 10
1709.572347445855
 20
1562.496247814735
 30
0.0
 10
1707.556699979382
 20
1563.418680471348
 30
0.0
 10
1706.264612381063
 20
1564.103636132252
 30
0.0
 10
1704.392200840327
 20
1565.216024245711
 30
0.0
 10
1703.777704221948
 20
1565.601982512549
 30
0.0
 10
1702.576449334529
 20
1566.395108565454
 30
0.0
 10
1701.990452545742
 20
1566.801651574339
 30
0.0
 10
1700.272434651224
 20
1568.047425708115
 30
0.0
 10
1699.180168306636
 20
1568.912623873523
 30
0.0
 10
1697.087554147947
 20
1570.697654688714
 30
0.0
 10
1696.087284691848
 20
1571.617557610822
 30
0.0
 10
1694.649896535049
 20
1573.031184472106
 30
0.0
 10
1694.181310604261
 20
1573.508054384109
 30
0.0
 10
1693.264656097613
 20
1574.472233001286
 30
0.0
 10
1692.817337731032
 20
1574.958810367923
 30
0.0
 10
1690.646119354519
 20
1577.398238546645
 30
0.0
 10
1689.103453643909
 20
1579.382391344359
 30
0.0
 10
1686.378834604042
 20
1583.383698549227
 30
0.0
 10
1685.196783505068
 20
1585.401791476637
 30
0.0
 10
1683.227242868994
 20
1589.456891286423
 30
0.0
 10
1682.464771590634
 20
1591.442920108171
 30
0.0
 10
1681.41599343264
 20
1595.325167176799
 30
0.0
 10
1681.128817265906
 20
1597.221403338041
 30
0.0
 10
1681.128817265906
 20
1599.071093026992
 30
0.0
  0
LINE
  5
102
330
1F
100
AcDbEntity
  8
0
  6
Continuous
 62
     7
370
    15
100
AcDbLine
 10
1971.372776433
 20
1559.7777303988
 30
0.0
 11
1722.1288172659
 21
1559.7777303988
 31
0.0
  0
SPLINE
  5
103
330
1F
100
AcDbEntity
  8
0
  6
Continuous
 62
     7
370
    15
100
AcDbSpline
210
0.0
220
0.0
230
1.0
 70
     8
 71
     3
 72
    38
 73
    34
 74
     0
 42
0.00000001
 43
0.00000001
 12
1.0
 22
0.0
 32
0.0
 13
1.0
 23
0.0
 33
0.0
 40
0.0
 40
0.0
 40
0.0
 40
0.0
 40
0.1250000000000019
 40
0.1250000000000019
 40
0.1875000000000017
 40
0.1875000000000017
 40
0.2500000000000014
 40
0.2500000000000014
 40
0.3750000000000003
 40
0.3750000000000003
 40
0.4999999999999991
 40
0.4999999999999991
 40
0.5312499999999992
 40
0.5312499999999992
 40
0.5624999999999994
 40
0.5624999999999994
 40
0.6249999999999996
 40
0.6249999999999996
 40
0.6874999999999998
 40
0.6874999999999998
 40
0.75
 40
0.75
 40
0.7812499999999999
 40
0.7812499999999999
 40
0.8124999999999999
 40
0.8124999999999999
 40
0.875
 40
0.875
 40
0.9062500000000001
 40
0.9062500000000001
 40
0.9375000000000001
 40
0.9375000000000001
 40
1.0
 40
1.0
 40
1.0
 40
1.0
 10
2012.372776432996
 20
1599.071093026992
 30
0.0
 10
2012.372776432996
 20
1597.219592926127
 30
0.0
 10
2012.085032401335
 20
1595.321134673494
 30
0.0
 10
2011.296604655093
 20
1592.405523621444
 30
0.0
 10
2010.973650329381
 20
1591.422358148228
 30
0.0
 10
2010.213200122883
 20
1589.43416360183
 30
0.0
 10
2009.775271803783
 20
1588.428258444427
 30
0.0
 10
2008.295393626141
 20
1585.38458040802
 30
0.0
 10
2007.113130251882
 20
1583.368411882735
 30
0.0
 10
2004.391329897852
 20
1579.373543051737
 30
0.0
 10
2002.85194315941
 20
1577.394552660814
 30
0.0
 10
2000.688739248943
 20
1574.963777383352
 30
0.0
 10
2000.24398823065
 20
1574.479835922364
 30
0.0
 10
1999.329140602881
 20
1573.517187579854
 30
0.0
 10
1998.858027776624
 20
1573.03750882217
 30
0.0
 10
1997.414750326482
 20
1571.617796192715
 30
0.0
 10
1996.411814487464
 20
1570.695625449528
 30
0.0
 10
1994.317500097777
 20
1568.90940715237
 30
0.0
 10
1993.226185435741
 20
1568.045296373712
 30
0.0
 10
1990.942700251268
 20
1566.389435168916
 30
0.0
 10
1989.750661530097
 20
1565.597562139955
 30
0.0
 10
1987.871422792398
 20
1564.480276043117
 30
0.0
 10
1987.229819554325
 20
1564.119909588462
 30
0.0
 10
1985.928994964182
 20
1563.434710410934
 30
0.0
 10
1985.267961904364
 20
1563.108760476109
 30
0.0
 10
1983.250504609538
 20
1562.185896314453
 30
0.0
 10
1981.859970768261
 20
1561.643560894456
 30
0.0
 10
1979.69204806536
 20
1560.965790776605
 30
0.0
 10
1978.952527230291
 20
1560.761972170789
 30
0.0
 10
1977.465550637591
 20
1560.410394752866
 30
0.0
 10
1976.716895752138
 20
1560.262023271808
 30
0.0
 10
1974.454862450258
 20
1559.902789041262
 30
0.0
 10
1972.925444408649
 20
1559.777730398818
 30
0.0
 10
1971.372776432996
 20
1559.777730398818
 30
0.0
  0
LINE
  5
104
330
1F
100
AcDbEntity
  8
0
  6
Continuous
 62
     7
370
    15
100
AcDbLine
 10
2012.372776433
 20
1616.9725710668
 30
0.0
 11
2012.372776433
 21
1599.071093027
 31
0.0
  0
SPLINE
  5
105
330
1F
100
AcDbEntity
  8
0
  6
Continuous
 62
     7
370
    15
100
AcDbSpline
210
0.0
220
0.0
230
1.0
 70
     8
 71
     3
 72
    38
 73
    34
 74
     0
 42
0.00000001
 43
0.00000001
 12
1.0
 22
0.0
 32
0.0
 13
1.0
 23
0.0
 33
0.0
 40
0.0
 40
0.0
 40
0.0
 40
0.0
 40
0.1249999999999938
 40
0.1249999999999938
 40
0.1562499999999924
 40
0.1562499999999924
 40
0.187499999999991
 40
0.187499999999991
 40
0.2499999999999887
 40
0.2499999999999887
 40
0.3124999999999864
 40
0.3124999999999864
 40
0.3437499999999853
 40
0.3437499999999853
 40
0.3749999999999842
 40
0.3749999999999842
 40
0.4999999999999822
 40
0.4999999999999822
 40
0.562499999999982
 40
0.562499999999982
 40
0.5937499999999818
 40
0.5937499999999818
 40
0.6249999999999816
 40
0.6249999999999816
 40
0.7499999999999857
 40
0.7499999999999857
 40
0.7812499999999878
 40
0.7812499999999878
 40
0.8124999999999899
 40
0.8124999999999899
 40
0.874999999999994
 40
0.874999999999994
 40
1.0
 40
1.0
 40
1.0
 40
1.0
 10
1971.372776432996
 20
1626.390069412607
 30
0.0
 10
1973.962231959911
 20
1626.390069412607
 30
0.0
 10
1976.530343647275
 20
1626.363632831649
 30
0.0
 10
1979.713652236169
 20
1626.293723064603
 30
0.0
 10
1980.350053384957
 20
1626.277822095152
 30
0.0
 10
1981.61422141345
 20
1626.242142624623
 30
0.0
 10
1982.241543119275
 20
1626.222384897211
 30
0.0
 10
1984.109308815978
 20
1626.157029278402
 30
0.0
 10
1985.335585820183
 20
1626.105383562465
 30
0.0
 10
1987.750021614981
 20
1625.983390392119
 30
0.0
 10
1988.938183794662
 20
1625.913050441938
 30
0.0
 10
1990.690791977121
 20
1625.790709983592
 30
0.0
 10
1991.270046806984
 20
1625.747114732428
 30
0.0
 10
1992.418370568251
 20
1625.653687947362
 30
0.0
 10
1992.98884267991
 20
1625.60371787757
 30
0.0
 10
1995.793815276553
 20
1625.338536248643
 30
0.0
 10
1997.88773990161
 20
1625.078407167452
 30
0.0
 10
2000.794858196841
 20
1624.587725655168
 30
0.0
 10
2001.724684964727
 20
1624.407283832548
 30
0.0
 10
2003.056878428872
 20
1624.10610268177
 30
0.0
 10
2003.491399559252
 20
1624.000329555801
 30
0.0
 10
2004.328690644351
 20
1623.780305694263
 30
0.0
 10
2004.732626795583
 20
1623.665825683812
 30
0.0
 10
2006.679305286326
 20
1623.069805766417
 30
0.0
 10
2008.005021634872
 20
1622.517990191066
 30
0.0
 10
2009.361686800526
 20
1621.708788840908
 30
0.0
 10
2009.617869155366
 20
1621.540937353982
 30
0.0
 10
2010.099116980266
 20
1621.192385718043
 30
0.0
 10
2010.324105893809
 20
1621.011561562347
 30
0.0
 10
2010.94261613563
 20
1620.456917697496
 30
0.0
 10
2011.283507589275
 20
1620.06844583719
 30
0.0
 10
2012.100513771192
 20
1618.844688637893
 30
0.0
 10
2012.372776432996
 20
1617.951241709602
 30
0.0
 10
2012.372776432996
 20
1616.972571066808
 30
0.0
  0
LINE
  5
106
330
1F
100
AcDbEntity
  8
0
  6
Continuous
 62
     7
370
    15
100
AcDbLine
 10
1643.7770482897
 20
1627.5130445228
 30
0.0
 11
1643.7770482897
 21
1622.1811219315
 31
0.0
  0
LINE
  5
107
330
1F
100
AcDbEntity
  8
0
  6
Continuous
 62
     7
370
    15
100
AcDbLine
 10
1701.1288172659
 20
1625.4247993339
 30
0.0
 11
1701.1288172659
 21
1615.0884884356
 31
0.0
  0
LWPOLYLINE
  5
108
330
1F
100
AcDbEntity
  8
0
  6
Continuous
 62
     7
370
    15
100
AcDbPolyline
 90
       12
 70
   128
 43
0.0
 10
1701.1288172659
 20
1615.0884884356
 10
1700.9252461035
 20
1612.8089753985
 10
1700.3186767382
 20
1610.5758666732
 10
1699.321457173
 20
1608.4346219137
 10
1697.9538879225
 20
1606.4288306884
 10
1696.243808753
 20
1604.5993251224
 10
1694.2260319448
 20
1602.9833486733
 10
1691.941633615
 20
1601.6137979614
 10
1689.4371175259
 20
1600.5185530897
 10
1686.7634684027
 20
1599.7199100854
 10
1683.9751140314
 20
1599.2341270171
 10
1681.1288172659
 20
1599.071093027
  0
LINE
  5
109
330
1F
100
AcDbEntity
  8
0
  6
Continuous
 62
     7
370
    15
100
AcDbLine
 10
1992.372776433
 20
1615.0884884356
 30
0.0
 11
1992.372776433
 21
1625.3850377052
 31
0.0
  0
LWPOLYLINE
  5
10A
330
1F
100
AcDbEntity
  8
0
  6
Continuous
 62
     7
370
    15
100
AcDbPolyline
 90
       12
 70
   128
 43
0.0
 10
1992.372776433
 20
1615.0884884356
 10
1992.5763475954
 20
1612.8089753985
 10
1993.1829169607
 20
1610.5758666732
 10
1994.1801365259
 20
1608.4346219137
 10
1995.5477057764
 20
1606.4288306884
 10
1997.2577849459
 20
1604.5993251224
 10
1999.2755617541
 20
1602.9833486733
 10
2001.5599600839
 20
1601.6137979614
 10
2004.064476173
 20
1600.5185530897
 10
2006.7381252962
 20
1599.7199100854
 10
2009.5264796675
 20
1599.2341270171
 10
2012.372776433
 20
1599.071093027
  0
SPLINE
  5
10B
330
1F
100
AcDbEntity
  8
0
  6
Continuous
 62
     7
370
    15
100
AcDbSpline
210
0.0
220
0.0
230
1.0
 70
     8
 71
     3
 72
    54
 73
    50
 74
     0
 42
0.00000001
 43
0.00000001
 12
1.0
 22
0.0
 32
0.0
 13
1.0
 23
0.0
 33
0.0
 40
0.0
 40
0.0
 40
0.0
 40
0.0
 40
0.1249999999999991
 40
0.1249999999999991
 40
0.1874999999999986
 40
0.1874999999999986
 40
0.2187499999999983
 40
0.2187499999999983
 40
0.2499999999999979
 40
0.2499999999999979
 40
0.3749999999999976
 40
0.3749999999999976
 40
0.4999999999999971
 40
0.4999999999999971
 40
0.5312499999999972
 40
0.5312499999999972
 40
0.5624999999999973
 40
0.5624999999999973
 40
0.6249999999999976
 40
0.6249999999999976
 40
0.7499999999999981
 40
0.7499999999999981
 40
0.8124999999999989
 40
0.8124999999999989
 40
0.8749999999999996
 40
0.8749999999999996
 40
0.9062499999999999
 40
0.9062499999999999
 40
0.9375000000000002
 40
0.9375000000000002
 40
0.9531250000000004
 40
0.9531250000000004
 40
0.9687500000000007
 40
0.9687500000000007
 40
0.9765625000000008
 40
0.9765625000000008
 40
0.9843750000000008
 40
0.9843750000000008
 40
0.9882812500000004
 40
0.9882812500000004
 40
0.9921875000000001
 40
0.9921875000000001
 40
0.994140625
 40
0.994140625
 40
0.99609375
 40
0.99609375
 40
0.998046875
 40
0.998046875
 40
1.0
 40
1.0
 40
1.0
 40
1.0
 10
1932.777048289709
 20
1501.193562237241
 30
0.0
 10
1936.831723237129
 20
1501.193562237241
 30
0.0
 10
1940.864945967452
 20
1501.399469956057
 30
0.0
 10
1946.882552261984
 20
1502.01766799801
 30
0.0
 10
1948.883027749057
 20
1502.275501039967
 30
0.0
 10
1951.875445045652
 20
1502.741878589178
 30
0.0
 10
1952.872816022484
 20
1502.910871929876
 30
0.0
 10
1954.856502406672
 20
1503.274358772243
 30
0.0
 10
1955.843059334115
 20
1503.468847315737
 30
0.0
 10
1960.749445300768
 20
1504.504936919487
 30
0.0
 10
1964.590436659813
 20
1505.536614705492
 30
0.0
 10
1972.09918607304
 20
1508.017633751486
 30
0.0
 10
1975.766989906131
 20
1509.466864639061
 30
0.0
 10
1980.234386011431
 20
1511.561353669425
 30
0.0
 10
1981.121971058815
 20
1511.994462259364
 30
0.0
 10
1982.885010856951
 20
1512.889925442692
 30
0.0
 10
1983.76198107034
 20
1513.353122591234
 30
0.0
 10
1986.362735459378
 20
1514.781708883919
 30
0.0
 10
1988.051173002234
 20
1515.782892527518
 30
0.0
 10
1992.979864479676
 20
1518.933278579024
 30
0.0
 10
1996.084257973331
 20
1521.228498525786
 30
0.0
 10
2000.455510583917
 20
1524.977998276938
 30
0.0
 10
2001.864905605171
 20
1526.279086013014
 30
0.0
 10
2004.582756997146
 20
1528.989746436529
 30
0.0
 10
2005.893272937679
 20
1530.401749348301
 30
0.0
 10
2007.753780265165
 20
1532.584785393991
 30
0.0
 10
2008.357256258579
 20
1533.324134194044
 30
0.0
 10
2009.527152762524
 20
1534.828737195522
 30
0.0
 10
2010.093004811555
 20
1535.592654220275
 30
0.0
 10
2010.90461170409
 20
1536.760391794139
 30
0.0
 10
2011.16899341443
 20
1537.153438951998
 30
0.0
 10
2011.680599792808
 20
1537.948155287268
 30
0.0
 10
2011.928344200875
 20
1538.349943699435
 30
0.0
 10
2012.278640000792
 20
1538.962766649021
 30
0.0
 10
2012.391769455905
 20
1539.168672123154
 30
0.0
 10
2012.606530253963
 20
1539.585641543736
 30
0.0
 10
2012.708486240706
 20
1539.796462314859
 30
0.0
 10
2012.843621926057
 20
1540.119179779398
 30
0.0
 10
2012.885647225432
 20
1540.227807399486
 30
0.0
 10
2012.958609087433
 20
1540.448158338168
 30
0.0
 10
2012.990085610491
 20
1540.55983967717
 30
0.0
 10
2013.017533566263
 20
1540.730348016762
 30
0.0
 10
2013.023371210566
 20
1540.788059694715
 30
0.0
 10
2013.021413066809
 20
1540.903115783231
 30
0.0
 10
2013.013860261844
 20
1540.961111344128
 30
0.0
 10
2012.968557070025
 20
1541.067930354015
 30
0.0
 10
2012.926279661552
 20
1541.116669379413
 30
0.0
 10
2012.814282319914
 20
1541.172158110409
 30
0.0
 10
2012.748896524754
 20
1541.181121931469
 30
0.0
 10
2012.684613900198
 20
1541.181121931469
 30
0.0
  0
SPLINE
  5
10C
330
1F
100
AcDbEntity
  8
0
  6
Continuous
 62
     7
370
    15
100
AcDbSpline
210
0.0
220
0.0
230
1.0
 70
     8
 71
     3
 72
    28
 73
    24
 74
     0
 42
0.00000001
 43
0.00000001
 12
1.0
 22
0.0
 32
0.0
 13
1.0
 23
0.0
 33
0.0
 40
0.0
 40
0.0
 40
0.0
 40
0.0
 40
0.0566289045149386
 40
0.1132545744343746
 40
0.1714845902003692
 40
0.2297075571997613
 40
0.2771766407704347
 40
0.3246419587366312
 40
0.3734146675773703
 40
0.4221839536907495
 40
0.4706784831717246
 40
0.5191716847206945
 40
0.5693237713345046
 40
0.619476834009838
 40
0.6640260440283406
 40
0.7085766581481485
 40
0.7543153419571695
 40
0.8000555894108399
 40
0.8460080924955931
 40
0.8919617323928876
 40
0.939082698297597
 40
0.9862043424566312
 40
1.0
 40
1.0
 40
1.0
 40
1.0
 10
2053.777048289709
 20
1622.181121931468
 30
0.0
 10
2053.755158754141
 20
1620.357111797611
 30
0.0
 10
2053.711380933318
 20
1616.709195715824
 30
0.0
 10
2053.251486673958
 20
1610.271147440299
 30
0.0
 10
2052.351878490588
 20
1603.154450010305
 30
0.0
 10
2050.954542873559
 20
1595.836198816745
 30
0.0
 10
2049.095876213035
 20
1588.598852211344
 30
0.0
 10
2046.83296839611
 20
1581.538306741649
 30
0.0
 10
2043.960521559089
 20
1574.214181428084
 30
0.0
 10
2040.434770711495
 20
1566.731250229525
 30
0.0
 10
2036.248034989389
 20
1559.257271347612
 30
0.0
 10
2031.35222193297
 20
1551.813094723181
 30
0.0
 10
2025.706672399042
 20
1544.501182218267
 30
0.0
 10
2019.560754955116
 20
1537.699049248369
 30
0.0
 10
2013.088628395216
 20
1531.542099247745
 30
0.0
 10
2006.35168474032
 20
1525.984421425185
 30
0.0
 10
1999.110765331027
 20
1520.853445402057
 30
0.0
 10
1991.394553541411
 20
1516.197393914532
 30
0.0
 10
1983.309141876283
 20
1512.117717714788
 30
0.0
 10
1974.841711647443
 20
1508.590370732748
 30
0.0
 10
1966.031272312713
 20
1505.764186626692
 30
0.0
 10
1959.120795172895
 20
1503.904244315387
 30
0.0
 10
1955.133977947674
 20
1503.334738307843
 30
0.0
 10
1954.231102022607
 20
1503.205764935264
 30
0.0
  0
LINE
  5
10D
330
1F
100
AcDbEntity
  8
0
  6
Continuous
 62
     7
370
    15
100
AcDbLine
 10
1934.253976196
 20
1501.2558008602
 30
0.0
 11
1932.7770482897
 21
1501.1811219315
 31
0.0
  0
LINE
  5
10E
330
1F
100
AcDbEntity
  8
0
  6
Continuous
 62
     7
370
    15
100
AcDbLine
 10
1932.7770482897
 20
1501.1935622372
 30
0.0
 11
1932.7770482897
 21
1501.1811219315
 31
0.0
  0
SPLINE
  5
10F
330
1F
100
AcDbEntity
  8
0
  6
Continuous
 62
     7
370
    15
100
AcDbSpline
210
0.0
220
0.0
230
1.0
 70
     8
 71
     3
 72
    40
 73
    36
 74
     0
 42
0.00000001
 43
0.00000001
 12
1.0
 22
0.0
 32
0.0
 13
1.0
 23
0.0
 33
0.0
 40
0.0
 40
0.0
 40
0.0
 40
0.0
 40
0.0312500000000001
 40
0.0312500000000001
 40
0.046875
 40
0.046875
 40
0.0624999999999998
 40
0.0624999999999998
 40
0.0781249999999997
 40
0.0781249999999997
 40
0.0937499999999995
 40
0.0937499999999995
 40
0.1249999999999995
 40
0.1249999999999995
 40
0.1875000000000002
 40
0.1875000000000002
 40
0.2500000000000009
 40
0.2500000000000009
 40
0.3125000000000017
 40
0.3125000000000017
 40
0.3750000000000023
 40
0.3750000000000023
 40
0.4375000000000031
 40
0.4375000000000031
 40
0.5000000000000038
 40
0.5000000000000038
 40
0.6250000000000029
 40
0.6250000000000029
 40
0.6875000000000023
 40
0.6875000000000023
 40
0.7500000000000018
 40
0.7500000000000018
 40
0.8750000000000009
 40
0.8750000000000009
 40
1.0
 40
1.0
 40
1.0
 40
1.0
 10
1971.372776432996
 20
1570.293485776038
 30
0.0
 10
1971.979088337496
 20
1570.293485776038
 30
0.0
 10
1972.568403198386
 20
1570.376149309616
 30
0.0
 10
1973.43064776014
 20
1570.605701314466
 30
0.0
 10
1973.715526849774
 20
1570.700309324121
 30
0.0
 10
1974.273436809761
 20
1570.920200140859
 30
0.0
 10
1974.544655354003
 20
1571.044570831618
 30
0.0
 10
1975.073874394948
 20
1571.31790673556
 30
0.0
 10
1975.332940360374
 20
1571.467596801067
 30
0.0
 10
1975.833393666981
 20
1571.784217197151
 30
0.0
 10
1976.074800982192
 20
1571.950973381498
 30
0.0
 10
1976.777290023651
 20
1572.471969342924
 30
0.0
 10
1977.216878140662
 20
1572.846704096586
 30
0.0
 10
1978.473552035196
 20
1574.029505501627
 30
0.0
 10
1979.230771386064
 20
1574.896429511644
 30
0.0
 10
1980.640463853039
 20
1576.71645673421
 30
0.0
 10
1981.281829892382
 20
1577.656515450244
 30
0.0
 10
1982.481531932176
 20
1579.573433259652
 30
0.0
 10
1983.039185043463
 20
1580.550646853576
 30
0.0
 10
1984.091719954346
 20
1582.530852872407
 30
0.0
 10
1984.586371234127
 20
1583.533965566277
 30
0.0
 10
1985.524338284049
 20
1585.559498397094
 30
0.0
 10
1985.967319456817
 20
1586.581693216269
 30
0.0
 10
1986.803238069452
 20
1588.62716352431
 30
0.0
 10
1987.197020288937
 20
1589.652350818161
 30
0.0
 10
1988.313503733248
 20
1592.732260757745
 30
0.0
 10
1988.97212785784
 20
1594.791153801812
 30
0.0
 10
1989.841869284601
 20
1597.881014233476
 30
0.0
 10
1990.111858038021
 20
1598.911275255628
 30
0.0
 10
1990.611342602551
 20
1600.971774259253
 30
0.0
 10
1990.841133921176
 20
1602.003595564516
 30
0.0
 10
1991.463759660632
 20
1605.083358058141
 30
0.0
 10
1991.791133577004
 20
1607.116557412372
 30
0.0
 10
1992.245399261501
 20
1611.137758649867
 30
0.0
 10
1992.372776432996
 20
1613.125765188256
 30
0.0
 10
1992.372776432996
 20
1615.088488435649
 30
0.0
  0
LINE
  5
110
330
1F
100
AcDbEntity
  8
0
  6
Continuous
 62
     7
370
    15
100
AcDbLine
 10
1971.372776433
 20
1570.293485776
 30
0.0
 11
1971.372776433
 21
1559.7777303988
 31
0.0
  0
SPLINE
  5
111
330
1F
100
AcDbEntity
  8
0
  6
Continuous
 62
     7
370
    15
100
AcDbSpline
210
0.0
220
0.0
230
1.0
 70
     8
 71
     3
 72
    38
 73
    34
 74
     0
 42
0.00000001
 43
0.00000001
 12
1.0
 22
0.0
 32
0.0
 13
1.0
 23
0.0
 33
0.0
 40
0.0
 40
0.0
 40
0.0
 40
0.0
 40
0.1249999999999974
 40
0.1249999999999974
 40
0.2499999999999947
 40
0.2499999999999947
 40
0.3124999999999941
 40
0.3124999999999941
 40
0.3749999999999934
 40
0.3749999999999934
 40
0.4999999999999946
 40
0.4999999999999946
 40
0.562499999999995
 40
0.562499999999995
 40
0.6249999999999954
 40
0.6249999999999954
 40
0.6874999999999959
 40
0.6874999999999959
 40
0.7499999999999963
 40
0.7499999999999963
 40
0.8124999999999969
 40
0.8124999999999969
 40
0.8749999999999973
 40
0.8749999999999973
 40
0.9062499999999987
 40
0.9062499999999987
 40
0.9375
 40
0.9375
 40
0.9687500000000013
 40
0.9687500000000013
 40
0.9843750000000007
 40
0.9843750000000007
 40
1.0
 40
1.0
 40
1.0
 40
1.0
 10
1701.128817265906
 20
1615.088488435649
 30
0.0
 10
1701.128817265906
 20
1613.126540176345
 30
0.0
 10
1701.256092566729
 20
1611.139458475943
 30
0.0
 10
1701.709940020053
 20
1607.120364436397
 30
0.0
 10
1702.036998348517
 20
1605.088347750983
 30
0.0
 10
1702.658970571954
 20
1602.010535738495
 30
0.0
 10
1702.888584858457
 20
1600.979043694527
 30
0.0
 10
1703.387875120697
 20
1598.918557449024
 30
0.0
 10
1703.657812311867
 20
1597.888119999673
 30
0.0
 10
1704.527589589025
 20
1594.797196888837
 30
0.0
 10
1705.18648436777
 20
1592.736889026463
 30
0.0
 10
1706.304022011128
 20
1589.653772528802
 30
0.0
 10
1706.698264743241
 20
1588.62733450556
 30
0.0
 10
1707.535404658183
 20
1586.578978597295
 30
0.0
 10
1707.977990012091
 20
1585.55792902371
 30
0.0
 10
1708.914124010975
 20
1583.536320691784
 30
0.0
 10
1709.408145189184
 20
1582.534275980393
 30
0.0
 10
1710.460454038975
 20
1580.554153746697
 30
0.0
 10
1711.018494335339
 20
1579.57595694989
 30
0.0
 10
1712.220937225319
 20
1577.654621330739
 30
0.0
 10
1712.86803387352
 20
1576.7073256157
 30
0.0
 10
1714.267953310162
 20
1574.900351713584
 30
0.0
 10
1715.020244087151
 20
1574.037453094552
 30
0.0
 10
1716.281434957597
 20
1572.849490244952
 30
0.0
 10
1716.726273011751
 20
1572.470064363441
 30
0.0
 10
1717.671591428714
 20
1571.769870572854
 30
0.0
 10
1718.16611552289
 20
1571.453173844016
 30
0.0
 10
1719.214697571052
 20
1570.911289948914
 30
0.0
 10
1719.772898546364
 20
1570.685818176516
 30
0.0
 10
1720.637886537711
 20
1570.454391234088
 30
0.0
 10
1720.933211492983
 20
1570.394329755699
 30
0.0
 10
1721.528075865393
 20
1570.313973664816
 30
0.0
 10
1721.827441136041
 20
1570.293485776038
 30
0.0
 10
1722.128817265906
 20
1570.293485776038
 30
0.0
  0
LINE
  5
112
330
1F
100
AcDbEntity
  8
0
  6
Continuous
 62
     7
370
    15
100
AcDbLine
 10
1722.1288172659
 20
1570.293485776
 30
0.0
 11
1722.1288172659
 21
1559.7777303988
 31
0.0
  0
CIRCLE
  5
113
330
1F
100
AcDbEntity
  8
0
  6
Continuous
 62
     7
370
    15
100
AcDbCircle
 10
1842.4288436812
 20
1598.939421911
 30
0.0
 40
17.9392465422095
  0
LINE
  5
114
330
1F
100
AcDbEntity
  8
0
  6
Continuous
 62
     7
370
    15
100
AcDbLine
 10
1722.1288172659
 20
1570.293485776
 30
0.0
 11
1971.372776433
 21
1570.293485776
 31
0.0
  0
LINE
  5
115
330
1F
100
AcDbEntity
  8
0
  6
Continuous
 62
     7
370
    15
100
AcDbLine
 10
1763.0419980783
 20
1501.1935622372
 30
0.0
 11
1932.7770482897
 21
1501.1935622372
 31
0.0
  0
ARC
  5
116
330
1F
100
AcDbEntity
  8
0
  6
Continuous
 62
     7
370
    15
100
AcDbCircle
 10
1764.7770482897
 20
1622.1811219315
 30
0.0
 40
121.0000000000001
100
AcDbArc
 50
222.0224306292
 51
269.1783928811
  0
LINE
  5
117
330
1F
100
AcDbEntity
  8
0
  6
Continuous
 62
     7
370
    15
100
AcDbLine
 10
1932.7770482897
 20
1501.1811219315
 30
0.0
 11
1764.7770482897
 21
1501.1811219315
 31
0.0
  0
SPLINE
  5
118
330
1F
100
AcDbEntity
  8
0
  6
Continuous
 62
     7
370
    15
100
AcDbSpline
210
0.0
220
0.0
230
1.0
 70
     8
 71
     3
 72
     8
 73
     4
 74
     0
 42
0.00000001
 43
0.00000001
 12
1.0
 22
0.0
 32
0.0
 13
1.0
 23
0.0
 33
0.0
 40
0.0
 40
0.0
 40
0.0
 40
0.0
 40
1.0
 40
1.0
 40
1.0
 40
1.0
 10
1763.04199807835
 20
1501.193562237241
 30
0.0
 10
1763.620345349482
 20
1501.18526831382
 30
0.0
 10
1764.198696536702
 20
1501.181121931468
 30
0.0
 10
1764.777048289709
 20
1501.181121931468
 30
0.0
  0
LINE
  5
119
330
1F
100
AcDbEntity
  8
0
  6
Continuous
 62
     7
370
    15
100
AcDbLine
 10
1802.8615279532
 20
1501.1811219315
 30
0.0
 11
1802.8615279532
 21
1483.363071997
 31
0.0
  0
ELLIPSE
  5
11A
330
1F
100
AcDbEntity
  8
0
  6
Continuous
 62
     7
370
    15
100
AcDbEllipse
 10
1802.8615279532
 20
1514.2502980057
 30
0.0
 11
0.0
 21
-30.88722600871597
 31
0.0
210
0.0
220
0.0
230
1.0
 40
0.9712753095
 41
5.149281153645313
 42
6.283185307179586
  0
LINE
  5
11B
330
1F
100
AcDbEntity
  8
0
  6
Continuous
 62
     7
370
    15
100
AcDbLine
 10
1873.1924354345
 20
1483.363071997
 30
0.0
 11
1873.1924354345
 21
1501.1811219315
 31
0.0
  0
LINE
  5
11C
330
1F
100
AcDbEntity
  8
0
  6
Continuous
 62
     7
370
    15
100
AcDbLine
 10
1873.1924354345
 20
1483.363071997
 30
0.0
 11
1802.8615279532
 21
1483.363071997
 31
0.0
  0
ELLIPSE
  5
11D
330
1F
100
AcDbEntity
  8
0
  6
Continuous
 62
     7
370
    15
100
AcDbEllipse
 10
1873.1924354345
 20
1514.2502980057
 30
0.0
 11
0.0
 21
30.88722600871597
 31
0.0
210
0.0
220
0.0
230
1.0
 40
0.9712753095
 41
3.141592653589793
 42
4.275496807124091
  0
LINE
  5
11E
330
1F
100
AcDbEntity
  8
0
  6
Continuous
 62
     8
370
    15
100
AcDbLine
 10
2043.7770482897
 20
1613.1843911268
 30
0.0
 11
2043.7770482897
 21
1625.5130445228
 31
0.0
  0
LINE
  5
11F
330
1F
100
AcDbEntity
  8
0
  6
Continuous
 62
     8
370
    15
100
AcDbLine
 10
1722.1288172659
 20
1626.3900694126
 30
0.0
 11
1768.8060790981
 21
1626.3900694126
 31
0.0
  0
LINE
  5
120
330
1F
100
AcDbEntity
  8
0
  6
Continuous
 62
     8
370
    15
100
AcDbLine
 10
1795.3979422713
 20
1626.3900694126
 30
0.0
 11
1930.24678623
 21
1626.3900694126
 31
0.0
  0
LINE
  5
121
330
1F
100
AcDbEntity
  8
0
  6
Continuous
 62
     8
370
    15
100
AcDbLine
 10
1956.8386494032
 20
1626.3900694126
 30
0.0
 11
1971.372776433
 21
1626.3900694126
 31
0.0
  0
ARC
  5
122
330
1F
100
AcDbEntity
  8
0
  6
Continuous
 62
     8
370
    15
100
AcDbCircle
 10
2012.1154204671
 20
1637.3899685392
 30
0.0
 40
20.41901936031496
100
AcDbArc
 50
218.9152723787
 51
270.7221601019
  0
LINE
  5
123
330
1F
100
AcDbEntity
  8
0
  6
Continuous
 62
     8
370
    15
100
AcDbLine
 10
1971.372776433
 20
1626.3900694126
 30
0.0
 11
1971.372776433
 21
1626.2325559517
 31
0.0
  0
LINE
  5
124
330
1F
100
AcDbEntity
  8
0
  6
Continuous
 62
     8
370
    15
100
AcDbLine
 10
1722.1288172659
 20
1626.3900694126
 30
0.0
 11
1722.1288172659
 21
1626.2325537694
 31
0.0
  0
ARC
  5
125
330
1F
100
AcDbEntity
  8
0
  6
Continuous
 62
     8
370
    15
100
AcDbCircle
 10
1681.3861078631
 20
1637.3902045927
 30
0.0
 40
20.41925457137261
100
AcDbArc
 50
269.2780316542
 51
321.0750828624
  0
LINE
  5
126
330
1F
100
AcDbEntity
  8
0
  6
Continuous
 62
     8
370
    15
100
AcDbLine
 10
1971.372776433
 20
1570.293485776
 30
0.0
 11
1971.372776433
 21
1626.2325172995
 31
0.0
  0
LINE
  5
127
330
1F
100
AcDbEntity
  8
0
  6
Continuous
 62
     8
370
    15
100
AcDbLine
 10
1722.1288172659
 20
1626.2325172995
 30
0.0
 11
1722.1288172659
 21
1570.293485776
 31
0.0
  0
LINE
  5
128
330
1F
100
AcDbEntity
  8
0
  6
Continuous
 62
     7
370
    15
100
AcDbLine
 10
1135.9044518312
 20
948.8612972179
 30
0.0
 11
1206.1559567514
 21
948.8612972179
 31
0.0
  0
LINE
  5
129
330
1F
100
AcDbEntity
  8
0
  6
Continuous
 62
     7
370
    15
100
AcDbLine
 10
1206.1559567514
 20
995.9872027887
 30
0.0
 11
1135.9044518312
 21
995.9872027887
 31
0.0
  0
LINE
  5
12A
330
1F
100
AcDbEntity
  8
0
  6
Continuous
 62
     7
370
    15
100
AcDbLine
 10
771.7928555171
 20
985.9616345581
 30
0.0
 11
769.7928555171
 21
985.9616345581
 31
0.0
  0
LINE
  5
12B
330
1F
100
AcDbEntity
  8
0
  6
Continuous
 62
     7
370
    15
100
AcDbLine
 10
769.7928555171
 20
950.0831414737
 30
0.0
 11
771.7928555171
 21
950.0831414737
 31
0.0
  0
LINE
  5
12C
330
1F
100
AcDbEntity
  8
0
  6
Continuous
 62
     7
370
    15
100
AcDbLine
 10
1206.1559567514
 20
948.8612972179
 30
0.0
 11
1206.1559567514
 21
995.9872027887
 31
0.0
  0
LINE
  5
12D
330
1F
100
AcDbEntity
  8
0
  6
Continuous
 62
     7
370
    15
100
AcDbLine
 10
309.4506359151
 20
1117.6741834074
 30
0.0
 11
309.4506359151
 21
1108.2945983798
 31
0.0
  0
LINE
  5
12E
330
1F
100
AcDbEntity
  8
0
  6
Continuous
 62
     7
370
    15
100
AcDbLine
 10
629.9493853894
 20
1117.6741834074
 30
0.0
 11
629.9493853894
 21
1108.2945983798
 31
0.0
  0
LINE
  5
12F
330
1F
100
AcDbEntity
  8
0
  6
Continuous
 62
     7
370
    15
100
AcDbLine
 10
629.9493853894
 20
1108.2945983798
 30
0.0
 11
309.4506359151
 21
1108.2945983798
 31
0.0
  0
LINE
  5
130
330
1F
100
AcDbEntity
  8
0
  6
Continuous
 62
     7
370
    15
100
AcDbLine
 10
309.4506359151
 20
1117.6741834074
 30
0.0
 11
629.9493853894
 21
1117.6741834074
 31
0.0
  0
LINE
  5
131
330
1F
100
AcDbEntity
  8
0
  6
Continuous
 62
     7
370
    15
100
AcDbLine
 10
250.1559567514
 20
1116.6741834074
 30
0.0
 11
250.1559567514
 21
1108.2945983798
 31
0.0
  0
LINE
  5
132
330
1F
100
AcDbEntity
  8
0
  6
Continuous
 62
     7
370
    15
100
AcDbLine
 10
250.1559567514
 20
1117.6741834074
 30
0.0
 11
250.1559567514
 21
1116.6741834074
 31
0.0
  0
LINE
  5
133
330
1F
100
AcDbEntity
  8
0
  6
Continuous
 62
     7
370
    15
100
AcDbLine
 10
309.4506359151
 20
1108.2945983798
 30
0.0
 11
250.1559567514
 21
1108.2945983798
 31
0.0
  0
LINE
  5
134
330
1F
100
AcDbEntity
  8
0
  6
Continuous
 62
     7
370
    15
100
AcDbLine
 10
250.1559567514
 20
1117.6741834074
 30
0.0
 11
309.4506359151
 21
1117.6741834074
 31
0.0
  0
LINE
  5
135
330
1F
100
AcDbEntity
  8
0
  6
Continuous
 62
     7
370
    15
100
AcDbLine
 10
646.6539510567
 20
1108.2945983798
 30
0.0
 11
646.6539510567
 21
1117.6741834074
 31
0.0
  0
LINE
  5
136
330
1F
100
AcDbEntity
  8
0
  6
Continuous
 62
     7
370
    15
100
AcDbLine
 10
646.6539510567
 20
1108.2945983798
 30
0.0
 11
629.9493853894
 21
1108.2945983798
 31
0.0
  0
LINE
  5
137
330
1F
100
AcDbEntity
  8
0
  6
Continuous
 62
     7
370
    15
100
AcDbLine
 10
629.9493853894
 20
1117.6741834074
 30
0.0
 11
646.6539510567
 21
1117.6741834074
 31
0.0
  0
LINE
  5
138
330
1F
100
AcDbEntity
  8
0
  6
Continuous
 62
     7
370
    15
100
AcDbLine
 10
629.9493853894
 20
1100.9786381729
 30
0.0
 11
629.9493853894
 21
1093.2945983798
 31
0.0
  0
LINE
  5
139
330
1F
100
AcDbEntity
  8
0
  6
Continuous
 62
     7
370
    15
100
AcDbLine
 10
646.6539510567
 20
1093.2945983798
 30
0.0
 11
646.6539510567
 21
1100.9786381729
 31
0.0
  0
LINE
  5
13A
330
1F
100
AcDbEntity
  8
0
  6
Continuous
 62
     7
370
    15
100
AcDbLine
 10
646.6539510567
 20
1093.2945983798
 30
0.0
 11
629.9493853894
 21
1093.2945983798
 31
0.0
  0
LINE
  5
13B
330
1F
100
AcDbEntity
  8
0
  6
Continuous
 62
     7
370
    15
100
AcDbLine
 10
629.9493853894
 20
1100.9786381729
 30
0.0
 11
646.6539510567
 21
1100.9786381729
 31
0.0
  0
LINE
  5
13C
330
1F
100
AcDbEntity
  8
0
  6
Continuous
 62
     7
370
    15
100
AcDbLine
 10
250.1559567514
 20
1100.9786381729
 30
0.0
 11
250.1559567514
 21
1093.2945983798
 31
0.0
  0
LINE
  5
13D
330
1F
100
AcDbEntity
  8
0
  6
Continuous
 62
     7
370
    15
100
AcDbLine
 10
309.4506359151
 20
1100.9786381729
 30
0.0
 11
309.4506359151
 21
1093.2945983798
 31
0.0
  0
LINE
  5
13E
330
1F
100
AcDbEntity
  8
0
  6
Continuous
 62
     7
370
    15
100
AcDbLine
 10
309.4506359151
 20
1093.2945983798
 30
0.0
 11
250.1559567514
 21
1093.2945983798
 31
0.0
  0
LINE
  5
13F
330
1F
100
AcDbEntity
  8
0
  6
Continuous
 62
     7
370
    15
100
AcDbLine
 10
250.1559567514
 20
1100.9786381729
 30
0.0
 11
309.4506359151
 21
1100.9786381729
 31
0.0
  0
LINE
  5
140
330
1F
100
AcDbEntity
  8
0
  6
Continuous
 62
     7
370
    15
100
AcDbLine
 10
629.9493853894
 20
1093.2945983798
 30
0.0
 11
309.4506359151
 21
1093.2945983798
 31
0.0
  0
LINE
  5
141
330
1F
100
AcDbEntity
  8
0
  6
Continuous
 62
     7
370
    15
100
AcDbLine
 10
309.4506359151
 20
1100.9786381729
 30
0.0
 11
629.9493853894
 21
1100.9786381729
 31
0.0
  0
LINE
  5
142
330
1F
100
AcDbEntity
  8
0
  6
Continuous
 62
     7
370
    15
100
AcDbLine
 10
309.4506359151
 20
1085.9786381729
 30
0.0
 11
309.4506359151
 21
1078.2945983798
 31
0.0
  0
LINE
  5
143
330
1F
100
AcDbEntity
  8
0
  6
Continuous
 62
     7
370
    15
100
AcDbLine
 10
309.4506359151
 20
1085.9786381729
 30
0.0
 11
629.9493853894
 21
1085.9786381729
 31
0.0
  0
LINE
  5
144
330
1F
100
AcDbEntity
  8
0
  6
Continuous
 62
     7
370
    15
100
AcDbLine
 10
629.9493853894
 20
1085.9786381729
 30
0.0
 11
629.9493853894
 21
1078.2945983798
 31
0.0
  0
LINE
  5
145
330
1F
100
AcDbEntity
  8
0
  6
Continuous
 62
     7
370
    15
100
AcDbLine
 10
629.9493853894
 20
1078.2945983798
 30
0.0
 11
309.4506359151
 21
1078.2945983798
 31
0.0
  0
LINE
  5
146
330
1F
100
AcDbEntity
  8
0
  6
Continuous
 62
     7
370
    15
100
AcDbLine
 10
629.9493853894
 20
1085.9786381729
 30
0.0
 11
646.6539510567
 21
1085.9786381729
 31
0.0
  0
LINE
  5
147
330
1F
100
AcDbEntity
  8
0
  6
Continuous
 62
     7
370
    15
100
AcDbLine
 10
646.6539510567
 20
1078.2945983798
 30
0.0
 11
646.6539510567
 21
1085.9786381729
 31
0.0
  0
LINE
  5
148
330
1F
100
AcDbEntity
  8
0
  6
Continuous
 62
     7
370
    15
100
AcDbLine
 10
646.6539510567
 20
1078.2945983798
 30
0.0
 11
629.9493853894
 21
1078.2945983798
 31
0.0
  0
LINE
  5
149
330
1F
100
AcDbEntity
  8
0
  6
Continuous
 62
     7
370
    15
100
AcDbLine
 10
250.1559567514
 20
1085.9786381729
 30
0.0
 11
250.1559567514
 21
1078.2945983798
 31
0.0
  0
LINE
  5
14A
330
1F
100
AcDbEntity
  8
0
  6
Continuous
 62
     7
370
    15
100
AcDbLine
 10
309.4506359151
 20
1078.2945983798
 30
0.0
 11
250.1559567514
 21
1078.2945983798
 31
0.0
  0
LINE
  5
14B
330
1F
100
AcDbEntity
  8
0
  6
Continuous
 62
     7
370
    15
100
AcDbLine
 10
250.1559567514
 20
1085.9786381729
 30
0.0
 11
309.4506359151
 21
1085.9786381729
 31
0.0
  0
LINE
  5
14C
330
1F
100
AcDbEntity
  8
0
  6
Continuous
 62
     7
370
    15
100
AcDbLine
 10
309.4506359151
 20
1070.9786381729
 30
0.0
 11
309.4506359151
 21
1063.2945983798
 31
0.0
  0
LINE
  5
14D
330
1F
100
AcDbEntity
  8
0
  6
Continuous
 62
     7
370
    15
100
AcDbLine
 10
629.9493853894
 20
1070.9786381729
 30
0.0
 11
629.9493853894
 21
1063.2945983798
 31
0.0
  0
LINE
  5
14E
330
1F
100
AcDbEntity
  8
0
  6
Continuous
 62
     7
370
    15
100
AcDbLine
 10
629.9493853894
 20
1063.2945983798
 30
0.0
 11
309.4506359151
 21
1063.2945983798
 31
0.0
  0
LINE
  5
14F
330
1F
100
AcDbEntity
  8
0
  6
Continuous
 62
     7
370
    15
100
AcDbLine
 10
309.4506359151
 20
1070.9786381729
 30
0.0
 11
629.9493853894
 21
1070.9786381729
 31
0.0
  0
LINE
  5
150
330
1F
100
AcDbEntity
  8
0
  6
Continuous
 62
     7
370
    15
100
AcDbLine
 10
646.6539510567
 20
1063.2945983798
 30
0.0
 11
646.6539510567
 21
1070.9786381729
 31
0.0
  0
LINE
  5
151
330
1F
100
AcDbEntity
  8
0
  6
Continuous
 62
     7
370
    15
100
AcDbLine
 10
646.6539510567
 20
1063.2945983798
 30
0.0
 11
629.9493853894
 21
1063.2945983798
 31
0.0
  0
LINE
  5
152
330
1F
100
AcDbEntity
  8
0
  6
Continuous
 62
     7
370
    15
100
AcDbLine
 10
629.9493853894
 20
1070.9786381729
 30
0.0
 11
646.6539510567
 21
1070.9786381729
 31
0.0
  0
LINE
  5
153
330
1F
100
AcDbEntity
  8
0
  6
Continuous
 62
     7
370
    15
100
AcDbLine
 10
250.1559567514
 20
1070.9786381729
 30
0.0
 11
250.1559567514
 21
1063.2945983798
 31
0.0
  0
LINE
  5
154
330
1F
100
AcDbEntity
  8
0
  6
Continuous
 62
     7
370
    15
100
AcDbLine
 10
309.4506359151
 20
1063.2945983798
 30
0.0
 11
250.1559567514
 21
1063.2945983798
 31
0.0
  0
LINE
  5
155
330
1F
100
AcDbEntity
  8
0
  6
Continuous
 62
     7
370
    15
100
AcDbLine
 10
250.1559567514
 20
1070.9786381729
 30
0.0
 11
309.4506359151
 21
1070.9786381729
 31
0.0
  0
LINE
  5
156
330
1F
100
AcDbEntity
  8
0
  6
Continuous
 62
     7
370
    15
100
AcDbLine
 10
629.9493853894
 20
1055.9786381729
 30
0.0
 11
629.9493853894
 21
1048.2945983798
 31
0.0
  0
LINE
  5
157
330
1F
100
AcDbEntity
  8
0
  6
Continuous
 62
     7
370
    15
100
AcDbLine
 10
629.9493853894
 20
1055.9786381729
 30
0.0
 11
646.6539510567
 21
1055.9786381729
 31
0.0
  0
LINE
  5
158
330
1F
100
AcDbEntity
  8
0
  6
Continuous
 62
     7
370
    15
100
AcDbLine
 10
646.6539510567
 20
1048.2945983798
 30
0.0
 11
646.6539510567
 21
1055.9786381729
 31
0.0
  0
LINE
  5
159
330
1F
100
AcDbEntity
  8
0
  6
Continuous
 62
     7
370
    15
100
AcDbLine
 10
646.6539510567
 20
1048.2945983798
 30
0.0
 11
629.9493853894
 21
1048.2945983798
 31
0.0
  0
LINE
  5
15A
330
1F
100
AcDbEntity
  8
0
  6
Continuous
 62
     7
370
    15
100
AcDbLine
 10
250.1559567514
 20
1055.9786381729
 30
0.0
 11
250.1559567514
 21
1048.2945983798
 31
0.0
  0
LINE
  5
15B
330
1F
100
AcDbEntity
  8
0
  6
Continuous
 62
     7
370
    15
100
AcDbLine
 10
250.1559567514
 20
1055.9786381729
 30
0.0
 11
309.4506359151
 21
1055.9786381729
 31
0.0
  0
LINE
  5
15C
330
1F
100
AcDbEntity
  8
0
  6
Continuous
 62
     7
370
    15
100
AcDbLine
 10
309.4506359151
 20
1055.9786381729
 30
0.0
 11
309.4506359151
 21
1048.2945983798
 31
0.0
  0
LINE
  5
15D
330
1F
100
AcDbEntity
  8
0
  6
Continuous
 62
     7
370
    15
100
AcDbLine
 10
309.4506359151
 20
1048.2945983798
 30
0.0
 11
250.1559567514
 21
1048.2945983798
 31
0.0
  0
LINE
  5
15E
330
1F
100
AcDbEntity
  8
0
  6
Continuous
 62
     7
370
    15
100
AcDbLine
 10
309.4506359151
 20
1055.9786381729
 30
0.0
 11
629.9493853894
 21
1055.9786381729
 31
0.0
  0
LINE
  5
15F
330
1F
100
AcDbEntity
  8
0
  6
Continuous
 62
     7
370
    15
100
AcDbLine
 10
629.9493853894
 20
1048.2945983798
 30
0.0
 11
309.4506359151
 21
1048.2945983798
 31
0.0
  0
LINE
  5
160
330
1F
100
AcDbEntity
  8
0
  6
Continuous
 62
     7
370
    15
100
AcDbLine
 10
629.9493853894
 20
1040.9786381729
 30
0.0
 11
629.9493853894
 21
1033.2945983798
 31
0.0
  0
LINE
  5
161
330
1F
100
AcDbEntity
  8
0
  6
Continuous
 62
     7
370
    15
100
AcDbLine
 10
629.9493853894
 20
1040.9786381729
 30
0.0
 11
646.6539510567
 21
1040.9786381729
 31
0.0
  0
LINE
  5
162
330
1F
100
AcDbEntity
  8
0
  6
Continuous
 62
     7
370
    15
100
AcDbLine
 10
646.6539510567
 20
1033.2945983798
 30
0.0
 11
646.6539510567
 21
1040.9786381729
 31
0.0
  0
LINE
  5
163
330
1F
100
AcDbEntity
  8
0
  6
Continuous
 62
     7
370
    15
100
AcDbLine
 10
646.6539510567
 20
1033.2945983798
 30
0.0
 11
629.9493853894
 21
1033.2945983798
 31
0.0
  0
LINE
  5
164
330
1F
100
AcDbEntity
  8
0
  6
Continuous
 62
     7
370
    15
100
AcDbLine
 10
309.4506359151
 20
1040.9786381729
 30
0.0
 11
309.4506359151
 21
1033.2945983798
 31
0.0
  0
LINE
  5
165
330
1F
100
AcDbEntity
  8
0
  6
Continuous
 62
     7
370
    15
100
AcDbLine
 10
629.9493853894
 20
1033.2945983798
 30
0.0
 11
309.4506359151
 21
1033.2945983798
 31
0.0
  0
LINE
  5
166
330
1F
100
AcDbEntity
  8
0
  6
Continuous
 62
     7
370
    15
100
AcDbLine
 10
309.4506359151
 20
1040.9786381729
 30
0.0
 11
629.9493853894
 21
1040.9786381729
 31
0.0
  0
LINE
  5
167
330
1F
100
AcDbEntity
  8
0
  6
Continuous
 62
     7
370
    15
100
AcDbLine
 10
250.1559567514
 20
1040.9786381729
 30
0.0
 11
250.1559567514
 21
1033.2945983798
 31
0.0
  0
LINE
  5
168
330
1F
100
AcDbEntity
  8
0
  6
Continuous
 62
     7
370
    15
100
AcDbLine
 10
309.4506359151
 20
1033.2945983798
 30
0.0
 11
250.1559567514
 21
1033.2945983798
 31
0.0
  0
LINE
  5
169
330
1F
100
AcDbEntity
  8
0
  6
Continuous
 62
     7
370
    15
100
AcDbLine
 10
250.1559567514
 20
1040.9786381729
 30
0.0
 11
309.4506359151
 21
1040.9786381729
 31
0.0
  0
LINE
  5
16A
330
1F
100
AcDbEntity
  8
0
  6
Continuous
 62
     7
370
    15
100
AcDbLine
 10
629.9493853894
 20
1025.9786381729
 30
0.0
 11
629.9493853894
 21
1018.2945983798
 31
0.0
  0
LINE
  5
16B
330
1F
100
AcDbEntity
  8
0
  6
Continuous
 62
     7
370
    15
100
AcDbLine
 10
646.6539510567
 20
1018.2945983798
 30
0.0
 11
646.6539510567
 21
1025.9786381729
 31
0.0
  0
LINE
  5
16C
330
1F
100
AcDbEntity
  8
0
  6
Continuous
 62
     7
370
    15
100
AcDbLine
 10
646.6539510567
 20
1018.2945983798
 30
0.0
 11
629.9493853894
 21
1018.2945983798
 31
0.0
  0
LINE
  5
16D
330
1F
100
AcDbEntity
  8
0
  6
Continuous
 62
     7
370
    15
100
AcDbLine
 10
629.9493853894
 20
1025.9786381729
 30
0.0
 11
646.6539510567
 21
1025.9786381729
 31
0.0
  0
LINE
  5
16E
330
1F
100
AcDbEntity
  8
0
  6
Continuous
 62
     7
370
    15
100
AcDbLine
 10
250.1559567514
 20
1025.9786381729
 30
0.0
 11
250.1559567514
 21
1018.2945983798
 31
0.0
  0
LINE
  5
16F
330
1F
100
AcDbEntity
  8
0
  6
Continuous
 62
     7
370
    15
100
AcDbLine
 10
309.4506359151
 20
1025.9786381729
 30
0.0
 11
309.4506359151
 21
1018.2945983798
 31
0.0
  0
LINE
  5
170
330
1F
100
AcDbEntity
  8
0
  6
Continuous
 62
     7
370
    15
100
AcDbLine
 10
309.4506359151
 20
1018.2945983798
 30
0.0
 11
250.1559567514
 21
1018.2945983798
 31
0.0
  0
LINE
  5
171
330
1F
100
AcDbEntity
  8
0
  6
Continuous
 62
     7
370
    15
100
AcDbLine
 10
250.1559567514
 20
1025.9786381729
 30
0.0
 11
309.4506359151
 21
1025.9786381729
 31
0.0
  0
LINE
  5
172
330
1F
100
AcDbEntity
  8
0
  6
Continuous
 62
     7
370
    15
100
AcDbLine
 10
629.9493853894
 20
1018.2945983798
 30
0.0
 11
309.4506359151
 21
1018.2945983798
 31
0.0
  0
LINE
  5
173
330
1F
100
AcDbEntity
  8
0
  6
Continuous
 62
     7
370
    15
100
AcDbLine
 10
309.4506359151
 20
1025.9786381729
 30
0.0
 11
629.9493853894
 21
1025.9786381729
 31
0.0
  0
LINE
  5
174
330
1F
100
AcDbEntity
  8
0
  6
Continuous
 62
     7
370
    15
100
AcDbLine
 10
250.1559567514
 20
1010.9786381729
 30
0.0
 11
250.1559567514
 21
1003.2945983798
 31
0.0
  0
LINE
  5
175
330
1F
100
AcDbEntity
  8
0
  6
Continuous
 62
     7
370
    15
100
AcDbLine
 10
309.4506359151
 20
1010.9786381729
 30
0.0
 11
309.4506359151
 21
1003.2945983798
 31
0.0
  0
LINE
  5
176
330
1F
100
AcDbEntity
  8
0
  6
Continuous
 62
     7
370
    15
100
AcDbLine
 10
309.4506359151
 20
1003.2945983798
 30
0.0
 11
250.1559567514
 21
1003.2945983798
 31
0.0
  0
LINE
  5
177
330
1F
100
AcDbEntity
  8
0
  6
Continuous
 62
     7
370
    15
100
AcDbLine
 10
250.1559567514
 20
1010.9786381729
 30
0.0
 11
309.4506359151
 21
1010.9786381729
 31
0.0
  0
LINE
  5
178
330
1F
100
AcDbEntity
  8
0
  6
Continuous
 62
     7
370
    15
100
AcDbLine
 10
629.9493853894
 20
1010.9786381729
 30
0.0
 11
629.9493853894
 21
1003.2945983798
 31
0.0
  0
LINE
  5
179
330
1F
100
AcDbEntity
  8
0
  6
Continuous
 62
     7
370
    15
100
AcDbLine
 10
629.9493853894
 20
1003.2945983798
 30
0.0
 11
309.4506359151
 21
1003.2945983798
 31
0.0
  0
LINE
  5
17A
330
1F
100
AcDbEntity
  8
0
  6
Continuous
 62
     7
370
    15
100
AcDbLine
 10
309.4506359151
 20
1010.9786381729
 30
0.0
 11
629.9493853894
 21
1010.9786381729
 31
0.0
  0
LINE
  5
17B
330
1F
100
AcDbEntity
  8
0
  6
Continuous
 62
     7
370
    15
100
AcDbLine
 10
646.6539510567
 20
1003.2945983798
 30
0.0
 11
646.6539510567
 21
1010.9786381729
 31
0.0
  0
LINE
  5
17C
330
1F
100
AcDbEntity
  8
0
  6
Continuous
 62
     7
370
    15
100
AcDbLine
 10
646.6539510567
 20
1003.2945983798
 30
0.0
 11
629.9493853894
 21
1003.2945983798
 31
0.0
  0
LINE
  5
17D
330
1F
100
AcDbEntity
  8
0
  6
Continuous
 62
     7
370
    15
100
AcDbLine
 10
629.9493853894
 20
1010.9786381729
 30
0.0
 11
646.6539510567
 21
1010.9786381729
 31
0.0
  0
LINE
  5
17E
330
1F
100
AcDbEntity
  8
0
  6
Continuous
 62
     7
370
    15
100
AcDbLine
 10
629.9493853894
 20
995.9786381729
 30
0.0
 11
629.9493853894
 21
988.2945983798
 31
0.0
  0
LINE
  5
17F
330
1F
100
AcDbEntity
  8
0
  6
Continuous
 62
     7
370
    15
100
AcDbLine
 10
629.9493853894
 20
995.9786381729
 30
0.0
 11
646.6539510567
 21
995.9786381729
 31
0.0
  0
LINE
  5
180
330
1F
100
AcDbEntity
  8
0
  6
Continuous
 62
     7
370
    15
100
AcDbLine
 10
646.6539510567
 20
988.2945983798
 30
0.0
 11
646.6539510567
 21
995.9786381729
 31
0.0
  0
LINE
  5
181
330
1F
100
AcDbEntity
  8
0
  6
Continuous
 62
     7
370
    15
100
AcDbLine
 10
646.6539510567
 20
988.2945983798
 30
0.0
 11
629.9493853894
 21
988.2945983798
 31
0.0
  0
LINE
  5
182
330
1F
100
AcDbEntity
  8
0
  6
Continuous
 62
     7
370
    15
100
AcDbLine
 10
309.4506359151
 20
995.9786381729
 30
0.0
 11
309.4506359151
 21
988.2945983798
 31
0.0
  0
LINE
  5
183
330
1F
100
AcDbEntity
  8
0
  6
Continuous
 62
     7
370
    15
100
AcDbLine
 10
629.9493853894
 20
988.2945983798
 30
0.0
 11
309.4506359151
 21
988.2945983798
 31
0.0
  0
LINE
  5
184
330
1F
100
AcDbEntity
  8
0
  6
Continuous
 62
     7
370
    15
100
AcDbLine
 10
309.4506359151
 20
995.9786381729
 30
0.0
 11
629.9493853894
 21
995.9786381729
 31
0.0
  0
LINE
  5
185
330
1F
100
AcDbEntity
  8
0
  6
Continuous
 62
     7
370
    15
100
AcDbLine
 10
250.1559567514
 20
995.9786381729
 30
0.0
 11
250.1559567514
 21
988.2945983798
 31
0.0
  0
LINE
  5
186
330
1F
100
AcDbEntity
  8
0
  6
Continuous
 62
     7
370
    15
100
AcDbLine
 10
309.4506359151
 20
988.2945983798
 30
0.0
 11
250.1559567514
 21
988.2945983798
 31
0.0
  0
LINE
  5
187
330
1F
100
AcDbEntity
  8
0
  6
Continuous
 62
     7
370
    15
100
AcDbLine
 10
250.1559567514
 20
995.9786381729
 30
0.0
 11
309.4506359151
 21
995.9786381729
 31
0.0
  0
LINE
  5
188
330
1F
100
AcDbEntity
  8
0
  6
Continuous
 62
     7
370
    15
100
AcDbLine
 10
629.9493853894
 20
980.9786381729
 30
0.0
 11
629.9493853894
 21
973.2945983798
 31
0.0
  0
LINE
  5
189
330
1F
100
AcDbEntity
  8
0
  6
Continuous
 62
     7
370
    15
100
AcDbLine
 10
646.6539510567
 20
973.2945983798
 30
0.0
 11
646.6539510567
 21
980.9786381729
 31
0.0
  0
LINE
  5
18A
330
1F
100
AcDbEntity
  8
0
  6
Continuous
 62
     7
370
    15
100
AcDbLine
 10
646.6539510567
 20
973.2945983798
 30
0.0
 11
629.9493853894
 21
973.2945983798
 31
0.0
  0
LINE
  5
18B
330
1F
100
AcDbEntity
  8
0
  6
Continuous
 62
     7
370
    15
100
AcDbLine
 10
629.9493853894
 20
980.9786381729
 30
0.0
 11
646.6539510567
 21
980.9786381729
 31
0.0
  0
LINE
  5
18C
330
1F
100
AcDbEntity
  8
0
  6
Continuous
 62
     7
370
    15
100
AcDbLine
 10
309.4506359151
 20
980.9786381729
 30
0.0
 11
309.4506359151
 21
973.2945983798
 31
0.0
  0
LINE
  5
18D
330
1F
100
AcDbEntity
  8
0
  6
Continuous
 62
     7
370
    15
100
AcDbLine
 10
629.9493853894
 20
973.2945983798
 30
0.0
 11
309.4506359151
 21
973.2945983798
 31
0.0
  0
LINE
  5
18E
330
1F
100
AcDbEntity
  8
0
  6
Continuous
 62
     7
370
    15
100
AcDbLine
 10
309.4506359151
 20
980.9786381729
 30
0.0
 11
629.9493853894
 21
980.9786381729
 31
0.0
  0
LINE
  5
18F
330
1F
100
AcDbEntity
  8
0
  6
Continuous
 62
     7
370
    15
100
AcDbLine
 10
250.1559567514
 20
980.9786381729
 30
0.0
 11
250.1559567514
 21
973.2945983798
 31
0.0
  0
LINE
  5
190
330
1F
100
AcDbEntity
  8
0
  6
Continuous
 62
     7
370
    15
100
AcDbLine
 10
309.4506359151
 20
973.2945983798
 30
0.0
 11
250.1559567514
 21
973.2945983798
 31
0.0
  0
LINE
  5
191
330
1F
100
AcDbEntity
  8
0
  6
Continuous
 62
     7
370
    15
100
AcDbLine
 10
250.1559567514
 20
980.9786381729
 30
0.0
 11
309.4506359151
 21
980.9786381729
 31
0.0
  0
LINE
  5
192
330
1F
100
AcDbEntity
  8
0
  6
Continuous
 62
     7
370
    15
100
AcDbLine
 10
629.9493853894
 20
965.9786381729
 30
0.0
 11
629.9493853894
 21
958.2945983798
 31
0.0
  0
LINE
  5
193
330
1F
100
AcDbEntity
  8
0
  6
Continuous
 62
     7
370
    15
100
AcDbLine
 10
646.6539510567
 20
958.2945983798
 30
0.0
 11
646.6539510567
 21
965.9786381729
 31
0.0
  0
LINE
  5
194
330
1F
100
AcDbEntity
  8
0
  6
Continuous
 62
     7
370
    15
100
AcDbLine
 10
646.6539510567
 20
958.2945983798
 30
0.0
 11
629.9493853894
 21
958.2945983798
 31
0.0
  0
LINE
  5
195
330
1F
100
AcDbEntity
  8
0
  6
Continuous
 62
     7
370
    15
100
AcDbLine
 10
629.9493853894
 20
965.9786381729
 30
0.0
 11
646.6539510567
 21
965.9786381729
 31
0.0
  0
LINE
  5
196
330
1F
100
AcDbEntity
  8
0
  6
Continuous
 62
     7
370
    15
100
AcDbLine
 10
309.4506359151
 20
965.9786381729
 30
0.0
 11
309.4506359151
 21
958.2945983798
 31
0.0
  0
LINE
  5
197
330
1F
100
AcDbEntity
  8
0
  6
Continuous
 62
     7
370
    15
100
AcDbLine
 10
629.9493853894
 20
958.2945983798
 30
0.0
 11
309.4506359151
 21
958.2945983798
 31
0.0
  0
LINE
  5
198
330
1F
100
AcDbEntity
  8
0
  6
Continuous
 62
     7
370
    15
100
AcDbLine
 10
309.4506359151
 20
965.9786381729
 30
0.0
 11
629.9493853894
 21
965.9786381729
 31
0.0
  0
LINE
  5
199
330
1F
100
AcDbEntity
  8
0
  6
Continuous
 62
     7
370
    15
100
AcDbLine
 10
250.1559567514
 20
965.9786381729
 30
0.0
 11
250.1559567514
 21
958.2945983798
 31
0.0
  0
LINE
  5
19A
330
1F
100
AcDbEntity
  8
0
  6
Continuous
 62
     7
370
    15
100
AcDbLine
 10
309.4506359151
 20
958.2945983798
 30
0.0
 11
250.1559567514
 21
958.2945983798
 31
0.0
  0
LINE
  5
19B
330
1F
100
AcDbEntity
  8
0
  6
Continuous
 62
     7
370
    15
100
AcDbLine
 10
250.1559567514
 20
965.9786381729
 30
0.0
 11
309.4506359151
 21
965.9786381729
 31
0.0
  0
LINE
  5
19C
330
1F
100
AcDbEntity
  8
0
  6
Continuous
 62
     7
370
    15
100
AcDbLine
 10
309.4506359151
 20
950.9786381729
 30
0.0
 11
309.4506359151
 21
943.2945983798
 31
0.0
  0
LINE
  5
19D
330
1F
100
AcDbEntity
  8
0
  6
Continuous
 62
     7
370
    15
100
AcDbLine
 10
629.9493853894
 20
950.9786381729
 30
0.0
 11
629.9493853894
 21
943.2945983798
 31
0.0
  0
LINE
  5
19E
330
1F
100
AcDbEntity
  8
0
  6
Continuous
 62
     7
370
    15
100
AcDbLine
 10
629.9493853894
 20
943.2945983798
 30
0.0
 11
309.4506359151
 21
943.2945983798
 31
0.0
  0
LINE
  5
19F
330
1F
100
AcDbEntity
  8
0
  6
Continuous
 62
     7
370
    15
100
AcDbLine
 10
309.4506359151
 20
950.9786381729
 30
0.0
 11
629.9493853894
 21
950.9786381729
 31
0.0
  0
LINE
  5
1A0
330
1F
100
AcDbEntity
  8
0
  6
Continuous
 62
     7
370
    15
100
AcDbLine
 10
646.6539510567
 20
943.2945983798
 30
0.0
 11
646.6539510567
 21
950.9786381729
 31
0.0
  0
LINE
  5
1A1
330
1F
100
AcDbEntity
  8
0
  6
Continuous
 62
     7
370
    15
100
AcDbLine
 10
646.6539510567
 20
943.2945983798
 30
0.0
 11
629.9493853894
 21
943.2945983798
 31
0.0
  0
LINE
  5
1A2
330
1F
100
AcDbEntity
  8
0
  6
Continuous
 62
     7
370
    15
100
AcDbLine
 10
629.9493853894
 20
950.9786381729
 30
0.0
 11
646.6539510567
 21
950.9786381729
 31
0.0
  0
LINE
  5
1A3
330
1F
100
AcDbEntity
  8
0
  6
Continuous
 62
     7
370
    15
100
AcDbLine
 10
250.1559567514
 20
950.9786381729
 30
0.0
 11
250.1559567514
 21
943.2945983798
 31
0.0
  0
LINE
  5
1A4
330
1F
100
AcDbEntity
  8
0
  6
Continuous
 62
     7
370
    15
100
AcDbLine
 10
309.4506359151
 20
943.2945983798
 30
0.0
 11
250.1559567514
 21
943.2945983798
 31
0.0
  0
LINE
  5
1A5
330
1F
100
AcDbEntity
  8
0
  6
Continuous
 62
     7
370
    15
100
AcDbLine
 10
250.1559567514
 20
950.9786381729
 30
0.0
 11
309.4506359151
 21
950.9786381729
 31
0.0
  0
LINE
  5
1A6
330
1F
100
AcDbEntity
  8
0
  6
Continuous
 62
     7
370
    15
100
AcDbLine
 10
629.9493853894
 20
935.9786381729
 30
0.0
 11
629.9493853894
 21
928.2945983798
 31
0.0
  0
LINE
  5
1A7
330
1F
100
AcDbEntity
  8
0
  6
Continuous
 62
     7
370
    15
100
AcDbLine
 10
629.9493853894
 20
935.9786381729
 30
0.0
 11
646.6539510567
 21
935.9786381729
 31
0.0
  0
LINE
  5
1A8
330
1F
100
AcDbEntity
  8
0
  6
Continuous
 62
     7
370
    15
100
AcDbLine
 10
646.6539510567
 20
928.2945983798
 30
0.0
 11
646.6539510567
 21
935.9786381729
 31
0.0
  0
LINE
  5
1A9
330
1F
100
AcDbEntity
  8
0
  6
Continuous
 62
     7
370
    15
100
AcDbLine
 10
646.6539510567
 20
928.2945983798
 30
0.0
 11
629.9493853894
 21
928.2945983798
 31
0.0
  0
LINE
  5
1AA
330
1F
100
AcDbEntity
  8
0
  6
Continuous
 62
     7
370
    15
100
AcDbLine
 10
250.1559567514
 20
935.9786381729
 30
0.0
 11
250.1559567514
 21
928.2945983798
 31
0.0
  0
LINE
  5
1AB
330
1F
100
AcDbEntity
  8
0
  6
Continuous
 62
     7
370
    15
100
AcDbLine
 10
309.4506359151
 20
935.9786381729
 30
0.0
 11
309.4506359151
 21
928.2945983798
 31
0.0
  0
LINE
  5
1AC
330
1F
100
AcDbEntity
  8
0
  6
Continuous
 62
     7
370
    15
100
AcDbLine
 10
309.4506359151
 20
928.2945983798
 30
0.0
 11
250.1559567514
 21
928.2945983798
 31
0.0
  0
LINE
  5
1AD
330
1F
100
AcDbEntity
  8
0
  6
Continuous
 62
     7
370
    15
100
AcDbLine
 10
250.1559567514
 20
935.9786381729
 30
0.0
 11
309.4506359151
 21
935.9786381729
 31
0.0
  0
LINE
  5
1AE
330
1F
100
AcDbEntity
  8
0
  6
Continuous
 62
     7
370
    15
100
AcDbLine
 10
629.9493853894
 20
928.2945983798
 30
0.0
 11
309.4506359151
 21
928.2945983798
 31
0.0
  0
LINE
  5
1AF
330
1F
100
AcDbEntity
  8
0
  6
Continuous
 62
     7
370
    15
100
AcDbLine
 10
309.4506359151
 20
935.9786381729
 30
0.0
 11
629.9493853894
 21
935.9786381729
 31
0.0
  0
LINE
  5
1B0
330
1F
100
AcDbEntity
  8
0
  6
Continuous
 62
     7
370
    15
100
AcDbLine
 10
250.1559567514
 20
920.9786381729
 30
0.0
 11
250.1559567514
 21
913.2945983798
 31
0.0
  0
LINE
  5
1B1
330
1F
100
AcDbEntity
  8
0
  6
Continuous
 62
     7
370
    15
100
AcDbLine
 10
250.1559567514
 20
920.9786381729
 30
0.0
 11
309.4506359151
 21
920.9786381729
 31
0.0
  0
LINE
  5
1B2
330
1F
100
AcDbEntity
  8
0
  6
Continuous
 62
     7
370
    15
100
AcDbLine
 10
309.4506359151
 20
920.9786381729
 30
0.0
 11
309.4506359151
 21
913.2945983798
 31
0.0
  0
LINE
  5
1B3
330
1F
100
AcDbEntity
  8
0
  6
Continuous
 62
     7
370
    15
100
AcDbLine
 10
309.4506359151
 20
913.2945983798
 30
0.0
 11
250.1559567514
 21
913.2945983798
 31
0.0
  0
LINE
  5
1B4
330
1F
100
AcDbEntity
  8
0
  6
Continuous
 62
     7
370
    15
100
AcDbLine
 10
309.4506359151
 20
920.9786381729
 30
0.0
 11
629.9493853894
 21
920.9786381729
 31
0.0
  0
LINE
  5
1B5
330
1F
100
AcDbEntity
  8
0
  6
Continuous
 62
     7
370
    15
100
AcDbLine
 10
629.9493853894
 20
920.9786381729
 30
0.0
 11
629.9493853894
 21
913.2945983798
 31
0.0
  0
LINE
  5
1B6
330
1F
100
AcDbEntity
  8
0
  6
Continuous
 62
     7
370
    15
100
AcDbLine
 10
629.9493853894
 20
913.2945983798
 30
0.0
 11
309.4506359151
 21
913.2945983798
 31
0.0
  0
LINE
  5
1B7
330
1F
100
AcDbEntity
  8
0
  6
Continuous
 62
     7
370
    15
100
AcDbLine
 10
629.9493853894
 20
920.9786381729
 30
0.0
 11
646.6539510567
 21
920.9786381729
 31
0.0
  0
LINE
  5
1B8
330
1F
100
AcDbEntity
  8
0
  6
Continuous
 62
     7
370
    15
100
AcDbLine
 10
646.6539510567
 20
913.2945983798
 30
0.0
 11
646.6539510567
 21
920.9786381729
 31
0.0
  0
LINE
  5
1B9
330
1F
100
AcDbEntity
  8
0
  6
Continuous
 62
     7
370
    15
100
AcDbLine
 10
646.6539510567
 20
913.2945983798
 30
0.0
 11
629.9493853894
 21
913.2945983798
 31
0.0
  0
LINE
  5
1BA
330
1F
100
AcDbEntity
  8
0
  6
Continuous
 62
     7
370
    15
100
AcDbLine
 10
250.1559567514
 20
905.9786381729
 30
0.0
 11
250.1559567514
 21
898.2945983798
 31
0.0
  0
LINE
  5
1BB
330
1F
100
AcDbEntity
  8
0
  6
Continuous
 62
     7
370
    15
100
AcDbLine
 10
250.1559567514
 20
905.9786381729
 30
0.0
 11
309.4506359151
 21
905.9786381729
 31
0.0
  0
LINE
  5
1BC
330
1F
100
AcDbEntity
  8
0
  6
Continuous
 62
     7
370
    15
100
AcDbLine
 10
309.4506359151
 20
905.9786381729
 30
0.0
 11
309.4506359151
 21
898.2945983798
 31
0.0
  0
LINE
  5
1BD
330
1F
100
AcDbEntity
  8
0
  6
Continuous
 62
     7
370
    15
100
AcDbLine
 10
309.4506359151
 20
898.2945983798
 30
0.0
 11
250.1559567514
 21
898.2945983798
 31
0.0
  0
LINE
  5
1BE
330
1F
100
AcDbEntity
  8
0
  6
Continuous
 62
     7
370
    15
100
AcDbLine
 10
309.4506359151
 20
905.9786381729
 30
0.0
 11
629.9493853894
 21
905.9786381729
 31
0.0
  0
LINE
  5
1BF
330
1F
100
AcDbEntity
  8
0
  6
Continuous
 62
     7
370
    15
100
AcDbLine
 10
629.9493853894
 20
905.9786381729
 30
0.0
 11
629.9493853894
 21
898.2945983798
 31
0.0
  0
LINE
  5
1C0
330
1F
100
AcDbEntity
  8
0
  6
Continuous
 62
     7
370
    15
100
AcDbLine
 10
629.9493853894
 20
898.2945983798
 30
0.0
 11
309.4506359151
 21
898.2945983798
 31
0.0
  0
LINE
  5
1C1
330
1F
100
AcDbEntity
  8
0
  6
Continuous
 62
     7
370
    15
100
AcDbLine
 10
629.9493853894
 20
905.9786381729
 30
0.0
 11
646.6539510567
 21
905.9786381729
 31
0.0
  0
LINE
  5
1C2
330
1F
100
AcDbEntity
  8
0
  6
Continuous
 62
     7
370
    15
100
AcDbLine
 10
646.6539510567
 20
898.2945983798
 30
0.0
 11
646.6539510567
 21
905.9786381729
 31
0.0
  0
LINE
  5
1C3
330
1F
100
AcDbEntity
  8
0
  6
Continuous
 62
     7
370
    15
100
AcDbLine
 10
646.6539510567
 20
898.2945983798
 30
0.0
 11
629.9493853894
 21
898.2945983798
 31
0.0
  0
LINE
  5
1C4
330
1F
100
AcDbEntity
  8
0
  6
Continuous
 62
     7
370
    15
100
AcDbLine
 10
629.9493853894
 20
890.9786381729
 30
0.0
 11
629.9493853894
 21
883.2945983798
 31
0.0
  0
LINE
  5
1C5
330
1F
100
AcDbEntity
  8
0
  6
Continuous
 62
     7
370
    15
100
AcDbLine
 10
646.6539510567
 20
883.2945983798
 30
0.0
 11
646.6539510567
 21
890.9786381729
 31
0.0
  0
LINE
  5
1C6
330
1F
100
AcDbEntity
  8
0
  6
Continuous
 62
     7
370
    15
100
AcDbLine
 10
646.6539510567
 20
883.2945983798
 30
0.0
 11
629.9493853894
 21
883.2945983798
 31
0.0
  0
LINE
  5
1C7
330
1F
100
AcDbEntity
  8
0
  6
Continuous
 62
     7
370
    15
100
AcDbLine
 10
629.9493853894
 20
890.9786381729
 30
0.0
 11
646.6539510567
 21
890.9786381729
 31
0.0
  0
LINE
  5
1C8
330
1F
100
AcDbEntity
  8
0
  6
Continuous
 62
     7
370
    15
100
AcDbLine
 10
250.1559567514
 20
890.9786381729
 30
0.0
 11
250.1559567514
 21
883.2945983798
 31
0.0
  0
LINE
  5
1C9
330
1F
100
AcDbEntity
  8
0
  6
Continuous
 62
     7
370
    15
100
AcDbLine
 10
309.4506359151
 20
890.9786381729
 30
0.0
 11
309.4506359151
 21
883.2945983798
 31
0.0
  0
LINE
  5
1CA
330
1F
100
AcDbEntity
  8
0
  6
Continuous
 62
     7
370
    15
100
AcDbLine
 10
309.4506359151
 20
883.2945983798
 30
0.0
 11
250.1559567514
 21
883.2945983798
 31
0.0
  0
LINE
  5
1CB
330
1F
100
AcDbEntity
  8
0
  6
Continuous
 62
     7
370
    15
100
AcDbLine
 10
250.1559567514
 20
890.9786381729
 30
0.0
 11
309.4506359151
 21
890.9786381729
 31
0.0
  0
LINE
  5
1CC
330
1F
100
AcDbEntity
  8
0
  6
Continuous
 62
     7
370
    15
100
AcDbLine
 10
629.9493853894
 20
883.2945983798
 30
0.0
 11
309.4506359151
 21
883.2945983798
 31
0.0
  0
LINE
  5
1CD
330
1F
100
AcDbEntity
  8
0
  6
Continuous
 62
     7
370
    15
100
AcDbLine
 10
309.4506359151
 20
890.9786381729
 30
0.0
 11
629.9493853894
 21
890.9786381729
 31
0.0
  0
LINE
  5
1CE
330
1F
100
AcDbEntity
  8
0
  6
Continuous
 62
     7
370
    15
100
AcDbLine
 10
309.4506359151
 20
875.9786381729
 30
0.0
 11
309.4506359151
 21
868.2945983798
 31
0.0
  0
LINE
  5
1CF
330
1F
100
AcDbEntity
  8
0
  6
Continuous
 62
     7
370
    15
100
AcDbLine
 10
309.4506359151
 20
875.9786381729
 30
0.0
 11
629.9493853894
 21
875.9786381729
 31
0.0
  0
LINE
  5
1D0
330
1F
100
AcDbEntity
  8
0
  6
Continuous
 62
     7
370
    15
100
AcDbLine
 10
629.9493853894
 20
875.9786381729
 30
0.0
 11
629.9493853894
 21
868.2945983798
 31
0.0
  0
LINE
  5
1D1
330
1F
100
AcDbEntity
  8
0
  6
Continuous
 62
     7
370
    15
100
AcDbLine
 10
629.9493853894
 20
868.2945983798
 30
0.0
 11
309.4506359151
 21
868.2945983798
 31
0.0
  0
LINE
  5
1D2
330
1F
100
AcDbEntity
  8
0
  6
Continuous
 62
     7
370
    15
100
AcDbLine
 10
250.1559567514
 20
875.9786381729
 30
0.0
 11
250.1559567514
 21
868.2945983798
 31
0.0
  0
LINE
  5
1D3
330
1F
100
AcDbEntity
  8
0
  6
Continuous
 62
     7
370
    15
100
AcDbLine
 10
309.4506359151
 20
868.2945983798
 30
0.0
 11
250.1559567514
 21
868.2945983798
 31
0.0
  0
LINE
  5
1D4
330
1F
100
AcDbEntity
  8
0
  6
Continuous
 62
     7
370
    15
100
AcDbLine
 10
250.1559567514
 20
875.9786381729
 30
0.0
 11
309.4506359151
 21
875.9786381729
 31
0.0
  0
LINE
  5
1D5
330
1F
100
AcDbEntity
  8
0
  6
Continuous
 62
     7
370
    15
100
AcDbLine
 10
646.6539510567
 20
868.2945983798
 30
0.0
 11
646.6539510567
 21
875.9786381729
 31
0.0
  0
LINE
  5
1D6
330
1F
100
AcDbEntity
  8
0
  6
Continuous
 62
     7
370
    15
100
AcDbLine
 10
646.6539510567
 20
868.2945983798
 30
0.0
 11
629.9493853894
 21
868.2945983798
 31
0.0
  0
LINE
  5
1D7
330
1F
100
AcDbEntity
  8
0
  6
Continuous
 62
     7
370
    15
100
AcDbLine
 10
629.9493853894
 20
875.9786381729
 30
0.0
 11
646.6539510567
 21
875.9786381729
 31
0.0
  0
LINE
  5
1D8
330
1F
100
AcDbEntity
  8
0
  6
Continuous
 62
     7
370
    15
100
AcDbLine
 10
250.1559567514
 20
860.9786381729
 30
0.0
 11
250.1559567514
 21
853.2945983798
 31
0.0
  0
LINE
  5
1D9
330
1F
100
AcDbEntity
  8
0
  6
Continuous
 62
     7
370
    15
100
AcDbLine
 10
250.1559567514
 20
860.9786381729
 30
0.0
 11
309.4506359151
 21
860.9786381729
 31
0.0
  0
LINE
  5
1DA
330
1F
100
AcDbEntity
  8
0
  6
Continuous
 62
     7
370
    15
100
AcDbLine
 10
309.4506359151
 20
860.9786381729
 30
0.0
 11
309.4506359151
 21
853.2945983798
 31
0.0
  0
LINE
  5
1DB
330
1F
100
AcDbEntity
  8
0
  6
Continuous
 62
     7
370
    15
100
AcDbLine
 10
309.4506359151
 20
853.2945983798
 30
0.0
 11
250.1559567514
 21
853.2945983798
 31
0.0
  0
LINE
  5
1DC
330
1F
100
AcDbEntity
  8
0
  6
Continuous
 62
     7
370
    15
100
AcDbLine
 10
629.9493853894
 20
860.9786381729
 30
0.0
 11
629.9493853894
 21
853.2945983798
 31
0.0
  0
LINE
  5
1DD
330
1F
100
AcDbEntity
  8
0
  6
Continuous
 62
     7
370
    15
100
AcDbLine
 10
629.9493853894
 20
860.9786381729
 30
0.0
 11
646.6539510567
 21
860.9786381729
 31
0.0
  0
LINE
  5
1DE
330
1F
100
AcDbEntity
  8
0
  6
Continuous
 62
     7
370
    15
100
AcDbLine
 10
646.6539510567
 20
853.2945983798
 30
0.0
 11
646.6539510567
 21
860.9786381729
 31
0.0
  0
LINE
  5
1DF
330
1F
100
AcDbEntity
  8
0
  6
Continuous
 62
     7
370
    15
100
AcDbLine
 10
646.6539510567
 20
853.2945983798
 30
0.0
 11
629.9493853894
 21
853.2945983798
 31
0.0
  0
LINE
  5
1E0
330
1F
100
AcDbEntity
  8
0
  6
Continuous
 62
     7
370
    15
100
AcDbLine
 10
309.4506359151
 20
860.9786381729
 30
0.0
 11
629.9493853894
 21
860.9786381729
 31
0.0
  0
LINE
  5
1E1
330
1F
100
AcDbEntity
  8
0
  6
Continuous
 62
     7
370
    15
100
AcDbLine
 10
629.9493853894
 20
853.2945983798
 30
0.0
 11
309.4506359151
 21
853.2945983798
 31
0.0
  0
LINE
  5
1E2
330
1F
100
AcDbEntity
  8
0
  6
Continuous
 62
     7
370
    15
100
AcDbLine
 10
309.4506359151
 20
845.9786381729
 30
0.0
 11
309.4506359151
 21
838.2945983798
 31
0.0
  0
LINE
  5
1E3
330
1F
100
AcDbEntity
  8
0
  6
Continuous
 62
     7
370
    15
100
AcDbLine
 10
629.9493853894
 20
845.9786381729
 30
0.0
 11
629.9493853894
 21
838.2945983798
 31
0.0
  0
LINE
  5
1E4
330
1F
100
AcDbEntity
  8
0
  6
Continuous
 62
     7
370
    15
100
AcDbLine
 10
629.9493853894
 20
838.2945983798
 30
0.0
 11
309.4506359151
 21
838.2945983798
 31
0.0
  0
LINE
  5
1E5
330
1F
100
AcDbEntity
  8
0
  6
Continuous
 62
     7
370
    15
100
AcDbLine
 10
309.4506359151
 20
845.9786381729
 30
0.0
 11
629.9493853894
 21
845.9786381729
 31
0.0
  0
LINE
  5
1E6
330
1F
100
AcDbEntity
  8
0
  6
Continuous
 62
     7
370
    15
100
AcDbLine
 10
646.6539510567
 20
838.2945983798
 30
0.0
 11
646.6539510567
 21
845.9786381729
 31
0.0
  0
LINE
  5
1E7
330
1F
100
AcDbEntity
  8
0
  6
Continuous
 62
     7
370
    15
100
AcDbLine
 10
646.6539510567
 20
838.2945983798
 30
0.0
 11
629.9493853894
 21
838.2945983798
 31
0.0
  0
LINE
  5
1E8
330
1F
100
AcDbEntity
  8
0
  6
Continuous
 62
     7
370
    15
100
AcDbLine
 10
629.9493853894
 20
845.9786381729
 30
0.0
 11
646.6539510567
 21
845.9786381729
 31
0.0
  0
LINE
  5
1E9
330
1F
100
AcDbEntity
  8
0
  6
Continuous
 62
     7
370
    15
100
AcDbLine
 10
250.1559567514
 20
845.9786381729
 30
0.0
 11
250.1559567514
 21
838.2945983798
 31
0.0
  0
LINE
  5
1EA
330
1F
100
AcDbEntity
  8
0
  6
Continuous
 62
     7
370
    15
100
AcDbLine
 10
309.4506359151
 20
838.2945983798
 30
0.0
 11
250.1559567514
 21
838.2945983798
 31
0.0
  0
LINE
  5
1EB
330
1F
100
AcDbEntity
  8
0
  6
Continuous
 62
     7
370
    15
100
AcDbLine
 10
250.1559567514
 20
845.9786381729
 30
0.0
 11
309.4506359151
 21
845.9786381729
 31
0.0
  0
LINE
  5
1EC
330
1F
100
AcDbEntity
  8
0
  6
Continuous
 62
     7
370
    15
100
AcDbLine
 10
250.1559567514
 20
830.9786381729
 30
0.0
 11
250.1559567514
 21
823.2945983798
 31
0.0
  0
LINE
  5
1ED
330
1F
100
AcDbEntity
  8
0
  6
Continuous
 62
     7
370
    15
100
AcDbLine
 10
250.1559567514
 20
830.9786381729
 30
0.0
 11
309.4506359151
 21
830.9786381729
 31
0.0
  0
LINE
  5
1EE
330
1F
100
AcDbEntity
  8
0
  6
Continuous
 62
     7
370
    15
100
AcDbLine
 10
309.4506359151
 20
830.9786381729
 30
0.0
 11
309.4506359151
 21
823.2945983798
 31
0.0
  0
LINE
  5
1EF
330
1F
100
AcDbEntity
  8
0
  6
Continuous
 62
     7
370
    15
100
AcDbLine
 10
309.4506359151
 20
823.2945983798
 30
0.0
 11
250.1559567514
 21
823.2945983798
 31
0.0
  0
LINE
  5
1F0
330
1F
100
AcDbEntity
  8
0
  6
Continuous
 62
     7
370
    15
100
AcDbLine
 10
309.4506359151
 20
830.9786381729
 30
0.0
 11
629.9493853894
 21
830.9786381729
 31
0.0
  0
LINE
  5
1F1
330
1F
100
AcDbEntity
  8
0
  6
Continuous
 62
     7
370
    15
100
AcDbLine
 10
629.9493853894
 20
830.9786381729
 30
0.0
 11
629.9493853894
 21
823.2945983798
 31
0.0
  0
LINE
  5
1F2
330
1F
100
AcDbEntity
  8
0
  6
Continuous
 62
     7
370
    15
100
AcDbLine
 10
629.9493853894
 20
823.2945983798
 30
0.0
 11
309.4506359151
 21
823.2945983798
 31
0.0
  0
LINE
  5
1F3
330
1F
100
AcDbEntity
  8
0
  6
Continuous
 62
     7
370
    15
100
AcDbLine
 10
629.9493853894
 20
830.9786381729
 30
0.0
 11
646.6539510567
 21
830.9786381729
 31
0.0
  0
LINE
  5
1F4
330
1F
100
AcDbEntity
  8
0
  6
Continuous
 62
     7
370
    15
100
AcDbLine
 10
646.6539510567
 20
823.2945983798
 30
0.0
 11
646.6539510567
 21
830.9786381729
 31
0.0
  0
LINE
  5
1F5
330
1F
100
AcDbEntity
  8
0
  6
Continuous
 62
     7
370
    15
100
AcDbLine
 10
646.6539510567
 20
823.2945983798
 30
0.0
 11
629.9493853894
 21
823.2945983798
 31
0.0
  0
LINE
  5
1F6
330
1F
100
AcDbEntity
  8
0
  6
Continuous
 62
     7
370
    15
100
AcDbLine
 10
629.9493853894
 20
815.9786381729
 30
0.0
 11
629.9493853894
 21
806.6741834074
 31
0.0
  0
LINE
  5
1F7
330
1F
100
AcDbEntity
  8
0
  6
Continuous
 62
     7
370
    15
100
AcDbLine
 10
629.9493853894
 20
815.9786381729
 30
0.0
 11
646.6539510567
 21
815.9786381729
 31
0.0
  0
LINE
  5
1F8
330
1F
100
AcDbEntity
  8
0
  6
Continuous
 62
     7
370
    15
100
AcDbLine
 10
646.6539510567
 20
806.6741834074
 30
0.0
 11
646.6539510567
 21
815.9786381729
 31
0.0
  0
LINE
  5
1F9
330
1F
100
AcDbEntity
  8
0
  6
Continuous
 62
     7
370
    15
100
AcDbLine
 10
629.9493853894
 20
806.6741834074
 30
0.0
 11
646.6539510567
 21
806.6741834074
 31
0.0
  0
LINE
  5
1FA
330
1F
100
AcDbEntity
  8
0
  6
Continuous
 62
     7
370
    15
100
AcDbLine
 10
309.4506359151
 20
806.6741834074
 30
0.0
 11
629.9493853894
 21
806.6741834074
 31
0.0
  0
LINE
  5
1FB
330
1F
100
AcDbEntity
  8
0
  6
Continuous
 62
     7
370
    15
100
AcDbLine
 10
309.4506359151
 20
815.9786381729
 30
0.0
 11
309.4506359151
 21
806.6741834074
 31
0.0
  0
LINE
  5
1FC
330
1F
100
AcDbEntity
  8
0
  6
Continuous
 62
     7
370
    15
100
AcDbLine
 10
309.4506359151
 20
815.9786381729
 30
0.0
 11
629.9493853894
 21
815.9786381729
 31
0.0
  0
LINE
  5
1FD
330
1F
100
AcDbEntity
  8
0
  6
Continuous
 62
     7
370
    15
100
AcDbLine
 10
250.1559567514
 20
806.6741834074
 30
0.0
 11
309.4506359151
 21
806.6741834074
 31
0.0
  0
LINE
  5
1FE
330
1F
100
AcDbEntity
  8
0
  6
Continuous
 62
     7
370
    15
100
AcDbLine
 10
250.1559567514
 20
815.9786381729
 30
0.0
 11
250.1559567514
 21
806.6741834074
 31
0.0
  0
LINE
  5
1FF
330
1F
100
AcDbEntity
  8
0
  6
Continuous
 62
     7
370
    15
100
AcDbLine
 10
250.1559567514
 20
815.9786381729
 30
0.0
 11
309.4506359151
 21
815.9786381729
 31
0.0
  0
LINE
  5
200
330
1F
100
AcDbEntity
  8
0
  6
Continuous
 62
     7
370
    15
100
AcDbLine
 10
646.6613909008
 20
1117.6741834074
 30
0.0
 11
646.6613909008
 21
1108.2945983798
 31
0.0
  0
LINE
  5
201
330
1F
100
AcDbEntity
  8
0
  6
Continuous
 62
     7
370
    15
100
AcDbLine
 10
646.6613909008
 20
1108.2945983798
 30
0.0
 11
646.6541813032
 21
1108.2945983798
 31
0.0
  0
LINE
  5
202
330
1F
100
AcDbEntity
  8
0
  6
Continuous
 62
     7
370
    15
100
AcDbLine
 10
646.6541813032
 20
1117.6741834074
 30
0.0
 11
646.6541813032
 21
1108.2945983798
 31
0.0
  0
LINE
  5
203
330
1F
100
AcDbEntity
  8
0
  6
Continuous
 62
     7
370
    15
100
AcDbLine
 10
646.6541813032
 20
1117.6741834074
 30
0.0
 11
646.6613909008
 21
1117.6741834074
 31
0.0
  0
LINE
  5
204
330
1F
100
AcDbEntity
  8
0
  6
Continuous
 62
     7
370
    15
100
AcDbLine
 10
646.6541813032
 20
1100.9786381729
 30
0.0
 11
646.6541813032
 21
1093.2945983798
 31
0.0
  0
LINE
  5
205
330
1F
100
AcDbEntity
  8
0
  6
Continuous
 62
     7
370
    15
100
AcDbLine
 10
646.6613909008
 20
1100.9786381729
 30
0.0
 11
646.6613909008
 21
1093.2945983798
 31
0.0
  0
LINE
  5
206
330
1F
100
AcDbEntity
  8
0
  6
Continuous
 62
     7
370
    15
100
AcDbLine
 10
646.6613909008
 20
1093.2945983798
 30
0.0
 11
646.6541813032
 21
1093.2945983798
 31
0.0
  0
LINE
  5
207
330
1F
100
AcDbEntity
  8
0
  6
Continuous
 62
     7
370
    15
100
AcDbLine
 10
646.6541813032
 20
1100.9786381729
 30
0.0
 11
646.6613909008
 21
1100.9786381729
 31
0.0
  0
LINE
  5
208
330
1F
100
AcDbEntity
  8
0
  6
Continuous
 62
     7
370
    15
100
AcDbLine
 10
646.6541813032
 20
1085.9786381729
 30
0.0
 11
646.6541813032
 21
1078.2945983798
 31
0.0
  0
LINE
  5
209
330
1F
100
AcDbEntity
  8
0
  6
Continuous
 62
     7
370
    15
100
AcDbLine
 10
646.6613909008
 20
1085.9786381729
 30
0.0
 11
646.6613909008
 21
1078.2945983798
 31
0.0
  0
LINE
  5
20A
330
1F
100
AcDbEntity
  8
0
  6
Continuous
 62
     7
370
    15
100
AcDbLine
 10
646.6613909008
 20
1078.2945983798
 30
0.0
 11
646.6541813032
 21
1078.2945983798
 31
0.0
  0
LINE
  5
20B
330
1F
100
AcDbEntity
  8
0
  6
Continuous
 62
     7
370
    15
100
AcDbLine
 10
646.6541813032
 20
1085.9786381729
 30
0.0
 11
646.6613909008
 21
1085.9786381729
 31
0.0
  0
LINE
  5
20C
330
1F
100
AcDbEntity
  8
0
  6
Continuous
 62
     7
370
    15
100
AcDbLine
 10
646.6541813032
 20
1070.9786381729
 30
0.0
 11
646.6541813032
 21
1063.2945983798
 31
0.0
  0
LINE
  5
20D
330
1F
100
AcDbEntity
  8
0
  6
Continuous
 62
     7
370
    15
100
AcDbLine
 10
646.6613909008
 20
1070.9786381729
 30
0.0
 11
646.6613909008
 21
1063.2945983798
 31
0.0
  0
LINE
  5
20E
330
1F
100
AcDbEntity
  8
0
  6
Continuous
 62
     7
370
    15
100
AcDbLine
 10
646.6613909008
 20
1063.2945983798
 30
0.0
 11
646.6541813032
 21
1063.2945983798
 31
0.0
  0
LINE
  5
20F
330
1F
100
AcDbEntity
  8
0
  6
Continuous
 62
     7
370
    15
100
AcDbLine
 10
646.6541813032
 20
1070.9786381729
 30
0.0
 11
646.6613909008
 21
1070.9786381729
 31
0.0
  0
LINE
  5
210
330
1F
100
AcDbEntity
  8
0
  6
Continuous
 62
     7
370
    15
100
AcDbLine
 10
646.6541813032
 20
1055.9786381729
 30
0.0
 11
646.6541813032
 21
1048.2945983798
 31
0.0
  0
LINE
  5
211
330
1F
100
AcDbEntity
  8
0
  6
Continuous
 62
     7
370
    15
100
AcDbLine
 10
646.6613909008
 20
1055.9786381729
 30
0.0
 11
646.6613909008
 21
1048.2945983798
 31
0.0
  0
LINE
  5
212
330
1F
100
AcDbEntity
  8
0
  6
Continuous
 62
     7
370
    15
100
AcDbLine
 10
646.6613909008
 20
1048.2945983798
 30
0.0
 11
646.6541813032
 21
1048.2945983798
 31
0.0
  0
LINE
  5
213
330
1F
100
AcDbEntity
  8
0
  6
Continuous
 62
     7
370
    15
100
AcDbLine
 10
646.6541813032
 20
1055.9786381729
 30
0.0
 11
646.6613909008
 21
1055.9786381729
 31
0.0
  0
LINE
  5
214
330
1F
100
AcDbEntity
  8
0
  6
Continuous
 62
     7
370
    15
100
AcDbLine
 10
646.6541813032
 20
1040.9786381729
 30
0.0
 11
646.6541813032
 21
1033.2945983798
 31
0.0
  0
LINE
  5
215
330
1F
100
AcDbEntity
  8
0
  6
Continuous
 62
     7
370
    15
100
AcDbLine
 10
646.6613909008
 20
1040.9786381729
 30
0.0
 11
646.6613909008
 21
1033.2945983798
 31
0.0
  0
LINE
  5
216
330
1F
100
AcDbEntity
  8
0
  6
Continuous
 62
     7
370
    15
100
AcDbLine
 10
646.6613909008
 20
1033.2945983798
 30
0.0
 11
646.6541813032
 21
1033.2945983798
 31
0.0
  0
LINE
  5
217
330
1F
100
AcDbEntity
  8
0
  6
Continuous
 62
     7
370
    15
100
AcDbLine
 10
646.6541813032
 20
1040.9786381729
 30
0.0
 11
646.6613909008
 21
1040.9786381729
 31
0.0
  0
LINE
  5
218
330
1F
100
AcDbEntity
  8
0
  6
Continuous
 62
     7
370
    15
100
AcDbLine
 10
646.6541813032
 20
1025.9786381729
 30
0.0
 11
646.6541813032
 21
1018.2945983798
 31
0.0
  0
LINE
  5
219
330
1F
100
AcDbEntity
  8
0
  6
Continuous
 62
     7
370
    15
100
AcDbLine
 10
646.6613909008
 20
1025.9786381729
 30
0.0
 11
646.6613909008
 21
1018.2945983798
 31
0.0
  0
LINE
  5
21A
330
1F
100
AcDbEntity
  8
0
  6
Continuous
 62
     7
370
    15
100
AcDbLine
 10
646.6613909008
 20
1018.2945983798
 30
0.0
 11
646.6541813032
 21
1018.2945983798
 31
0.0
  0
LINE
  5
21B
330
1F
100
AcDbEntity
  8
0
  6
Continuous
 62
     7
370
    15
100
AcDbLine
 10
646.6541813032
 20
1025.9786381729
 30
0.0
 11
646.6613909008
 21
1025.9786381729
 31
0.0
  0
LINE
  5
21C
330
1F
100
AcDbEntity
  8
0
  6
Continuous
 62
     7
370
    15
100
AcDbLine
 10
646.6613909008
 20
1010.9786381729
 30
0.0
 11
646.6613909008
 21
1003.2945983798
 31
0.0
  0
LINE
  5
21D
330
1F
100
AcDbEntity
  8
0
  6
Continuous
 62
     7
370
    15
100
AcDbLine
 10
646.6541813032
 20
1010.9786381729
 30
0.0
 11
646.6541813032
 21
1003.2945983798
 31
0.0
  0
LINE
  5
21E
330
1F
100
AcDbEntity
  8
0
  6
Continuous
 62
     7
370
    15
100
AcDbLine
 10
646.6541813032
 20
1010.9786381729
 30
0.0
 11
646.6613909008
 21
1010.9786381729
 31
0.0
  0
LINE
  5
21F
330
1F
100
AcDbEntity
  8
0
  6
Continuous
 62
     7
370
    15
100
AcDbLine
 10
646.6613909008
 20
1003.2945983798
 30
0.0
 11
646.6541813032
 21
1003.2945983798
 31
0.0
  0
LINE
  5
220
330
1F
100
AcDbEntity
  8
0
  6
Continuous
 62
     7
370
    15
100
AcDbLine
 10
646.6613909008
 20
995.9786381729
 30
0.0
 11
646.6613909008
 21
988.2945983798
 31
0.0
  0
LINE
  5
221
330
1F
100
AcDbEntity
  8
0
  6
Continuous
 62
     7
370
    15
100
AcDbLine
 10
646.6613909008
 20
988.2945983798
 30
0.0
 11
646.6541813032
 21
988.2945983798
 31
0.0
  0
LINE
  5
222
330
1F
100
AcDbEntity
  8
0
  6
Continuous
 62
     7
370
    15
100
AcDbLine
 10
646.6541813032
 20
995.9786381729
 30
0.0
 11
646.6541813032
 21
988.2945983798
 31
0.0
  0
LINE
  5
223
330
1F
100
AcDbEntity
  8
0
  6
Continuous
 62
     7
370
    15
100
AcDbLine
 10
646.6541813032
 20
995.9786381729
 30
0.0
 11
646.6613909008
 21
995.9786381729
 31
0.0
  0
LINE
  5
224
330
1F
100
AcDbEntity
  8
0
  6
Continuous
 62
     7
370
    15
100
AcDbLine
 10
646.6541813032
 20
980.9786381729
 30
0.0
 11
646.6541813032
 21
973.2945983798
 31
0.0
  0
LINE
  5
225
330
1F
100
AcDbEntity
  8
0
  6
Continuous
 62
     7
370
    15
100
AcDbLine
 10
646.6613909008
 20
980.9786381729
 30
0.0
 11
646.6613909008
 21
973.2945983798
 31
0.0
  0
LINE
  5
226
330
1F
100
AcDbEntity
  8
0
  6
Continuous
 62
     7
370
    15
100
AcDbLine
 10
646.6613909008
 20
973.2945983798
 30
0.0
 11
646.6541813032
 21
973.2945983798
 31
0.0
  0
LINE
  5
227
330
1F
100
AcDbEntity
  8
0
  6
Continuous
 62
     7
370
    15
100
AcDbLine
 10
646.6541813032
 20
980.9786381729
 30
0.0
 11
646.6613909008
 21
980.9786381729
 31
0.0
  0
LINE
  5
228
330
1F
100
AcDbEntity
  8
0
  6
Continuous
 62
     7
370
    15
100
AcDbLine
 10
646.6541813032
 20
965.9786381729
 30
0.0
 11
646.6541813032
 21
958.2945983798
 31
0.0
  0
LINE
  5
229
330
1F
100
AcDbEntity
  8
0
  6
Continuous
 62
     7
370
    15
100
AcDbLine
 10
646.6613909008
 20
965.9786381729
 30
0.0
 11
646.6613909008
 21
958.2945983798
 31
0.0
  0
LINE
  5
22A
330
1F
100
AcDbEntity
  8
0
  6
Continuous
 62
     7
370
    15
100
AcDbLine
 10
646.6613909008
 20
958.2945983798
 30
0.0
 11
646.6541813032
 21
958.2945983798
 31
0.0
  0
LINE
  5
22B
330
1F
100
AcDbEntity
  8
0
  6
Continuous
 62
     7
370
    15
100
AcDbLine
 10
646.6541813032
 20
965.9786381729
 30
0.0
 11
646.6613909008
 21
965.9786381729
 31
0.0
  0
LINE
  5
22C
330
1F
100
AcDbEntity
  8
0
  6
Continuous
 62
     7
370
    15
100
AcDbLine
 10
646.6613909008
 20
950.9786381729
 30
0.0
 11
646.6613909008
 21
943.2945983798
 31
0.0
  0
LINE
  5
22D
330
1F
100
AcDbEntity
  8
0
  6
Continuous
 62
     7
370
    15
100
AcDbLine
 10
646.6613909008
 20
943.2945983798
 30
0.0
 11
646.6541813032
 21
943.2945983798
 31
0.0
  0
LINE
  5
22E
330
1F
100
AcDbEntity
  8
0
  6
Continuous
 62
     7
370
    15
100
AcDbLine
 10
646.6541813032
 20
950.9786381729
 30
0.0
 11
646.6541813032
 21
943.2945983798
 31
0.0
  0
LINE
  5
22F
330
1F
100
AcDbEntity
  8
0
  6
Continuous
 62
     7
370
    15
100
AcDbLine
 10
646.6541813032
 20
950.9786381729
 30
0.0
 11
646.6613909008
 21
950.9786381729
 31
0.0
  0
LINE
  5
230
330
1F
100
AcDbEntity
  8
0
  6
Continuous
 62
     7
370
    15
100
AcDbLine
 10
646.6541813032
 20
935.9786381729
 30
0.0
 11
646.6541813032
 21
928.2945983798
 31
0.0
  0
LINE
  5
231
330
1F
100
AcDbEntity
  8
0
  6
Continuous
 62
     7
370
    15
100
AcDbLine
 10
646.6613909008
 20
935.9786381729
 30
0.0
 11
646.6613909008
 21
928.2945983798
 31
0.0
  0
LINE
  5
232
330
1F
100
AcDbEntity
  8
0
  6
Continuous
 62
     7
370
    15
100
AcDbLine
 10
646.6613909008
 20
928.2945983798
 30
0.0
 11
646.6541813032
 21
928.2945983798
 31
0.0
  0
LINE
  5
233
330
1F
100
AcDbEntity
  8
0
  6
Continuous
 62
     7
370
    15
100
AcDbLine
 10
646.6541813032
 20
935.9786381729
 30
0.0
 11
646.6613909008
 21
935.9786381729
 31
0.0
  0
LINE
  5
234
330
1F
100
AcDbEntity
  8
0
  6
Continuous
 62
     7
370
    15
100
AcDbLine
 10
646.6541813032
 20
920.9786381729
 30
0.0
 11
646.6541813032
 21
913.2945983798
 31
0.0
  0
LINE
  5
235
330
1F
100
AcDbEntity
  8
0
  6
Continuous
 62
     7
370
    15
100
AcDbLine
 10
646.6613909008
 20
920.9786381729
 30
0.0
 11
646.6613909008
 21
913.2945983798
 31
0.0
  0
LINE
  5
236
330
1F
100
AcDbEntity
  8
0
  6
Continuous
 62
     7
370
    15
100
AcDbLine
 10
646.6613909008
 20
913.2945983798
 30
0.0
 11
646.6541813032
 21
913.2945983798
 31
0.0
  0
LINE
  5
237
330
1F
100
AcDbEntity
  8
0
  6
Continuous
 62
     7
370
    15
100
AcDbLine
 10
646.6541813032
 20
920.9786381729
 30
0.0
 11
646.6613909008
 21
920.9786381729
 31
0.0
  0
LINE
  5
238
330
1F
100
AcDbEntity
  8
0
  6
Continuous
 62
     7
370
    15
100
AcDbLine
 10
646.6613909008
 20
815.9786381729
 30
0.0
 11
646.6613909008
 21
806.6741834074
 31
0.0
  0
LINE
  5
239
330
1F
100
AcDbEntity
  8
0
  6
Continuous
 62
     7
370
    15
100
AcDbLine
 10
646.6541813032
 20
806.6741834074
 30
0.0
 11
646.6613909008
 21
806.6741834074
 31
0.0
  0
LINE
  5
23A
330
1F
100
AcDbEntity
  8
0
  6
Continuous
 62
     7
370
    15
100
AcDbLine
 10
646.6541813032
 20
815.9786381729
 30
0.0
 11
646.6541813032
 21
806.6741834074
 31
0.0
  0
LINE
  5
23B
330
1F
100
AcDbEntity
  8
0
  6
Continuous
 62
     7
370
    15
100
AcDbLine
 10
646.6541813032
 20
815.9786381729
 30
0.0
 11
646.6613909008
 21
815.9786381729
 31
0.0
  0
LINE
  5
23C
330
1F
100
AcDbEntity
  8
0
  6
Continuous
 62
     7
370
    15
100
AcDbLine
 10
646.6541813032
 20
905.9786381729
 30
0.0
 11
646.6541813032
 21
898.2945983798
 31
0.0
  0
LINE
  5
23D
330
1F
100
AcDbEntity
  8
0
  6
Continuous
 62
     7
370
    15
100
AcDbLine
 10
646.6613909008
 20
905.9786381729
 30
0.0
 11
646.6613909008
 21
898.2945983798
 31
0.0
  0
LINE
  5
23E
330
1F
100
AcDbEntity
  8
0
  6
Continuous
 62
     7
370
    15
100
AcDbLine
 10
646.6613909008
 20
898.2945983798
 30
0.0
 11
646.6541813032
 21
898.2945983798
 31
0.0
  0
LINE
  5
23F
330
1F
100
AcDbEntity
  8
0
  6
Continuous
 62
     7
370
    15
100
AcDbLine
 10
646.6541813032
 20
905.9786381729
 30
0.0
 11
646.6613909008
 21
905.9786381729
 31
0.0
  0
LINE
  5
240
330
1F
100
AcDbEntity
  8
0
  6
Continuous
 62
     7
370
    15
100
AcDbLine
 10
646.6613909008
 20
890.9786381729
 30
0.0
 11
646.6613909008
 21
883.2945983798
 31
0.0
  0
LINE
  5
241
330
1F
100
AcDbEntity
  8
0
  6
Continuous
 62
     7
370
    15
100
AcDbLine
 10
646.6613909008
 20
883.2945983798
 30
0.0
 11
646.6541813032
 21
883.2945983798
 31
0.0
  0
LINE
  5
242
330
1F
100
AcDbEntity
  8
0
  6
Continuous
 62
     7
370
    15
100
AcDbLine
 10
646.6541813032
 20
890.9786381729
 30
0.0
 11
646.6541813032
 21
883.2945983798
 31
0.0
  0
LINE
  5
243
330
1F
100
AcDbEntity
  8
0
  6
Continuous
 62
     7
370
    15
100
AcDbLine
 10
646.6541813032
 20
890.9786381729
 30
0.0
 11
646.6613909008
 21
890.9786381729
 31
0.0
  0
LINE
  5
244
330
1F
100
AcDbEntity
  8
0
  6
Continuous
 62
     7
370
    15
100
AcDbLine
 10
646.6541813032
 20
875.9786381729
 30
0.0
 11
646.6541813032
 21
868.2945983798
 31
0.0
  0
LINE
  5
245
330
1F
100
AcDbEntity
  8
0
  6
Continuous
 62
     7
370
    15
100
AcDbLine
 10
646.6613909008
 20
875.9786381729
 30
0.0
 11
646.6613909008
 21
868.2945983798
 31
0.0
  0
LINE
  5
246
330
1F
100
AcDbEntity
  8
0
  6
Continuous
 62
     7
370
    15
100
AcDbLine
 10
646.6613909008
 20
868.2945983798
 30
0.0
 11
646.6541813032
 21
868.2945983798
 31
0.0
  0
LINE
  5
247
330
1F
100
AcDbEntity
  8
0
  6
Continuous
 62
     7
370
    15
100
AcDbLine
 10
646.6541813032
 20
875.9786381729
 30
0.0
 11
646.6613909008
 21
875.9786381729
 31
0.0
  0
LINE
  5
248
330
1F
100
AcDbEntity
  8
0
  6
Continuous
 62
     7
370
    15
100
AcDbLine
 10
646.6613909008
 20
860.9786381729
 30
0.0
 11
646.6613909008
 21
853.2945983798
 31
0.0
  0
LINE
  5
249
330
1F
100
AcDbEntity
  8
0
  6
Continuous
 62
     7
370
    15
100
AcDbLine
 10
646.6613909008
 20
853.2945983798
 30
0.0
 11
646.6541813032
 21
853.2945983798
 31
0.0
  0
LINE
  5
24A
330
1F
100
AcDbEntity
  8
0
  6
Continuous
 62
     7
370
    15
100
AcDbLine
 10
646.6541813032
 20
860.9786381729
 30
0.0
 11
646.6541813032
 21
853.2945983798
 31
0.0
  0
LINE
  5
24B
330
1F
100
AcDbEntity
  8
0
  6
Continuous
 62
     7
370
    15
100
AcDbLine
 10
646.6541813032
 20
860.9786381729
 30
0.0
 11
646.6613909008
 21
860.9786381729
 31
0.0
  0
LINE
  5
24C
330
1F
100
AcDbEntity
  8
0
  6
Continuous
 62
     7
370
    15
100
AcDbLine
 10
646.6613909008
 20
845.9786381729
 30
0.0
 11
646.6613909008
 21
838.2945983798
 31
0.0
  0
LINE
  5
24D
330
1F
100
AcDbEntity
  8
0
  6
Continuous
 62
     7
370
    15
100
AcDbLine
 10
646.6613909008
 20
838.2945983798
 30
0.0
 11
646.6541813032
 21
838.2945983798
 31
0.0
  0
LINE
  5
24E
330
1F
100
AcDbEntity
  8
0
  6
Continuous
 62
     7
370
    15
100
AcDbLine
 10
646.6541813032
 20
845.9786381729
 30
0.0
 11
646.6541813032
 21
838.2945983798
 31
0.0
  0
LINE
  5
24F
330
1F
100
AcDbEntity
  8
0
  6
Continuous
 62
     7
370
    15
100
AcDbLine
 10
646.6541813032
 20
845.9786381729
 30
0.0
 11
646.6613909008
 21
845.9786381729
 31
0.0
  0
LINE
  5
250
330
1F
100
AcDbEntity
  8
0
  6
Continuous
 62
     7
370
    15
100
AcDbLine
 10
646.6541813032
 20
830.9786381729
 30
0.0
 11
646.6541813032
 21
823.2945983798
 31
0.0
  0
LINE
  5
251
330
1F
100
AcDbEntity
  8
0
  6
Continuous
 62
     7
370
    15
100
AcDbLine
 10
646.6613909008
 20
830.9786381729
 30
0.0
 11
646.6613909008
 21
823.2945983798
 31
0.0
  0
LINE
  5
252
330
1F
100
AcDbEntity
  8
0
  6
Continuous
 62
     7
370
    15
100
AcDbLine
 10
646.6613909008
 20
823.2945983798
 30
0.0
 11
646.6541813032
 21
823.2945983798
 31
0.0
  0
LINE
  5
253
330
1F
100
AcDbEntity
  8
0
  6
Continuous
 62
     7
370
    15
100
AcDbLine
 10
646.6541813032
 20
830.9786381729
 30
0.0
 11
646.6613909008
 21
830.9786381729
 31
0.0
  0
ARC
  5
254
330
1F
100
AcDbEntity
  8
0
  6
Continuous
 62
     7
370
    15
100
AcDbCircle
 10
714.6762124991
 20
839.0784552641
 30
0.0
 40
21.0
100
AcDbArc
 50
180.0
 51
270.0
  0
LINE
  5
255
330
1F
100
AcDbEntity
  8
0
  6
Continuous
 62
     7
370
    15
100
AcDbLine
 10
714.6762124991
 20
818.0784552641
 30
0.0
 11
750.7928555171
 21
818.0784552641
 31
0.0
  0
ARC
  5
256
330
1F
100
AcDbEntity
  8
0
  6
Continuous
 62
     7
370
    15
100
AcDbCircle
 10
750.7928555171
 20
839.0784552641
 30
0.0
 40
21.00000000000011
100
AcDbArc
 50
270.0
 51
0.0
  0
LINE
  5
257
330
1F
100
AcDbEntity
  8
0
  6
Continuous
 62
     7
370
    15
100
AcDbLine
 10
771.7928555171
 20
839.0784552641
 30
0.0
 11
771.7928555171
 21
1088.3224144312
 31
0.0
  0
ARC
  5
258
330
1F
100
AcDbEntity
  8
0
  6
Continuous
 62
     7
370
    15
100
AcDbCircle
 10
750.7928555171
 20
1088.3224144312
 30
0.0
 40
21.0
100
AcDbArc
 50
0.0
 51
90.0
  0
LINE
  5
259
330
1F
100
AcDbEntity
  8
0
  6
Continuous
 62
     7
370
    15
100
AcDbLine
 10
750.7928555171
 20
1109.3224144312
 30
0.0
 11
714.6762124991
 21
1109.3224144312
 31
0.0
  0
ARC
  5
25A
330
1F
100
AcDbEntity
  8
0
  6
Continuous
 62
     7
370
    15
100
AcDbCircle
 10
714.6762124991
 20
1088.3224144312
 30
0.0
 40
21.0
100
AcDbArc
 50
90.0
 51
180.0
  0
LINE
  5
25B
330
1F
100
AcDbEntity
  8
0
  6
Continuous
 62
     7
370
    15
100
AcDbLine
 10
693.6762124991
 20
1088.3224144312
 30
0.0
 11
693.6762124991
 21
839.0784552641
 31
0.0
  0
ARC
  5
25C
330
1F
100
AcDbEntity
  8
0
  6
Continuous
 62
     7
370
    15
100
AcDbCircle
 10
300.1559567514
 20
806.6741834074
 30
0.0
 40
50.00000000000006
100
AcDbArc
 50
180.0
 51
270.0
  0
LINE
  5
25D
330
1F
100
AcDbEntity
  8
0
  6
Continuous
 62
     7
370
    15
100
AcDbLine
 10
790.4672018741
 20
1166.6741834074
 30
0.0
 11
300.1559567514
 21
1166.6741834074
 31
0.0
  0
LINE
  5
25E
330
1F
100
AcDbEntity
  8
0
  6
Continuous
 62
     7
370
    15
100
AcDbLine
 10
790.4672018741
 20
1166.6741834074
 30
0.0
 11
790.4672018741
 21
756.6741834074
 31
0.0
  0
LINE
  5
25F
330
1F
100
AcDbEntity
  8
0
  6
Continuous
 62
     7
370
    15
100
AcDbLine
 10
300.1559567514
 20
756.6741834074
 30
0.0
 11
790.4672018741
 21
756.6741834074
 31
0.0
  0
LINE
  5
260
330
1F
100
AcDbEntity
  8
0
  6
Continuous
 62
     7
370
    15
100
AcDbLine
 10
250.1559567514
 20
1108.2945983798
 30
0.0
 11
250.1559567514
 21
1100.9786381729
 31
0.0
  0
LINE
  5
261
330
1F
100
AcDbEntity
  8
0
  6
Continuous
 62
     7
370
    15
100
AcDbLine
 10
250.1559567514
 20
1093.2945983798
 30
0.0
 11
250.1559567514
 21
1085.9786381729
 31
0.0
  0
LINE
  5
262
330
1F
100
AcDbEntity
  8
0
  6
Continuous
 62
     7
370
    15
100
AcDbLine
 10
250.1559567514
 20
1078.2945983798
 30
0.0
 11
250.1559567514
 21
1070.9786381729
 31
0.0
  0
LINE
  5
263
330
1F
100
AcDbEntity
  8
0
  6
Continuous
 62
     7
370
    15
100
AcDbLine
 10
250.1559567514
 20
1063.2945983798
 30
0.0
 11
250.1559567514
 21
1055.9786381729
 31
0.0
  0
LINE
  5
264
330
1F
100
AcDbEntity
  8
0
  6
Continuous
 62
     7
370
    15
100
AcDbLine
 10
250.1559567514
 20
1048.2945983798
 30
0.0
 11
250.1559567514
 21
1040.9786381729
 31
0.0
  0
LINE
  5
265
330
1F
100
AcDbEntity
  8
0
  6
Continuous
 62
     7
370
    15
100
AcDbLine
 10
250.1559567514
 20
1033.2945983798
 30
0.0
 11
250.1559567514
 21
1025.9786381729
 31
0.0
  0
LINE
  5
266
330
1F
100
AcDbEntity
  8
0
  6
Continuous
 62
     7
370
    15
100
AcDbLine
 10
250.1559567514
 20
1018.2945983798
 30
0.0
 11
250.1559567514
 21
1010.9786381729
 31
0.0
  0
LINE
  5
267
330
1F
100
AcDbEntity
  8
0
  6
Continuous
 62
     7
370
    15
100
AcDbLine
 10
250.1559567514
 20
1003.2945983798
 30
0.0
 11
250.1559567514
 21
995.9786381729
 31
0.0
  0
LINE
  5
268
330
1F
100
AcDbEntity
  8
0
  6
Continuous
 62
     7
370
    15
100
AcDbLine
 10
250.1559567514
 20
988.2945983798
 30
0.0
 11
250.1559567514
 21
980.9786381729
 31
0.0
  0
LINE
  5
269
330
1F
100
AcDbEntity
  8
0
  6
Continuous
 62
     7
370
    15
100
AcDbLine
 10
250.1559567514
 20
973.2945983798
 30
0.0
 11
250.1559567514
 21
965.9786381729
 31
0.0
  0
LINE
  5
26A
330
1F
100
AcDbEntity
  8
0
  6
Continuous
 62
     7
370
    15
100
AcDbLine
 10
250.1559567514
 20
958.2945983798
 30
0.0
 11
250.1559567514
 21
950.9786381729
 31
0.0
  0
LINE
  5
26B
330
1F
100
AcDbEntity
  8
0
  6
Continuous
 62
     7
370
    15
100
AcDbLine
 10
250.1559567514
 20
943.2945983798
 30
0.0
 11
250.1559567514
 21
935.9786381729
 31
0.0
  0
LINE
  5
26C
330
1F
100
AcDbEntity
  8
0
  6
Continuous
 62
     7
370
    15
100
AcDbLine
 10
250.1559567514
 20
928.2945983798
 30
0.0
 11
250.1559567514
 21
920.9786381729
 31
0.0
  0
LINE
  5
26D
330
1F
100
AcDbEntity
  8
0
  6
Continuous
 62
     7
370
    15
100
AcDbLine
 10
250.1559567514
 20
913.2945983798
 30
0.0
 11
250.1559567514
 21
905.9786381729
 31
0.0
  0
LINE
  5
26E
330
1F
100
AcDbEntity
  8
0
  6
Continuous
 62
     7
370
    15
100
AcDbLine
 10
250.1559567514
 20
898.2945983798
 30
0.0
 11
250.1559567514
 21
890.9786381729
 31
0.0
  0
LINE
  5
26F
330
1F
100
AcDbEntity
  8
0
  6
Continuous
 62
     7
370
    15
100
AcDbLine
 10
250.1559567514
 20
883.2945983798
 30
0.0
 11
250.1559567514
 21
875.9786381729
 31
0.0
  0
LINE
  5
270
330
1F
100
AcDbEntity
  8
0
  6
Continuous
 62
     7
370
    15
100
AcDbLine
 10
250.1559567514
 20
868.2945983798
 30
0.0
 11
250.1559567514
 21
860.9786381729
 31
0.0
  0
LINE
  5
271
330
1F
100
AcDbEntity
  8
0
  6
Continuous
 62
     7
370
    15
100
AcDbLine
 10
250.1559567514
 20
853.2945983798
 30
0.0
 11
250.1559567514
 21
845.9786381729
 31
0.0
  0
LINE
  5
272
330
1F
100
AcDbEntity
  8
0
  6
Continuous
 62
     7
370
    15
100
AcDbLine
 10
250.1559567514
 20
838.2945983798
 30
0.0
 11
250.1559567514
 21
830.9786381729
 31
0.0
  0
LINE
  5
273
330
1F
100
AcDbEntity
  8
0
  6
Continuous
 62
     7
370
    15
100
AcDbLine
 10
250.1559567514
 20
823.2945983798
 30
0.0
 11
250.1559567514
 21
815.9786381729
 31
0.0
  0
ARC
  5
274
330
1F
100
AcDbEntity
  8
0
  6
Continuous
 62
     7
370
    15
100
AcDbCircle
 10
300.1559567514
 20
1116.6741834074
 30
0.0
 40
50.00000000000006
100
AcDbArc
 50
90.0
 51
178.8540080016
  0
LINE
  5
275
330
1F
100
AcDbEntity
  8
0
  6
Continuous
 62
     7
370
    15
100
AcDbLine
 10
1145.8485239059
 20
1037.589703744
 30
0.0
 11
1106.7029665066
 21
1037.589703744
 31
0.0
  0
LINE
  5
276
330
1F
100
AcDbEntity
  8
0
  6
Continuous
 62
     7
370
    15
100
AcDbLine
 10
1106.7029665066
 20
1037.589703744
 30
0.0
 11
1106.7029665066
 21
907.2587962626
 31
0.0
  0
LINE
  5
277
330
1F
100
AcDbEntity
  8
0
  6
Continuous
 62
     7
370
    15
100
AcDbLine
 10
1106.7029665066
 20
907.2587962626
 30
0.0
 11
1145.8485239059
 21
907.2587962626
 31
0.0
  0
LINE
  5
278
330
1F
100
AcDbEntity
  8
0
  6
Continuous
 62
     7
370
    15
100
AcDbLine
 10
1145.8485239059
 20
907.2587962626
 30
0.0
 11
1145.8485239059
 21
761.7608983836
 31
0.0
  0
SPLINE
  5
279
330
1F
100
AcDbEntity
  8
0
  6
Continuous
 62
     7
370
    15
100
AcDbSpline
210
0.0
220
0.0
230
1.0
 70
     8
 71
     3
 72
    14
 73
    10
 74
     0
 42
0.00000001
 43
0.00000001
 12
1.0
 22
0.0
 32
0.0
 13
1.0
 23
0.0
 33
0.0
 40
0.0
 40
0.0
 40
0.0
 40
0.0
 40
0.25
 40
0.25
 40
0.5
 40
0.5
 40
0.75
 40
0.75
 40
1.0
 40
1.0
 40
1.0
 40
1.0
 10
1007.886839137881
 20
756.6741834074262
 30
0.0
 10
1019.538625025579
 20
756.6741834074262
 30
0.0
 10
1031.152847437284
 20
756.7416974867986
 30
0.0
 10
1054.304627729859
 20
757.0639159206462
 30
0.0
 10
1065.842188514222
 20
757.3185265042006
 30
0.0
 10
1088.838723099217
 20
758.0759194964738
 30
0.0
 10
1100.297701958608
 20
758.5785422995793
 30
0.0
 10
1123.134646635327
 20
759.9055483970593
 30
0.0
 10
1134.51262139014
 20
760.7296525330822
 30
0.0
 10
1145.848523905904
 20
761.7608983836183
 30
0.0
  0
LINE
  5
27A
330
1F
100
AcDbEntity
  8
0
  6
Continuous
 62
     7
370
    15
100
AcDbLine
 10
790.4672018741
 20
756.6741834074
 30
0.0
 11
1007.8868391379
 21
756.6741834074
 31
0.0
  0
SPLINE
  5
27B
330
1F
100
AcDbEntity
  8
0
  6
Continuous
 62
     7
370
    15
100
AcDbSpline
210
0.0
220
0.0
230
1.0
 70
     8
 71
     3
 72
    14
 73
    10
 74
     0
 42
0.00000001
 43
0.00000001
 12
1.0
 22
0.0
 32
0.0
 13
1.0
 23
0.0
 33
0.0
 40
0.0
 40
0.0
 40
0.0
 40
0.0
 40
0.25
 40
0.25
 40
0.5
 40
0.5
 40
0.75
 40
0.75
 40
1.0
 40
1.0
 40
1.0
 40
1.0
 10
1145.848523905904
 20
1161.587468431234
 30
0.0
 10
1134.51262139014
 20
1162.61871428177
 30
0.0
 10
1123.134646635327
 20
1163.442818417793
 30
0.0
 10
1100.297701958607
 20
1164.769824515273
 30
0.0
 10
1088.838723099216
 20
1165.272447318378
 30
0.0
 10
1065.842188514222
 20
1166.029840310652
 30
0.0
 10
1054.30462772986
 20
1166.284450894206
 30
0.0
 10
1031.152847437284
 20
1166.606669328054
 30
0.0
 10
1019.53862502558
 20
1166.674183407426
 30
0.0
 10
1007.886839137881
 20
1166.674183407426
 30
0.0
  0
LINE
  5
27C
330
1F
100
AcDbEntity
  8
0
  6
Continuous
 62
     7
370
    15
100
AcDbLine
 10
1145.8485239059
 20
1161.5874684312
 30
0.0
 11
1145.8485239059
 21
1037.589703744
 31
0.0
  0
LINE
  5
27D
330
1F
100
AcDbEntity
  8
0
  6
Continuous
 62
     7
370
    15
100
AcDbLine
 10
790.4672018741
 20
1166.6741834074
 30
0.0
 11
1007.8868391379
 21
1166.6741834074
 31
0.0
  0
LINE
  5
27E
330
1F
100
AcDbEntity
  8
0
  6
Continuous
 62
     7
370
    15
100
AcDbLine
 10
769.7928555171
 20
950.0831414737
 30
0.0
 11
769.7928555171
 21
985.9616345581
 31
0.0
  0
LINE
  5
27F
330
1F
100
AcDbEntity
  8
0
  6
Continuous
 62
     7
370
    15
100
AcDbLine
 10
1108.137354104
 20
907.2587962626
 30
0.0
 11
1108.137354104
 21
1037.589703744
 31
0.0
  0
LINE
  5
280
330
1F
100
AcDbEntity
  8
0
  6
Continuous
 62
     7
370
    15
100
AcDbLine
 10
1135.9044518312
 20
907.2587962626
 30
0.0
 11
1135.9044518312
 21
1037.589703744
 31
0.0
  0
ENDSEC
  0
SECTION
  2
OBJECTS
  0
DICTIONARY
  5
C
330
0
100
AcDbDictionary
281
     1
  3
ACAD_GROUP
350
D
  3
ACAD_LAYOUT
350
1A
  3
ACAD_MLINESTYLE
350
17
  3
ACAD_PLOTSETTINGS
350
19
  3
ACAD_PLOTSTYLENAME
350
E
  0
DICTIONARY
  5
D
102
{ACAD_REACTORS
330
C
102
}
330
C
100
AcDbDictionary
281
     1
  0
DICTIONARY
  5
1A
102
{ACAD_REACTORS
330
C
102
}
330
C
100
AcDbDictionary
281
     1
  3
Layout1
350
1E
  3
Layout2
350
26
  3
Model
350
22
  0
DICTIONARY
  5
17
102
{ACAD_REACTORS
330
C
102
}
330
C
100
AcDbDictionary
281
     1
  3
Standard
350
18
  0
DICTIONARY
  5
19
102
{ACAD_REACTORS
330
C
102
}
330
C
100
AcDbDictionary
281
     1
  0
ACDBDICTIONARYWDFLT
  5
E
102
{ACAD_REACTORS
330
C
102
}
330
C
100
AcDbDictionary
281
     1
  3
Normal
350
F
100
AcDbDictionaryWithDefault
340
F
  0
LAYOUT
  5
1E
102
{ACAD_REACTORS
330
1A
102
}
330
1A
100
AcDbPlotSettings
  1

  2
none_device
  4

  6

 40
0.0
 41
0.0
 42
0.0
 43
0.0
 44
0.0
 45
0.0
 46
0.0
 47
0.0
 48
0.0
 49
0.0
140
0.0
141
0.0
142
1.0
143
1.0
 70
   688
 72
     0
 73
     0
 74
     5
  7

 75
    16
147
1.0
148
0.0
149
0.0
100
AcDbLayout
  1
Layout1
 70
     1
 71
     1
 10
0.0
 20
0.0
 11
420.0
 21
297.0
 12
0.0
 22
0.0
 32
0.0
 14
1.0000000000E+20
 24
1.0000000000E+20
 34
1.0000000000E+20
 15
-1.0000000000E+20
 25
-1.0000000000E+20
 35
-1.0000000000E+20
146
0.0
 13
0.0
 23
0.0
 33
0.0
 16
1.0
 26
0.0
 36
0.0
 17
0.0
 27
1.0
 37
0.0
 76
     0
330
1B
  0
LAYOUT
  5
26
102
{ACAD_REACTORS
330
1A
102
}
330
1A
100
AcDbPlotSettings
  1

  2
none_device
  4

  6

 40
0.0
 41
0.0
 42
0.0
 43
0.0
 44
0.0
 45
0.0
 46
0.0
 47
0.0
 48
0.0
 49
0.0
140
0.0
141
0.0
142
1.0
143
1.0
 70
   688
 72
     0
 73
     0
 74
     5
  7

 75
    16
147
1.0
148
0.0
149
0.0
100
AcDbLayout
  1
Layout2
 70
     1
 71
     2
 10
0.0
 20
0.0
 11
0.0
 21
0.0
 12
0.0
 22
0.0
 32
0.0
 14
0.0
 24
0.0
 34
0.0
 15
0.0
 25
0.0
 35
0.0
146
0.0
 13
0.0
 23
0.0
 33
0.0
 16
1.0
 26
0.0
 36
0.0
 17
0.0
 27
1.0
 37
0.0
 76
     0
330
23
  0
LAYOUT
  5
22
102
{ACAD_REACTORS
330
1A
102
}
330
1A
100
AcDbPlotSettings
  1

  2
none_device
  4

  6

 40
0.0
 41
0.0
 42
0.0
 43
0.0
 44
0.0
 45
0.0
 46
0.0
 47
0.0
 48
0.0
 49
0.0
140
0.0
141
0.0
142
1.0
143
1.0
 70
  1712
 72
     0
 73
     0
 74
     0
  7

 75
     0
147
1.0
148
0.0
149
0.0
100
AcDbLayout
  1
Model
 70
     1
 71
     0
 10
0.0
 20
0.0
 11
2794.0
 21
2159.0
 12
0.0
 22
0.0
 32
0.0
 14
0.0
 24
0.0
 34
0.0
 15
2794.0
 25
2159.0
 35
0.0
146
0.0
 13
0.0
 23
0.0
 33
0.0
 16
1.0
 26
0.0
 36
0.0
 17
0.0
 27
1.0
 37
0.0
 76
     0
330
1F
331
29
  0
MLINESTYLE
  5
18
102
{ACAD_REACTORS
330
17
102
}
330
17
100
AcDbMlineStyle
  2
Standard
 70
     0
  3

 62
   256
 51
90.0
 52
90.0
 71
     2
 49
0.5
 62
   256
  6
BYLAYER
 49
-0.5
 62
   256
  6
BYLAYER
  0
ACDBPLACEHOLDER
  5
F
102
{ACAD_REACTORS
330
E
102
}
330
E
  0
ENDSEC
  0
EOF
