  0
SECTION
  2
HEADER
  9
$ACADVER
  1
AC1021
  9
$ACADMAINTVER
 70
    50
  9
$DWGCODEPAGE
  3
ANSI_1251
  9
$LASTSAVEDBY
  1
Игорь
  9
$INSBASE
 10
0.0
 20
0.0
 30
0.0
  9
$EXTMIN
 10
772.8946879903023
 20
403.033541800959
 30
-0.0015258207003583
  9
$EXTMAX
 10
1416.120929178224
 20
724.7290212654379
 30
0.0000000349246037
  9
$LIMMIN
 10
0.0
 20
0.0
  9
$LIMMAX
 10
1397.0
 20
1079.5
  9
$ORTHOMODE
 70
     0
  9
$REGENMODE
 70
     1
  9
$FILLMODE
 70
     1
  9
$QTEXTMODE
 70
     0
  9
$MIRRTEXT
 70
     1
  9
$LTSCALE
 40
5.0
  9
$ATTMODE
 70
     1
  9
$TEXTSIZE
 40
17.5
  9
$TRACEWID
 40
1.0
  9
$TEXTSTYLE
  7
Standard
  9
$CLAYER
  8
0
  9
$CELTYPE
  6
ByLayer
  9
$CECOLOR
 62
   256
  9
$CELTSCALE
 40
1.0
  9
$DISPSILH
 70
     0
  9
$DIMSCALE
 40
1.0
  9
$DIMASZ
 40
17.5
  9
$DIMEXO
 40
0.05
  9
$DIMDLI
 40
3.75
  9
$DIMRND
 40
0.0
  9
$DIMDLE
 40
0.0
  9
$DIMEXE
 40
5.0
  9
$DIMTP
 40
0.0
  9
$DIMTM
 40
0.0
  9
$DIMTXT
 40
17.5
  9
$DIMCEN
 40
2.5
  9
$DIMTSZ
 40
0.0
  9
$DIMTOL
 70
     0
  9
$DIMLIM
 70
     0
  9
$DIMTIH
 70
     1
  9
$DIMTOH
 70
     1
  9
$DIMSE1
 70
     0
  9
$DIMSE2
 70
     0
  9
$DIMTAD
 70
     1
  9
$DIMZIN
 70
     0
  9
$DIMBLK
  1

  9
$DIMASO
 70
     1
  9
$DIMSHO
 70
     1
  9
$DIMPOST
  1

  9
$DIMAPOST
  1

  9
$DIMALT
 70
     0
  9
$DIMALTD
 70
     3
  9
$DIMALTF
 40
0.0393700787401575
  9
$DIMLFAC
 40
1.0
  9
$DIMTOFL
 70
     1
  9
$DIMTVP
 40
0.0
  9
$DIMTIX
 70
     0
  9
$DIMSOXD
 70
     0
  9
$DIMSAH
 70
     0
  9
$DIMBLK1
  1

  9
$DIMBLK2
  1

  9
$DIMSTYLE
  2
ISO-25
  9
$DIMCLRD
 70
     0
  9
$DIMCLRE
 70
     0
  9
$DIMCLRT
 70
     0
  9
$DIMTFAC
 40
1.0
  9
$DIMGAP
 40
15.0
  9
$DIMJUST
 70
     0
  9
$DIMSD1
 70
     0
  9
$DIMSD2
 70
     0
  9
$DIMTOLJ
 70
     0
  9
$DIMTZIN
 70
     0
  9
$DIMALTZ
 70
     0
  9
$DIMALTTZ
 70
     0
  9
$DIMUPT
 70
     0
  9
$DIMDEC
 70
     2
  9
$DIMTDEC
 70
     3
  9
$DIMALTU
 70
     2
  9
$DIMALTTD
 70
     3
  9
$DIMTXSTY
  7
Standard
  9
$DIMAUNIT
 70
     0
  9
$DIMADEC
 70
     2
  9
$DIMALTRND
 40
0.0
  9
$DIMAZIN
 70
     0
  9
$DIMDSEP
 70
    44
  9
$DIMATFIT
 70
     3
  9
$DIMFRAC
 70
     0
  9
$DIMLDRBLK
  1

  9
$DIMLUNIT
 70
     2
  9
$DIMLWD
 70
    -2
  9
$DIMLWE
 70
    -2
  9
$DIMTMOVE
 70
     0
  9
$DIMFXL
 40
1.0
  9
$DIMFXLON
 70
     0
  9
$DIMJOGANG
 40
0.7853981633974483
  9
$DIMTFILL
 70
     0
  9
$DIMTFILLCLR
 70
     0
  9
$DIMARCSYM
 70
     0
  9
$DIMLTYPE
  6

  9
$DIMLTEX1
  6

  9
$DIMLTEX2
  6

  9
$LUNITS
 70
     2
  9
$LUPREC
 70
     2
  9
$SKETCHINC
 40
1.0
  9
$FILLETRAD
 40
10.0
  9
$AUNITS
 70
     0
  9
$AUPREC
 70
     2
  9
$MENU
  1
.
  9
$ELEVATION
 40
0.0
  9
$PELEVATION
 40
0.0
  9
$THICKNESS
 40
0.0
  9
$LIMCHECK
 70
     0
  9
$CHAMFERA
 40
10.0
  9
$CHAMFERB
 40
10.0
  9
$CHAMFERC
 40
20.0
  9
$CHAMFERD
 40
0.0
  9
$SKPOLY
 70
     0
  9
$TDCREATE
 40
2458068.578284248
  9
$TDUCREATE
 40
2458068.494950914
  9
$TDUPDATE
 40
2458068.579180880
  9
$TDUUPDATE
 40
2458068.495847547
  9
$TDINDWG
 40
0.0007040394
  9
$TDUSRTIMER
 40
0.0007040394
  9
$USRTIMER
 70
     1
  9
$ANGBASE
 50
0.0
  9
$ANGDIR
 70
     0
  9
$PDMODE
 70
     0
  9
$PDSIZE
 40
-1.0
  9
$PLINEWID
 40
0.0
  9
$SPLFRAME
 70
     0
  9
$SPLINETYPE
 70
     6
  9
$SPLINESEGS
 70
     8
  9
$HANDSEED
  5
373
  9
$SURFTAB1
 70
     6
  9
$SURFTAB2
 70
     6
  9
$SURFTYPE
 70
     6
  9
$SURFU
 70
     6
  9
$SURFV
 70
     6
  9
$UCSBASE
  2

  9
$UCSNAME
  2

  9
$UCSORG
 10
0.0
 20
0.0
 30
0.0
  9
$UCSXDIR
 10
1.0
 20
0.0
 30
0.0
  9
$UCSYDIR
 10
0.0
 20
1.0
 30
0.0
  9
$UCSORTHOREF
  2

  9
$UCSORTHOVIEW
 70
     0
  9
$UCSORGTOP
 10
0.0
 20
0.0
 30
0.0
  9
$UCSORGBOTTOM
 10
0.0
 20
0.0
 30
0.0
  9
$UCSORGLEFT
 10
0.0
 20
0.0
 30
0.0
  9
$UCSORGRIGHT
 10
0.0
 20
0.0
 30
0.0
  9
$UCSORGFRONT
 10
0.0
 20
0.0
 30
0.0
  9
$UCSORGBACK
 10
0.0
 20
0.0
 30
0.0
  9
$PUCSBASE
  2

  9
$PUCSNAME
  2

  9
$PUCSORG
 10
0.0
 20
0.0
 30
0.0
  9
$PUCSXDIR
 10
1.0
 20
0.0
 30
0.0
  9
$PUCSYDIR
 10
0.0
 20
1.0
 30
0.0
  9
$PUCSORTHOREF
  2

  9
$PUCSORTHOVIEW
 70
     0
  9
$PUCSORGTOP
 10
0.0
 20
0.0
 30
0.0
  9
$PUCSORGBOTTOM
 10
0.0
 20
0.0
 30
0.0
  9
$PUCSORGLEFT
 10
0.0
 20
0.0
 30
0.0
  9
$PUCSORGRIGHT
 10
0.0
 20
0.0
 30
0.0
  9
$PUCSORGFRONT
 10
0.0
 20
0.0
 30
0.0
  9
$PUCSORGBACK
 10
0.0
 20
0.0
 30
0.0
  9
$USERI1
 70
     0
  9
$USERI2
 70
     0
  9
$USERI3
 70
     0
  9
$USERI4
 70
     0
  9
$USERI5
 70
     0
  9
$USERR1
 40
0.0
  9
$USERR2
 40
0.0
  9
$USERR3
 40
0.0
  9
$USERR4
 40
0.0
  9
$USERR5
 40
0.0
  9
$WORLDVIEW
 70
     1
  9
$SHADEDGE
 70
     3
  9
$SHADEDIF
 70
    70
  9
$TILEMODE
 70
     1
  9
$MAXACTVP
 70
    64
  9
$PINSBASE
 10
0.0
 20
0.0
 30
0.0
  9
$PLIMCHECK
 70
     0
  9
$PEXTMIN
 10
1.000000000000000E+20
 20
1.000000000000000E+20
 30
1.000000000000000E+20
  9
$PEXTMAX
 10
-1.000000000000000E+20
 20
-1.000000000000000E+20
 30
-1.000000000000000E+20
  9
$PLIMMIN
 10
0.0
 20
0.0
  9
$PLIMMAX
 10
420.0
 20
297.0
  9
$UNITMODE
 70
     0
  9
$VISRETAIN
 70
     1
  9
$PLINEGEN
 70
     0
  9
$PSLTSCALE
 70
     1
  9
$TREEDEPTH
 70
  3020
  9
$CMLSTYLE
  2
Standard
  9
$CMLJUST
 70
     0
  9
$CMLSCALE
 40
20.0
  9
$PROXYGRAPHICS
 70
     1
  9
$MEASUREMENT
 70
     1
  9
$CELWEIGHT
370
    -1
  9
$ENDCAPS
280
     0
  9
$JOINSTYLE
280
     0
  9
$LWDISPLAY
290
     1
  9
$INSUNITS
 70
     4
  9
$HYPERLINKBASE
  1

  9
$STYLESHEET
  1

  9
$XEDIT
290
     1
  9
$CEPSNTYPE
380
     0
  9
$PSTYLEMODE
290
     1
  9
$FINGERPRINTGUID
  2
{C3075641-B84A-4C0F-A0EA-181610C22A6E}
  9
$VERSIONGUID
  2
{8C33520E-DD94-4DAF-B988-67C518BBC382}
  9
$EXTNAMES
290
     1
  9
$PSVPSCALE
 40
0.0
  9
$OLESTARTUP
290
     0
  9
$SORTENTS
280
   127
  9
$INDEXCTL
280
     0
  9
$HIDETEXT
280
     0
  9
$XCLIPFRAME
290
     0
  9
$HALOGAP
280
     0
  9
$OBSCOLOR
 70
   257
  9
$OBSLTYPE
280
     0
  9
$INTERSECTIONDISPLAY
280
     0
  9
$INTERSECTIONCOLOR
 70
   257
  9
$DIMASSOC
280
     1
  9
$PROJECTNAME
  1

  9
$CAMERADISPLAY
290
     0
  9
$LENSLENGTH
 40
50.0
  9
$CAMERAHEIGHT
 40
0.0
  9
$STEPSPERSEC
 40
2.0
  9
$STEPSIZE
 40
6.0
  9
$3DDWFPREC
 40
2.0
  9
$PSOLWIDTH
 40
0.25
  9
$PSOLHEIGHT
 40
4.0
  9
$LOFTANG1
 40
1.570796326794896
  9
$LOFTANG2
 40
1.570796326794896
  9
$LOFTMAG1
 40
0.0
  9
$LOFTMAG2
 40
0.0
  9
$LOFTPARAM
 70
     7
  9
$LOFTNORMALS
280
     1
  9
$LATITUDE
 40
37.795
  9
$LONGITUDE
 40
-122.394
  9
$NORTHDIRECTION
 40
0.0
  9
$TIMEZONE
 70
 -8000
  9
$LIGHTGLYPHDISPLAY
280
     1
  9
$TILEMODELIGHTSYNCH
280
     1
  9
$CMATERIAL
347
30C
  9
$SOLIDHIST
280
     1
  9
$SHOWHIST
280
     1
  9
$DWFFRAME
280
     2
  9
$DGNFRAME
280
     0
  9
$REALWORLDSCALE
290
     1
  9
$INTERFERECOLOR
 62
     1
  9
$INTERFEREOBJVS
345
32E
  9
$INTERFEREVPVS
346
32B
  9
$CSHADOW
280
     0
  9
$SHADOWPLANELOCATION
 40
0.0
  0
ENDSEC
  0
SECTION
  2
CLASSES
  0
CLASS
  1
ACDBDICTIONARYWDFLT
  2
AcDbDictionaryWithDefault
  3
ObjectDBX Classes
 90
        0
 91
        1
280
     0
281
     0
  0
CLASS
  1
VISUALSTYLE
  2
AcDbVisualStyle
  3
ObjectDBX Classes
 90
     4095
 91
       16
280
     0
281
     0
  0
CLASS
  1
MATERIAL
  2
AcDbMaterial
  3
ObjectDBX Classes
 90
     1153
 91
        3
280
     0
281
     0
  0
CLASS
  1
TABLESTYLE
  2
AcDbTableStyle
  3
ObjectDBX Classes
 90
     4095
 91
        1
280
     0
281
     0
  0
CLASS
  1
SCALE
  2
AcDbScale
  3
ObjectDBX Classes
 90
     1153
 91
       17
280
     0
281
     0
  0
CLASS
  1
MLEADERSTYLE
  2
AcDbMLeaderStyle
  3
ACDB_MLEADERSTYLE_CLASS
 90
     4095
 91
        1
280
     0
281
     0
  0
CLASS
  1
DICTIONARYVAR
  2
AcDbDictionaryVar
  3
ObjectDBX Classes
 90
        0
 91
        7
280
     0
281
     0
  0
CLASS
  1
CELLSTYLEMAP
  2
AcDbCellStyleMap
  3
ObjectDBX Classes
 90
     1152
 91
        1
280
     0
281
     0
  0
ENDSEC
  0
SECTION
  2
TABLES
  0
TABLE
  2
VPORT
  5
8
330
0
100
AcDbSymbolTable
 70
     1
  0
VPORT
  5
29
330
8
100
AcDbSymbolTableRecord
100
AcDbViewportTableRecord
  2
*Active
 70
     0
 10
0.0
 20
0.0
 11
1.0
 21
1.0
 12
1094.507808584263
 22
563.8812815331984
 13
0.0
 23
0.0
 14
10.0
 24
10.0
 15
10.0
 25
10.0
 16
0.0
 26
0.0
 36
1.0
 17
0.0
 27
0.0
 37
0.0
 40
325.66702859367
 41
2.604123711340206
 42
50.0
 43
0.0
 44
0.0
 50
0.0
 51
0.0
 71
     0
 72
  2000
 73
     1
 74
     3
 75
     0
 76
     0
 77
     0
 78
     0
281
     0
 65
     1
110
0.0
120
0.0
130
0.0
111
1.0
121
0.0
131
0.0
112
0.0
122
1.0
132
0.0
 79
     0
146
0.0
348
32A
 60
     3
 61
     5
292
     1
282
     1
141
0.0
142
0.0
 63
   250
421
  3355443
  0
ENDTAB
  0
TABLE
  2
LTYPE
  5
5
330
0
100
AcDbSymbolTable
 70
     6
  0
LTYPE
  5
14
330
5
100
AcDbSymbolTableRecord
100
AcDbLinetypeTableRecord
  2
ByBlock
 70
     0
  3

 72
    65
 73
     0
 40
0.0
  0
LTYPE
  5
15
330
5
100
AcDbSymbolTableRecord
100
AcDbLinetypeTableRecord
  2
ByLayer
 70
     0
  3

 72
    65
 73
     0
 40
0.0
  0
LTYPE
  5
16
330
5
100
AcDbSymbolTableRecord
100
AcDbLinetypeTableRecord
  2
Continuous
 70
     0
  3
Solid line
 72
    65
 73
     0
 40
0.0
  0
LTYPE
  5
3F
330
5
100
AcDbSymbolTableRecord
100
AcDbLinetypeTableRecord
  2
HIDDEN
 70
     0
  3
Hidden __ __ __ __ __ __ __ __ __ __ __ __ __ __
 72
    65
 73
     2
 40
1.905
 49
1.27
 74
     0
 49
-0.635
 74
     0
  0
LTYPE
  5
40
330
5
100
AcDbSymbolTableRecord
100
AcDbLinetypeTableRecord
  2
PHANTOM
 70
     0
  3
Phantom ______  __  __  ______  __  __  ______
 72
    65
 73
     6
 40
12.7
 49
6.349999999999999
 74
     0
 49
-1.27
 74
     0
 49
1.27
 74
     0
 49
-1.27
 74
     0
 49
1.27
 74
     0
 49
-1.27
 74
     0
  0
LTYPE
  5
41
330
5
100
AcDbSymbolTableRecord
100
AcDbLinetypeTableRecord
  2
CENTER
 70
     0
  3
Center ____ _ ____ _ ____ _ ____ _ ____ _ ____
 72
    65
 73
     4
 40
10.16
 49
6.349999999999999
 74
     0
 49
-1.27
 74
     0
 49
1.27
 74
     0
 49
-1.27
 74
     0
  0
LTYPE
  5
42
330
5
100
AcDbSymbolTableRecord
100
AcDbLinetypeTableRecord
  2
CENTERX2
 70
     0
  3
Center (2x) ________  __  ________  __  _____
 72
    65
 73
     4
 40
20.32
 49
12.7
 74
     0
 49
-2.54
 74
     0
 49
2.54
 74
     0
 49
-2.54
 74
     0
  0
LTYPE
  5
43
330
5
100
AcDbSymbolTableRecord
100
AcDbLinetypeTableRecord
  2
DOT2
 70
     0
  3
Dot (.5x) ........................................
 72
    65
 73
     2
 40
0.635
 49
0.0
 74
     0
 49
-0.635
 74
     0
  0
ENDTAB
  0
TABLE
  2
LAYER
  5
2
330
0
100
AcDbSymbolTable
 70
     2
  0
LAYER
  5
10
102
{ACAD_XDICTIONARY
360
366
102
}
330
2
100
AcDbSymbolTableRecord
100
AcDbLayerTableRecord
  2
0
 70
     0
 62
     7
  6
Continuous
370
    -3
390
F
347
31C
  0
LAYER
  5
350
330
2
100
AcDbSymbolTableRecord
100
AcDbLayerTableRecord
  2
Defpoints
 70
     0
 62
     7
  6
Continuous
290
     0
370
    -3
390
F
347
31C
  0
ENDTAB
  0
TABLE
  2
STYLE
  5
3
330
0
100
AcDbSymbolTable
 70
     1
  0
STYLE
  5
11
330
3
100
AcDbSymbolTableRecord
100
AcDbTextStyleTableRecord
  2
Standard
 70
     0
 40
0.0
 41
1.0
 50
0.0
 71
     0
 42
17.5
  3
txt
  4

  0
ENDTAB
  0
TABLE
  2
VIEW
  5
6
330
0
100
AcDbSymbolTable
 70
     0
  0
ENDTAB
  0
TABLE
  2
UCS
  5
7
330
0
100
AcDbSymbolTable
 70
     0
  0
ENDTAB
  0
TABLE
  2
APPID
  5
9
330
0
100
AcDbSymbolTable
 70
     2
  0
APPID
  5
12
330
9
100
AcDbSymbolTableRecord
100
AcDbRegAppTableRecord
  2
ACAD
 70
     0
  0
APPID
  5
34C
330
9
100
AcDbSymbolTableRecord
100
AcDbRegAppTableRecord
  2
ACAD_MLEADERVER
 70
     0
  0
ENDTAB
  0
TABLE
  2
DIMSTYLE
  5
A
330
0
100
AcDbSymbolTable
 70
     1
100
AcDbDimStyleTable
 71
     1
340
27
  0
DIMSTYLE
105
27
330
A
100
AcDbSymbolTableRecord
100
AcDbDimStyleTableRecord
  2
ISO-25
 70
     0
 41
2.5
 42
0.625
 43
3.75
 44
1.25
 73
     0
 74
     0
 77
     1
 78
     8
140
2.5
141
2.5
143
0.03937007874016
147
0.625
171
     3
172
     1
271
     2
272
     2
274
     3
278
    44
283
     0
284
     8
340
11
  0
ENDTAB
  0
TABLE
  2
BLOCK_RECORD
  5
1
330
0
100
AcDbSymbolTable
 70
     2
  0
BLOCK_RECORD
  5
1F
330
1
100
AcDbSymbolTableRecord
100
AcDbBlockTableRecord
  2
*Model_Space
340
22
 70
     0
280
     1
281
     0
  0
BLOCK_RECORD
  5
1B
330
1
100
AcDbSymbolTableRecord
100
AcDbBlockTableRecord
  2
*Paper_Space
340
1E
 70
     0
280
     1
281
     0
  0
BLOCK_RECORD
  5
23
330
1
100
AcDbSymbolTableRecord
100
AcDbBlockTableRecord
  2
*Paper_Space0
340
26
 70
     0
280
     1
281
     0
  0
BLOCK_RECORD
  5
351
330
1
100
AcDbSymbolTableRecord
100
AcDbBlockTableRecord
  2
*D1
340
0
 70
     0
280
     1
281
     0
  0
ENDTAB
  0
ENDSEC
  0
SECTION
  2
BLOCKS
  0
BLOCK
  5
20
330
1F
100
AcDbEntity
  8
0
100
AcDbBlockBegin
  2
*Model_Space
 70
     0
 10
0.0
 20
0.0
 30
0.0
  3
*Model_Space
  1

  0
ENDBLK
  5
21
330
1F
100
AcDbEntity
  8
0
100
AcDbBlockEnd
  0
BLOCK
  5
1C
330
1B
100
AcDbEntity
 67
     1
  8
0
100
AcDbBlockBegin
  2
*Paper_Space
 70
     0
 10
0.0
 20
0.0
 30
0.0
  3
*Paper_Space
  1

  0
ENDBLK
  5
1D
330
1B
100
AcDbEntity
 67
     1
  8
0
100
AcDbBlockEnd
  0
BLOCK
  5
24
330
23
100
AcDbEntity
 67
     1
  8
0
100
AcDbBlockBegin
  2
*Paper_Space0
 70
     0
 10
0.0
 20
0.0
 30
0.0
  3
*Paper_Space0
  1

  0
ENDBLK
  5
25
330
23
100
AcDbEntity
 67
     1
  8
0
100
AcDbBlockEnd
  0
BLOCK
  5
352
330
351
100
AcDbEntity
  8
0
100
AcDbBlockBegin
  2
*D1
 70
     1
 10
0.0
 20
0.0
 30
0.0
  3
*D1
  1

  0
LINE
  5
35D
330
351
100
AcDbEntity
  8
0
 62
     0
370
    -2
100
AcDbLine
 10
1235.997493347765
 20
403.0091796482007
 30
0.0
 11
1235.997493347765
 21
372.7872272156287
 31
0.0
  0
LINE
  5
35E
330
351
100
AcDbEntity
  8
0
 62
     0
370
    -2
100
AcDbLine
 10
772.9974933477656
 20
403.0091796482008
 30
0.0
 11
772.9974933477656
 21
372.7872272156287
 31
0.0
  0
LINE
  5
35F
330
351
100
AcDbEntity
  8
0
 62
     0
370
    -2
100
AcDbLine
 10
1218.497493347765
 20
377.7872272156287
 30
0.0
 11
790.4974933477656
 21
377.7872272156287
 31
0.0
  0
SOLID
  5
360
330
351
100
AcDbEntity
  8
0
 62
     0
100
AcDbTrace
 10
1218.497493347765
 20
380.7038938822954
 30
0.0
 11
1218.497493347765
 21
374.870560548962
 31
0.0
 12
1235.997493347765
 22
377.7872272156287
 32
0.0
 13
1235.997493347765
 23
377.7872272156287
 33
0.0
  0
SOLID
  5
361
330
351
100
AcDbEntity
  8
0
 62
     0
100
AcDbTrace
 10
790.4974933477656
 20
380.7038938822954
 30
0.0
 11
790.4974933477656
 21
374.870560548962
 31
0.0
 12
772.9974933477656
 22
377.7872272156287
 32
0.0
 13
772.9974933477656
 23
377.7872272156287
 33
0.0
  0
MTEXT
  5
362
330
351
100
AcDbEntity
  8
0
 62
     0
100
AcDbMText
 10
1004.497493347765
 20
402.995560548962
 30
0.0
 40
17.5
 41
0.0
 46
0.0
 71
     5
 72
     1
  1
463,00
 73
     1
 44
1.0
  0
POINT
  5
363
330
351
100
AcDbEntity
  8
Defpoints
 62
     0
100
AcDbPoint
 10
1235.997493347765
 20
403.0591796482008
 30
0.0
  0
POINT
  5
364
330
351
100
AcDbEntity
  8
Defpoints
 62
     0
100
AcDbPoint
 10
772.9974933477656
 20
403.0591796482008
 30
0.0
  0
POINT
  5
365
330
351
100
AcDbEntity
  8
Defpoints
 62
     0
100
AcDbPoint
 10
772.9974933477656
 20
377.7872272156287
 30
0.0
  0
ENDBLK
  5
353
330
351
100
AcDbEntity
  8
0
100
AcDbBlockEnd
  0
ENDSEC
  0
SECTION
  2
ENTITIES
  0
LINE
  5
44
330
1F
100
AcDbEntity
  8
0
  6
Continuous
 62
     7
370
    15
100
AcDbLine
 10
1306.058276699427
 20
620.0304221365325
 30
0.0
 11
1306.058276699427
 21
573.6469576364347
 31
0.0
  0
LINE
  5
45
330
1F
100
AcDbEntity
  8
0
  6
Continuous
 62
     7
370
    15
100
AcDbLine
 10
1416.058276699427
 20
573.6469576364347
 30
0.0
 11
1416.058276699427
 21
620.0304221365325
 31
0.0
  0
LINE
  5
46
330
1F
100
AcDbEntity
  8
0
  6
Continuous
 62
     7
370
    15
100
AcDbLine
 10
1335.195033939074
 20
565.6671793761777
 30
0.0
 11
1386.92151945978
 21
565.6671793761777
 31
0.0
  0
LINE
  5
47
330
1F
100
AcDbEntity
  8
0
  6
Continuous
 62
     7
370
    15
100
AcDbLine
 10
1335.195033939074
 20
565.6671793761777
 30
0.0
 11
1306.058276699427
 21
573.6469576364347
 31
0.0
  0
LINE
  5
48
330
1F
100
AcDbEntity
  8
0
  6
Continuous
 62
     7
370
    15
100
AcDbLine
 10
1386.92151945978
 20
565.6671793761777
 30
0.0
 11
1416.058276699427
 21
573.6469576364347
 31
0.0
  0
ARC
  5
49
330
1F
100
AcDbEntity
  8
0
  6
Continuous
 62
     7
370
    15
100
AcDbCircle
 10
1347.116414429357
 20
473.3334993166838
 30
0.0
 40
152.3343619760903
100
AcDbArc
 50
90.17143697045231
 51
105.6360890115519
  0
LINE
  5
4A
330
1F
100
AcDbEntity
  8
0
  6
Continuous
 62
     7
370
    15
100
AcDbLine
 10
1375.45594396537
 20
625.6671793761777
 30
0.0
 11
1346.660609433484
 21
625.6671793761777
 31
0.0
  0
ARC
  5
4B
330
1F
100
AcDbEntity
  8
0
  6
Continuous
 62
     7
370
    15
100
AcDbCircle
 10
1375.000138969497
 20
473.3334993166838
 30
0.0
 40
152.3343619760903
100
AcDbArc
 50
74.36391098844804
 51
89.8285630295477
  0
LINE
  5
4C
330
1F
100
AcDbEntity
  8
0
  6
Continuous
 62
     7
370
    15
100
AcDbLine
 10
1352.527120679732
 20
563.6671793761776
 30
0.0
 11
1343.183974929224
 21
563.6671793761776
 31
0.0
  0
ARC
  5
4D
330
1F
100
AcDbEntity
  8
0
  6
Continuous
 62
     7
370
    15
100
AcDbCircle
 10
1343.183974929224
 20
566.6671793761777
 30
0.0
 40
3.000000000000107
100
AcDbArc
 50
199.4712206344888
 51
270.0
  0
ARC
  5
4E
330
1F
100
AcDbEntity
  8
0
  6
Continuous
 62
     7
370
    15
100
AcDbCircle
 10
1352.527120679732
 20
566.6671793761777
 30
0.0
 40
3.000000000000021
100
AcDbArc
 50
270.0
 51
340.5287793655112
  0
LINE
  5
4F
330
1F
100
AcDbEntity
  8
0
  6
Continuous
 62
     7
370
    15
100
AcDbLine
 10
1377.814285185746
 20
563.6671793761776
 30
0.0
 11
1368.471139435238
 21
563.6671793761776
 31
0.0
  0
ARC
  5
50
330
1F
100
AcDbEntity
  8
0
  6
Continuous
 62
     7
370
    15
100
AcDbCircle
 10
1377.814285185746
 20
566.6671793761777
 30
0.0
 40
3.000000000000021
100
AcDbArc
 50
270.0
 51
340.5287793655112
  0
ARC
  5
51
330
1F
100
AcDbEntity
  8
0
  6
Continuous
 62
     7
370
    15
100
AcDbCircle
 10
1368.471139435238
 20
566.6671793761777
 30
0.0
 40
3.000000000000107
100
AcDbArc
 50
199.4712206344888
 51
270.0
  0
LINE
  5
52
330
1F
100
AcDbEntity
  8
0
  6
Continuous
 62
     7
370
    15
100
AcDbLine
 10
1351.660609433484
 20
625.6671793761777
 30
0.0
 11
1351.660609433484
 21
724.6671793761777
 31
0.0
  0
LINE
  5
53
330
1F
100
AcDbEntity
  8
0
  6
Continuous
 62
     7
370
    15
100
AcDbLine
 10
1369.660609433484
 20
625.6671793761777
 30
0.0
 11
1369.660609433484
 21
724.6671793761777
 31
0.0
  0
LINE
  5
54
330
1F
100
AcDbEntity
  8
0
  6
Continuous
 62
     7
370
    15
100
AcDbLine
 10
1369.660609433484
 20
724.6671793761777
 30
0.0
 11
1351.660609433484
 21
724.6671793761777
 31
0.0
  0
LINE
  5
55
330
1F
100
AcDbEntity
  8
0
  6
Continuous
 62
     7
370
    15
100
AcDbLine
 10
1375.45594396537
 20
685.6671793761778
 30
0.0
 11
1375.45594396537
 21
625.6671793761777
 31
0.0
  0
LINE
  5
56
330
1F
100
AcDbEntity
  8
0
  6
Continuous
 62
     7
370
    15
100
AcDbLine
 10
1369.660609433484
 20
685.6671793761778
 30
0.0
 11
1375.45594396537
 21
685.6671793761778
 31
0.0
  0
LINE
  5
57
330
1F
100
AcDbEntity
  8
0
  6
Continuous
 62
     7
370
    15
100
AcDbLine
 10
1346.660609433484
 20
685.6671793761778
 30
0.0
 11
1351.660609433484
 21
685.6671793761778
 31
0.0
  0
LINE
  5
58
330
1F
100
AcDbEntity
  8
0
  6
Continuous
 62
     7
370
    15
100
AcDbLine
 10
1346.660609433484
 20
685.6671793761778
 30
0.0
 11
1346.660609433484
 21
625.6671793761777
 31
0.0
  0
LINE
  5
59
330
1F
100
AcDbEntity
  8
0
  6
Continuous
 62
     7
370
    15
100
AcDbLine
 10
1214.838843838393
 20
621.2370836722209
 30
0.0
 11
1224.838843838393
 21
621.2370836722209
 31
0.0
  0
LINE
  5
5A
330
1F
100
AcDbEntity
  8
0
  6
Continuous
 62
     7
370
    15
100
AcDbLine
 10
1224.838843838393
 20
621.2370836722209
 30
0.0
 11
1224.838843838393
 21
624.7745590287653
 31
0.0
  0
LINE
  5
5B
330
1F
100
AcDbEntity
  8
0
  6
Continuous
 62
     7
370
    15
100
AcDbLine
 10
1224.838843838393
 20
624.7745590287653
 30
0.0
 11
1214.838843838393
 21
624.7745590287653
 31
0.0
  0
LINE
  5
5C
330
1F
100
AcDbEntity
  8
0
  6
Continuous
 62
     7
370
    15
100
AcDbLine
 10
1214.838843838393
 20
624.7745590287653
 30
0.0
 11
1214.838843838393
 21
621.2370836722209
 31
0.0
  0
LINE
  5
5D
330
1F
100
AcDbEntity
  8
0
  6
Continuous
 62
     7
370
    15
100
AcDbLine
 10
1184.838843838392
 20
621.237083672221
 30
0.0
 11
1194.838843838392
 21
621.237083672221
 31
0.0
  0
LINE
  5
5E
330
1F
100
AcDbEntity
  8
0
  6
Continuous
 62
     7
370
    15
100
AcDbLine
 10
1194.838843838392
 20
621.237083672221
 30
0.0
 11
1194.838843838392
 21
624.7745590287653
 31
0.0
  0
LINE
  5
5F
330
1F
100
AcDbEntity
  8
0
  6
Continuous
 62
     7
370
    15
100
AcDbLine
 10
1194.838843838392
 20
624.7745590287653
 30
0.0
 11
1184.838843838392
 21
624.7745590287653
 31
0.0
  0
LINE
  5
60
330
1F
100
AcDbEntity
  8
0
  6
Continuous
 62
     7
370
    15
100
AcDbLine
 10
1184.838843838392
 20
624.7745590287653
 30
0.0
 11
1184.838843838392
 21
621.237083672221
 31
0.0
  0
LINE
  5
61
330
1F
100
AcDbEntity
  8
0
  6
Continuous
 62
     7
370
    15
100
AcDbLine
 10
1154.838843838392
 20
621.2370836722211
 30
0.0
 11
1164.838843838392
 21
621.2370836722211
 31
0.0
  0
LINE
  5
62
330
1F
100
AcDbEntity
  8
0
  6
Continuous
 62
     7
370
    15
100
AcDbLine
 10
1164.838843838392
 20
621.2370836722211
 30
0.0
 11
1164.838843838392
 21
624.7745590287654
 31
0.0
  0
LINE
  5
63
330
1F
100
AcDbEntity
  8
0
  6
Continuous
 62
     7
370
    15
100
AcDbLine
 10
1164.838843838392
 20
624.7745590287654
 30
0.0
 11
1154.838843838392
 21
624.7745590287654
 31
0.0
  0
LINE
  5
64
330
1F
100
AcDbEntity
  8
0
  6
Continuous
 62
     7
370
    15
100
AcDbLine
 10
1154.838843838392
 20
624.7745590287654
 30
0.0
 11
1154.838843838392
 21
621.2370836722211
 31
0.0
  0
LINE
  5
65
330
1F
100
AcDbEntity
  8
0
  6
Continuous
 62
     7
370
    15
100
AcDbLine
 10
1124.838843838393
 20
621.2370836722211
 30
0.0
 11
1134.838843838393
 21
621.2370836722211
 31
0.0
  0
LINE
  5
66
330
1F
100
AcDbEntity
  8
0
  6
Continuous
 62
     7
370
    15
100
AcDbLine
 10
1134.838843838393
 20
621.2370836722211
 30
0.0
 11
1134.838843838393
 21
624.7745590287654
 31
0.0
  0
LINE
  5
67
330
1F
100
AcDbEntity
  8
0
  6
Continuous
 62
     7
370
    15
100
AcDbLine
 10
1134.838843838393
 20
624.7745590287654
 30
0.0
 11
1124.838843838393
 21
624.7745590287654
 31
0.0
  0
LINE
  5
68
330
1F
100
AcDbEntity
  8
0
  6
Continuous
 62
     7
370
    15
100
AcDbLine
 10
1124.838843838393
 20
624.7745590287654
 30
0.0
 11
1124.838843838393
 21
621.2370836722211
 31
0.0
  0
LINE
  5
69
330
1F
100
AcDbEntity
  8
0
  6
Continuous
 62
     7
370
    15
100
AcDbLine
 10
1094.838843838393
 20
621.2370836722213
 30
0.0
 11
1104.838843838393
 21
621.2370836722213
 31
0.0
  0
LINE
  5
6A
330
1F
100
AcDbEntity
  8
0
  6
Continuous
 62
     7
370
    15
100
AcDbLine
 10
1104.838843838393
 20
621.2370836722213
 30
0.0
 11
1104.838843838393
 21
624.7745590287654
 31
0.0
  0
LINE
  5
6B
330
1F
100
AcDbEntity
  8
0
  6
Continuous
 62
     7
370
    15
100
AcDbLine
 10
1104.838843838393
 20
624.7745590287654
 30
0.0
 11
1094.838843838393
 21
624.7745590287654
 31
0.0
  0
LINE
  5
6C
330
1F
100
AcDbEntity
  8
0
  6
Continuous
 62
     7
370
    15
100
AcDbLine
 10
1094.838843838393
 20
624.7745590287654
 30
0.0
 11
1094.838843838393
 21
621.2370836722213
 31
0.0
  0
LINE
  5
6D
330
1F
100
AcDbEntity
  8
0
  6
Continuous
 62
     7
370
    15
100
AcDbLine
 10
1064.838843838393
 20
621.2370836722214
 30
0.0
 11
1074.838843838393
 21
621.2370836722214
 31
0.0
  0
LINE
  5
6E
330
1F
100
AcDbEntity
  8
0
  6
Continuous
 62
     7
370
    15
100
AcDbLine
 10
1074.838843838393
 20
621.2370836722214
 30
0.0
 11
1074.838843838393
 21
624.7745590287654
 31
0.0
  0
LINE
  5
6F
330
1F
100
AcDbEntity
  8
0
  6
Continuous
 62
     7
370
    15
100
AcDbLine
 10
1074.838843838393
 20
624.7745590287654
 30
0.0
 11
1064.838843838393
 21
624.7745590287654
 31
0.0
  0
LINE
  5
70
330
1F
100
AcDbEntity
  8
0
  6
Continuous
 62
     7
370
    15
100
AcDbLine
 10
1064.838843838393
 20
624.7745590287654
 30
0.0
 11
1064.838843838393
 21
621.2370836722214
 31
0.0
  0
LINE
  5
71
330
1F
100
AcDbEntity
  8
0
  6
Continuous
 62
     7
370
    15
100
AcDbLine
 10
1034.838843838392
 20
621.2370836722214
 30
0.0
 11
1044.838843838393
 21
621.2370836722214
 31
0.0
  0
LINE
  5
72
330
1F
100
AcDbEntity
  8
0
  6
Continuous
 62
     7
370
    15
100
AcDbLine
 10
1044.838843838393
 20
621.2370836722214
 30
0.0
 11
1044.838843838393
 21
624.7745590287656
 31
0.0
  0
LINE
  5
73
330
1F
100
AcDbEntity
  8
0
  6
Continuous
 62
     7
370
    15
100
AcDbLine
 10
1044.838843838393
 20
624.7745590287656
 30
0.0
 11
1034.838843838392
 21
624.7745590287656
 31
0.0
  0
LINE
  5
74
330
1F
100
AcDbEntity
  8
0
  6
Continuous
 62
     7
370
    15
100
AcDbLine
 10
1034.838843838392
 20
624.7745590287656
 30
0.0
 11
1034.838843838392
 21
621.2370836722214
 31
0.0
  0
LINE
  5
75
330
1F
100
AcDbEntity
  8
0
  6
Continuous
 62
     7
370
    15
100
AcDbLine
 10
1004.838843838393
 20
621.2370836722215
 30
0.0
 11
1014.838843838393
 21
621.2370836722215
 31
0.0
  0
LINE
  5
76
330
1F
100
AcDbEntity
  8
0
  6
Continuous
 62
     7
370
    15
100
AcDbLine
 10
1014.838843838393
 20
621.2370836722215
 30
0.0
 11
1014.838843838393
 21
624.7745590287656
 31
0.0
  0
LINE
  5
77
330
1F
100
AcDbEntity
  8
0
  6
Continuous
 62
     7
370
    15
100
AcDbLine
 10
1014.838843838393
 20
624.7745590287656
 30
0.0
 11
1004.838843838393
 21
624.7745590287656
 31
0.0
  0
LINE
  5
78
330
1F
100
AcDbEntity
  8
0
  6
Continuous
 62
     7
370
    15
100
AcDbLine
 10
1004.838843838393
 20
624.7745590287656
 30
0.0
 11
1004.838843838393
 21
621.2370836722215
 31
0.0
  0
LINE
  5
79
330
1F
100
AcDbEntity
  8
0
  6
Continuous
 62
     7
370
    15
100
AcDbLine
 10
974.8388438383928
 20
621.2370836722215
 30
0.0
 11
984.8388438383929
 21
621.2370836722215
 31
0.0
  0
LINE
  5
7A
330
1F
100
AcDbEntity
  8
0
  6
Continuous
 62
     7
370
    15
100
AcDbLine
 10
984.8388438383929
 20
621.2370836722215
 30
0.0
 11
984.8388438383926
 21
624.7745590287656
 31
0.0
  0
LINE
  5
7B
330
1F
100
AcDbEntity
  8
0
  6
Continuous
 62
     7
370
    15
100
AcDbLine
 10
984.8388438383926
 20
624.7745590287656
 30
0.0
 11
974.8388438383928
 21
624.7745590287656
 31
0.0
  0
LINE
  5
7C
330
1F
100
AcDbEntity
  8
0
  6
Continuous
 62
     7
370
    15
100
AcDbLine
 10
974.8388438383928
 20
624.7745590287656
 30
0.0
 11
974.8388438383928
 21
621.2370836722215
 31
0.0
  0
LINE
  5
7D
330
1F
100
AcDbEntity
  8
0
  6
Continuous
 62
     7
370
    15
100
AcDbLine
 10
944.8388438383927
 20
621.2370836722215
 30
0.0
 11
954.8388438383927
 21
621.2370836722215
 31
0.0
  0
LINE
  5
7E
330
1F
100
AcDbEntity
  8
0
  6
Continuous
 62
     7
370
    15
100
AcDbLine
 10
954.8388438383927
 20
621.2370836722215
 30
0.0
 11
954.8388438383927
 21
624.7745590287657
 31
0.0
  0
LINE
  5
7F
330
1F
100
AcDbEntity
  8
0
  6
Continuous
 62
     7
370
    15
100
AcDbLine
 10
954.8388438383927
 20
624.7745590287657
 30
0.0
 11
944.8388438383927
 21
624.7745590287657
 31
0.0
  0
LINE
  5
80
330
1F
100
AcDbEntity
  8
0
  6
Continuous
 62
     7
370
    15
100
AcDbLine
 10
944.8388438383927
 20
624.7745590287657
 30
0.0
 11
944.8388438383927
 21
621.2370836722215
 31
0.0
  0
LINE
  5
81
330
1F
100
AcDbEntity
  8
0
  6
Continuous
 62
     7
370
    15
100
AcDbLine
 10
914.8388438383928
 20
621.2370836722217
 30
0.0
 11
924.8388438383928
 21
621.2370836722217
 31
0.0
  0
LINE
  5
82
330
1F
100
AcDbEntity
  8
0
  6
Continuous
 62
     7
370
    15
100
AcDbLine
 10
924.8388438383928
 20
621.2370836722217
 30
0.0
 11
924.8388438383928
 21
624.7745590287657
 31
0.0
  0
LINE
  5
83
330
1F
100
AcDbEntity
  8
0
  6
Continuous
 62
     7
370
    15
100
AcDbLine
 10
924.8388438383928
 20
624.7745590287657
 30
0.0
 11
914.8388438383928
 21
624.7745590287657
 31
0.0
  0
LINE
  5
84
330
1F
100
AcDbEntity
  8
0
  6
Continuous
 62
     7
370
    15
100
AcDbLine
 10
914.8388438383928
 20
624.7745590287657
 30
0.0
 11
914.8388438383928
 21
621.2370836722217
 31
0.0
  0
LINE
  5
85
330
1F
100
AcDbEntity
  8
0
  6
Continuous
 62
     7
370
    15
100
AcDbLine
 10
884.8388438383929
 20
621.2370836722218
 30
0.0
 11
894.8388438383929
 21
621.2370836722218
 31
0.0
  0
LINE
  5
86
330
1F
100
AcDbEntity
  8
0
  6
Continuous
 62
     7
370
    15
100
AcDbLine
 10
894.8388438383929
 20
621.2370836722218
 30
0.0
 11
894.8388438383927
 21
624.7745590287657
 31
0.0
  0
LINE
  5
87
330
1F
100
AcDbEntity
  8
0
  6
Continuous
 62
     7
370
    15
100
AcDbLine
 10
894.8388438383927
 20
624.7745590287657
 30
0.0
 11
884.8388438383929
 21
624.7745590287657
 31
0.0
  0
LINE
  5
88
330
1F
100
AcDbEntity
  8
0
  6
Continuous
 62
     7
370
    15
100
AcDbLine
 10
884.8388438383929
 20
624.7745590287657
 30
0.0
 11
884.8388438383929
 21
621.2370836722218
 31
0.0
  0
LINE
  5
89
330
1F
100
AcDbEntity
  8
0
  6
Continuous
 62
     7
370
    15
100
AcDbLine
 10
854.8388438383929
 20
621.2370836722219
 30
0.0
 11
864.8388438383928
 21
621.2370836722219
 31
0.0
  0
LINE
  5
8A
330
1F
100
AcDbEntity
  8
0
  6
Continuous
 62
     7
370
    15
100
AcDbLine
 10
864.8388438383928
 20
621.2370836722219
 30
0.0
 11
864.8388438383928
 21
624.7745590287657
 31
0.0
  0
LINE
  5
8B
330
1F
100
AcDbEntity
  8
0
  6
Continuous
 62
     7
370
    15
100
AcDbLine
 10
864.8388438383928
 20
624.7745590287657
 30
0.0
 11
854.8388438383929
 21
624.7745590287657
 31
0.0
  0
LINE
  5
8C
330
1F
100
AcDbEntity
  8
0
  6
Continuous
 62
     7
370
    15
100
AcDbLine
 10
854.8388438383929
 20
624.7745590287657
 30
0.0
 11
854.8388438383929
 21
621.2370836722219
 31
0.0
  0
LINE
  5
8D
330
1F
100
AcDbEntity
  8
0
  6
Continuous
 62
     7
370
    15
100
AcDbLine
 10
824.8388438383928
 20
621.2370836722219
 30
0.0
 11
834.8388438383928
 21
621.2370836722219
 31
0.0
  0
LINE
  5
8E
330
1F
100
AcDbEntity
  8
0
  6
Continuous
 62
     7
370
    15
100
AcDbLine
 10
834.8388438383928
 20
621.2370836722219
 30
0.0
 11
834.8388438383928
 21
624.7745590287657
 31
0.0
  0
LINE
  5
8F
330
1F
100
AcDbEntity
  8
0
  6
Continuous
 62
     7
370
    15
100
AcDbLine
 10
834.8388438383928
 20
624.7745590287657
 30
0.0
 11
824.8388438383928
 21
624.7745590287657
 31
0.0
  0
LINE
  5
90
330
1F
100
AcDbEntity
  8
0
  6
Continuous
 62
     7
370
    15
100
AcDbLine
 10
824.8388438383928
 20
624.7745590287657
 30
0.0
 11
824.8388438383928
 21
621.2370836722219
 31
0.0
  0
LINE
  5
91
330
1F
100
AcDbEntity
  8
0
  6
Continuous
 62
     7
370
    15
100
AcDbLine
 10
794.8388438383927
 20
621.2370836722221
 30
0.0
 11
804.8388438383929
 21
621.2370836722221
 31
0.0
  0
LINE
  5
92
330
1F
100
AcDbEntity
  8
0
  6
Continuous
 62
     7
370
    15
100
AcDbLine
 10
804.8388438383929
 20
621.2370836722221
 30
0.0
 11
804.8388438383929
 21
624.7745590287657
 31
0.0
  0
LINE
  5
93
330
1F
100
AcDbEntity
  8
0
  6
Continuous
 62
     7
370
    15
100
AcDbLine
 10
804.8388438383929
 20
624.7745590287657
 30
0.0
 11
794.8388438383927
 21
624.7745590287657
 31
0.0
  0
LINE
  5
94
330
1F
100
AcDbEntity
  8
0
  6
Continuous
 62
     7
370
    15
100
AcDbLine
 10
794.8388438383927
 20
624.7745590287657
 30
0.0
 11
794.8388438383927
 21
621.2370836722221
 31
0.0
  0
LINE
  5
95
330
1F
100
AcDbEntity
  8
0
  6
Continuous
 62
     7
370
    15
100
AcDbLine
 10
772.9974933477656
 20
620.0304221365325
 30
0.0
 11
1235.997493347765
 21
620.0304221365325
 31
0.0
  0
LINE
  5
96
330
1F
100
AcDbEntity
  8
0
  6
Continuous
 62
     7
370
    15
100
AcDbLine
 10
772.9974933477656
 20
620.0304221365325
 30
0.0
 11
772.9974933477656
 21
625.6671793761777
 31
0.0
  0
LINE
  5
97
330
1F
100
AcDbEntity
  8
0
  6
Continuous
 62
     7
370
    15
100
AcDbLine
 10
772.9974933477656
 20
625.6671793761777
 30
0.0
 11
870.8046342818525
 21
625.6671793761777
 31
0.0
  0
LINE
  5
98
330
1F
100
AcDbEntity
  8
0
  6
Continuous
 62
     7
370
    15
100
AcDbLine
 10
870.8046342818525
 20
625.6671793761777
 30
0.0
 11
1138.190352413678
 21
625.6671793761777
 31
0.0
  0
LINE
  5
99
330
1F
100
AcDbEntity
  8
0
  6
Continuous
 62
     7
370
    15
100
AcDbLine
 10
1138.190352413678
 20
625.6671793761777
 30
0.0
 11
1235.997493347765
 21
625.6671793761777
 31
0.0
  0
LINE
  5
9A
330
1F
100
AcDbEntity
  8
0
  6
Continuous
 62
     7
370
    15
100
AcDbLine
 10
1235.997493347765
 20
620.0304221365325
 30
0.0
 11
1235.997493347765
 21
625.6671793761777
 31
0.0
  0
LINE
  5
9B
330
1F
100
AcDbEntity
  8
0
  6
Continuous
 62
     7
370
    15
100
AcDbLine
 10
779.8388438383928
 20
621.2370836722221
 30
0.0
 11
789.8388438383928
 21
621.2370836722221
 31
0.0
  0
LINE
  5
9C
330
1F
100
AcDbEntity
  8
0
  6
Continuous
 62
     7
370
    15
100
AcDbLine
 10
789.8388438383928
 20
621.2370836722221
 30
0.0
 11
789.8388438383928
 21
624.7745590287657
 31
0.0
  0
LINE
  5
9D
330
1F
100
AcDbEntity
  8
0
  6
Continuous
 62
     7
370
    15
100
AcDbLine
 10
789.8388438383928
 20
624.7745590287657
 30
0.0
 11
779.8388438383928
 21
624.7745590287657
 31
0.0
  0
LINE
  5
9E
330
1F
100
AcDbEntity
  8
0
  6
Continuous
 62
     7
370
    15
100
AcDbLine
 10
779.8388438383928
 20
624.7745590287657
 30
0.0
 11
779.8388438383928
 21
621.2370836722221
 31
0.0
  0
LINE
  5
9F
330
1F
100
AcDbEntity
  8
0
  6
Continuous
 62
     7
370
    15
100
AcDbLine
 10
809.8388438383929
 20
621.2370836722221
 30
0.0
 11
819.8388438383929
 21
621.2370836722221
 31
0.0
  0
LINE
  5
A0
330
1F
100
AcDbEntity
  8
0
  6
Continuous
 62
     7
370
    15
100
AcDbLine
 10
819.8388438383929
 20
621.2370836722221
 30
0.0
 11
819.8388438383929
 21
624.7745590287657
 31
0.0
  0
LINE
  5
A1
330
1F
100
AcDbEntity
  8
0
  6
Continuous
 62
     7
370
    15
100
AcDbLine
 10
819.8388438383929
 20
624.7745590287657
 30
0.0
 11
809.8388438383929
 21
624.7745590287657
 31
0.0
  0
LINE
  5
A2
330
1F
100
AcDbEntity
  8
0
  6
Continuous
 62
     7
370
    15
100
AcDbLine
 10
809.8388438383929
 20
624.7745590287657
 30
0.0
 11
809.8388438383929
 21
621.2370836722221
 31
0.0
  0
LINE
  5
A3
330
1F
100
AcDbEntity
  8
0
  6
Continuous
 62
     7
370
    15
100
AcDbLine
 10
839.8388438383928
 20
621.2370836722219
 30
0.0
 11
849.8388438383928
 21
621.2370836722219
 31
0.0
  0
LINE
  5
A4
330
1F
100
AcDbEntity
  8
0
  6
Continuous
 62
     7
370
    15
100
AcDbLine
 10
849.8388438383928
 20
621.2370836722219
 30
0.0
 11
849.8388438383928
 21
624.7745590287657
 31
0.0
  0
LINE
  5
A5
330
1F
100
AcDbEntity
  8
0
  6
Continuous
 62
     7
370
    15
100
AcDbLine
 10
849.8388438383928
 20
624.7745590287657
 30
0.0
 11
839.8388438383928
 21
624.7745590287657
 31
0.0
  0
LINE
  5
A6
330
1F
100
AcDbEntity
  8
0
  6
Continuous
 62
     7
370
    15
100
AcDbLine
 10
839.8388438383928
 20
624.7745590287657
 30
0.0
 11
839.8388438383928
 21
621.2370836722219
 31
0.0
  0
LINE
  5
A7
330
1F
100
AcDbEntity
  8
0
  6
Continuous
 62
     7
370
    15
100
AcDbLine
 10
869.8388438383929
 20
621.2370836722218
 30
0.0
 11
879.8388438383929
 21
621.2370836722218
 31
0.0
  0
LINE
  5
A8
330
1F
100
AcDbEntity
  8
0
  6
Continuous
 62
     7
370
    15
100
AcDbLine
 10
879.8388438383929
 20
621.2370836722218
 30
0.0
 11
879.8388438383927
 21
624.7745590287657
 31
0.0
  0
LINE
  5
A9
330
1F
100
AcDbEntity
  8
0
  6
Continuous
 62
     7
370
    15
100
AcDbLine
 10
879.8388438383927
 20
624.7745590287657
 30
0.0
 11
869.8388438383929
 21
624.7745590287657
 31
0.0
  0
LINE
  5
AA
330
1F
100
AcDbEntity
  8
0
  6
Continuous
 62
     7
370
    15
100
AcDbLine
 10
869.8388438383929
 20
624.7745590287657
 30
0.0
 11
869.8388438383929
 21
621.2370836722218
 31
0.0
  0
LINE
  5
AB
330
1F
100
AcDbEntity
  8
0
  6
Continuous
 62
     7
370
    15
100
AcDbLine
 10
899.8388438383928
 20
621.2370836722218
 30
0.0
 11
909.8388438383928
 21
621.2370836722218
 31
0.0
  0
LINE
  5
AC
330
1F
100
AcDbEntity
  8
0
  6
Continuous
 62
     7
370
    15
100
AcDbLine
 10
909.8388438383928
 20
621.2370836722218
 30
0.0
 11
909.8388438383928
 21
624.7745590287657
 31
0.0
  0
LINE
  5
AD
330
1F
100
AcDbEntity
  8
0
  6
Continuous
 62
     7
370
    15
100
AcDbLine
 10
909.8388438383928
 20
624.7745590287657
 30
0.0
 11
899.8388438383928
 21
624.7745590287657
 31
0.0
  0
LINE
  5
AE
330
1F
100
AcDbEntity
  8
0
  6
Continuous
 62
     7
370
    15
100
AcDbLine
 10
899.8388438383928
 20
624.7745590287657
 30
0.0
 11
899.8388438383928
 21
621.2370836722218
 31
0.0
  0
LINE
  5
AF
330
1F
100
AcDbEntity
  8
0
  6
Continuous
 62
     7
370
    15
100
AcDbLine
 10
929.8388438383929
 20
621.2370836722217
 30
0.0
 11
939.8388438383928
 21
621.2370836722217
 31
0.0
  0
LINE
  5
B0
330
1F
100
AcDbEntity
  8
0
  6
Continuous
 62
     7
370
    15
100
AcDbLine
 10
939.8388438383928
 20
621.2370836722217
 30
0.0
 11
939.8388438383928
 21
624.7745590287657
 31
0.0
  0
LINE
  5
B1
330
1F
100
AcDbEntity
  8
0
  6
Continuous
 62
     7
370
    15
100
AcDbLine
 10
939.8388438383928
 20
624.7745590287657
 30
0.0
 11
929.8388438383929
 21
624.7745590287657
 31
0.0
  0
LINE
  5
B2
330
1F
100
AcDbEntity
  8
0
  6
Continuous
 62
     7
370
    15
100
AcDbLine
 10
929.8388438383929
 20
624.7745590287657
 30
0.0
 11
929.8388438383929
 21
621.2370836722217
 31
0.0
  0
LINE
  5
B3
330
1F
100
AcDbEntity
  8
0
  6
Continuous
 62
     7
370
    15
100
AcDbLine
 10
959.8388438383928
 20
621.2370836722215
 30
0.0
 11
969.8388438383929
 21
621.2370836722215
 31
0.0
  0
LINE
  5
B4
330
1F
100
AcDbEntity
  8
0
  6
Continuous
 62
     7
370
    15
100
AcDbLine
 10
969.8388438383929
 20
621.2370836722215
 30
0.0
 11
969.8388438383927
 21
624.7745590287657
 31
0.0
  0
LINE
  5
B5
330
1F
100
AcDbEntity
  8
0
  6
Continuous
 62
     7
370
    15
100
AcDbLine
 10
969.8388438383927
 20
624.7745590287657
 30
0.0
 11
959.8388438383928
 21
624.7745590287657
 31
0.0
  0
LINE
  5
B6
330
1F
100
AcDbEntity
  8
0
  6
Continuous
 62
     7
370
    15
100
AcDbLine
 10
959.8388438383928
 20
624.7745590287657
 30
0.0
 11
959.8388438383928
 21
621.2370836722215
 31
0.0
  0
LINE
  5
B7
330
1F
100
AcDbEntity
  8
0
  6
Continuous
 62
     7
370
    15
100
AcDbLine
 10
989.8388438383928
 20
621.2370836722215
 30
0.0
 11
999.8388438383928
 21
621.2370836722215
 31
0.0
  0
LINE
  5
B8
330
1F
100
AcDbEntity
  8
0
  6
Continuous
 62
     7
370
    15
100
AcDbLine
 10
999.8388438383928
 20
621.2370836722215
 30
0.0
 11
999.8388438383928
 21
624.7745590287656
 31
0.0
  0
LINE
  5
B9
330
1F
100
AcDbEntity
  8
0
  6
Continuous
 62
     7
370
    15
100
AcDbLine
 10
999.8388438383928
 20
624.7745590287656
 30
0.0
 11
989.8388438383928
 21
624.7745590287656
 31
0.0
  0
LINE
  5
BA
330
1F
100
AcDbEntity
  8
0
  6
Continuous
 62
     7
370
    15
100
AcDbLine
 10
989.8388438383928
 20
624.7745590287656
 30
0.0
 11
989.8388438383928
 21
621.2370836722215
 31
0.0
  0
LINE
  5
BB
330
1F
100
AcDbEntity
  8
0
  6
Continuous
 62
     7
370
    15
100
AcDbLine
 10
1019.838843838392
 20
621.2370836722215
 30
0.0
 11
1029.838843838392
 21
621.2370836722215
 31
0.0
  0
LINE
  5
BC
330
1F
100
AcDbEntity
  8
0
  6
Continuous
 62
     7
370
    15
100
AcDbLine
 10
1029.838843838392
 20
621.2370836722215
 30
0.0
 11
1029.838843838392
 21
624.7745590287656
 31
0.0
  0
LINE
  5
BD
330
1F
100
AcDbEntity
  8
0
  6
Continuous
 62
     7
370
    15
100
AcDbLine
 10
1029.838843838392
 20
624.7745590287656
 30
0.0
 11
1019.838843838392
 21
624.7745590287656
 31
0.0
  0
LINE
  5
BE
330
1F
100
AcDbEntity
  8
0
  6
Continuous
 62
     7
370
    15
100
AcDbLine
 10
1019.838843838392
 20
624.7745590287656
 30
0.0
 11
1019.838843838392
 21
621.2370836722215
 31
0.0
  0
LINE
  5
BF
330
1F
100
AcDbEntity
  8
0
  6
Continuous
 62
     7
370
    15
100
AcDbLine
 10
1049.838843838392
 20
621.2370836722214
 30
0.0
 11
1059.838843838393
 21
621.2370836722214
 31
0.0
  0
LINE
  5
C0
330
1F
100
AcDbEntity
  8
0
  6
Continuous
 62
     7
370
    15
100
AcDbLine
 10
1059.838843838393
 20
621.2370836722214
 30
0.0
 11
1059.838843838393
 21
624.7745590287656
 31
0.0
  0
LINE
  5
C1
330
1F
100
AcDbEntity
  8
0
  6
Continuous
 62
     7
370
    15
100
AcDbLine
 10
1059.838843838393
 20
624.7745590287656
 30
0.0
 11
1049.838843838392
 21
624.7745590287656
 31
0.0
  0
LINE
  5
C2
330
1F
100
AcDbEntity
  8
0
  6
Continuous
 62
     7
370
    15
100
AcDbLine
 10
1049.838843838392
 20
624.7745590287656
 30
0.0
 11
1049.838843838392
 21
621.2370836722214
 31
0.0
  0
LINE
  5
C3
330
1F
100
AcDbEntity
  8
0
  6
Continuous
 62
     7
370
    15
100
AcDbLine
 10
1079.838843838393
 20
621.2370836722213
 30
0.0
 11
1089.838843838393
 21
621.2370836722213
 31
0.0
  0
LINE
  5
C4
330
1F
100
AcDbEntity
  8
0
  6
Continuous
 62
     7
370
    15
100
AcDbLine
 10
1089.838843838393
 20
621.2370836722213
 30
0.0
 11
1089.838843838393
 21
624.7745590287654
 31
0.0
  0
LINE
  5
C5
330
1F
100
AcDbEntity
  8
0
  6
Continuous
 62
     7
370
    15
100
AcDbLine
 10
1089.838843838393
 20
624.7745590287654
 30
0.0
 11
1079.838843838393
 21
624.7745590287654
 31
0.0
  0
LINE
  5
C6
330
1F
100
AcDbEntity
  8
0
  6
Continuous
 62
     7
370
    15
100
AcDbLine
 10
1079.838843838393
 20
624.7745590287654
 30
0.0
 11
1079.838843838393
 21
621.2370836722213
 31
0.0
  0
LINE
  5
C7
330
1F
100
AcDbEntity
  8
0
  6
Continuous
 62
     7
370
    15
100
AcDbLine
 10
1109.838843838393
 20
621.2370836722213
 30
0.0
 11
1119.838843838393
 21
621.2370836722213
 31
0.0
  0
LINE
  5
C8
330
1F
100
AcDbEntity
  8
0
  6
Continuous
 62
     7
370
    15
100
AcDbLine
 10
1119.838843838393
 20
621.2370836722213
 30
0.0
 11
1119.838843838393
 21
624.7745590287654
 31
0.0
  0
LINE
  5
C9
330
1F
100
AcDbEntity
  8
0
  6
Continuous
 62
     7
370
    15
100
AcDbLine
 10
1119.838843838393
 20
624.7745590287654
 30
0.0
 11
1109.838843838393
 21
624.7745590287654
 31
0.0
  0
LINE
  5
CA
330
1F
100
AcDbEntity
  8
0
  6
Continuous
 62
     7
370
    15
100
AcDbLine
 10
1109.838843838393
 20
624.7745590287654
 30
0.0
 11
1109.838843838393
 21
621.2370836722213
 31
0.0
  0
LINE
  5
CB
330
1F
100
AcDbEntity
  8
0
  6
Continuous
 62
     7
370
    15
100
AcDbLine
 10
1139.838843838393
 20
621.2370836722211
 30
0.0
 11
1149.838843838392
 21
621.2370836722211
 31
0.0
  0
LINE
  5
CC
330
1F
100
AcDbEntity
  8
0
  6
Continuous
 62
     7
370
    15
100
AcDbLine
 10
1149.838843838392
 20
621.2370836722211
 30
0.0
 11
1149.838843838393
 21
624.7745590287654
 31
0.0
  0
LINE
  5
CD
330
1F
100
AcDbEntity
  8
0
  6
Continuous
 62
     7
370
    15
100
AcDbLine
 10
1149.838843838393
 20
624.7745590287654
 30
0.0
 11
1139.838843838393
 21
624.7745590287654
 31
0.0
  0
LINE
  5
CE
330
1F
100
AcDbEntity
  8
0
  6
Continuous
 62
     7
370
    15
100
AcDbLine
 10
1139.838843838393
 20
624.7745590287654
 30
0.0
 11
1139.838843838393
 21
621.2370836722211
 31
0.0
  0
LINE
  5
CF
330
1F
100
AcDbEntity
  8
0
  6
Continuous
 62
     7
370
    15
100
AcDbLine
 10
1169.838843838393
 20
621.237083672221
 30
0.0
 11
1179.838843838393
 21
621.237083672221
 31
0.0
  0
LINE
  5
D0
330
1F
100
AcDbEntity
  8
0
  6
Continuous
 62
     7
370
    15
100
AcDbLine
 10
1179.838843838393
 20
621.237083672221
 30
0.0
 11
1179.838843838393
 21
624.7745590287653
 31
0.0
  0
LINE
  5
D1
330
1F
100
AcDbEntity
  8
0
  6
Continuous
 62
     7
370
    15
100
AcDbLine
 10
1179.838843838393
 20
624.7745590287653
 30
0.0
 11
1169.838843838393
 21
624.7745590287653
 31
0.0
  0
LINE
  5
D2
330
1F
100
AcDbEntity
  8
0
  6
Continuous
 62
     7
370
    15
100
AcDbLine
 10
1169.838843838393
 20
624.7745590287653
 30
0.0
 11
1169.838843838393
 21
621.237083672221
 31
0.0
  0
LINE
  5
D3
330
1F
100
AcDbEntity
  8
0
  6
Continuous
 62
     7
370
    15
100
AcDbLine
 10
1199.838843838392
 20
621.237083672221
 30
0.0
 11
1209.838843838393
 21
621.237083672221
 31
0.0
  0
LINE
  5
D4
330
1F
100
AcDbEntity
  8
0
  6
Continuous
 62
     7
370
    15
100
AcDbLine
 10
1209.838843838393
 20
621.237083672221
 30
0.0
 11
1209.838843838393
 21
624.7745590287653
 31
0.0
  0
LINE
  5
D5
330
1F
100
AcDbEntity
  8
0
  6
Continuous
 62
     7
370
    15
100
AcDbLine
 10
1209.838843838393
 20
624.7745590287653
 30
0.0
 11
1199.838843838392
 21
624.7745590287653
 31
0.0
  0
LINE
  5
D6
330
1F
100
AcDbEntity
  8
0
  6
Continuous
 62
     7
370
    15
100
AcDbLine
 10
1199.838843838392
 20
624.7745590287653
 30
0.0
 11
1199.838843838392
 21
621.237083672221
 31
0.0
  0
LINE
  5
D7
330
1F
100
AcDbEntity
  8
0
  6
Continuous
 62
     7
370
    15
100
AcDbLine
 10
1224.838843838393
 20
572.391240538245
 30
0.0
 11
1214.838843838393
 21
572.391240538245
 31
0.0
  0
LINE
  5
D8
330
1F
100
AcDbEntity
  8
0
  6
Continuous
 62
     7
370
    15
100
AcDbLine
 10
1214.838843838393
 20
572.391240538245
 30
0.0
 11
1214.838843838393
 21
566.9137756339496
 31
0.0
  0
LINE
  5
D9
330
1F
100
AcDbEntity
  8
0
  6
Continuous
 62
     7
370
    15
100
AcDbLine
 10
1214.838843838393
 20
566.9137756339496
 30
0.0
 11
1224.838843838393
 21
566.9137756339496
 31
0.0
  0
LINE
  5
DA
330
1F
100
AcDbEntity
  8
0
  6
Continuous
 62
     7
370
    15
100
AcDbLine
 10
1224.838843838393
 20
566.9137756339496
 30
0.0
 11
1224.838843838393
 21
572.391240538245
 31
0.0
  0
LINE
  5
DB
330
1F
100
AcDbEntity
  8
0
  6
Continuous
 62
     7
370
    15
100
AcDbLine
 10
1194.838843838392
 20
572.3912405382448
 30
0.0
 11
1184.838843838392
 21
572.3912405382448
 31
0.0
  0
LINE
  5
DC
330
1F
100
AcDbEntity
  8
0
  6
Continuous
 62
     7
370
    15
100
AcDbLine
 10
1184.838843838392
 20
572.3912405382448
 30
0.0
 11
1184.838843838392
 21
566.9137756339496
 31
0.0
  0
LINE
  5
DD
330
1F
100
AcDbEntity
  8
0
  6
Continuous
 62
     7
370
    15
100
AcDbLine
 10
1184.838843838392
 20
566.9137756339496
 30
0.0
 11
1194.838843838392
 21
566.9137756339496
 31
0.0
  0
LINE
  5
DE
330
1F
100
AcDbEntity
  8
0
  6
Continuous
 62
     7
370
    15
100
AcDbLine
 10
1194.838843838392
 20
566.9137756339496
 30
0.0
 11
1194.838843838392
 21
572.3912405382448
 31
0.0
  0
LINE
  5
DF
330
1F
100
AcDbEntity
  8
0
  6
Continuous
 62
     7
370
    15
100
AcDbLine
 10
1164.838843838392
 20
572.3912405382447
 30
0.0
 11
1154.838843838392
 21
572.3912405382447
 31
0.0
  0
LINE
  5
E0
330
1F
100
AcDbEntity
  8
0
  6
Continuous
 62
     7
370
    15
100
AcDbLine
 10
1154.838843838392
 20
572.3912405382447
 30
0.0
 11
1154.838843838392
 21
566.9137756339495
 31
0.0
  0
LINE
  5
E1
330
1F
100
AcDbEntity
  8
0
  6
Continuous
 62
     7
370
    15
100
AcDbLine
 10
1154.838843838392
 20
566.9137756339495
 30
0.0
 11
1164.838843838392
 21
566.9137756339495
 31
0.0
  0
LINE
  5
E2
330
1F
100
AcDbEntity
  8
0
  6
Continuous
 62
     7
370
    15
100
AcDbLine
 10
1164.838843838392
 20
566.9137756339495
 30
0.0
 11
1164.838843838392
 21
572.3912405382447
 31
0.0
  0
LINE
  5
E3
330
1F
100
AcDbEntity
  8
0
  6
Continuous
 62
     7
370
    15
100
AcDbLine
 10
1134.838843838393
 20
572.3912405382447
 30
0.0
 11
1124.838843838393
 21
572.3912405382447
 31
0.0
  0
LINE
  5
E4
330
1F
100
AcDbEntity
  8
0
  6
Continuous
 62
     7
370
    15
100
AcDbLine
 10
1124.838843838393
 20
572.3912405382447
 30
0.0
 11
1124.838843838393
 21
566.9137756339494
 31
0.0
  0
LINE
  5
E5
330
1F
100
AcDbEntity
  8
0
  6
Continuous
 62
     7
370
    15
100
AcDbLine
 10
1124.838843838393
 20
566.9137756339494
 30
0.0
 11
1134.838843838393
 21
566.9137756339494
 31
0.0
  0
LINE
  5
E6
330
1F
100
AcDbEntity
  8
0
  6
Continuous
 62
     7
370
    15
100
AcDbLine
 10
1134.838843838393
 20
566.9137756339494
 30
0.0
 11
1134.838843838393
 21
572.3912405382447
 31
0.0
  0
LINE
  5
E7
330
1F
100
AcDbEntity
  8
0
  6
Continuous
 62
     7
370
    15
100
AcDbLine
 10
1104.838843838393
 20
572.3912405382446
 30
0.0
 11
1094.838843838393
 21
572.3912405382446
 31
0.0
  0
LINE
  5
E8
330
1F
100
AcDbEntity
  8
0
  6
Continuous
 62
     7
370
    15
100
AcDbLine
 10
1094.838843838393
 20
572.3912405382446
 30
0.0
 11
1094.838843838393
 21
566.9137756339493
 31
0.0
  0
LINE
  5
E9
330
1F
100
AcDbEntity
  8
0
  6
Continuous
 62
     7
370
    15
100
AcDbLine
 10
1094.838843838393
 20
566.9137756339493
 30
0.0
 11
1104.838843838393
 21
566.9137756339493
 31
0.0
  0
LINE
  5
EA
330
1F
100
AcDbEntity
  8
0
  6
Continuous
 62
     7
370
    15
100
AcDbLine
 10
1104.838843838393
 20
566.9137756339493
 30
0.0
 11
1104.838843838393
 21
572.3912405382446
 31
0.0
  0
LINE
  5
EB
330
1F
100
AcDbEntity
  8
0
  6
Continuous
 62
     7
370
    15
100
AcDbLine
 10
1074.838843838393
 20
572.3912405382446
 30
0.0
 11
1064.838843838393
 21
572.3912405382446
 31
0.0
  0
LINE
  5
EC
330
1F
100
AcDbEntity
  8
0
  6
Continuous
 62
     7
370
    15
100
AcDbLine
 10
1064.838843838393
 20
572.3912405382446
 30
0.0
 11
1064.838843838393
 21
566.9137756339493
 31
0.0
  0
LINE
  5
ED
330
1F
100
AcDbEntity
  8
0
  6
Continuous
 62
     7
370
    15
100
AcDbLine
 10
1064.838843838393
 20
566.9137756339493
 30
0.0
 11
1074.838843838393
 21
566.9137756339493
 31
0.0
  0
LINE
  5
EE
330
1F
100
AcDbEntity
  8
0
  6
Continuous
 62
     7
370
    15
100
AcDbLine
 10
1074.838843838393
 20
566.9137756339493
 30
0.0
 11
1074.838843838393
 21
572.3912405382446
 31
0.0
  0
LINE
  5
EF
330
1F
100
AcDbEntity
  8
0
  6
Continuous
 62
     7
370
    15
100
AcDbLine
 10
1044.838843838393
 20
572.3912405382444
 30
0.0
 11
1034.838843838392
 21
572.3912405382444
 31
0.0
  0
LINE
  5
F0
330
1F
100
AcDbEntity
  8
0
  6
Continuous
 62
     7
370
    15
100
AcDbLine
 10
1034.838843838392
 20
572.3912405382444
 30
0.0
 11
1034.838843838392
 21
566.9137756339491
 31
0.0
  0
LINE
  5
F1
330
1F
100
AcDbEntity
  8
0
  6
Continuous
 62
     7
370
    15
100
AcDbLine
 10
1034.838843838392
 20
566.9137756339491
 30
0.0
 11
1044.838843838393
 21
566.9137756339491
 31
0.0
  0
LINE
  5
F2
330
1F
100
AcDbEntity
  8
0
  6
Continuous
 62
     7
370
    15
100
AcDbLine
 10
1044.838843838393
 20
566.9137756339491
 30
0.0
 11
1044.838843838393
 21
572.3912405382444
 31
0.0
  0
LINE
  5
F3
330
1F
100
AcDbEntity
  8
0
  6
Continuous
 62
     7
370
    15
100
AcDbLine
 10
1014.838843838393
 20
572.3912405382443
 30
0.0
 11
1004.838843838393
 21
572.3912405382443
 31
0.0
  0
LINE
  5
F4
330
1F
100
AcDbEntity
  8
0
  6
Continuous
 62
     7
370
    15
100
AcDbLine
 10
1004.838843838393
 20
572.3912405382443
 30
0.0
 11
1004.838843838393
 21
566.913775633949
 31
0.0
  0
LINE
  5
F5
330
1F
100
AcDbEntity
  8
0
  6
Continuous
 62
     7
370
    15
100
AcDbLine
 10
1004.838843838393
 20
566.913775633949
 30
0.0
 11
1014.838843838393
 21
566.913775633949
 31
0.0
  0
LINE
  5
F6
330
1F
100
AcDbEntity
  8
0
  6
Continuous
 62
     7
370
    15
100
AcDbLine
 10
1014.838843838393
 20
566.913775633949
 30
0.0
 11
1014.838843838393
 21
572.3912405382443
 31
0.0
  0
LINE
  5
F7
330
1F
100
AcDbEntity
  8
0
  6
Continuous
 62
     7
370
    15
100
AcDbLine
 10
984.8388438383929
 20
572.3912405382443
 30
0.0
 11
974.8388438383928
 21
572.3912405382443
 31
0.0
  0
LINE
  5
F8
330
1F
100
AcDbEntity
  8
0
  6
Continuous
 62
     7
370
    15
100
AcDbLine
 10
974.8388438383928
 20
572.3912405382443
 30
0.0
 11
974.8388438383928
 21
566.9137756339489
 31
0.0
  0
LINE
  5
F9
330
1F
100
AcDbEntity
  8
0
  6
Continuous
 62
     7
370
    15
100
AcDbLine
 10
974.8388438383928
 20
566.9137756339489
 30
0.0
 11
984.8388438383929
 21
566.9137756339489
 31
0.0
  0
LINE
  5
FA
330
1F
100
AcDbEntity
  8
0
  6
Continuous
 62
     7
370
    15
100
AcDbLine
 10
984.8388438383929
 20
566.9137756339489
 30
0.0
 11
984.8388438383929
 21
572.3912405382443
 31
0.0
  0
LINE
  5
FB
330
1F
100
AcDbEntity
  8
0
  6
Continuous
 62
     7
370
    15
100
AcDbLine
 10
954.8388438383927
 20
572.3912405382442
 30
0.0
 11
944.8388438383927
 21
572.3912405382442
 31
0.0
  0
LINE
  5
FC
330
1F
100
AcDbEntity
  8
0
  6
Continuous
 62
     7
370
    15
100
AcDbLine
 10
944.8388438383927
 20
572.3912405382442
 30
0.0
 11
944.8388438383927
 21
566.9137756339489
 31
0.0
  0
LINE
  5
FD
330
1F
100
AcDbEntity
  8
0
  6
Continuous
 62
     7
370
    15
100
AcDbLine
 10
944.8388438383927
 20
566.9137756339489
 30
0.0
 11
954.8388438383927
 21
566.9137756339489
 31
0.0
  0
LINE
  5
FE
330
1F
100
AcDbEntity
  8
0
  6
Continuous
 62
     7
370
    15
100
AcDbLine
 10
954.8388438383927
 20
566.9137756339489
 30
0.0
 11
954.8388438383927
 21
572.3912405382442
 31
0.0
  0
LINE
  5
FF
330
1F
100
AcDbEntity
  8
0
  6
Continuous
 62
     7
370
    15
100
AcDbLine
 10
924.8388438383928
 20
572.3912405382441
 30
0.0
 11
914.8388438383928
 21
572.3912405382441
 31
0.0
  0
LINE
  5
100
330
1F
100
AcDbEntity
  8
0
  6
Continuous
 62
     7
370
    15
100
AcDbLine
 10
914.8388438383928
 20
572.3912405382441
 30
0.0
 11
914.8388438383928
 21
566.9137756339488
 31
0.0
  0
LINE
  5
101
330
1F
100
AcDbEntity
  8
0
  6
Continuous
 62
     7
370
    15
100
AcDbLine
 10
914.8388438383928
 20
566.9137756339488
 30
0.0
 11
924.8388438383928
 21
566.9137756339488
 31
0.0
  0
LINE
  5
102
330
1F
100
AcDbEntity
  8
0
  6
Continuous
 62
     7
370
    15
100
AcDbLine
 10
924.8388438383928
 20
566.9137756339488
 30
0.0
 11
924.8388438383928
 21
572.3912405382441
 31
0.0
  0
LINE
  5
103
330
1F
100
AcDbEntity
  8
0
  6
Continuous
 62
     7
370
    15
100
AcDbLine
 10
894.8388438383929
 20
572.3912405382439
 30
0.0
 11
884.8388438383929
 21
572.3912405382439
 31
0.0
  0
LINE
  5
104
330
1F
100
AcDbEntity
  8
0
  6
Continuous
 62
     7
370
    15
100
AcDbLine
 10
884.8388438383929
 20
572.3912405382439
 30
0.0
 11
884.8388438383929
 21
566.9137756339487
 31
0.0
  0
LINE
  5
105
330
1F
100
AcDbEntity
  8
0
  6
Continuous
 62
     7
370
    15
100
AcDbLine
 10
884.8388438383929
 20
566.9137756339487
 30
0.0
 11
894.8388438383929
 21
566.9137756339487
 31
0.0
  0
LINE
  5
106
330
1F
100
AcDbEntity
  8
0
  6
Continuous
 62
     7
370
    15
100
AcDbLine
 10
894.8388438383929
 20
566.9137756339487
 30
0.0
 11
894.8388438383929
 21
572.3912405382439
 31
0.0
  0
LINE
  5
107
330
1F
100
AcDbEntity
  8
0
  6
Continuous
 62
     7
370
    15
100
AcDbLine
 10
864.8388438383928
 20
572.3912405382439
 30
0.0
 11
854.8388438383929
 21
572.3912405382439
 31
0.0
  0
LINE
  5
108
330
1F
100
AcDbEntity
  8
0
  6
Continuous
 62
     7
370
    15
100
AcDbLine
 10
854.8388438383929
 20
572.3912405382439
 30
0.0
 11
854.8388438383929
 21
566.9137756339487
 31
0.0
  0
LINE
  5
109
330
1F
100
AcDbEntity
  8
0
  6
Continuous
 62
     7
370
    15
100
AcDbLine
 10
854.8388438383929
 20
566.9137756339487
 30
0.0
 11
864.8388438383928
 21
566.9137756339486
 31
0.0
  0
LINE
  5
10A
330
1F
100
AcDbEntity
  8
0
  6
Continuous
 62
     7
370
    15
100
AcDbLine
 10
864.8388438383928
 20
566.9137756339486
 30
0.0
 11
864.8388438383928
 21
572.3912405382439
 31
0.0
  0
LINE
  5
10B
330
1F
100
AcDbEntity
  8
0
  6
Continuous
 62
     7
370
    15
100
AcDbLine
 10
834.8388438383928
 20
572.3912405382439
 30
0.0
 11
824.8388438383928
 21
572.3912405382439
 31
0.0
  0
LINE
  5
10C
330
1F
100
AcDbEntity
  8
0
  6
Continuous
 62
     7
370
    15
100
AcDbLine
 10
824.8388438383928
 20
572.3912405382439
 30
0.0
 11
824.8388438383928
 21
566.9137756339485
 31
0.0
  0
LINE
  5
10D
330
1F
100
AcDbEntity
  8
0
  6
Continuous
 62
     7
370
    15
100
AcDbLine
 10
824.8388438383928
 20
566.9137756339485
 30
0.0
 11
834.8388438383928
 21
566.9137756339485
 31
0.0
  0
LINE
  5
10E
330
1F
100
AcDbEntity
  8
0
  6
Continuous
 62
     7
370
    15
100
AcDbLine
 10
834.8388438383928
 20
566.9137756339485
 30
0.0
 11
834.8388438383928
 21
572.3912405382439
 31
0.0
  0
LINE
  5
10F
330
1F
100
AcDbEntity
  8
0
  6
Continuous
 62
     7
370
    15
100
AcDbLine
 10
804.8388438383929
 20
572.3912405382438
 30
0.0
 11
794.8388438383927
 21
572.3912405382438
 31
0.0
  0
LINE
  5
110
330
1F
100
AcDbEntity
  8
0
  6
Continuous
 62
     7
370
    15
100
AcDbLine
 10
794.8388438383927
 20
572.3912405382438
 30
0.0
 11
794.8388438383927
 21
566.9137756339485
 31
0.0
  0
LINE
  5
111
330
1F
100
AcDbEntity
  8
0
  6
Continuous
 62
     7
370
    15
100
AcDbLine
 10
794.8388438383927
 20
566.9137756339485
 30
0.0
 11
804.8388438383929
 21
566.9137756339485
 31
0.0
  0
LINE
  5
112
330
1F
100
AcDbEntity
  8
0
  6
Continuous
 62
     7
370
    15
100
AcDbLine
 10
804.8388438383929
 20
566.9137756339485
 30
0.0
 11
804.8388438383929
 21
572.3912405382438
 31
0.0
  0
LINE
  5
113
330
1F
100
AcDbEntity
  8
0
  6
Continuous
 62
     7
370
    15
100
AcDbLine
 10
772.9974933477656
 20
565.6671793761777
 30
0.0
 11
1235.997493347765
 21
565.6671793761777
 31
0.0
  0
LINE
  5
114
330
1F
100
AcDbEntity
  8
0
  6
Continuous
 62
     7
370
    15
100
AcDbLine
 10
772.9974933477656
 20
573.6469576364347
 30
0.0
 11
1235.997493347765
 21
573.6469576364347
 31
0.0
  0
LINE
  5
115
330
1F
100
AcDbEntity
  8
0
  6
Continuous
 62
     7
370
    15
100
AcDbLine
 10
1235.997493347765
 20
565.6671793761777
 30
0.0
 11
1235.997493347765
 21
573.6469576364347
 31
0.0
  0
LINE
  5
116
330
1F
100
AcDbEntity
  8
0
  6
Continuous
 62
     7
370
    15
100
AcDbLine
 10
789.8388438383928
 20
572.3912405382438
 30
0.0
 11
779.8388438383928
 21
572.3912405382438
 31
0.0
  0
LINE
  5
117
330
1F
100
AcDbEntity
  8
0
  6
Continuous
 62
     7
370
    15
100
AcDbLine
 10
779.8388438383928
 20
572.3912405382438
 30
0.0
 11
779.8388438383928
 21
566.9137756339485
 31
0.0
  0
LINE
  5
118
330
1F
100
AcDbEntity
  8
0
  6
Continuous
 62
     7
370
    15
100
AcDbLine
 10
779.8388438383928
 20
566.9137756339485
 30
0.0
 11
789.8388438383928
 21
566.9137756339485
 31
0.0
  0
LINE
  5
119
330
1F
100
AcDbEntity
  8
0
  6
Continuous
 62
     7
370
    15
100
AcDbLine
 10
789.8388438383928
 20
566.9137756339485
 30
0.0
 11
789.8388438383928
 21
572.3912405382438
 31
0.0
  0
LINE
  5
11A
330
1F
100
AcDbEntity
  8
0
  6
Continuous
 62
     7
370
    15
100
AcDbLine
 10
819.8388438383929
 20
572.3912405382438
 30
0.0
 11
809.8388438383929
 21
572.3912405382438
 31
0.0
  0
LINE
  5
11B
330
1F
100
AcDbEntity
  8
0
  6
Continuous
 62
     7
370
    15
100
AcDbLine
 10
809.8388438383929
 20
572.3912405382438
 30
0.0
 11
809.8388438383929
 21
566.9137756339485
 31
0.0
  0
LINE
  5
11C
330
1F
100
AcDbEntity
  8
0
  6
Continuous
 62
     7
370
    15
100
AcDbLine
 10
809.8388438383929
 20
566.9137756339485
 30
0.0
 11
819.8388438383929
 21
566.9137756339485
 31
0.0
  0
LINE
  5
11D
330
1F
100
AcDbEntity
  8
0
  6
Continuous
 62
     7
370
    15
100
AcDbLine
 10
819.8388438383929
 20
566.9137756339485
 30
0.0
 11
819.8388438383929
 21
572.3912405382438
 31
0.0
  0
LINE
  5
11E
330
1F
100
AcDbEntity
  8
0
  6
Continuous
 62
     7
370
    15
100
AcDbLine
 10
849.8388438383928
 20
572.3912405382439
 30
0.0
 11
839.8388438383928
 21
572.3912405382439
 31
0.0
  0
LINE
  5
11F
330
1F
100
AcDbEntity
  8
0
  6
Continuous
 62
     7
370
    15
100
AcDbLine
 10
839.8388438383928
 20
572.3912405382439
 30
0.0
 11
839.8388438383928
 21
566.9137756339486
 31
0.0
  0
LINE
  5
120
330
1F
100
AcDbEntity
  8
0
  6
Continuous
 62
     7
370
    15
100
AcDbLine
 10
839.8388438383928
 20
566.9137756339486
 30
0.0
 11
849.8388438383928
 21
566.9137756339486
 31
0.0
  0
LINE
  5
121
330
1F
100
AcDbEntity
  8
0
  6
Continuous
 62
     7
370
    15
100
AcDbLine
 10
849.8388438383928
 20
566.9137756339486
 30
0.0
 11
849.8388438383928
 21
572.3912405382439
 31
0.0
  0
LINE
  5
122
330
1F
100
AcDbEntity
  8
0
  6
Continuous
 62
     7
370
    15
100
AcDbLine
 10
879.8388438383929
 20
572.3912405382439
 30
0.0
 11
869.8388438383929
 21
572.3912405382439
 31
0.0
  0
LINE
  5
123
330
1F
100
AcDbEntity
  8
0
  6
Continuous
 62
     7
370
    15
100
AcDbLine
 10
869.8388438383929
 20
572.3912405382439
 30
0.0
 11
869.8388438383929
 21
566.9137756339487
 31
0.0
  0
LINE
  5
124
330
1F
100
AcDbEntity
  8
0
  6
Continuous
 62
     7
370
    15
100
AcDbLine
 10
869.8388438383929
 20
566.9137756339487
 30
0.0
 11
879.8388438383929
 21
566.9137756339487
 31
0.0
  0
LINE
  5
125
330
1F
100
AcDbEntity
  8
0
  6
Continuous
 62
     7
370
    15
100
AcDbLine
 10
879.8388438383929
 20
566.9137756339487
 30
0.0
 11
879.8388438383929
 21
572.3912405382439
 31
0.0
  0
LINE
  5
126
330
1F
100
AcDbEntity
  8
0
  6
Continuous
 62
     7
370
    15
100
AcDbLine
 10
909.8388438383928
 20
572.3912405382441
 30
0.0
 11
899.8388438383928
 21
572.3912405382441
 31
0.0
  0
LINE
  5
127
330
1F
100
AcDbEntity
  8
0
  6
Continuous
 62
     7
370
    15
100
AcDbLine
 10
899.8388438383928
 20
572.3912405382441
 30
0.0
 11
899.8388438383928
 21
566.9137756339487
 31
0.0
  0
LINE
  5
128
330
1F
100
AcDbEntity
  8
0
  6
Continuous
 62
     7
370
    15
100
AcDbLine
 10
899.8388438383928
 20
566.9137756339487
 30
0.0
 11
909.8388438383928
 21
566.9137756339487
 31
0.0
  0
LINE
  5
129
330
1F
100
AcDbEntity
  8
0
  6
Continuous
 62
     7
370
    15
100
AcDbLine
 10
909.8388438383928
 20
566.9137756339487
 30
0.0
 11
909.8388438383928
 21
572.3912405382441
 31
0.0
  0
LINE
  5
12A
330
1F
100
AcDbEntity
  8
0
  6
Continuous
 62
     7
370
    15
100
AcDbLine
 10
939.8388438383928
 20
572.3912405382441
 30
0.0
 11
929.8388438383929
 21
572.3912405382441
 31
0.0
  0
LINE
  5
12B
330
1F
100
AcDbEntity
  8
0
  6
Continuous
 62
     7
370
    15
100
AcDbLine
 10
929.8388438383929
 20
572.3912405382441
 30
0.0
 11
929.8388438383929
 21
566.9137756339488
 31
0.0
  0
LINE
  5
12C
330
1F
100
AcDbEntity
  8
0
  6
Continuous
 62
     7
370
    15
100
AcDbLine
 10
929.8388438383929
 20
566.9137756339488
 30
0.0
 11
939.8388438383928
 21
566.9137756339488
 31
0.0
  0
LINE
  5
12D
330
1F
100
AcDbEntity
  8
0
  6
Continuous
 62
     7
370
    15
100
AcDbLine
 10
939.8388438383928
 20
566.9137756339488
 30
0.0
 11
939.8388438383928
 21
572.3912405382441
 31
0.0
  0
LINE
  5
12E
330
1F
100
AcDbEntity
  8
0
  6
Continuous
 62
     7
370
    15
100
AcDbLine
 10
969.8388438383929
 20
572.3912405382442
 30
0.0
 11
959.8388438383928
 21
572.3912405382442
 31
0.0
  0
LINE
  5
12F
330
1F
100
AcDbEntity
  8
0
  6
Continuous
 62
     7
370
    15
100
AcDbLine
 10
959.8388438383928
 20
572.3912405382442
 30
0.0
 11
959.8388438383928
 21
566.9137756339489
 31
0.0
  0
LINE
  5
130
330
1F
100
AcDbEntity
  8
0
  6
Continuous
 62
     7
370
    15
100
AcDbLine
 10
959.8388438383928
 20
566.9137756339489
 30
0.0
 11
969.8388438383929
 21
566.9137756339489
 31
0.0
  0
LINE
  5
131
330
1F
100
AcDbEntity
  8
0
  6
Continuous
 62
     7
370
    15
100
AcDbLine
 10
969.8388438383929
 20
566.9137756339489
 30
0.0
 11
969.8388438383929
 21
572.3912405382442
 31
0.0
  0
LINE
  5
132
330
1F
100
AcDbEntity
  8
0
  6
Continuous
 62
     7
370
    15
100
AcDbLine
 10
999.8388438383928
 20
572.3912405382443
 30
0.0
 11
989.8388438383928
 21
572.3912405382443
 31
0.0
  0
LINE
  5
133
330
1F
100
AcDbEntity
  8
0
  6
Continuous
 62
     7
370
    15
100
AcDbLine
 10
989.8388438383928
 20
572.3912405382443
 30
0.0
 11
989.8388438383928
 21
566.913775633949
 31
0.0
  0
LINE
  5
134
330
1F
100
AcDbEntity
  8
0
  6
Continuous
 62
     7
370
    15
100
AcDbLine
 10
989.8388438383928
 20
566.913775633949
 30
0.0
 11
999.8388438383928
 21
566.913775633949
 31
0.0
  0
LINE
  5
135
330
1F
100
AcDbEntity
  8
0
  6
Continuous
 62
     7
370
    15
100
AcDbLine
 10
999.8388438383928
 20
566.913775633949
 30
0.0
 11
999.8388438383928
 21
572.3912405382443
 31
0.0
  0
LINE
  5
136
330
1F
100
AcDbEntity
  8
0
  6
Continuous
 62
     7
370
    15
100
AcDbLine
 10
1029.838843838392
 20
572.3912405382444
 30
0.0
 11
1019.838843838392
 21
572.3912405382444
 31
0.0
  0
LINE
  5
137
330
1F
100
AcDbEntity
  8
0
  6
Continuous
 62
     7
370
    15
100
AcDbLine
 10
1019.838843838392
 20
572.3912405382444
 30
0.0
 11
1019.838843838392
 21
566.9137756339491
 31
0.0
  0
LINE
  5
138
330
1F
100
AcDbEntity
  8
0
  6
Continuous
 62
     7
370
    15
100
AcDbLine
 10
1019.838843838392
 20
566.9137756339491
 30
0.0
 11
1029.838843838392
 21
566.9137756339491
 31
0.0
  0
LINE
  5
139
330
1F
100
AcDbEntity
  8
0
  6
Continuous
 62
     7
370
    15
100
AcDbLine
 10
1029.838843838392
 20
566.9137756339491
 30
0.0
 11
1029.838843838392
 21
572.3912405382444
 31
0.0
  0
LINE
  5
13A
330
1F
100
AcDbEntity
  8
0
  6
Continuous
 62
     7
370
    15
100
AcDbLine
 10
1059.838843838393
 20
572.3912405382446
 30
0.0
 11
1049.838843838392
 21
572.3912405382446
 31
0.0
  0
LINE
  5
13B
330
1F
100
AcDbEntity
  8
0
  6
Continuous
 62
     7
370
    15
100
AcDbLine
 10
1049.838843838392
 20
572.3912405382446
 30
0.0
 11
1049.838843838392
 21
566.9137756339491
 31
0.0
  0
LINE
  5
13C
330
1F
100
AcDbEntity
  8
0
  6
Continuous
 62
     7
370
    15
100
AcDbLine
 10
1049.838843838392
 20
566.9137756339491
 30
0.0
 11
1059.838843838393
 21
566.9137756339491
 31
0.0
  0
LINE
  5
13D
330
1F
100
AcDbEntity
  8
0
  6
Continuous
 62
     7
370
    15
100
AcDbLine
 10
1059.838843838393
 20
566.9137756339491
 30
0.0
 11
1059.838843838393
 21
572.3912405382446
 31
0.0
  0
LINE
  5
13E
330
1F
100
AcDbEntity
  8
0
  6
Continuous
 62
     7
370
    15
100
AcDbLine
 10
1089.838843838393
 20
572.3912405382446
 30
0.0
 11
1079.838843838393
 21
572.3912405382446
 31
0.0
  0
LINE
  5
13F
330
1F
100
AcDbEntity
  8
0
  6
Continuous
 62
     7
370
    15
100
AcDbLine
 10
1079.838843838393
 20
572.3912405382446
 30
0.0
 11
1079.838843838393
 21
566.9137756339493
 31
0.0
  0
LINE
  5
140
330
1F
100
AcDbEntity
  8
0
  6
Continuous
 62
     7
370
    15
100
AcDbLine
 10
1079.838843838393
 20
566.9137756339493
 30
0.0
 11
1089.838843838393
 21
566.9137756339493
 31
0.0
  0
LINE
  5
141
330
1F
100
AcDbEntity
  8
0
  6
Continuous
 62
     7
370
    15
100
AcDbLine
 10
1089.838843838393
 20
566.9137756339493
 30
0.0
 11
1089.838843838393
 21
572.3912405382446
 31
0.0
  0
LINE
  5
142
330
1F
100
AcDbEntity
  8
0
  6
Continuous
 62
     7
370
    15
100
AcDbLine
 10
1119.838843838393
 20
572.3912405382447
 30
0.0
 11
1109.838843838393
 21
572.3912405382447
 31
0.0
  0
LINE
  5
143
330
1F
100
AcDbEntity
  8
0
  6
Continuous
 62
     7
370
    15
100
AcDbLine
 10
1109.838843838393
 20
572.3912405382447
 30
0.0
 11
1109.838843838393
 21
566.9137756339494
 31
0.0
  0
LINE
  5
144
330
1F
100
AcDbEntity
  8
0
  6
Continuous
 62
     7
370
    15
100
AcDbLine
 10
1109.838843838393
 20
566.9137756339494
 30
0.0
 11
1119.838843838393
 21
566.9137756339494
 31
0.0
  0
LINE
  5
145
330
1F
100
AcDbEntity
  8
0
  6
Continuous
 62
     7
370
    15
100
AcDbLine
 10
1119.838843838393
 20
566.9137756339494
 30
0.0
 11
1119.838843838393
 21
572.3912405382447
 31
0.0
  0
LINE
  5
146
330
1F
100
AcDbEntity
  8
0
  6
Continuous
 62
     7
370
    15
100
AcDbLine
 10
1149.838843838393
 20
572.3912405382447
 30
0.0
 11
1139.838843838393
 21
572.3912405382447
 31
0.0
  0
LINE
  5
147
330
1F
100
AcDbEntity
  8
0
  6
Continuous
 62
     7
370
    15
100
AcDbLine
 10
1139.838843838393
 20
572.3912405382447
 30
0.0
 11
1139.838843838393
 21
566.9137756339494
 31
0.0
  0
LINE
  5
148
330
1F
100
AcDbEntity
  8
0
  6
Continuous
 62
     7
370
    15
100
AcDbLine
 10
1139.838843838393
 20
566.9137756339494
 30
0.0
 11
1149.838843838393
 21
566.9137756339494
 31
0.0
  0
LINE
  5
149
330
1F
100
AcDbEntity
  8
0
  6
Continuous
 62
     7
370
    15
100
AcDbLine
 10
1149.838843838393
 20
566.9137756339494
 30
0.0
 11
1149.838843838393
 21
572.3912405382447
 31
0.0
  0
LINE
  5
14A
330
1F
100
AcDbEntity
  8
0
  6
Continuous
 62
     7
370
    15
100
AcDbLine
 10
1179.838843838393
 20
572.3912405382447
 30
0.0
 11
1169.838843838393
 21
572.3912405382447
 31
0.0
  0
LINE
  5
14B
330
1F
100
AcDbEntity
  8
0
  6
Continuous
 62
     7
370
    15
100
AcDbLine
 10
1169.838843838393
 20
572.3912405382447
 30
0.0
 11
1169.838843838393
 21
566.9137756339495
 31
0.0
  0
LINE
  5
14C
330
1F
100
AcDbEntity
  8
0
  6
Continuous
 62
     7
370
    15
100
AcDbLine
 10
1169.838843838393
 20
566.9137756339495
 30
0.0
 11
1179.838843838393
 21
566.9137756339495
 31
0.0
  0
LINE
  5
14D
330
1F
100
AcDbEntity
  8
0
  6
Continuous
 62
     7
370
    15
100
AcDbLine
 10
1179.838843838393
 20
566.9137756339495
 30
0.0
 11
1179.838843838393
 21
572.3912405382447
 31
0.0
  0
LINE
  5
14E
330
1F
100
AcDbEntity
  8
0
  6
Continuous
 62
     7
370
    15
100
AcDbLine
 10
1209.838843838393
 20
572.3912405382448
 30
0.0
 11
1199.838843838392
 21
572.3912405382448
 31
0.0
  0
LINE
  5
14F
330
1F
100
AcDbEntity
  8
0
  6
Continuous
 62
     7
370
    15
100
AcDbLine
 10
1199.838843838392
 20
572.3912405382448
 30
0.0
 11
1199.838843838392
 21
566.9137756339496
 31
0.0
  0
LINE
  5
150
330
1F
100
AcDbEntity
  8
0
  6
Continuous
 62
     7
370
    15
100
AcDbLine
 10
1199.838843838392
 20
566.9137756339496
 30
0.0
 11
1209.838843838393
 21
566.9137756339496
 31
0.0
  0
LINE
  5
151
330
1F
100
AcDbEntity
  8
0
  6
Continuous
 62
     7
370
    15
100
AcDbLine
 10
1209.838843838393
 20
566.9137756339496
 30
0.0
 11
1209.838843838393
 21
572.3912405382448
 31
0.0
  0
LINE
  5
152
330
1F
100
AcDbEntity
  8
0
  6
Continuous
 62
     7
370
    15
100
AcDbLine
 10
772.9974933477656
 20
565.6671793761777
 30
0.0
 11
772.9974933477656
 21
573.6469576364347
 31
0.0
  0
LINE
  5
153
330
1F
100
AcDbEntity
  8
0
  6
Continuous
 62
     7
370
    15
100
AcDbLine
 10
1235.997493347765
 20
620.0304221365325
 30
0.0
 11
1235.997493347765
 21
573.6469576364347
 31
0.0
  0
LINE
  5
154
330
1F
100
AcDbEntity
  8
0
  6
Continuous
 62
     7
370
    15
100
AcDbLine
 10
772.9974933477656
 20
620.0304221365325
 30
0.0
 11
772.9974933477656
 21
573.6469576364347
 31
0.0
  0
LINE
  5
155
330
1F
100
AcDbEntity
  8
0
  6
Continuous
 62
     7
370
    15
100
AcDbLine
 10
800.8670748489178
 20
563.6671793761776
 30
0.0
 11
791.5239290984102
 21
563.6671793761776
 31
0.0
  0
ARC
  5
156
330
1F
100
AcDbEntity
  8
0
  6
Continuous
 62
     7
370
    15
100
AcDbCircle
 10
791.5239290984102
 20
566.6671793761777
 30
0.0
 40
3.0
100
AcDbArc
 50
199.4712206344888
 51
270.0
  0
ARC
  5
157
330
1F
100
AcDbEntity
  8
0
  6
Continuous
 62
     7
370
    15
100
AcDbCircle
 10
800.8670748489178
 20
566.6671793761777
 30
0.0
 40
3.0
100
AcDbArc
 50
270.0
 51
340.5287793655112
  0
LINE
  5
158
330
1F
100
AcDbEntity
  8
0
  6
Continuous
 62
     7
370
    15
100
AcDbLine
 10
820.8670748489177
 20
563.6671793761776
 30
0.0
 11
811.5239290984101
 21
563.6671793761776
 31
0.0
  0
ARC
  5
159
330
1F
100
AcDbEntity
  8
0
  6
Continuous
 62
     7
370
    15
100
AcDbCircle
 10
811.5239290984101
 20
566.6671793761777
 30
0.0
 40
3.0
100
AcDbArc
 50
199.4712206344888
 51
270.0
  0
ARC
  5
15A
330
1F
100
AcDbEntity
  8
0
  6
Continuous
 62
     7
370
    15
100
AcDbCircle
 10
820.8670748489177
 20
566.6671793761777
 30
0.0
 40
3.0
100
AcDbArc
 50
270.0
 51
340.5287793655112
  0
LINE
  5
15B
330
1F
100
AcDbEntity
  8
0
  6
Continuous
 62
     7
370
    15
100
AcDbLine
 10
840.8670748489178
 20
563.6671793761776
 30
0.0
 11
831.5239290984102
 21
563.6671793761776
 31
0.0
  0
ARC
  5
15C
330
1F
100
AcDbEntity
  8
0
  6
Continuous
 62
     7
370
    15
100
AcDbCircle
 10
840.8670748489178
 20
566.6671793761777
 30
0.0
 40
3.0
100
AcDbArc
 50
270.0
 51
340.5287793655112
  0
ARC
  5
15D
330
1F
100
AcDbEntity
  8
0
  6
Continuous
 62
     7
370
    15
100
AcDbCircle
 10
831.5239290984102
 20
566.6671793761777
 30
0.0
 40
3.0
100
AcDbArc
 50
199.4712206344888
 51
270.0
  0
LINE
  5
15E
330
1F
100
AcDbEntity
  8
0
  6
Continuous
 62
     7
370
    15
100
AcDbLine
 10
860.8670748489178
 20
563.6671793761776
 30
0.0
 11
851.5239290984101
 21
563.6671793761776
 31
0.0
  0
ARC
  5
15F
330
1F
100
AcDbEntity
  8
0
  6
Continuous
 62
     7
370
    15
100
AcDbCircle
 10
860.8670748489178
 20
566.6671793761777
 30
0.0
 40
3.0
100
AcDbArc
 50
270.0
 51
340.5287793655112
  0
ARC
  5
160
330
1F
100
AcDbEntity
  8
0
  6
Continuous
 62
     7
370
    15
100
AcDbCircle
 10
851.5239290984101
 20
566.6671793761777
 30
0.0
 40
3.0
100
AcDbArc
 50
199.4712206344888
 51
270.0
  0
LINE
  5
161
330
1F
100
AcDbEntity
  8
0
  6
Continuous
 62
     7
370
    15
100
AcDbLine
 10
880.8670748489179
 20
563.6671793761776
 30
0.0
 11
871.5239290984102
 21
563.6671793761776
 31
0.0
  0
ARC
  5
162
330
1F
100
AcDbEntity
  8
0
  6
Continuous
 62
     7
370
    15
100
AcDbCircle
 10
880.8670748489179
 20
566.6671793761777
 30
0.0
 40
3.0
100
AcDbArc
 50
270.0
 51
340.5287793655112
  0
ARC
  5
163
330
1F
100
AcDbEntity
  8
0
  6
Continuous
 62
     7
370
    15
100
AcDbCircle
 10
871.5239290984102
 20
566.6671793761777
 30
0.0
 40
3.0
100
AcDbArc
 50
199.4712206344888
 51
270.0
  0
LINE
  5
164
330
1F
100
AcDbEntity
  8
0
  6
Continuous
 62
     7
370
    15
100
AcDbLine
 10
900.8670748489178
 20
563.6671793761776
 30
0.0
 11
891.5239290984102
 21
563.6671793761776
 31
0.0
  0
ARC
  5
165
330
1F
100
AcDbEntity
  8
0
  6
Continuous
 62
     7
370
    15
100
AcDbCircle
 10
900.8670748489178
 20
566.6671793761777
 30
0.0
 40
3.0
100
AcDbArc
 50
270.0
 51
340.5287793655112
  0
ARC
  5
166
330
1F
100
AcDbEntity
  8
0
  6
Continuous
 62
     7
370
    15
100
AcDbCircle
 10
891.5239290984102
 20
566.6671793761777
 30
0.0
 40
3.0
100
AcDbArc
 50
199.4712206344888
 51
270.0
  0
LINE
  5
167
330
1F
100
AcDbEntity
  8
0
  6
Continuous
 62
     7
370
    15
100
AcDbLine
 10
920.8670748489177
 20
563.6671793761776
 30
0.0
 11
911.5239290984103
 21
563.6671793761776
 31
0.0
  0
ARC
  5
168
330
1F
100
AcDbEntity
  8
0
  6
Continuous
 62
     7
370
    15
100
AcDbCircle
 10
920.8670748489177
 20
566.6671793761777
 30
0.0
 40
3.0
100
AcDbArc
 50
270.0
 51
340.5287793655112
  0
ARC
  5
169
330
1F
100
AcDbEntity
  8
0
  6
Continuous
 62
     7
370
    15
100
AcDbCircle
 10
911.5239290984103
 20
566.6671793761777
 30
0.0
 40
3.0
100
AcDbArc
 50
199.4712206344888
 51
270.0
  0
LINE
  5
16A
330
1F
100
AcDbEntity
  8
0
  6
Continuous
 62
     7
370
    15
100
AcDbLine
 10
940.8670748489178
 20
563.6671793761776
 30
0.0
 11
931.5239290984102
 21
563.6671793761776
 31
0.0
  0
ARC
  5
16B
330
1F
100
AcDbEntity
  8
0
  6
Continuous
 62
     7
370
    15
100
AcDbCircle
 10
931.5239290984102
 20
566.6671793761777
 30
0.0
 40
3.0
100
AcDbArc
 50
199.4712206344888
 51
270.0
  0
ARC
  5
16C
330
1F
100
AcDbEntity
  8
0
  6
Continuous
 62
     7
370
    15
100
AcDbCircle
 10
940.8670748489178
 20
566.6671793761777
 30
0.0
 40
3.000000000000021
100
AcDbArc
 50
270.0
 51
340.5287793655112
  0
LINE
  5
16D
330
1F
100
AcDbEntity
  8
0
  6
Continuous
 62
     7
370
    15
100
AcDbLine
 10
960.8670748489178
 20
563.6671793761776
 30
0.0
 11
951.5239290984101
 21
563.6671793761776
 31
0.0
  0
ARC
  5
16E
330
1F
100
AcDbEntity
  8
0
  6
Continuous
 62
     7
370
    15
100
AcDbCircle
 10
951.5239290984101
 20
566.6671793761777
 30
0.0
 40
3.0
100
AcDbArc
 50
199.4712206344888
 51
270.0
  0
ARC
  5
16F
330
1F
100
AcDbEntity
  8
0
  6
Continuous
 62
     7
370
    15
100
AcDbCircle
 10
960.8670748489178
 20
566.6671793761777
 30
0.0
 40
3.0
100
AcDbArc
 50
270.0
 51
340.5287793655112
  0
LINE
  5
170
330
1F
100
AcDbEntity
  8
0
  6
Continuous
 62
     7
370
    15
100
AcDbLine
 10
980.8670748489179
 20
563.6671793761776
 30
0.0
 11
971.5239290984102
 21
563.6671793761776
 31
0.0
  0
ARC
  5
171
330
1F
100
AcDbEntity
  8
0
  6
Continuous
 62
     7
370
    15
100
AcDbCircle
 10
980.8670748489179
 20
566.6671793761777
 30
0.0
 40
3.0
100
AcDbArc
 50
270.0
 51
340.5287793655112
  0
ARC
  5
172
330
1F
100
AcDbEntity
  8
0
  6
Continuous
 62
     7
370
    15
100
AcDbCircle
 10
971.5239290984102
 20
566.6671793761777
 30
0.0
 40
3.000000000000021
100
AcDbArc
 50
199.4712206344888
 51
270.0
  0
LINE
  5
173
330
1F
100
AcDbEntity
  8
0
  6
Continuous
 62
     7
370
    15
100
AcDbLine
 10
1037.140891538808
 20
563.6671793761776
 30
0.0
 11
1027.7977457883
 21
563.6671793761776
 31
0.0
  0
ARC
  5
174
330
1F
100
AcDbEntity
  8
0
  6
Continuous
 62
     7
370
    15
100
AcDbCircle
 10
1037.140891538808
 20
566.6671793761777
 30
0.0
 40
3.0
100
AcDbArc
 50
270.0
 51
340.5287793655112
  0
ARC
  5
175
330
1F
100
AcDbEntity
  8
0
  6
Continuous
 62
     7
370
    15
100
AcDbCircle
 10
1027.7977457883
 20
566.6671793761777
 30
0.0
 40
3.0
100
AcDbArc
 50
199.4712206344888
 51
270.0
  0
LINE
  5
176
330
1F
100
AcDbEntity
  8
0
  6
Continuous
 62
     7
370
    15
100
AcDbLine
 10
1057.140891538807
 20
563.6671793761776
 30
0.0
 11
1047.7977457883
 21
563.6671793761776
 31
0.0
  0
ARC
  5
177
330
1F
100
AcDbEntity
  8
0
  6
Continuous
 62
     7
370
    15
100
AcDbCircle
 10
1057.140891538807
 20
566.6671793761777
 30
0.0
 40
3.000000000000021
100
AcDbArc
 50
270.0
 51
340.5287793655112
  0
ARC
  5
178
330
1F
100
AcDbEntity
  8
0
  6
Continuous
 62
     7
370
    15
100
AcDbCircle
 10
1047.7977457883
 20
566.6671793761777
 30
0.0
 40
3.000000000000021
100
AcDbArc
 50
199.4712206344888
 51
270.0
  0
LINE
  5
179
330
1F
100
AcDbEntity
  8
0
  6
Continuous
 62
     7
370
    15
100
AcDbLine
 10
1077.140891538808
 20
563.6671793761776
 30
0.0
 11
1067.7977457883
 21
563.6671793761776
 31
0.0
  0
ARC
  5
17A
330
1F
100
AcDbEntity
  8
0
  6
Continuous
 62
     7
370
    15
100
AcDbCircle
 10
1077.140891538808
 20
566.6671793761777
 30
0.0
 40
3.0
100
AcDbArc
 50
270.0
 51
340.5287793655112
  0
ARC
  5
17B
330
1F
100
AcDbEntity
  8
0
  6
Continuous
 62
     7
370
    15
100
AcDbCircle
 10
1067.7977457883
 20
566.6671793761777
 30
0.0
 40
3.0
100
AcDbArc
 50
199.4712206344888
 51
270.0
  0
LINE
  5
17C
330
1F
100
AcDbEntity
  8
0
  6
Continuous
 62
     7
370
    15
100
AcDbLine
 10
1097.140891538808
 20
563.6671793761776
 30
0.0
 11
1087.7977457883
 21
563.6671793761776
 31
0.0
  0
ARC
  5
17D
330
1F
100
AcDbEntity
  8
0
  6
Continuous
 62
     7
370
    15
100
AcDbCircle
 10
1097.140891538808
 20
566.6671793761777
 30
0.0
 40
3.0
100
AcDbArc
 50
270.0
 51
340.5287793655112
  0
ARC
  5
17E
330
1F
100
AcDbEntity
  8
0
  6
Continuous
 62
     7
370
    15
100
AcDbCircle
 10
1087.7977457883
 20
566.6671793761777
 30
0.0
 40
3.0
100
AcDbArc
 50
199.4712206344888
 51
270.0
  0
LINE
  5
17F
330
1F
100
AcDbEntity
  8
0
  6
Continuous
 62
     7
370
    15
100
AcDbLine
 10
1117.140891538807
 20
563.6671793761776
 30
0.0
 11
1107.7977457883
 21
563.6671793761776
 31
0.0
  0
ARC
  5
180
330
1F
100
AcDbEntity
  8
0
  6
Continuous
 62
     7
370
    15
100
AcDbCircle
 10
1117.140891538807
 20
566.6671793761777
 30
0.0
 40
3.000000000000064
100
AcDbArc
 50
270.0
 51
340.5287793655112
  0
ARC
  5
181
330
1F
100
AcDbEntity
  8
0
  6
Continuous
 62
     7
370
    15
100
AcDbCircle
 10
1107.7977457883
 20
566.6671793761777
 30
0.0
 40
3.0
100
AcDbArc
 50
199.4712206344888
 51
270.0
  0
LINE
  5
182
330
1F
100
AcDbEntity
  8
0
  6
Continuous
 62
     7
370
    15
100
AcDbLine
 10
1137.140891538807
 20
563.6671793761776
 30
0.0
 11
1127.7977457883
 21
563.6671793761776
 31
0.0
  0
ARC
  5
183
330
1F
100
AcDbEntity
  8
0
  6
Continuous
 62
     7
370
    15
100
AcDbCircle
 10
1137.140891538807
 20
566.6671793761777
 30
0.0
 40
3.000000000000021
100
AcDbArc
 50
270.0
 51
340.5287793655112
  0
ARC
  5
184
330
1F
100
AcDbEntity
  8
0
  6
Continuous
 62
     7
370
    15
100
AcDbCircle
 10
1127.7977457883
 20
566.6671793761777
 30
0.0
 40
3.000000000000021
100
AcDbArc
 50
199.4712206344888
 51
270.0
  0
LINE
  5
185
330
1F
100
AcDbEntity
  8
0
  6
Continuous
 62
     7
370
    15
100
AcDbLine
 10
1157.140891538807
 20
563.6671793761776
 30
0.0
 11
1147.7977457883
 21
563.6671793761776
 31
0.0
  0
ARC
  5
186
330
1F
100
AcDbEntity
  8
0
  6
Continuous
 62
     7
370
    15
100
AcDbCircle
 10
1147.7977457883
 20
566.6671793761777
 30
0.0
 40
3.000000000000021
100
AcDbArc
 50
199.4712206344888
 51
270.0
  0
ARC
  5
187
330
1F
100
AcDbEntity
  8
0
  6
Continuous
 62
     7
370
    15
100
AcDbCircle
 10
1157.140891538807
 20
566.6671793761777
 30
0.0
 40
3.000000000000021
100
AcDbArc
 50
270.0
 51
340.5287793655112
  0
LINE
  5
188
330
1F
100
AcDbEntity
  8
0
  6
Continuous
 62
     7
370
    15
100
AcDbLine
 10
1177.140891538808
 20
563.6671793761776
 30
0.0
 11
1167.7977457883
 21
563.6671793761776
 31
0.0
  0
ARC
  5
189
330
1F
100
AcDbEntity
  8
0
  6
Continuous
 62
     7
370
    15
100
AcDbCircle
 10
1177.140891538808
 20
566.6671793761777
 30
0.0
 40
3.0
100
AcDbArc
 50
270.0
 51
340.5287793655112
  0
ARC
  5
18A
330
1F
100
AcDbEntity
  8
0
  6
Continuous
 62
     7
370
    15
100
AcDbCircle
 10
1167.7977457883
 20
566.6671793761777
 30
0.0
 40
3.000000000000021
100
AcDbArc
 50
199.4712206344888
 51
270.0
  0
LINE
  5
18B
330
1F
100
AcDbEntity
  8
0
  6
Continuous
 62
     7
370
    15
100
AcDbLine
 10
1197.140891538808
 20
563.6671793761776
 30
0.0
 11
1187.7977457883
 21
563.6671793761776
 31
0.0
  0
ARC
  5
18C
330
1F
100
AcDbEntity
  8
0
  6
Continuous
 62
     7
370
    15
100
AcDbCircle
 10
1197.140891538808
 20
566.6671793761777
 30
0.0
 40
3.0
100
AcDbArc
 50
270.0
 51
340.5287793655112
  0
ARC
  5
18D
330
1F
100
AcDbEntity
  8
0
  6
Continuous
 62
     7
370
    15
100
AcDbCircle
 10
1187.7977457883
 20
566.6671793761777
 30
0.0
 40
3.000000000000021
100
AcDbArc
 50
199.4712206344888
 51
270.0
  0
LINE
  5
18E
330
1F
100
AcDbEntity
  8
0
  6
Continuous
 62
     7
370
    15
100
AcDbLine
 10
1217.140891538808
 20
563.6671793761776
 30
0.0
 11
1207.7977457883
 21
563.6671793761776
 31
0.0
  0
ARC
  5
18F
330
1F
100
AcDbEntity
  8
0
  6
Continuous
 62
     7
370
    15
100
AcDbCircle
 10
1217.140891538808
 20
566.6671793761777
 30
0.0
 40
3.000000000000107
100
AcDbArc
 50
270.0
 51
340.5287793655112
  0
ARC
  5
190
330
1F
100
AcDbEntity
  8
0
  6
Continuous
 62
     7
370
    15
100
AcDbCircle
 10
1207.7977457883
 20
566.6671793761777
 30
0.0
 40
3.0
100
AcDbArc
 50
199.4712206344888
 51
270.0
  0
LINE
  5
191
330
1F
100
AcDbEntity
  8
0
  6
Continuous
 62
     7
370
    15
100
AcDbLine
 10
870.8046342818525
 20
685.6671793761778
 30
0.0
 11
870.8046342818525
 21
625.6671793761777
 31
0.0
  0
LINE
  5
192
330
1F
100
AcDbEntity
  8
0
  6
Continuous
 62
     7
370
    15
100
AcDbLine
 10
870.8046342818525
 20
685.6671793761778
 30
0.0
 11
1138.190352413678
 21
685.6671793761778
 31
0.0
  0
LINE
  5
193
330
1F
100
AcDbEntity
  8
0
  6
Continuous
 62
     7
370
    15
100
AcDbLine
 10
1138.190352413678
 20
685.6671793761778
 30
0.0
 11
1138.190352413678
 21
625.6671793761777
 31
0.0
  0
LINE
  5
194
330
1F
100
AcDbEntity
  8
0
  6
Continuous
 62
     7
370
    15
100
AcDbLine
 10
882.4848826873987
 20
627.5446050972746
 30
0.0
 11
882.4848826873987
 21
675.3939793805685
 31
0.0
  0
LINE
  5
195
330
1F
100
AcDbEntity
  8
0
  6
Continuous
 62
     7
370
    15
100
AcDbLine
 10
882.4848826873987
 20
675.3939793805685
 30
0.0
 11
879.4202621291985
 21
675.3939793805685
 31
0.0
  0
LINE
  5
196
330
1F
100
AcDbEntity
  8
0
  6
Continuous
 62
     7
370
    15
100
AcDbLine
 10
879.4202621291985
 20
675.3939793805685
 30
0.0
 11
879.4202621291985
 21
627.5446050972746
 31
0.0
  0
LINE
  5
197
330
1F
100
AcDbEntity
  8
0
  6
Continuous
 62
     7
370
    15
100
AcDbLine
 10
879.4202621291985
 20
627.5446050972746
 30
0.0
 11
882.4848826873987
 21
627.5446050972746
 31
0.0
  0
LINE
  5
198
330
1F
100
AcDbEntity
  8
0
  6
Continuous
 62
     7
370
    15
100
AcDbLine
 10
892.4848826873988
 20
627.5446050972746
 30
0.0
 11
892.4848826873988
 21
675.3939793805685
 31
0.0
  0
LINE
  5
199
330
1F
100
AcDbEntity
  8
0
  6
Continuous
 62
     7
370
    15
100
AcDbLine
 10
892.4848826873988
 20
675.3939793805685
 30
0.0
 11
889.4202621291986
 21
675.3939793805685
 31
0.0
  0
LINE
  5
19A
330
1F
100
AcDbEntity
  8
0
  6
Continuous
 62
     7
370
    15
100
AcDbLine
 10
889.4202621291986
 20
675.3939793805685
 30
0.0
 11
889.4202621291986
 21
627.5446050972746
 31
0.0
  0
LINE
  5
19B
330
1F
100
AcDbEntity
  8
0
  6
Continuous
 62
     7
370
    15
100
AcDbLine
 10
889.4202621291986
 20
627.5446050972746
 30
0.0
 11
892.4848826873988
 21
627.5446050972746
 31
0.0
  0
LINE
  5
19C
330
1F
100
AcDbEntity
  8
0
  6
Continuous
 62
     7
370
    15
100
AcDbLine
 10
902.4848826873988
 20
627.5446050972746
 30
0.0
 11
902.4848826873988
 21
675.3939793805685
 31
0.0
  0
LINE
  5
19D
330
1F
100
AcDbEntity
  8
0
  6
Continuous
 62
     7
370
    15
100
AcDbLine
 10
902.4848826873988
 20
675.3939793805685
 30
0.0
 11
899.4202621291986
 21
675.3939793805685
 31
0.0
  0
LINE
  5
19E
330
1F
100
AcDbEntity
  8
0
  6
Continuous
 62
     7
370
    15
100
AcDbLine
 10
899.4202621291986
 20
675.3939793805685
 30
0.0
 11
899.4202621291986
 21
627.5446050972746
 31
0.0
  0
LINE
  5
19F
330
1F
100
AcDbEntity
  8
0
  6
Continuous
 62
     7
370
    15
100
AcDbLine
 10
899.4202621291986
 20
627.5446050972746
 30
0.0
 11
902.4848826873988
 21
627.5446050972746
 31
0.0
  0
LINE
  5
1A0
330
1F
100
AcDbEntity
  8
0
  6
Continuous
 62
     7
370
    15
100
AcDbLine
 10
912.4848826873988
 20
627.5446050972746
 30
0.0
 11
912.4848826873986
 21
675.3939793805685
 31
0.0
  0
LINE
  5
1A1
330
1F
100
AcDbEntity
  8
0
  6
Continuous
 62
     7
370
    15
100
AcDbLine
 10
912.4848826873986
 20
675.3939793805685
 30
0.0
 11
909.4202621291985
 21
675.3939793805685
 31
0.0
  0
LINE
  5
1A2
330
1F
100
AcDbEntity
  8
0
  6
Continuous
 62
     7
370
    15
100
AcDbLine
 10
909.4202621291985
 20
675.3939793805685
 30
0.0
 11
909.4202621291985
 21
627.5446050972746
 31
0.0
  0
LINE
  5
1A3
330
1F
100
AcDbEntity
  8
0
  6
Continuous
 62
     7
370
    15
100
AcDbLine
 10
909.4202621291985
 20
627.5446050972746
 30
0.0
 11
912.4848826873988
 21
627.5446050972746
 31
0.0
  0
LINE
  5
1A4
330
1F
100
AcDbEntity
  8
0
  6
Continuous
 62
     7
370
    15
100
AcDbLine
 10
922.4848826873987
 20
627.5446050972746
 30
0.0
 11
922.4848826873987
 21
675.3939793805685
 31
0.0
  0
LINE
  5
1A5
330
1F
100
AcDbEntity
  8
0
  6
Continuous
 62
     7
370
    15
100
AcDbLine
 10
922.4848826873987
 20
675.3939793805685
 30
0.0
 11
919.4202621291985
 21
675.3939793805685
 31
0.0
  0
LINE
  5
1A6
330
1F
100
AcDbEntity
  8
0
  6
Continuous
 62
     7
370
    15
100
AcDbLine
 10
919.4202621291985
 20
675.3939793805685
 30
0.0
 11
919.4202621291987
 21
627.5446050972746
 31
0.0
  0
LINE
  5
1A7
330
1F
100
AcDbEntity
  8
0
  6
Continuous
 62
     7
370
    15
100
AcDbLine
 10
919.4202621291987
 20
627.5446050972746
 30
0.0
 11
922.4848826873987
 21
627.5446050972746
 31
0.0
  0
LINE
  5
1A8
330
1F
100
AcDbEntity
  8
0
  6
Continuous
 62
     7
370
    15
100
AcDbLine
 10
932.4848826873987
 20
627.5446050972746
 30
0.0
 11
932.4848826873987
 21
675.3939793805685
 31
0.0
  0
LINE
  5
1A9
330
1F
100
AcDbEntity
  8
0
  6
Continuous
 62
     7
370
    15
100
AcDbLine
 10
932.4848826873987
 20
675.3939793805685
 30
0.0
 11
929.4202621291985
 21
675.3939793805685
 31
0.0
  0
LINE
  5
1AA
330
1F
100
AcDbEntity
  8
0
  6
Continuous
 62
     7
370
    15
100
AcDbLine
 10
929.4202621291985
 20
675.3939793805685
 30
0.0
 11
929.4202621291987
 21
627.5446050972746
 31
0.0
  0
LINE
  5
1AB
330
1F
100
AcDbEntity
  8
0
  6
Continuous
 62
     7
370
    15
100
AcDbLine
 10
929.4202621291987
 20
627.5446050972746
 30
0.0
 11
932.4848826873987
 21
627.5446050972746
 31
0.0
  0
LINE
  5
1AC
330
1F
100
AcDbEntity
  8
0
  6
Continuous
 62
     7
370
    15
100
AcDbLine
 10
942.4848826873988
 20
627.5446050972746
 30
0.0
 11
942.4848826873986
 21
675.3939793805685
 31
0.0
  0
LINE
  5
1AD
330
1F
100
AcDbEntity
  8
0
  6
Continuous
 62
     7
370
    15
100
AcDbLine
 10
942.4848826873986
 20
675.3939793805685
 30
0.0
 11
939.4202621291986
 21
675.3939793805685
 31
0.0
  0
LINE
  5
1AE
330
1F
100
AcDbEntity
  8
0
  6
Continuous
 62
     7
370
    15
100
AcDbLine
 10
939.4202621291986
 20
675.3939793805685
 30
0.0
 11
939.4202621291986
 21
627.5446050972746
 31
0.0
  0
LINE
  5
1AF
330
1F
100
AcDbEntity
  8
0
  6
Continuous
 62
     7
370
    15
100
AcDbLine
 10
939.4202621291986
 20
627.5446050972746
 30
0.0
 11
942.4848826873988
 21
627.5446050972746
 31
0.0
  0
LINE
  5
1B0
330
1F
100
AcDbEntity
  8
0
  6
Continuous
 62
     7
370
    15
100
AcDbLine
 10
952.4848826873988
 20
627.5446050972746
 30
0.0
 11
952.4848826873986
 21
675.3939793805685
 31
0.0
  0
LINE
  5
1B1
330
1F
100
AcDbEntity
  8
0
  6
Continuous
 62
     7
370
    15
100
AcDbLine
 10
952.4848826873986
 20
675.3939793805685
 30
0.0
 11
949.4202621291986
 21
675.3939793805685
 31
0.0
  0
LINE
  5
1B2
330
1F
100
AcDbEntity
  8
0
  6
Continuous
 62
     7
370
    15
100
AcDbLine
 10
949.4202621291986
 20
675.3939793805685
 30
0.0
 11
949.4202621291988
 21
627.5446050972746
 31
0.0
  0
LINE
  5
1B3
330
1F
100
AcDbEntity
  8
0
  6
Continuous
 62
     7
370
    15
100
AcDbLine
 10
949.4202621291988
 20
627.5446050972746
 30
0.0
 11
952.4848826873988
 21
627.5446050972746
 31
0.0
  0
LINE
  5
1B4
330
1F
100
AcDbEntity
  8
0
  6
Continuous
 62
     7
370
    15
100
AcDbLine
 10
962.4848826873988
 20
627.5446050972746
 30
0.0
 11
962.4848826873986
 21
675.3939793805685
 31
0.0
  0
LINE
  5
1B5
330
1F
100
AcDbEntity
  8
0
  6
Continuous
 62
     7
370
    15
100
AcDbLine
 10
962.4848826873986
 20
675.3939793805685
 30
0.0
 11
959.4202621291985
 21
675.3939793805685
 31
0.0
  0
LINE
  5
1B6
330
1F
100
AcDbEntity
  8
0
  6
Continuous
 62
     7
370
    15
100
AcDbLine
 10
959.4202621291985
 20
675.3939793805685
 30
0.0
 11
959.4202621291987
 21
627.5446050972746
 31
0.0
  0
LINE
  5
1B7
330
1F
100
AcDbEntity
  8
0
  6
Continuous
 62
     7
370
    15
100
AcDbLine
 10
959.4202621291987
 20
627.5446050972746
 30
0.0
 11
962.4848826873988
 21
627.5446050972746
 31
0.0
  0
LINE
  5
1B8
330
1F
100
AcDbEntity
  8
0
  6
Continuous
 62
     7
370
    15
100
AcDbLine
 10
972.4848826873987
 20
627.5446050972746
 30
0.0
 11
972.4848826873987
 21
675.3939793805685
 31
0.0
  0
LINE
  5
1B9
330
1F
100
AcDbEntity
  8
0
  6
Continuous
 62
     7
370
    15
100
AcDbLine
 10
972.4848826873987
 20
675.3939793805685
 30
0.0
 11
969.4202621291985
 21
675.3939793805685
 31
0.0
  0
LINE
  5
1BA
330
1F
100
AcDbEntity
  8
0
  6
Continuous
 62
     7
370
    15
100
AcDbLine
 10
969.4202621291985
 20
675.3939793805685
 30
0.0
 11
969.4202621291985
 21
627.5446050972746
 31
0.0
  0
LINE
  5
1BB
330
1F
100
AcDbEntity
  8
0
  6
Continuous
 62
     7
370
    15
100
AcDbLine
 10
969.4202621291985
 20
627.5446050972746
 30
0.0
 11
972.4848826873987
 21
627.5446050972746
 31
0.0
  0
LINE
  5
1BC
330
1F
100
AcDbEntity
  8
0
  6
Continuous
 62
     7
370
    15
100
AcDbLine
 10
982.4848826873987
 20
627.5446050972746
 30
0.0
 11
982.4848826873987
 21
675.3939793805685
 31
0.0
  0
LINE
  5
1BD
330
1F
100
AcDbEntity
  8
0
  6
Continuous
 62
     7
370
    15
100
AcDbLine
 10
982.4848826873987
 20
675.3939793805685
 30
0.0
 11
979.4202621291985
 21
675.3939793805685
 31
0.0
  0
LINE
  5
1BE
330
1F
100
AcDbEntity
  8
0
  6
Continuous
 62
     7
370
    15
100
AcDbLine
 10
979.4202621291985
 20
675.3939793805685
 30
0.0
 11
979.4202621291985
 21
627.5446050972746
 31
0.0
  0
LINE
  5
1BF
330
1F
100
AcDbEntity
  8
0
  6
Continuous
 62
     7
370
    15
100
AcDbLine
 10
979.4202621291985
 20
627.5446050972746
 30
0.0
 11
982.4848826873987
 21
627.5446050972746
 31
0.0
  0
LINE
  5
1C0
330
1F
100
AcDbEntity
  8
0
  6
Continuous
 62
     7
370
    15
100
AcDbLine
 10
992.4848826873986
 20
627.5446050972746
 30
0.0
 11
992.4848826873986
 21
675.3939793805685
 31
0.0
  0
LINE
  5
1C1
330
1F
100
AcDbEntity
  8
0
  6
Continuous
 62
     7
370
    15
100
AcDbLine
 10
992.4848826873986
 20
675.3939793805685
 30
0.0
 11
989.4202621291986
 21
675.3939793805685
 31
0.0
  0
LINE
  5
1C2
330
1F
100
AcDbEntity
  8
0
  6
Continuous
 62
     7
370
    15
100
AcDbLine
 10
989.4202621291986
 20
675.3939793805685
 30
0.0
 11
989.4202621291986
 21
627.5446050972746
 31
0.0
  0
LINE
  5
1C3
330
1F
100
AcDbEntity
  8
0
  6
Continuous
 62
     7
370
    15
100
AcDbLine
 10
989.4202621291986
 20
627.5446050972746
 30
0.0
 11
992.4848826873986
 21
627.5446050972746
 31
0.0
  0
LINE
  5
1C4
330
1F
100
AcDbEntity
  8
0
  6
Continuous
 62
     7
370
    15
100
AcDbLine
 10
1002.484882687398
 20
627.5446050972746
 30
0.0
 11
1002.484882687398
 21
675.3939793805685
 31
0.0
  0
LINE
  5
1C5
330
1F
100
AcDbEntity
  8
0
  6
Continuous
 62
     7
370
    15
100
AcDbLine
 10
1002.484882687398
 20
675.3939793805685
 30
0.0
 11
999.4202621291986
 21
675.3939793805685
 31
0.0
  0
LINE
  5
1C6
330
1F
100
AcDbEntity
  8
0
  6
Continuous
 62
     7
370
    15
100
AcDbLine
 10
999.4202621291986
 20
675.3939793805685
 30
0.0
 11
999.4202621291986
 21
627.5446050972746
 31
0.0
  0
LINE
  5
1C7
330
1F
100
AcDbEntity
  8
0
  6
Continuous
 62
     7
370
    15
100
AcDbLine
 10
999.4202621291986
 20
627.5446050972746
 30
0.0
 11
1002.484882687398
 21
627.5446050972746
 31
0.0
  0
LINE
  5
1C8
330
1F
100
AcDbEntity
  8
0
  6
Continuous
 62
     7
370
    15
100
AcDbLine
 10
1012.484882687399
 20
627.5446050972746
 30
0.0
 11
1012.484882687399
 21
675.3939793805685
 31
0.0
  0
LINE
  5
1C9
330
1F
100
AcDbEntity
  8
0
  6
Continuous
 62
     7
370
    15
100
AcDbLine
 10
1012.484882687399
 20
675.3939793805685
 30
0.0
 11
1009.420262129198
 21
675.3939793805685
 31
0.0
  0
LINE
  5
1CA
330
1F
100
AcDbEntity
  8
0
  6
Continuous
 62
     7
370
    15
100
AcDbLine
 10
1009.420262129198
 20
675.3939793805685
 30
0.0
 11
1009.420262129198
 21
627.5446050972746
 31
0.0
  0
LINE
  5
1CB
330
1F
100
AcDbEntity
  8
0
  6
Continuous
 62
     7
370
    15
100
AcDbLine
 10
1009.420262129198
 20
627.5446050972746
 30
0.0
 11
1012.484882687399
 21
627.5446050972746
 31
0.0
  0
LINE
  5
1CC
330
1F
100
AcDbEntity
  8
0
  6
Continuous
 62
     7
370
    15
100
AcDbLine
 10
1022.484882687399
 20
627.5446050972746
 30
0.0
 11
1022.484882687399
 21
675.3939793805685
 31
0.0
  0
LINE
  5
1CD
330
1F
100
AcDbEntity
  8
0
  6
Continuous
 62
     7
370
    15
100
AcDbLine
 10
1022.484882687399
 20
675.3939793805685
 30
0.0
 11
1019.420262129198
 21
675.3939793805685
 31
0.0
  0
LINE
  5
1CE
330
1F
100
AcDbEntity
  8
0
  6
Continuous
 62
     7
370
    15
100
AcDbLine
 10
1019.420262129198
 20
675.3939793805685
 30
0.0
 11
1019.420262129198
 21
627.5446050972746
 31
0.0
  0
LINE
  5
1CF
330
1F
100
AcDbEntity
  8
0
  6
Continuous
 62
     7
370
    15
100
AcDbLine
 10
1019.420262129198
 20
627.5446050972746
 30
0.0
 11
1022.484882687399
 21
627.5446050972746
 31
0.0
  0
LINE
  5
1D0
330
1F
100
AcDbEntity
  8
0
  6
Continuous
 62
     7
370
    15
100
AcDbLine
 10
1032.484882687398
 20
627.5446050972746
 30
0.0
 11
1032.484882687398
 21
675.3939793805685
 31
0.0
  0
LINE
  5
1D1
330
1F
100
AcDbEntity
  8
0
  6
Continuous
 62
     7
370
    15
100
AcDbLine
 10
1032.484882687398
 20
675.3939793805685
 30
0.0
 11
1029.420262129198
 21
675.3939793805685
 31
0.0
  0
LINE
  5
1D2
330
1F
100
AcDbEntity
  8
0
  6
Continuous
 62
     7
370
    15
100
AcDbLine
 10
1029.420262129198
 20
675.3939793805685
 30
0.0
 11
1029.420262129198
 21
627.5446050972746
 31
0.0
  0
LINE
  5
1D3
330
1F
100
AcDbEntity
  8
0
  6
Continuous
 62
     7
370
    15
100
AcDbLine
 10
1029.420262129198
 20
627.5446050972746
 30
0.0
 11
1032.484882687398
 21
627.5446050972746
 31
0.0
  0
LINE
  5
1D4
330
1F
100
AcDbEntity
  8
0
  6
Continuous
 62
     7
370
    15
100
AcDbLine
 10
1042.484882687399
 20
627.5446050972746
 30
0.0
 11
1042.484882687398
 21
675.3939793805685
 31
0.0
  0
LINE
  5
1D5
330
1F
100
AcDbEntity
  8
0
  6
Continuous
 62
     7
370
    15
100
AcDbLine
 10
1042.484882687398
 20
675.3939793805685
 30
0.0
 11
1039.420262129199
 21
675.3939793805685
 31
0.0
  0
LINE
  5
1D6
330
1F
100
AcDbEntity
  8
0
  6
Continuous
 62
     7
370
    15
100
AcDbLine
 10
1039.420262129199
 20
675.3939793805685
 30
0.0
 11
1039.420262129199
 21
627.5446050972746
 31
0.0
  0
LINE
  5
1D7
330
1F
100
AcDbEntity
  8
0
  6
Continuous
 62
     7
370
    15
100
AcDbLine
 10
1039.420262129199
 20
627.5446050972746
 30
0.0
 11
1042.484882687399
 21
627.5446050972746
 31
0.0
  0
LINE
  5
1D8
330
1F
100
AcDbEntity
  8
0
  6
Continuous
 62
     7
370
    15
100
AcDbLine
 10
1052.484882687399
 20
627.5446050972746
 30
0.0
 11
1052.484882687398
 21
675.3939793805685
 31
0.0
  0
LINE
  5
1D9
330
1F
100
AcDbEntity
  8
0
  6
Continuous
 62
     7
370
    15
100
AcDbLine
 10
1052.484882687398
 20
675.3939793805685
 30
0.0
 11
1049.420262129198
 21
675.3939793805685
 31
0.0
  0
LINE
  5
1DA
330
1F
100
AcDbEntity
  8
0
  6
Continuous
 62
     7
370
    15
100
AcDbLine
 10
1049.420262129198
 20
675.3939793805685
 30
0.0
 11
1049.420262129198
 21
627.5446050972746
 31
0.0
  0
LINE
  5
1DB
330
1F
100
AcDbEntity
  8
0
  6
Continuous
 62
     7
370
    15
100
AcDbLine
 10
1049.420262129198
 20
627.5446050972746
 30
0.0
 11
1052.484882687399
 21
627.5446050972746
 31
0.0
  0
LINE
  5
1DC
330
1F
100
AcDbEntity
  8
0
  6
Continuous
 62
     7
370
    15
100
AcDbLine
 10
1062.484882687399
 20
627.5446050972746
 30
0.0
 11
1062.484882687398
 21
675.3939793805685
 31
0.0
  0
LINE
  5
1DD
330
1F
100
AcDbEntity
  8
0
  6
Continuous
 62
     7
370
    15
100
AcDbLine
 10
1062.484882687398
 20
675.3939793805685
 30
0.0
 11
1059.420262129198
 21
675.3939793805685
 31
0.0
  0
LINE
  5
1DE
330
1F
100
AcDbEntity
  8
0
  6
Continuous
 62
     7
370
    15
100
AcDbLine
 10
1059.420262129198
 20
675.3939793805685
 30
0.0
 11
1059.420262129199
 21
627.5446050972746
 31
0.0
  0
LINE
  5
1DF
330
1F
100
AcDbEntity
  8
0
  6
Continuous
 62
     7
370
    15
100
AcDbLine
 10
1059.420262129199
 20
627.5446050972746
 30
0.0
 11
1062.484882687399
 21
627.5446050972746
 31
0.0
  0
LINE
  5
1E0
330
1F
100
AcDbEntity
  8
0
  6
Continuous
 62
     7
370
    15
100
AcDbLine
 10
1072.484882687398
 20
627.5446050972746
 30
0.0
 11
1072.484882687398
 21
675.3939793805685
 31
0.0
  0
LINE
  5
1E1
330
1F
100
AcDbEntity
  8
0
  6
Continuous
 62
     7
370
    15
100
AcDbLine
 10
1072.484882687398
 20
675.3939793805685
 30
0.0
 11
1069.420262129198
 21
675.3939793805685
 31
0.0
  0
LINE
  5
1E2
330
1F
100
AcDbEntity
  8
0
  6
Continuous
 62
     7
370
    15
100
AcDbLine
 10
1069.420262129198
 20
675.3939793805685
 30
0.0
 11
1069.420262129199
 21
627.5446050972746
 31
0.0
  0
LINE
  5
1E3
330
1F
100
AcDbEntity
  8
0
  6
Continuous
 62
     7
370
    15
100
AcDbLine
 10
1069.420262129199
 20
627.5446050972746
 30
0.0
 11
1072.484882687398
 21
627.5446050972746
 31
0.0
  0
LINE
  5
1E4
330
1F
100
AcDbEntity
  8
0
  6
Continuous
 62
     7
370
    15
100
AcDbLine
 10
1082.484882687398
 20
627.5446050972746
 30
0.0
 11
1082.484882687398
 21
675.3939793805685
 31
0.0
  0
LINE
  5
1E5
330
1F
100
AcDbEntity
  8
0
  6
Continuous
 62
     7
370
    15
100
AcDbLine
 10
1082.484882687398
 20
675.3939793805685
 30
0.0
 11
1079.420262129198
 21
675.3939793805685
 31
0.0
  0
LINE
  5
1E6
330
1F
100
AcDbEntity
  8
0
  6
Continuous
 62
     7
370
    15
100
AcDbLine
 10
1079.420262129198
 20
675.3939793805685
 30
0.0
 11
1079.420262129199
 21
627.5446050972746
 31
0.0
  0
LINE
  5
1E7
330
1F
100
AcDbEntity
  8
0
  6
Continuous
 62
     7
370
    15
100
AcDbLine
 10
1079.420262129199
 20
627.5446050972746
 30
0.0
 11
1082.484882687398
 21
627.5446050972746
 31
0.0
  0
LINE
  5
1E8
330
1F
100
AcDbEntity
  8
0
  6
Continuous
 62
     7
370
    15
100
AcDbLine
 10
1092.484882687399
 20
627.5446050972746
 30
0.0
 11
1092.484882687398
 21
675.3939793805685
 31
0.0
  0
LINE
  5
1E9
330
1F
100
AcDbEntity
  8
0
  6
Continuous
 62
     7
370
    15
100
AcDbLine
 10
1092.484882687398
 20
675.3939793805685
 30
0.0
 11
1089.420262129198
 21
675.3939793805685
 31
0.0
  0
LINE
  5
1EA
330
1F
100
AcDbEntity
  8
0
  6
Continuous
 62
     7
370
    15
100
AcDbLine
 10
1089.420262129198
 20
675.3939793805685
 30
0.0
 11
1089.420262129198
 21
627.5446050972746
 31
0.0
  0
LINE
  5
1EB
330
1F
100
AcDbEntity
  8
0
  6
Continuous
 62
     7
370
    15
100
AcDbLine
 10
1089.420262129198
 20
627.5446050972746
 30
0.0
 11
1092.484882687399
 21
627.5446050972746
 31
0.0
  0
LINE
  5
1EC
330
1F
100
AcDbEntity
  8
0
  6
Continuous
 62
     7
370
    15
100
AcDbLine
 10
1102.484882687399
 20
627.5446050972746
 30
0.0
 11
1102.484882687398
 21
675.3939793805685
 31
0.0
  0
LINE
  5
1ED
330
1F
100
AcDbEntity
  8
0
  6
Continuous
 62
     7
370
    15
100
AcDbLine
 10
1102.484882687398
 20
675.3939793805685
 30
0.0
 11
1099.420262129198
 21
675.3939793805685
 31
0.0
  0
LINE
  5
1EE
330
1F
100
AcDbEntity
  8
0
  6
Continuous
 62
     7
370
    15
100
AcDbLine
 10
1099.420262129198
 20
675.3939793805685
 30
0.0
 11
1099.420262129198
 21
627.5446050972746
 31
0.0
  0
LINE
  5
1EF
330
1F
100
AcDbEntity
  8
0
  6
Continuous
 62
     7
370
    15
100
AcDbLine
 10
1099.420262129198
 20
627.5446050972746
 30
0.0
 11
1102.484882687399
 21
627.5446050972746
 31
0.0
  0
LINE
  5
1F0
330
1F
100
AcDbEntity
  8
0
  6
Continuous
 62
     7
370
    15
100
AcDbLine
 10
1112.484882687398
 20
627.5446050972746
 30
0.0
 11
1112.484882687398
 21
675.3939793805685
 31
0.0
  0
LINE
  5
1F1
330
1F
100
AcDbEntity
  8
0
  6
Continuous
 62
     7
370
    15
100
AcDbLine
 10
1112.484882687398
 20
675.3939793805685
 30
0.0
 11
1109.420262129198
 21
675.3939793805685
 31
0.0
  0
LINE
  5
1F2
330
1F
100
AcDbEntity
  8
0
  6
Continuous
 62
     7
370
    15
100
AcDbLine
 10
1109.420262129198
 20
675.3939793805685
 30
0.0
 11
1109.420262129198
 21
627.5446050972746
 31
0.0
  0
LINE
  5
1F3
330
1F
100
AcDbEntity
  8
0
  6
Continuous
 62
     7
370
    15
100
AcDbLine
 10
1109.420262129198
 20
627.5446050972746
 30
0.0
 11
1112.484882687398
 21
627.5446050972746
 31
0.0
  0
LINE
  5
1F4
330
1F
100
AcDbEntity
  8
0
  6
Continuous
 62
     7
370
    15
100
AcDbLine
 10
1122.484882687398
 20
627.5446050972746
 30
0.0
 11
1122.484882687398
 21
675.3939793805685
 31
0.0
  0
LINE
  5
1F5
330
1F
100
AcDbEntity
  8
0
  6
Continuous
 62
     7
370
    15
100
AcDbLine
 10
1122.484882687398
 20
675.3939793805685
 30
0.0
 11
1119.420262129198
 21
675.3939793805685
 31
0.0
  0
LINE
  5
1F6
330
1F
100
AcDbEntity
  8
0
  6
Continuous
 62
     7
370
    15
100
AcDbLine
 10
1119.420262129198
 20
675.3939793805685
 30
0.0
 11
1119.420262129198
 21
627.5446050972746
 31
0.0
  0
LINE
  5
1F7
330
1F
100
AcDbEntity
  8
0
  6
Continuous
 62
     7
370
    15
100
AcDbLine
 10
1119.420262129198
 20
627.5446050972746
 30
0.0
 11
1122.484882687398
 21
627.5446050972746
 31
0.0
  0
LINE
  5
1F8
330
1F
100
AcDbEntity
  8
0
  6
Continuous
 62
     7
370
    15
100
AcDbLine
 10
1132.484882687398
 20
627.5446050972746
 30
0.0
 11
1132.484882687398
 21
675.3939793805685
 31
0.0
  0
LINE
  5
1F9
330
1F
100
AcDbEntity
  8
0
  6
Continuous
 62
     7
370
    15
100
AcDbLine
 10
1132.484882687398
 20
675.3939793805685
 30
0.0
 11
1129.420262129198
 21
675.3939793805685
 31
0.0
  0
LINE
  5
1FA
330
1F
100
AcDbEntity
  8
0
  6
Continuous
 62
     7
370
    15
100
AcDbLine
 10
1129.420262129198
 20
675.3939793805685
 30
0.0
 11
1129.420262129198
 21
627.5446050972746
 31
0.0
  0
LINE
  5
1FB
330
1F
100
AcDbEntity
  8
0
  6
Continuous
 62
     7
370
    15
100
AcDbLine
 10
1129.420262129198
 20
627.5446050972746
 30
0.0
 11
1132.484882687398
 21
627.5446050972746
 31
0.0
  0
LINE
  5
1FC
330
1F
100
AcDbEntity
  8
0
  6
Continuous
 62
     7
370
    15
100
AcDbLine
 10
875.8046342818525
 20
700.4324743038284
 30
0.0
 11
1133.190352413679
 21
700.4324743038284
 31
0.0
  0
LINE
  5
1FD
330
1F
100
AcDbEntity
  8
0
  6
Continuous
 62
     7
370
    15
100
AcDbLine
 10
870.8046342818525
 20
695.4324743038284
 30
0.0
 11
875.8046342818525
 21
700.4324743038284
 31
0.0
  0
LINE
  5
1FE
330
1F
100
AcDbEntity
  8
0
  6
Continuous
 62
     7
370
    15
100
AcDbLine
 10
870.8046342818525
 20
685.6671793761778
 30
0.0
 11
870.8046342818525
 21
695.4324743038284
 31
0.0
  0
LINE
  5
1FF
330
1F
100
AcDbEntity
  8
0
  6
Continuous
 62
     7
370
    15
100
AcDbLine
 10
868.8046342818525
 20
724.6671793761777
 30
0.0
 11
868.8046342818525
 21
625.6671793761777
 31
0.0
  0
LINE
  5
200
330
1F
100
AcDbEntity
  8
0
  6
Continuous
 62
     7
370
    15
100
AcDbLine
 10
1140.190352413679
 20
724.6671793761777
 30
0.0
 11
868.8046342818525
 21
724.6671793761777
 31
0.0
  0
LINE
  5
201
330
1F
100
AcDbEntity
  8
0
  6
Continuous
 62
     7
370
    15
100
AcDbLine
 10
1140.190352413679
 20
625.6671793761777
 30
0.0
 11
1140.190352413679
 21
724.6671793761777
 31
0.0
  0
LINE
  5
202
330
1F
100
AcDbEntity
  8
0
  6
Continuous
 62
     7
370
    15
100
AcDbLine
 10
1138.190352413678
 20
695.4324743038284
 30
0.0
 11
1138.190352413678
 21
685.6671793761778
 31
0.0
  0
LINE
  5
203
330
1F
100
AcDbEntity
  8
0
  6
Continuous
 62
     7
370
    15
100
AcDbLine
 10
1133.190352413679
 20
700.4324743038284
 30
0.0
 11
1138.190352413678
 21
695.4324743038284
 31
0.0
  0
LINE
  5
204
330
1F
100
AcDbEntity
  8
0
  6
Continuous
 62
     7
370
    15
100
AcDbLine
 10
868.8046342818525
 20
466.6615123822577
 30
0.0
 11
868.8046342818525
 21
448.6615123822576
 31
0.0
  0
LINE
  5
205
330
1F
100
AcDbEntity
  8
0
  6
Continuous
 62
     7
370
    15
100
AcDbLine
 10
1140.190352413679
 20
466.6615123822577
 30
0.0
 11
1140.190352413679
 21
448.6615123822576
 31
0.0
  0
LINE
  5
206
330
1F
100
AcDbEntity
  8
0
  6
Continuous
 62
     7
370
    15
100
AcDbLine
 10
1140.190352413679
 20
448.6615123822576
 30
0.0
 11
868.8046342818525
 21
448.6615123822576
 31
0.0
  0
LINE
  5
207
330
1F
100
AcDbEntity
  8
0
  6
Continuous
 62
     7
370
    15
100
AcDbLine
 10
1140.190352413679
 20
466.6615123822577
 30
0.0
 11
868.8046342818525
 21
466.6615123822577
 31
0.0
  0
LINE
  5
208
330
1F
100
AcDbEntity
  8
0
  6
Continuous
 62
     7
370
    15
100
AcDbLine
 10
870.8046342818525
 20
443.6615123822575
 30
0.0
 11
1138.190352413678
 21
443.6615123822575
 31
0.0
  0
LINE
  5
209
330
1F
100
AcDbEntity
  8
0
  6
Continuous
 62
     7
370
    15
100
AcDbLine
 10
870.8046342818525
 20
448.6615123822576
 30
0.0
 11
870.8046342818525
 21
443.6615123822575
 31
0.0
  0
LINE
  5
20A
330
1F
100
AcDbEntity
  8
0
  6
Continuous
 62
     7
370
    15
100
AcDbLine
 10
1138.190352413678
 20
443.6615123822575
 30
0.0
 11
1138.190352413678
 21
448.6615123822576
 31
0.0
  0
LINE
  5
20B
330
1F
100
AcDbEntity
  8
0
  6
Continuous
 62
     7
370
    15
100
AcDbLine
 10
1138.190352413678
 20
466.6615123822577
 30
0.0
 11
1138.190352413678
 21
472.456846914144
 31
0.0
  0
LINE
  5
20C
330
1F
100
AcDbEntity
  8
0
  6
Continuous
 62
     7
370
    15
100
AcDbLine
 10
870.8046342818525
 20
472.456846914144
 30
0.0
 11
870.8046342818525
 21
466.6615123822577
 31
0.0
  0
LINE
  5
20D
330
1F
100
AcDbEntity
  8
0
  6
Continuous
 62
     7
370
    15
100
AcDbLine
 10
1138.190352413678
 20
472.456846914144
 30
0.0
 11
870.8046342818525
 21
472.456846914144
 31
0.0
  0
LINE
  5
20E
330
1F
100
AcDbEntity
  8
0
  6
Continuous
 62
     7
370
    15
100
AcDbLine
 10
1224.838843838393
 20
507.6442098405623
 30
0.0
 11
1224.838843838393
 21
487.6442098405623
 31
0.0
  0
LINE
  5
20F
330
1F
100
AcDbEntity
  8
0
  6
Continuous
 62
     7
370
    15
100
AcDbLine
 10
1214.838843838393
 20
507.6442098405623
 30
0.0
 11
1224.838843838393
 21
507.6442098405623
 31
0.0
  0
LINE
  5
210
330
1F
100
AcDbEntity
  8
0
  6
Continuous
 62
     7
370
    15
100
AcDbLine
 10
1214.838843838393
 20
487.6442098405623
 30
0.0
 11
1214.838843838393
 21
507.6442098405623
 31
0.0
  0
LINE
  5
211
330
1F
100
AcDbEntity
  8
0
  6
Continuous
 62
     7
370
    15
100
AcDbLine
 10
1224.838843838393
 20
487.6442098405623
 30
0.0
 11
1214.838843838393
 21
487.6442098405623
 31
0.0
  0
LINE
  5
212
330
1F
100
AcDbEntity
  8
0
  6
Continuous
 62
     7
370
    15
100
AcDbLine
 10
1194.838843838392
 20
507.6442098405625
 30
0.0
 11
1194.838843838392
 21
487.6442098405625
 31
0.0
  0
LINE
  5
213
330
1F
100
AcDbEntity
  8
0
  6
Continuous
 62
     7
370
    15
100
AcDbLine
 10
1184.838843838392
 20
507.6442098405625
 30
0.0
 11
1194.838843838392
 21
507.6442098405625
 31
0.0
  0
LINE
  5
214
330
1F
100
AcDbEntity
  8
0
  6
Continuous
 62
     7
370
    15
100
AcDbLine
 10
1184.838843838392
 20
487.6442098405625
 30
0.0
 11
1184.838843838392
 21
507.6442098405625
 31
0.0
  0
LINE
  5
215
330
1F
100
AcDbEntity
  8
0
  6
Continuous
 62
     7
370
    15
100
AcDbLine
 10
1194.838843838392
 20
487.6442098405625
 30
0.0
 11
1184.838843838392
 21
487.6442098405625
 31
0.0
  0
LINE
  5
216
330
1F
100
AcDbEntity
  8
0
  6
Continuous
 62
     7
370
    15
100
AcDbLine
 10
1164.838843838392
 20
507.6442098405629
 30
0.0
 11
1164.838843838392
 21
487.6442098405629
 31
0.0
  0
LINE
  5
217
330
1F
100
AcDbEntity
  8
0
  6
Continuous
 62
     7
370
    15
100
AcDbLine
 10
1154.838843838392
 20
507.6442098405629
 30
0.0
 11
1164.838843838392
 21
507.6442098405629
 31
0.0
  0
LINE
  5
218
330
1F
100
AcDbEntity
  8
0
  6
Continuous
 62
     7
370
    15
100
AcDbLine
 10
1154.838843838392
 20
487.6442098405629
 30
0.0
 11
1154.838843838392
 21
507.6442098405629
 31
0.0
  0
LINE
  5
219
330
1F
100
AcDbEntity
  8
0
  6
Continuous
 62
     7
370
    15
100
AcDbLine
 10
1164.838843838392
 20
487.6442098405629
 30
0.0
 11
1154.838843838392
 21
487.6442098405629
 31
0.0
  0
LINE
  5
21A
330
1F
100
AcDbEntity
  8
0
  6
Continuous
 62
     7
370
    15
100
AcDbLine
 10
1134.838843838393
 20
507.6442098405632
 30
0.0
 11
1134.838843838393
 21
487.6442098405632
 31
0.0
  0
LINE
  5
21B
330
1F
100
AcDbEntity
  8
0
  6
Continuous
 62
     7
370
    15
100
AcDbLine
 10
1124.838843838393
 20
507.6442098405632
 30
0.0
 11
1134.838843838393
 21
507.6442098405632
 31
0.0
  0
LINE
  5
21C
330
1F
100
AcDbEntity
  8
0
  6
Continuous
 62
     7
370
    15
100
AcDbLine
 10
1124.838843838393
 20
487.6442098405632
 30
0.0
 11
1124.838843838393
 21
507.6442098405632
 31
0.0
  0
LINE
  5
21D
330
1F
100
AcDbEntity
  8
0
  6
Continuous
 62
     7
370
    15
100
AcDbLine
 10
1134.838843838393
 20
487.6442098405632
 30
0.0
 11
1124.838843838393
 21
487.6442098405632
 31
0.0
  0
LINE
  5
21E
330
1F
100
AcDbEntity
  8
0
  6
Continuous
 62
     7
370
    15
100
AcDbLine
 10
1104.838843838393
 20
507.6442098405635
 30
0.0
 11
1104.838843838393
 21
487.6442098405635
 31
0.0
  0
LINE
  5
21F
330
1F
100
AcDbEntity
  8
0
  6
Continuous
 62
     7
370
    15
100
AcDbLine
 10
1094.838843838393
 20
507.6442098405635
 30
0.0
 11
1104.838843838393
 21
507.6442098405635
 31
0.0
  0
LINE
  5
220
330
1F
100
AcDbEntity
  8
0
  6
Continuous
 62
     7
370
    15
100
AcDbLine
 10
1094.838843838393
 20
487.6442098405635
 30
0.0
 11
1094.838843838393
 21
507.6442098405635
 31
0.0
  0
LINE
  5
221
330
1F
100
AcDbEntity
  8
0
  6
Continuous
 62
     7
370
    15
100
AcDbLine
 10
1104.838843838393
 20
487.6442098405635
 30
0.0
 11
1094.838843838393
 21
487.6442098405635
 31
0.0
  0
LINE
  5
222
330
1F
100
AcDbEntity
  8
0
  6
Continuous
 62
     7
370
    15
100
AcDbLine
 10
1074.838843838393
 20
507.6442098405639
 30
0.0
 11
1074.838843838393
 21
487.6442098405639
 31
0.0
  0
LINE
  5
223
330
1F
100
AcDbEntity
  8
0
  6
Continuous
 62
     7
370
    15
100
AcDbLine
 10
1064.838843838393
 20
507.6442098405639
 30
0.0
 11
1074.838843838393
 21
507.6442098405639
 31
0.0
  0
LINE
  5
224
330
1F
100
AcDbEntity
  8
0
  6
Continuous
 62
     7
370
    15
100
AcDbLine
 10
1064.838843838393
 20
487.6442098405639
 30
0.0
 11
1064.838843838393
 21
507.6442098405639
 31
0.0
  0
LINE
  5
225
330
1F
100
AcDbEntity
  8
0
  6
Continuous
 62
     7
370
    15
100
AcDbLine
 10
1074.838843838393
 20
487.6442098405639
 30
0.0
 11
1064.838843838393
 21
487.6442098405639
 31
0.0
  0
LINE
  5
226
330
1F
100
AcDbEntity
  8
0
  6
Continuous
 62
     7
370
    15
100
AcDbLine
 10
1044.838843838393
 20
507.6442098405641
 30
0.0
 11
1044.838843838393
 21
487.6442098405641
 31
0.0
  0
LINE
  5
227
330
1F
100
AcDbEntity
  8
0
  6
Continuous
 62
     7
370
    15
100
AcDbLine
 10
1034.838843838392
 20
507.6442098405641
 30
0.0
 11
1044.838843838393
 21
507.6442098405641
 31
0.0
  0
LINE
  5
228
330
1F
100
AcDbEntity
  8
0
  6
Continuous
 62
     7
370
    15
100
AcDbLine
 10
1034.838843838392
 20
487.6442098405641
 30
0.0
 11
1034.838843838392
 21
507.6442098405641
 31
0.0
  0
LINE
  5
229
330
1F
100
AcDbEntity
  8
0
  6
Continuous
 62
     7
370
    15
100
AcDbLine
 10
1044.838843838393
 20
487.6442098405641
 30
0.0
 11
1034.838843838392
 21
487.6442098405641
 31
0.0
  0
LINE
  5
22A
330
1F
100
AcDbEntity
  8
0
  6
Continuous
 62
     7
370
    15
100
AcDbLine
 10
1014.838843838393
 20
507.6442098405644
 30
0.0
 11
1014.838843838393
 21
487.6442098405645
 31
0.0
  0
LINE
  5
22B
330
1F
100
AcDbEntity
  8
0
  6
Continuous
 62
     7
370
    15
100
AcDbLine
 10
1004.838843838393
 20
507.6442098405644
 30
0.0
 11
1014.838843838393
 21
507.6442098405644
 31
0.0
  0
LINE
  5
22C
330
1F
100
AcDbEntity
  8
0
  6
Continuous
 62
     7
370
    15
100
AcDbLine
 10
1004.838843838393
 20
487.6442098405645
 30
0.0
 11
1004.838843838393
 21
507.6442098405644
 31
0.0
  0
LINE
  5
22D
330
1F
100
AcDbEntity
  8
0
  6
Continuous
 62
     7
370
    15
100
AcDbLine
 10
1014.838843838393
 20
487.6442098405645
 30
0.0
 11
1004.838843838393
 21
487.6442098405645
 31
0.0
  0
LINE
  5
22E
330
1F
100
AcDbEntity
  8
0
  6
Continuous
 62
     7
370
    15
100
AcDbLine
 10
984.8388438383926
 20
507.6442098405648
 30
0.0
 11
984.8388438383929
 21
487.6442098405648
 31
0.0
  0
LINE
  5
22F
330
1F
100
AcDbEntity
  8
0
  6
Continuous
 62
     7
370
    15
100
AcDbLine
 10
974.8388438383928
 20
507.6442098405648
 30
0.0
 11
984.8388438383926
 21
507.6442098405648
 31
0.0
  0
LINE
  5
230
330
1F
100
AcDbEntity
  8
0
  6
Continuous
 62
     7
370
    15
100
AcDbLine
 10
974.8388438383928
 20
487.6442098405648
 30
0.0
 11
974.8388438383928
 21
507.6442098405648
 31
0.0
  0
LINE
  5
231
330
1F
100
AcDbEntity
  8
0
  6
Continuous
 62
     7
370
    15
100
AcDbLine
 10
984.8388438383929
 20
487.6442098405648
 30
0.0
 11
974.8388438383928
 21
487.6442098405648
 31
0.0
  0
LINE
  5
232
330
1F
100
AcDbEntity
  8
0
  6
Continuous
 62
     7
370
    15
100
AcDbLine
 10
954.8388438383927
 20
507.6442098405651
 30
0.0
 11
954.8388438383927
 21
487.6442098405651
 31
0.0
  0
LINE
  5
233
330
1F
100
AcDbEntity
  8
0
  6
Continuous
 62
     7
370
    15
100
AcDbLine
 10
944.8388438383927
 20
507.6442098405651
 30
0.0
 11
954.8388438383927
 21
507.6442098405651
 31
0.0
  0
LINE
  5
234
330
1F
100
AcDbEntity
  8
0
  6
Continuous
 62
     7
370
    15
100
AcDbLine
 10
944.8388438383927
 20
487.6442098405651
 30
0.0
 11
944.8388438383927
 21
507.6442098405651
 31
0.0
  0
LINE
  5
235
330
1F
100
AcDbEntity
  8
0
  6
Continuous
 62
     7
370
    15
100
AcDbLine
 10
954.8388438383927
 20
487.6442098405651
 30
0.0
 11
944.8388438383927
 21
487.6442098405651
 31
0.0
  0
LINE
  5
236
330
1F
100
AcDbEntity
  8
0
  6
Continuous
 62
     7
370
    15
100
AcDbLine
 10
924.8388438383928
 20
507.6442098405654
 30
0.0
 11
924.8388438383928
 21
487.6442098405654
 31
0.0
  0
LINE
  5
237
330
1F
100
AcDbEntity
  8
0
  6
Continuous
 62
     7
370
    15
100
AcDbLine
 10
914.8388438383928
 20
507.6442098405654
 30
0.0
 11
924.8388438383928
 21
507.6442098405654
 31
0.0
  0
LINE
  5
238
330
1F
100
AcDbEntity
  8
0
  6
Continuous
 62
     7
370
    15
100
AcDbLine
 10
914.8388438383928
 20
487.6442098405654
 30
0.0
 11
914.8388438383928
 21
507.6442098405654
 31
0.0
  0
LINE
  5
239
330
1F
100
AcDbEntity
  8
0
  6
Continuous
 62
     7
370
    15
100
AcDbLine
 10
924.8388438383928
 20
487.6442098405654
 30
0.0
 11
914.8388438383928
 21
487.6442098405654
 31
0.0
  0
LINE
  5
23A
330
1F
100
AcDbEntity
  8
0
  6
Continuous
 62
     7
370
    15
100
AcDbLine
 10
894.8388438383927
 20
507.6442098405657
 30
0.0
 11
894.8388438383929
 21
487.6442098405657
 31
0.0
  0
LINE
  5
23B
330
1F
100
AcDbEntity
  8
0
  6
Continuous
 62
     7
370
    15
100
AcDbLine
 10
884.8388438383929
 20
507.6442098405657
 30
0.0
 11
894.8388438383927
 21
507.6442098405657
 31
0.0
  0
LINE
  5
23C
330
1F
100
AcDbEntity
  8
0
  6
Continuous
 62
     7
370
    15
100
AcDbLine
 10
884.8388438383929
 20
487.6442098405657
 30
0.0
 11
884.8388438383929
 21
507.6442098405657
 31
0.0
  0
LINE
  5
23D
330
1F
100
AcDbEntity
  8
0
  6
Continuous
 62
     7
370
    15
100
AcDbLine
 10
894.8388438383929
 20
487.6442098405657
 30
0.0
 11
884.8388438383929
 21
487.6442098405657
 31
0.0
  0
LINE
  5
23E
330
1F
100
AcDbEntity
  8
0
  6
Continuous
 62
     7
370
    15
100
AcDbLine
 10
864.8388438383928
 20
507.644209840566
 30
0.0
 11
864.8388438383928
 21
487.644209840566
 31
0.0
  0
LINE
  5
23F
330
1F
100
AcDbEntity
  8
0
  6
Continuous
 62
     7
370
    15
100
AcDbLine
 10
854.8388438383929
 20
507.644209840566
 30
0.0
 11
864.8388438383928
 21
507.644209840566
 31
0.0
  0
LINE
  5
240
330
1F
100
AcDbEntity
  8
0
  6
Continuous
 62
     7
370
    15
100
AcDbLine
 10
854.8388438383929
 20
487.644209840566
 30
0.0
 11
854.8388438383929
 21
507.644209840566
 31
0.0
  0
LINE
  5
241
330
1F
100
AcDbEntity
  8
0
  6
Continuous
 62
     7
370
    15
100
AcDbLine
 10
864.8388438383928
 20
487.644209840566
 30
0.0
 11
854.8388438383929
 21
487.644209840566
 31
0.0
  0
LINE
  5
242
330
1F
100
AcDbEntity
  8
0
  6
Continuous
 62
     7
370
    15
100
AcDbLine
 10
834.8388438383928
 20
507.6442098405664
 30
0.0
 11
834.8388438383928
 21
487.6442098405664
 31
0.0
  0
LINE
  5
243
330
1F
100
AcDbEntity
  8
0
  6
Continuous
 62
     7
370
    15
100
AcDbLine
 10
824.8388438383928
 20
507.6442098405664
 30
0.0
 11
834.8388438383928
 21
507.6442098405664
 31
0.0
  0
LINE
  5
244
330
1F
100
AcDbEntity
  8
0
  6
Continuous
 62
     7
370
    15
100
AcDbLine
 10
824.8388438383928
 20
487.6442098405664
 30
0.0
 11
824.8388438383928
 21
507.6442098405664
 31
0.0
  0
LINE
  5
245
330
1F
100
AcDbEntity
  8
0
  6
Continuous
 62
     7
370
    15
100
AcDbLine
 10
834.8388438383928
 20
487.6442098405664
 30
0.0
 11
824.8388438383928
 21
487.6442098405664
 31
0.0
  0
LINE
  5
246
330
1F
100
AcDbEntity
  8
0
  6
Continuous
 62
     7
370
    15
100
AcDbLine
 10
804.8388438383929
 20
507.6442098405666
 30
0.0
 11
804.8388438383929
 21
487.6442098405667
 31
0.0
  0
LINE
  5
247
330
1F
100
AcDbEntity
  8
0
  6
Continuous
 62
     7
370
    15
100
AcDbLine
 10
794.8388438383927
 20
507.6442098405666
 30
0.0
 11
804.8388438383929
 21
507.6442098405666
 31
0.0
  0
LINE
  5
248
330
1F
100
AcDbEntity
  8
0
  6
Continuous
 62
     7
370
    15
100
AcDbLine
 10
794.8388438383927
 20
487.6442098405667
 30
0.0
 11
794.8388438383927
 21
507.6442098405666
 31
0.0
  0
LINE
  5
249
330
1F
100
AcDbEntity
  8
0
  6
Continuous
 62
     7
370
    15
100
AcDbLine
 10
804.8388438383929
 20
487.6442098405667
 30
0.0
 11
794.8388438383927
 21
487.6442098405667
 31
0.0
  0
LINE
  5
24A
330
1F
100
AcDbEntity
  8
0
  6
Continuous
 62
     7
370
    15
100
AcDbLine
 10
1138.190352413678
 20
472.456846914144
 30
0.0
 11
1235.997493347765
 21
472.456846914144
 31
0.0
  0
LINE
  5
24B
330
1F
100
AcDbEntity
  8
0
  6
Continuous
 62
     7
370
    15
100
AcDbLine
 10
772.9974933477656
 20
472.456846914144
 30
0.0
 11
870.8046342818525
 21
472.456846914144
 31
0.0
  0
LINE
  5
24C
330
1F
100
AcDbEntity
  8
0
  6
Continuous
 62
     7
370
    15
100
AcDbLine
 10
772.9974933477656
 20
513.0591796482008
 30
0.0
 11
772.9974933477656
 21
472.456846914144
 31
0.0
  0
LINE
  5
24D
330
1F
100
AcDbEntity
  8
0
  6
Continuous
 62
     7
370
    15
100
AcDbLine
 10
772.9974933477656
 20
513.0591796482008
 30
0.0
 11
1235.997493347765
 21
513.0591796482008
 31
0.0
  0
LINE
  5
24E
330
1F
100
AcDbEntity
  8
0
  6
Continuous
 62
     7
370
    15
100
AcDbLine
 10
1235.997493347765
 20
513.0591796482008
 30
0.0
 11
1235.997493347765
 21
472.456846914144
 31
0.0
  0
LINE
  5
24F
330
1F
100
AcDbEntity
  8
0
  6
Continuous
 62
     7
370
    15
100
AcDbLine
 10
789.8388438383928
 20
507.6442098405668
 30
0.0
 11
789.8388438383928
 21
487.6442098405668
 31
0.0
  0
LINE
  5
250
330
1F
100
AcDbEntity
  8
0
  6
Continuous
 62
     7
370
    15
100
AcDbLine
 10
779.8388438383928
 20
507.6442098405668
 30
0.0
 11
789.8388438383928
 21
507.6442098405668
 31
0.0
  0
LINE
  5
251
330
1F
100
AcDbEntity
  8
0
  6
Continuous
 62
     7
370
    15
100
AcDbLine
 10
779.8388438383928
 20
487.6442098405668
 30
0.0
 11
779.8388438383928
 21
507.6442098405668
 31
0.0
  0
LINE
  5
252
330
1F
100
AcDbEntity
  8
0
  6
Continuous
 62
     7
370
    15
100
AcDbLine
 10
789.8388438383928
 20
487.6442098405668
 30
0.0
 11
779.8388438383928
 21
487.6442098405668
 31
0.0
  0
LINE
  5
253
330
1F
100
AcDbEntity
  8
0
  6
Continuous
 62
     7
370
    15
100
AcDbLine
 10
819.8388438383929
 20
507.6442098405665
 30
0.0
 11
819.8388438383929
 21
487.6442098405665
 31
0.0
  0
LINE
  5
254
330
1F
100
AcDbEntity
  8
0
  6
Continuous
 62
     7
370
    15
100
AcDbLine
 10
809.8388438383929
 20
507.6442098405665
 30
0.0
 11
819.8388438383929
 21
507.6442098405665
 31
0.0
  0
LINE
  5
255
330
1F
100
AcDbEntity
  8
0
  6
Continuous
 62
     7
370
    15
100
AcDbLine
 10
809.8388438383929
 20
487.6442098405665
 30
0.0
 11
809.8388438383929
 21
507.6442098405665
 31
0.0
  0
LINE
  5
256
330
1F
100
AcDbEntity
  8
0
  6
Continuous
 62
     7
370
    15
100
AcDbLine
 10
819.8388438383929
 20
487.6442098405665
 30
0.0
 11
809.8388438383929
 21
487.6442098405665
 31
0.0
  0
LINE
  5
257
330
1F
100
AcDbEntity
  8
0
  6
Continuous
 62
     7
370
    15
100
AcDbLine
 10
849.8388438383928
 20
507.6442098405662
 30
0.0
 11
849.8388438383928
 21
487.6442098405662
 31
0.0
  0
LINE
  5
258
330
1F
100
AcDbEntity
  8
0
  6
Continuous
 62
     7
370
    15
100
AcDbLine
 10
839.8388438383928
 20
507.6442098405662
 30
0.0
 11
849.8388438383928
 21
507.6442098405662
 31
0.0
  0
LINE
  5
259
330
1F
100
AcDbEntity
  8
0
  6
Continuous
 62
     7
370
    15
100
AcDbLine
 10
839.8388438383928
 20
487.6442098405662
 30
0.0
 11
839.8388438383928
 21
507.6442098405662
 31
0.0
  0
LINE
  5
25A
330
1F
100
AcDbEntity
  8
0
  6
Continuous
 62
     7
370
    15
100
AcDbLine
 10
849.8388438383928
 20
487.6442098405662
 30
0.0
 11
839.8388438383928
 21
487.6442098405662
 31
0.0
  0
LINE
  5
25B
330
1F
100
AcDbEntity
  8
0
  6
Continuous
 62
     7
370
    15
100
AcDbLine
 10
879.8388438383927
 20
507.6442098405658
 30
0.0
 11
879.8388438383929
 21
487.6442098405659
 31
0.0
  0
LINE
  5
25C
330
1F
100
AcDbEntity
  8
0
  6
Continuous
 62
     7
370
    15
100
AcDbLine
 10
869.8388438383929
 20
507.6442098405658
 30
0.0
 11
879.8388438383927
 21
507.6442098405658
 31
0.0
  0
LINE
  5
25D
330
1F
100
AcDbEntity
  8
0
  6
Continuous
 62
     7
370
    15
100
AcDbLine
 10
869.8388438383929
 20
487.6442098405659
 30
0.0
 11
869.8388438383929
 21
507.6442098405658
 31
0.0
  0
LINE
  5
25E
330
1F
100
AcDbEntity
  8
0
  6
Continuous
 62
     7
370
    15
100
AcDbLine
 10
879.8388438383929
 20
487.6442098405659
 30
0.0
 11
869.8388438383929
 21
487.6442098405659
 31
0.0
  0
LINE
  5
25F
330
1F
100
AcDbEntity
  8
0
  6
Continuous
 62
     7
370
    15
100
AcDbLine
 10
909.8388438383928
 20
507.6442098405656
 30
0.0
 11
909.8388438383928
 21
487.6442098405656
 31
0.0
  0
LINE
  5
260
330
1F
100
AcDbEntity
  8
0
  6
Continuous
 62
     7
370
    15
100
AcDbLine
 10
899.8388438383928
 20
507.6442098405656
 30
0.0
 11
909.8388438383928
 21
507.6442098405656
 31
0.0
  0
LINE
  5
261
330
1F
100
AcDbEntity
  8
0
  6
Continuous
 62
     7
370
    15
100
AcDbLine
 10
899.8388438383928
 20
487.6442098405656
 30
0.0
 11
899.8388438383928
 21
507.6442098405656
 31
0.0
  0
LINE
  5
262
330
1F
100
AcDbEntity
  8
0
  6
Continuous
 62
     7
370
    15
100
AcDbLine
 10
909.8388438383928
 20
487.6442098405656
 30
0.0
 11
899.8388438383928
 21
487.6442098405656
 31
0.0
  0
LINE
  5
263
330
1F
100
AcDbEntity
  8
0
  6
Continuous
 62
     7
370
    15
100
AcDbLine
 10
939.8388438383928
 20
507.6442098405652
 30
0.0
 11
939.8388438383928
 21
487.6442098405653
 31
0.0
  0
LINE
  5
264
330
1F
100
AcDbEntity
  8
0
  6
Continuous
 62
     7
370
    15
100
AcDbLine
 10
929.8388438383929
 20
507.6442098405652
 30
0.0
 11
939.8388438383928
 21
507.6442098405652
 31
0.0
  0
LINE
  5
265
330
1F
100
AcDbEntity
  8
0
  6
Continuous
 62
     7
370
    15
100
AcDbLine
 10
929.8388438383929
 20
487.6442098405653
 30
0.0
 11
929.8388438383929
 21
507.6442098405652
 31
0.0
  0
LINE
  5
266
330
1F
100
AcDbEntity
  8
0
  6
Continuous
 62
     7
370
    15
100
AcDbLine
 10
939.8388438383928
 20
487.6442098405653
 30
0.0
 11
929.8388438383929
 21
487.6442098405653
 31
0.0
  0
LINE
  5
267
330
1F
100
AcDbEntity
  8
0
  6
Continuous
 62
     7
370
    15
100
AcDbLine
 10
969.8388438383927
 20
507.6442098405649
 30
0.0
 11
969.8388438383929
 21
487.6442098405649
 31
0.0
  0
LINE
  5
268
330
1F
100
AcDbEntity
  8
0
  6
Continuous
 62
     7
370
    15
100
AcDbLine
 10
959.8388438383928
 20
507.6442098405649
 30
0.0
 11
969.8388438383927
 21
507.6442098405649
 31
0.0
  0
LINE
  5
269
330
1F
100
AcDbEntity
  8
0
  6
Continuous
 62
     7
370
    15
100
AcDbLine
 10
959.8388438383928
 20
487.6442098405649
 30
0.0
 11
959.8388438383928
 21
507.6442098405649
 31
0.0
  0
LINE
  5
26A
330
1F
100
AcDbEntity
  8
0
  6
Continuous
 62
     7
370
    15
100
AcDbLine
 10
969.8388438383929
 20
487.6442098405649
 30
0.0
 11
959.8388438383928
 21
487.6442098405649
 31
0.0
  0
LINE
  5
26B
330
1F
100
AcDbEntity
  8
0
  6
Continuous
 62
     7
370
    15
100
AcDbLine
 10
999.8388438383928
 20
507.6442098405646
 30
0.0
 11
999.8388438383928
 21
487.6442098405646
 31
0.0
  0
LINE
  5
26C
330
1F
100
AcDbEntity
  8
0
  6
Continuous
 62
     7
370
    15
100
AcDbLine
 10
989.8388438383928
 20
507.6442098405646
 30
0.0
 11
999.8388438383928
 21
507.6442098405646
 31
0.0
  0
LINE
  5
26D
330
1F
100
AcDbEntity
  8
0
  6
Continuous
 62
     7
370
    15
100
AcDbLine
 10
989.8388438383928
 20
487.6442098405646
 30
0.0
 11
989.8388438383928
 21
507.6442098405646
 31
0.0
  0
LINE
  5
26E
330
1F
100
AcDbEntity
  8
0
  6
Continuous
 62
     7
370
    15
100
AcDbLine
 10
999.8388438383928
 20
487.6442098405646
 30
0.0
 11
989.8388438383928
 21
487.6442098405646
 31
0.0
  0
LINE
  5
26F
330
1F
100
AcDbEntity
  8
0
  6
Continuous
 62
     7
370
    15
100
AcDbLine
 10
1029.838843838392
 20
507.6442098405642
 30
0.0
 11
1029.838843838392
 21
487.6442098405643
 31
0.0
  0
LINE
  5
270
330
1F
100
AcDbEntity
  8
0
  6
Continuous
 62
     7
370
    15
100
AcDbLine
 10
1019.838843838392
 20
507.6442098405642
 30
0.0
 11
1029.838843838392
 21
507.6442098405642
 31
0.0
  0
LINE
  5
271
330
1F
100
AcDbEntity
  8
0
  6
Continuous
 62
     7
370
    15
100
AcDbLine
 10
1019.838843838392
 20
487.6442098405643
 30
0.0
 11
1019.838843838392
 21
507.6442098405642
 31
0.0
  0
LINE
  5
272
330
1F
100
AcDbEntity
  8
0
  6
Continuous
 62
     7
370
    15
100
AcDbLine
 10
1029.838843838392
 20
487.6442098405643
 30
0.0
 11
1019.838843838392
 21
487.6442098405643
 31
0.0
  0
LINE
  5
273
330
1F
100
AcDbEntity
  8
0
  6
Continuous
 62
     7
370
    15
100
AcDbLine
 10
1059.838843838393
 20
507.644209840564
 30
0.0
 11
1059.838843838393
 21
487.644209840564
 31
0.0
  0
LINE
  5
274
330
1F
100
AcDbEntity
  8
0
  6
Continuous
 62
     7
370
    15
100
AcDbLine
 10
1049.838843838392
 20
507.644209840564
 30
0.0
 11
1059.838843838393
 21
507.644209840564
 31
0.0
  0
LINE
  5
275
330
1F
100
AcDbEntity
  8
0
  6
Continuous
 62
     7
370
    15
100
AcDbLine
 10
1049.838843838392
 20
487.644209840564
 30
0.0
 11
1049.838843838392
 21
507.644209840564
 31
0.0
  0
LINE
  5
276
330
1F
100
AcDbEntity
  8
0
  6
Continuous
 62
     7
370
    15
100
AcDbLine
 10
1059.838843838393
 20
487.644209840564
 30
0.0
 11
1049.838843838392
 21
487.644209840564
 31
0.0
  0
LINE
  5
277
330
1F
100
AcDbEntity
  8
0
  6
Continuous
 62
     7
370
    15
100
AcDbLine
 10
1089.838843838393
 20
507.6442098405637
 30
0.0
 11
1089.838843838393
 21
487.6442098405637
 31
0.0
  0
LINE
  5
278
330
1F
100
AcDbEntity
  8
0
  6
Continuous
 62
     7
370
    15
100
AcDbLine
 10
1079.838843838393
 20
507.6442098405637
 30
0.0
 11
1089.838843838393
 21
507.6442098405637
 31
0.0
  0
LINE
  5
279
330
1F
100
AcDbEntity
  8
0
  6
Continuous
 62
     7
370
    15
100
AcDbLine
 10
1079.838843838393
 20
487.6442098405637
 30
0.0
 11
1079.838843838393
 21
507.6442098405637
 31
0.0
  0
LINE
  5
27A
330
1F
100
AcDbEntity
  8
0
  6
Continuous
 62
     7
370
    15
100
AcDbLine
 10
1089.838843838393
 20
487.6442098405637
 30
0.0
 11
1079.838843838393
 21
487.6442098405637
 31
0.0
  0
LINE
  5
27B
330
1F
100
AcDbEntity
  8
0
  6
Continuous
 62
     7
370
    15
100
AcDbLine
 10
1119.838843838393
 20
507.6442098405633
 30
0.0
 11
1119.838843838393
 21
487.6442098405633
 31
0.0
  0
LINE
  5
27C
330
1F
100
AcDbEntity
  8
0
  6
Continuous
 62
     7
370
    15
100
AcDbLine
 10
1109.838843838393
 20
507.6442098405633
 30
0.0
 11
1119.838843838393
 21
507.6442098405633
 31
0.0
  0
LINE
  5
27D
330
1F
100
AcDbEntity
  8
0
  6
Continuous
 62
     7
370
    15
100
AcDbLine
 10
1109.838843838393
 20
487.6442098405633
 30
0.0
 11
1109.838843838393
 21
507.6442098405633
 31
0.0
  0
LINE
  5
27E
330
1F
100
AcDbEntity
  8
0
  6
Continuous
 62
     7
370
    15
100
AcDbLine
 10
1119.838843838393
 20
487.6442098405633
 30
0.0
 11
1109.838843838393
 21
487.6442098405633
 31
0.0
  0
LINE
  5
27F
330
1F
100
AcDbEntity
  8
0
  6
Continuous
 62
     7
370
    15
100
AcDbLine
 10
1149.838843838393
 20
507.6442098405631
 30
0.0
 11
1149.838843838392
 21
487.6442098405631
 31
0.0
  0
LINE
  5
280
330
1F
100
AcDbEntity
  8
0
  6
Continuous
 62
     7
370
    15
100
AcDbLine
 10
1139.838843838393
 20
507.6442098405631
 30
0.0
 11
1149.838843838393
 21
507.6442098405631
 31
0.0
  0
LINE
  5
281
330
1F
100
AcDbEntity
  8
0
  6
Continuous
 62
     7
370
    15
100
AcDbLine
 10
1139.838843838393
 20
487.6442098405631
 30
0.0
 11
1139.838843838393
 21
507.6442098405631
 31
0.0
  0
LINE
  5
282
330
1F
100
AcDbEntity
  8
0
  6
Continuous
 62
     7
370
    15
100
AcDbLine
 10
1149.838843838392
 20
487.6442098405631
 30
0.0
 11
1139.838843838393
 21
487.6442098405631
 31
0.0
  0
LINE
  5
283
330
1F
100
AcDbEntity
  8
0
  6
Continuous
 62
     7
370
    15
100
AcDbLine
 10
1179.838843838393
 20
507.6442098405627
 30
0.0
 11
1179.838843838393
 21
487.6442098405627
 31
0.0
  0
LINE
  5
284
330
1F
100
AcDbEntity
  8
0
  6
Continuous
 62
     7
370
    15
100
AcDbLine
 10
1169.838843838393
 20
507.6442098405627
 30
0.0
 11
1179.838843838393
 21
507.6442098405627
 31
0.0
  0
LINE
  5
285
330
1F
100
AcDbEntity
  8
0
  6
Continuous
 62
     7
370
    15
100
AcDbLine
 10
1169.838843838393
 20
487.6442098405627
 30
0.0
 11
1169.838843838393
 21
507.6442098405627
 31
0.0
  0
LINE
  5
286
330
1F
100
AcDbEntity
  8
0
  6
Continuous
 62
     7
370
    15
100
AcDbLine
 10
1179.838843838393
 20
487.6442098405627
 30
0.0
 11
1169.838843838393
 21
487.6442098405627
 31
0.0
  0
LINE
  5
287
330
1F
100
AcDbEntity
  8
0
  6
Continuous
 62
     7
370
    15
100
AcDbLine
 10
1209.838843838393
 20
507.6442098405624
 30
0.0
 11
1209.838843838393
 21
487.6442098405624
 31
0.0
  0
LINE
  5
288
330
1F
100
AcDbEntity
  8
0
  6
Continuous
 62
     7
370
    15
100
AcDbLine
 10
1199.838843838392
 20
507.6442098405624
 30
0.0
 11
1209.838843838393
 21
507.6442098405624
 31
0.0
  0
LINE
  5
289
330
1F
100
AcDbEntity
  8
0
  6
Continuous
 62
     7
370
    15
100
AcDbLine
 10
1199.838843838392
 20
487.6442098405624
 30
0.0
 11
1199.838843838392
 21
507.6442098405624
 31
0.0
  0
LINE
  5
28A
330
1F
100
AcDbEntity
  8
0
  6
Continuous
 62
     7
370
    15
100
AcDbLine
 10
1209.838843838393
 20
487.6442098405624
 30
0.0
 11
1199.838843838392
 21
487.6442098405624
 31
0.0
  0
LINE
  5
28B
330
1F
100
AcDbEntity
  8
0
  6
Continuous
 62
     7
370
    15
100
AcDbLine
 10
772.9974933477656
 20
443.6615123822575
 30
0.0
 11
870.8046342818525
 21
443.6615123822575
 31
0.0
  0
LINE
  5
28C
330
1F
100
AcDbEntity
  8
0
  6
Continuous
 62
     7
370
    15
100
AcDbLine
 10
772.9974933477656
 20
472.456846914144
 30
0.0
 11
772.9974933477656
 21
443.6615123822575
 31
0.0
  0
LINE
  5
28D
330
1F
100
AcDbEntity
  8
0
  6
Continuous
 62
     7
370
    15
100
AcDbLine
 10
1235.997493347765
 20
472.456846914144
 30
0.0
 11
1235.997493347765
 21
443.6615123822575
 31
0.0
  0
LINE
  5
28E
330
1F
100
AcDbEntity
  8
0
  6
Continuous
 62
     7
370
    15
100
AcDbLine
 10
1138.190352413678
 20
443.6615123822575
 30
0.0
 11
1235.997493347765
 21
443.6615123822575
 31
0.0
  0
LINE
  5
28F
330
1F
100
AcDbEntity
  8
0
  6
Continuous
 62
     7
370
    15
100
AcDbLine
 10
1214.838843838393
 20
407.6442098405623
 30
0.0
 11
1224.838843838393
 21
407.6442098405623
 31
0.0
  0
LINE
  5
290
330
1F
100
AcDbEntity
  8
0
  6
Continuous
 62
     7
370
    15
100
AcDbLine
 10
1224.838843838393
 20
407.6442098405623
 30
0.0
 11
1224.838843838393
 21
427.6442098405623
 31
0.0
  0
LINE
  5
291
330
1F
100
AcDbEntity
  8
0
  6
Continuous
 62
     7
370
    15
100
AcDbLine
 10
1224.838843838393
 20
427.6442098405623
 30
0.0
 11
1214.838843838393
 21
427.6442098405623
 31
0.0
  0
LINE
  5
292
330
1F
100
AcDbEntity
  8
0
  6
Continuous
 62
     7
370
    15
100
AcDbLine
 10
1214.838843838393
 20
427.6442098405623
 30
0.0
 11
1214.838843838393
 21
407.6442098405623
 31
0.0
  0
LINE
  5
293
330
1F
100
AcDbEntity
  8
0
  6
Continuous
 62
     7
370
    15
100
AcDbLine
 10
1184.838843838392
 20
407.6442098405625
 30
0.0
 11
1194.838843838392
 21
407.6442098405625
 31
0.0
  0
LINE
  5
294
330
1F
100
AcDbEntity
  8
0
  6
Continuous
 62
     7
370
    15
100
AcDbLine
 10
1194.838843838392
 20
407.6442098405625
 30
0.0
 11
1194.838843838392
 21
427.6442098405626
 31
0.0
  0
LINE
  5
295
330
1F
100
AcDbEntity
  8
0
  6
Continuous
 62
     7
370
    15
100
AcDbLine
 10
1194.838843838392
 20
427.6442098405626
 30
0.0
 11
1184.838843838392
 21
427.6442098405626
 31
0.0
  0
LINE
  5
296
330
1F
100
AcDbEntity
  8
0
  6
Continuous
 62
     7
370
    15
100
AcDbLine
 10
1184.838843838392
 20
427.6442098405626
 30
0.0
 11
1184.838843838392
 21
407.6442098405625
 31
0.0
  0
LINE
  5
297
330
1F
100
AcDbEntity
  8
0
  6
Continuous
 62
     7
370
    15
100
AcDbLine
 10
1154.838843838392
 20
407.6442098405628
 30
0.0
 11
1164.838843838392
 21
407.6442098405628
 31
0.0
  0
LINE
  5
298
330
1F
100
AcDbEntity
  8
0
  6
Continuous
 62
     7
370
    15
100
AcDbLine
 10
1164.838843838392
 20
407.6442098405628
 30
0.0
 11
1164.838843838392
 21
427.6442098405629
 31
0.0
  0
LINE
  5
299
330
1F
100
AcDbEntity
  8
0
  6
Continuous
 62
     7
370
    15
100
AcDbLine
 10
1164.838843838392
 20
427.6442098405629
 30
0.0
 11
1154.838843838392
 21
427.6442098405629
 31
0.0
  0
LINE
  5
29A
330
1F
100
AcDbEntity
  8
0
  6
Continuous
 62
     7
370
    15
100
AcDbLine
 10
1154.838843838392
 20
427.6442098405629
 30
0.0
 11
1154.838843838392
 21
407.6442098405628
 31
0.0
  0
LINE
  5
29B
330
1F
100
AcDbEntity
  8
0
  6
Continuous
 62
     7
370
    15
100
AcDbLine
 10
1124.838843838393
 20
407.6442098405632
 30
0.0
 11
1134.838843838393
 21
407.6442098405632
 31
0.0
  0
LINE
  5
29C
330
1F
100
AcDbEntity
  8
0
  6
Continuous
 62
     7
370
    15
100
AcDbLine
 10
1134.838843838393
 20
407.6442098405632
 30
0.0
 11
1134.838843838393
 21
427.6442098405632
 31
0.0
  0
LINE
  5
29D
330
1F
100
AcDbEntity
  8
0
  6
Continuous
 62
     7
370
    15
100
AcDbLine
 10
1134.838843838393
 20
427.6442098405632
 30
0.0
 11
1124.838843838393
 21
427.6442098405632
 31
0.0
  0
LINE
  5
29E
330
1F
100
AcDbEntity
  8
0
  6
Continuous
 62
     7
370
    15
100
AcDbLine
 10
1124.838843838393
 20
427.6442098405632
 30
0.0
 11
1124.838843838393
 21
407.6442098405632
 31
0.0
  0
LINE
  5
29F
330
1F
100
AcDbEntity
  8
0
  6
Continuous
 62
     7
370
    15
100
AcDbLine
 10
1094.838843838393
 20
407.6442098405635
 30
0.0
 11
1104.838843838393
 21
407.6442098405635
 31
0.0
  0
LINE
  5
2A0
330
1F
100
AcDbEntity
  8
0
  6
Continuous
 62
     7
370
    15
100
AcDbLine
 10
1104.838843838393
 20
407.6442098405635
 30
0.0
 11
1104.838843838393
 21
427.6442098405635
 31
0.0
  0
LINE
  5
2A1
330
1F
100
AcDbEntity
  8
0
  6
Continuous
 62
     7
370
    15
100
AcDbLine
 10
1104.838843838393
 20
427.6442098405635
 30
0.0
 11
1094.838843838393
 21
427.6442098405635
 31
0.0
  0
LINE
  5
2A2
330
1F
100
AcDbEntity
  8
0
  6
Continuous
 62
     7
370
    15
100
AcDbLine
 10
1094.838843838393
 20
427.6442098405635
 30
0.0
 11
1094.838843838393
 21
407.6442098405635
 31
0.0
  0
LINE
  5
2A3
330
1F
100
AcDbEntity
  8
0
  6
Continuous
 62
     7
370
    15
100
AcDbLine
 10
1064.838843838393
 20
407.6442098405638
 30
0.0
 11
1074.838843838393
 21
407.6442098405638
 31
0.0
  0
LINE
  5
2A4
330
1F
100
AcDbEntity
  8
0
  6
Continuous
 62
     7
370
    15
100
AcDbLine
 10
1074.838843838393
 20
407.6442098405638
 30
0.0
 11
1074.838843838393
 21
427.6442098405638
 31
0.0
  0
LINE
  5
2A5
330
1F
100
AcDbEntity
  8
0
  6
Continuous
 62
     7
370
    15
100
AcDbLine
 10
1074.838843838393
 20
427.6442098405638
 30
0.0
 11
1064.838843838393
 21
427.6442098405638
 31
0.0
  0
LINE
  5
2A6
330
1F
100
AcDbEntity
  8
0
  6
Continuous
 62
     7
370
    15
100
AcDbLine
 10
1064.838843838393
 20
427.6442098405638
 30
0.0
 11
1064.838843838393
 21
407.6442098405638
 31
0.0
  0
LINE
  5
2A7
330
1F
100
AcDbEntity
  8
0
  6
Continuous
 62
     7
370
    15
100
AcDbLine
 10
1034.838843838392
 20
407.6442098405641
 30
0.0
 11
1044.838843838393
 21
407.6442098405641
 31
0.0
  0
LINE
  5
2A8
330
1F
100
AcDbEntity
  8
0
  6
Continuous
 62
     7
370
    15
100
AcDbLine
 10
1044.838843838393
 20
407.6442098405641
 30
0.0
 11
1044.838843838393
 21
427.6442098405642
 31
0.0
  0
LINE
  5
2A9
330
1F
100
AcDbEntity
  8
0
  6
Continuous
 62
     7
370
    15
100
AcDbLine
 10
1044.838843838393
 20
427.6442098405642
 30
0.0
 11
1034.838843838392
 21
427.6442098405642
 31
0.0
  0
LINE
  5
2AA
330
1F
100
AcDbEntity
  8
0
  6
Continuous
 62
     7
370
    15
100
AcDbLine
 10
1034.838843838392
 20
427.6442098405642
 30
0.0
 11
1034.838843838392
 21
407.6442098405641
 31
0.0
  0
LINE
  5
2AB
330
1F
100
AcDbEntity
  8
0
  6
Continuous
 62
     7
370
    15
100
AcDbLine
 10
1004.838843838393
 20
407.6442098405644
 30
0.0
 11
1014.838843838393
 21
407.6442098405644
 31
0.0
  0
LINE
  5
2AC
330
1F
100
AcDbEntity
  8
0
  6
Continuous
 62
     7
370
    15
100
AcDbLine
 10
1014.838843838393
 20
407.6442098405644
 30
0.0
 11
1014.838843838393
 21
427.6442098405644
 31
0.0
  0
LINE
  5
2AD
330
1F
100
AcDbEntity
  8
0
  6
Continuous
 62
     7
370
    15
100
AcDbLine
 10
1014.838843838393
 20
427.6442098405644
 30
0.0
 11
1004.838843838393
 21
427.6442098405644
 31
0.0
  0
LINE
  5
2AE
330
1F
100
AcDbEntity
  8
0
  6
Continuous
 62
     7
370
    15
100
AcDbLine
 10
1004.838843838393
 20
427.6442098405644
 30
0.0
 11
1004.838843838393
 21
407.6442098405644
 31
0.0
  0
LINE
  5
2AF
330
1F
100
AcDbEntity
  8
0
  6
Continuous
 62
     7
370
    15
100
AcDbLine
 10
974.8388438383928
 20
407.6442098405648
 30
0.0
 11
984.8388438383929
 21
407.6442098405648
 31
0.0
  0
LINE
  5
2B0
330
1F
100
AcDbEntity
  8
0
  6
Continuous
 62
     7
370
    15
100
AcDbLine
 10
984.8388438383929
 20
407.6442098405648
 30
0.0
 11
984.8388438383926
 21
427.6442098405648
 31
0.0
  0
LINE
  5
2B1
330
1F
100
AcDbEntity
  8
0
  6
Continuous
 62
     7
370
    15
100
AcDbLine
 10
984.8388438383926
 20
427.6442098405648
 30
0.0
 11
974.8388438383928
 21
427.6442098405648
 31
0.0
  0
LINE
  5
2B2
330
1F
100
AcDbEntity
  8
0
  6
Continuous
 62
     7
370
    15
100
AcDbLine
 10
974.8388438383928
 20
427.6442098405648
 30
0.0
 11
974.8388438383928
 21
407.6442098405648
 31
0.0
  0
LINE
  5
2B3
330
1F
100
AcDbEntity
  8
0
  6
Continuous
 62
     7
370
    15
100
AcDbLine
 10
944.8388438383927
 20
407.644209840565
 30
0.0
 11
954.8388438383927
 21
407.644209840565
 31
0.0
  0
LINE
  5
2B4
330
1F
100
AcDbEntity
  8
0
  6
Continuous
 62
     7
370
    15
100
AcDbLine
 10
954.8388438383927
 20
407.644209840565
 30
0.0
 11
954.8388438383927
 21
427.6442098405651
 31
0.0
  0
LINE
  5
2B5
330
1F
100
AcDbEntity
  8
0
  6
Continuous
 62
     7
370
    15
100
AcDbLine
 10
954.8388438383927
 20
427.6442098405651
 30
0.0
 11
944.8388438383927
 21
427.6442098405651
 31
0.0
  0
LINE
  5
2B6
330
1F
100
AcDbEntity
  8
0
  6
Continuous
 62
     7
370
    15
100
AcDbLine
 10
944.8388438383927
 20
427.6442098405651
 30
0.0
 11
944.8388438383927
 21
407.644209840565
 31
0.0
  0
LINE
  5
2B7
330
1F
100
AcDbEntity
  8
0
  6
Continuous
 62
     7
370
    15
100
AcDbLine
 10
914.8388438383928
 20
407.6442098405654
 30
0.0
 11
924.8388438383928
 21
407.6442098405654
 31
0.0
  0
LINE
  5
2B8
330
1F
100
AcDbEntity
  8
0
  6
Continuous
 62
     7
370
    15
100
AcDbLine
 10
924.8388438383928
 20
407.6442098405654
 30
0.0
 11
924.8388438383928
 21
427.6442098405654
 31
0.0
  0
LINE
  5
2B9
330
1F
100
AcDbEntity
  8
0
  6
Continuous
 62
     7
370
    15
100
AcDbLine
 10
924.8388438383928
 20
427.6442098405654
 30
0.0
 11
914.8388438383928
 21
427.6442098405654
 31
0.0
  0
LINE
  5
2BA
330
1F
100
AcDbEntity
  8
0
  6
Continuous
 62
     7
370
    15
100
AcDbLine
 10
914.8388438383928
 20
427.6442098405654
 30
0.0
 11
914.8388438383928
 21
407.6442098405654
 31
0.0
  0
LINE
  5
2BB
330
1F
100
AcDbEntity
  8
0
  6
Continuous
 62
     7
370
    15
100
AcDbLine
 10
884.8388438383929
 20
407.6442098405657
 30
0.0
 11
894.8388438383929
 21
407.6442098405657
 31
0.0
  0
LINE
  5
2BC
330
1F
100
AcDbEntity
  8
0
  6
Continuous
 62
     7
370
    15
100
AcDbLine
 10
894.8388438383929
 20
407.6442098405657
 30
0.0
 11
894.8388438383927
 21
427.6442098405657
 31
0.0
  0
LINE
  5
2BD
330
1F
100
AcDbEntity
  8
0
  6
Continuous
 62
     7
370
    15
100
AcDbLine
 10
894.8388438383927
 20
427.6442098405657
 30
0.0
 11
884.8388438383929
 21
427.6442098405657
 31
0.0
  0
LINE
  5
2BE
330
1F
100
AcDbEntity
  8
0
  6
Continuous
 62
     7
370
    15
100
AcDbLine
 10
884.8388438383929
 20
427.6442098405657
 30
0.0
 11
884.8388438383929
 21
407.6442098405657
 31
0.0
  0
LINE
  5
2BF
330
1F
100
AcDbEntity
  8
0
  6
Continuous
 62
     7
370
    15
100
AcDbLine
 10
854.8388438383929
 20
407.644209840566
 30
0.0
 11
864.8388438383928
 21
407.644209840566
 31
0.0
  0
LINE
  5
2C0
330
1F
100
AcDbEntity
  8
0
  6
Continuous
 62
     7
370
    15
100
AcDbLine
 10
864.8388438383928
 20
407.644209840566
 30
0.0
 11
864.8388438383928
 21
427.644209840566
 31
0.0
  0
LINE
  5
2C1
330
1F
100
AcDbEntity
  8
0
  6
Continuous
 62
     7
370
    15
100
AcDbLine
 10
864.8388438383928
 20
427.644209840566
 30
0.0
 11
854.8388438383929
 21
427.644209840566
 31
0.0
  0
LINE
  5
2C2
330
1F
100
AcDbEntity
  8
0
  6
Continuous
 62
     7
370
    15
100
AcDbLine
 10
854.8388438383929
 20
427.644209840566
 30
0.0
 11
854.8388438383929
 21
407.644209840566
 31
0.0
  0
LINE
  5
2C3
330
1F
100
AcDbEntity
  8
0
  6
Continuous
 62
     7
370
    15
100
AcDbLine
 10
824.8388438383928
 20
407.6442098405663
 30
0.0
 11
834.8388438383928
 21
407.6442098405663
 31
0.0
  0
LINE
  5
2C4
330
1F
100
AcDbEntity
  8
0
  6
Continuous
 62
     7
370
    15
100
AcDbLine
 10
834.8388438383928
 20
407.6442098405663
 30
0.0
 11
834.8388438383928
 21
427.6442098405663
 31
0.0
  0
LINE
  5
2C5
330
1F
100
AcDbEntity
  8
0
  6
Continuous
 62
     7
370
    15
100
AcDbLine
 10
834.8388438383928
 20
427.6442098405663
 30
0.0
 11
824.8388438383928
 21
427.6442098405663
 31
0.0
  0
LINE
  5
2C6
330
1F
100
AcDbEntity
  8
0
  6
Continuous
 62
     7
370
    15
100
AcDbLine
 10
824.8388438383928
 20
427.6442098405663
 30
0.0
 11
824.8388438383928
 21
407.6442098405663
 31
0.0
  0
LINE
  5
2C7
330
1F
100
AcDbEntity
  8
0
  6
Continuous
 62
     7
370
    15
100
AcDbLine
 10
794.8388438383927
 20
407.6442098405666
 30
0.0
 11
804.8388438383929
 21
407.6442098405666
 31
0.0
  0
LINE
  5
2C8
330
1F
100
AcDbEntity
  8
0
  6
Continuous
 62
     7
370
    15
100
AcDbLine
 10
804.8388438383929
 20
407.6442098405666
 30
0.0
 11
804.8388438383929
 21
427.6442098405667
 31
0.0
  0
LINE
  5
2C9
330
1F
100
AcDbEntity
  8
0
  6
Continuous
 62
     7
370
    15
100
AcDbLine
 10
804.8388438383929
 20
427.6442098405667
 30
0.0
 11
794.8388438383927
 21
427.6442098405667
 31
0.0
  0
LINE
  5
2CA
330
1F
100
AcDbEntity
  8
0
  6
Continuous
 62
     7
370
    15
100
AcDbLine
 10
794.8388438383927
 20
427.6442098405667
 30
0.0
 11
794.8388438383927
 21
407.6442098405666
 31
0.0
  0
LINE
  5
2CB
330
1F
100
AcDbEntity
  8
0
  6
Continuous
 62
     7
370
    15
100
AcDbLine
 10
772.9974933477656
 20
403.0591796482008
 30
0.0
 11
1235.997493347765
 21
403.0591796482008
 31
0.0
  0
LINE
  5
2CC
330
1F
100
AcDbEntity
  8
0
  6
Continuous
 62
     7
370
    15
100
AcDbLine
 10
772.9974933477656
 20
403.0591796482008
 30
0.0
 11
772.9974933477656
 21
443.6615123822575
 31
0.0
  0
LINE
  5
2CD
330
1F
100
AcDbEntity
  8
0
  6
Continuous
 62
     7
370
    15
100
AcDbLine
 10
1235.997493347765
 20
403.0591796482008
 30
0.0
 11
1235.997493347765
 21
443.6615123822575
 31
0.0
  0
LINE
  5
2CE
330
1F
100
AcDbEntity
  8
0
  6
Continuous
 62
     7
370
    15
100
AcDbLine
 10
779.8388438383928
 20
407.6442098405668
 30
0.0
 11
789.8388438383928
 21
407.6442098405668
 31
0.0
  0
LINE
  5
2CF
330
1F
100
AcDbEntity
  8
0
  6
Continuous
 62
     7
370
    15
100
AcDbLine
 10
789.8388438383928
 20
407.6442098405668
 30
0.0
 11
789.8388438383928
 21
427.6442098405668
 31
0.0
  0
LINE
  5
2D0
330
1F
100
AcDbEntity
  8
0
  6
Continuous
 62
     7
370
    15
100
AcDbLine
 10
789.8388438383928
 20
427.6442098405668
 30
0.0
 11
779.8388438383928
 21
427.6442098405668
 31
0.0
  0
LINE
  5
2D1
330
1F
100
AcDbEntity
  8
0
  6
Continuous
 62
     7
370
    15
100
AcDbLine
 10
779.8388438383928
 20
427.6442098405668
 30
0.0
 11
779.8388438383928
 21
407.6442098405668
 31
0.0
  0
LINE
  5
2D2
330
1F
100
AcDbEntity
  8
0
  6
Continuous
 62
     7
370
    15
100
AcDbLine
 10
809.8388438383929
 20
407.6442098405665
 30
0.0
 11
819.8388438383929
 21
407.6442098405665
 31
0.0
  0
LINE
  5
2D3
330
1F
100
AcDbEntity
  8
0
  6
Continuous
 62
     7
370
    15
100
AcDbLine
 10
819.8388438383929
 20
407.6442098405665
 30
0.0
 11
819.8388438383929
 21
427.6442098405665
 31
0.0
  0
LINE
  5
2D4
330
1F
100
AcDbEntity
  8
0
  6
Continuous
 62
     7
370
    15
100
AcDbLine
 10
819.8388438383929
 20
427.6442098405665
 30
0.0
 11
809.8388438383929
 21
427.6442098405665
 31
0.0
  0
LINE
  5
2D5
330
1F
100
AcDbEntity
  8
0
  6
Continuous
 62
     7
370
    15
100
AcDbLine
 10
809.8388438383929
 20
427.6442098405665
 30
0.0
 11
809.8388438383929
 21
407.6442098405665
 31
0.0
  0
LINE
  5
2D6
330
1F
100
AcDbEntity
  8
0
  6
Continuous
 62
     7
370
    15
100
AcDbLine
 10
839.8388438383928
 20
407.6442098405662
 30
0.0
 11
849.8388438383928
 21
407.6442098405662
 31
0.0
  0
LINE
  5
2D7
330
1F
100
AcDbEntity
  8
0
  6
Continuous
 62
     7
370
    15
100
AcDbLine
 10
849.8388438383928
 20
407.6442098405662
 30
0.0
 11
849.8388438383928
 21
427.6442098405662
 31
0.0
  0
LINE
  5
2D8
330
1F
100
AcDbEntity
  8
0
  6
Continuous
 62
     7
370
    15
100
AcDbLine
 10
849.8388438383928
 20
427.6442098405662
 30
0.0
 11
839.8388438383928
 21
427.6442098405662
 31
0.0
  0
LINE
  5
2D9
330
1F
100
AcDbEntity
  8
0
  6
Continuous
 62
     7
370
    15
100
AcDbLine
 10
839.8388438383928
 20
427.6442098405662
 30
0.0
 11
839.8388438383928
 21
407.6442098405662
 31
0.0
  0
LINE
  5
2DA
330
1F
100
AcDbEntity
  8
0
  6
Continuous
 62
     7
370
    15
100
AcDbLine
 10
869.8388438383929
 20
407.6442098405658
 30
0.0
 11
879.8388438383929
 21
407.6442098405658
 31
0.0
  0
LINE
  5
2DB
330
1F
100
AcDbEntity
  8
0
  6
Continuous
 62
     7
370
    15
100
AcDbLine
 10
879.8388438383929
 20
407.6442098405658
 30
0.0
 11
879.8388438383927
 21
427.6442098405659
 31
0.0
  0
LINE
  5
2DC
330
1F
100
AcDbEntity
  8
0
  6
Continuous
 62
     7
370
    15
100
AcDbLine
 10
879.8388438383927
 20
427.6442098405659
 30
0.0
 11
869.8388438383929
 21
427.6442098405659
 31
0.0
  0
LINE
  5
2DD
330
1F
100
AcDbEntity
  8
0
  6
Continuous
 62
     7
370
    15
100
AcDbLine
 10
869.8388438383929
 20
427.6442098405659
 30
0.0
 11
869.8388438383929
 21
407.6442098405658
 31
0.0
  0
LINE
  5
2DE
330
1F
100
AcDbEntity
  8
0
  6
Continuous
 62
     7
370
    15
100
AcDbLine
 10
899.8388438383928
 20
407.6442098405656
 30
0.0
 11
909.8388438383928
 21
407.6442098405656
 31
0.0
  0
LINE
  5
2DF
330
1F
100
AcDbEntity
  8
0
  6
Continuous
 62
     7
370
    15
100
AcDbLine
 10
909.8388438383928
 20
407.6442098405656
 30
0.0
 11
909.8388438383928
 21
427.6442098405656
 31
0.0
  0
LINE
  5
2E0
330
1F
100
AcDbEntity
  8
0
  6
Continuous
 62
     7
370
    15
100
AcDbLine
 10
909.8388438383928
 20
427.6442098405656
 30
0.0
 11
899.8388438383928
 21
427.6442098405656
 31
0.0
  0
LINE
  5
2E1
330
1F
100
AcDbEntity
  8
0
  6
Continuous
 62
     7
370
    15
100
AcDbLine
 10
899.8388438383928
 20
427.6442098405656
 30
0.0
 11
899.8388438383928
 21
407.6442098405656
 31
0.0
  0
LINE
  5
2E2
330
1F
100
AcDbEntity
  8
0
  6
Continuous
 62
     7
370
    15
100
AcDbLine
 10
929.8388438383929
 20
407.6442098405652
 30
0.0
 11
939.8388438383928
 21
407.6442098405652
 31
0.0
  0
LINE
  5
2E3
330
1F
100
AcDbEntity
  8
0
  6
Continuous
 62
     7
370
    15
100
AcDbLine
 10
939.8388438383928
 20
407.6442098405652
 30
0.0
 11
939.8388438383928
 21
427.6442098405652
 31
0.0
  0
LINE
  5
2E4
330
1F
100
AcDbEntity
  8
0
  6
Continuous
 62
     7
370
    15
100
AcDbLine
 10
939.8388438383928
 20
427.6442098405652
 30
0.0
 11
929.8388438383929
 21
427.6442098405652
 31
0.0
  0
LINE
  5
2E5
330
1F
100
AcDbEntity
  8
0
  6
Continuous
 62
     7
370
    15
100
AcDbLine
 10
929.8388438383929
 20
427.6442098405652
 30
0.0
 11
929.8388438383929
 21
407.6442098405652
 31
0.0
  0
LINE
  5
2E6
330
1F
100
AcDbEntity
  8
0
  6
Continuous
 62
     7
370
    15
100
AcDbLine
 10
959.8388438383928
 20
407.6442098405649
 30
0.0
 11
969.8388438383929
 21
407.6442098405649
 31
0.0
  0
LINE
  5
2E7
330
1F
100
AcDbEntity
  8
0
  6
Continuous
 62
     7
370
    15
100
AcDbLine
 10
969.8388438383929
 20
407.6442098405649
 30
0.0
 11
969.8388438383927
 21
427.6442098405649
 31
0.0
  0
LINE
  5
2E8
330
1F
100
AcDbEntity
  8
0
  6
Continuous
 62
     7
370
    15
100
AcDbLine
 10
969.8388438383927
 20
427.6442098405649
 30
0.0
 11
959.8388438383928
 21
427.6442098405649
 31
0.0
  0
LINE
  5
2E9
330
1F
100
AcDbEntity
  8
0
  6
Continuous
 62
     7
370
    15
100
AcDbLine
 10
959.8388438383928
 20
427.6442098405649
 30
0.0
 11
959.8388438383928
 21
407.6442098405649
 31
0.0
  0
LINE
  5
2EA
330
1F
100
AcDbEntity
  8
0
  6
Continuous
 62
     7
370
    15
100
AcDbLine
 10
989.8388438383928
 20
407.6442098405646
 30
0.0
 11
999.8388438383928
 21
407.6442098405646
 31
0.0
  0
LINE
  5
2EB
330
1F
100
AcDbEntity
  8
0
  6
Continuous
 62
     7
370
    15
100
AcDbLine
 10
999.8388438383928
 20
407.6442098405646
 30
0.0
 11
999.8388438383928
 21
427.6442098405646
 31
0.0
  0
LINE
  5
2EC
330
1F
100
AcDbEntity
  8
0
  6
Continuous
 62
     7
370
    15
100
AcDbLine
 10
999.8388438383928
 20
427.6442098405646
 30
0.0
 11
989.8388438383928
 21
427.6442098405646
 31
0.0
  0
LINE
  5
2ED
330
1F
100
AcDbEntity
  8
0
  6
Continuous
 62
     7
370
    15
100
AcDbLine
 10
989.8388438383928
 20
427.6442098405646
 30
0.0
 11
989.8388438383928
 21
407.6442098405646
 31
0.0
  0
LINE
  5
2EE
330
1F
100
AcDbEntity
  8
0
  6
Continuous
 62
     7
370
    15
100
AcDbLine
 10
1019.838843838392
 20
407.6442098405643
 30
0.0
 11
1029.838843838392
 21
407.6442098405643
 31
0.0
  0
LINE
  5
2EF
330
1F
100
AcDbEntity
  8
0
  6
Continuous
 62
     7
370
    15
100
AcDbLine
 10
1029.838843838392
 20
407.6442098405643
 30
0.0
 11
1029.838843838392
 21
427.6442098405643
 31
0.0
  0
LINE
  5
2F0
330
1F
100
AcDbEntity
  8
0
  6
Continuous
 62
     7
370
    15
100
AcDbLine
 10
1029.838843838392
 20
427.6442098405643
 30
0.0
 11
1019.838843838392
 21
427.6442098405643
 31
0.0
  0
LINE
  5
2F1
330
1F
100
AcDbEntity
  8
0
  6
Continuous
 62
     7
370
    15
100
AcDbLine
 10
1019.838843838392
 20
427.6442098405643
 30
0.0
 11
1019.838843838392
 21
407.6442098405643
 31
0.0
  0
LINE
  5
2F2
330
1F
100
AcDbEntity
  8
0
  6
Continuous
 62
     7
370
    15
100
AcDbLine
 10
1049.838843838392
 20
407.644209840564
 30
0.0
 11
1059.838843838393
 21
407.644209840564
 31
0.0
  0
LINE
  5
2F3
330
1F
100
AcDbEntity
  8
0
  6
Continuous
 62
     7
370
    15
100
AcDbLine
 10
1059.838843838393
 20
407.644209840564
 30
0.0
 11
1059.838843838393
 21
427.644209840564
 31
0.0
  0
LINE
  5
2F4
330
1F
100
AcDbEntity
  8
0
  6
Continuous
 62
     7
370
    15
100
AcDbLine
 10
1059.838843838393
 20
427.644209840564
 30
0.0
 11
1049.838843838392
 21
427.644209840564
 31
0.0
  0
LINE
  5
2F5
330
1F
100
AcDbEntity
  8
0
  6
Continuous
 62
     7
370
    15
100
AcDbLine
 10
1049.838843838392
 20
427.644209840564
 30
0.0
 11
1049.838843838392
 21
407.644209840564
 31
0.0
  0
LINE
  5
2F6
330
1F
100
AcDbEntity
  8
0
  6
Continuous
 62
     7
370
    15
100
AcDbLine
 10
1079.838843838393
 20
407.6442098405636
 30
0.0
 11
1089.838843838393
 21
407.6442098405636
 31
0.0
  0
LINE
  5
2F7
330
1F
100
AcDbEntity
  8
0
  6
Continuous
 62
     7
370
    15
100
AcDbLine
 10
1089.838843838393
 20
407.6442098405636
 30
0.0
 11
1089.838843838393
 21
427.6442098405636
 31
0.0
  0
LINE
  5
2F8
330
1F
100
AcDbEntity
  8
0
  6
Continuous
 62
     7
370
    15
100
AcDbLine
 10
1089.838843838393
 20
427.6442098405636
 30
0.0
 11
1079.838843838393
 21
427.6442098405636
 31
0.0
  0
LINE
  5
2F9
330
1F
100
AcDbEntity
  8
0
  6
Continuous
 62
     7
370
    15
100
AcDbLine
 10
1079.838843838393
 20
427.6442098405636
 30
0.0
 11
1079.838843838393
 21
407.6442098405636
 31
0.0
  0
LINE
  5
2FA
330
1F
100
AcDbEntity
  8
0
  6
Continuous
 62
     7
370
    15
100
AcDbLine
 10
1109.838843838393
 20
407.6442098405633
 30
0.0
 11
1119.838843838393
 21
407.6442098405633
 31
0.0
  0
LINE
  5
2FB
330
1F
100
AcDbEntity
  8
0
  6
Continuous
 62
     7
370
    15
100
AcDbLine
 10
1119.838843838393
 20
407.6442098405633
 30
0.0
 11
1119.838843838393
 21
427.6442098405634
 31
0.0
  0
LINE
  5
2FC
330
1F
100
AcDbEntity
  8
0
  6
Continuous
 62
     7
370
    15
100
AcDbLine
 10
1119.838843838393
 20
427.6442098405634
 30
0.0
 11
1109.838843838393
 21
427.6442098405634
 31
0.0
  0
LINE
  5
2FD
330
1F
100
AcDbEntity
  8
0
  6
Continuous
 62
     7
370
    15
100
AcDbLine
 10
1109.838843838393
 20
427.6442098405634
 30
0.0
 11
1109.838843838393
 21
407.6442098405633
 31
0.0
  0
LINE
  5
2FE
330
1F
100
AcDbEntity
  8
0
  6
Continuous
 62
     7
370
    15
100
AcDbLine
 10
1139.838843838393
 20
407.6442098405631
 30
0.0
 11
1149.838843838392
 21
407.6442098405631
 31
0.0
  0
LINE
  5
2FF
330
1F
100
AcDbEntity
  8
0
  6
Continuous
 62
     7
370
    15
100
AcDbLine
 10
1149.838843838392
 20
407.6442098405631
 30
0.0
 11
1149.838843838393
 21
427.6442098405631
 31
0.0
  0
LINE
  5
300
330
1F
100
AcDbEntity
  8
0
  6
Continuous
 62
     7
370
    15
100
AcDbLine
 10
1149.838843838393
 20
427.6442098405631
 30
0.0
 11
1139.838843838393
 21
427.6442098405631
 31
0.0
  0
LINE
  5
301
330
1F
100
AcDbEntity
  8
0
  6
Continuous
 62
     7
370
    15
100
AcDbLine
 10
1139.838843838393
 20
427.6442098405631
 30
0.0
 11
1139.838843838393
 21
407.6442098405631
 31
0.0
  0
LINE
  5
302
330
1F
100
AcDbEntity
  8
0
  6
Continuous
 62
     7
370
    15
100
AcDbLine
 10
1169.838843838393
 20
407.6442098405627
 30
0.0
 11
1179.838843838393
 21
407.6442098405627
 31
0.0
  0
LINE
  5
303
330
1F
100
AcDbEntity
  8
0
  6
Continuous
 62
     7
370
    15
100
AcDbLine
 10
1179.838843838393
 20
407.6442098405627
 30
0.0
 11
1179.838843838393
 21
427.6442098405627
 31
0.0
  0
LINE
  5
304
330
1F
100
AcDbEntity
  8
0
  6
Continuous
 62
     7
370
    15
100
AcDbLine
 10
1179.838843838393
 20
427.6442098405627
 30
0.0
 11
1169.838843838393
 21
427.6442098405627
 31
0.0
  0
LINE
  5
305
330
1F
100
AcDbEntity
  8
0
  6
Continuous
 62
     7
370
    15
100
AcDbLine
 10
1169.838843838393
 20
427.6442098405627
 30
0.0
 11
1169.838843838393
 21
407.6442098405627
 31
0.0
  0
LINE
  5
306
330
1F
100
AcDbEntity
  8
0
  6
Continuous
 62
     7
370
    15
100
AcDbLine
 10
1199.838843838392
 20
407.6442098405624
 30
0.0
 11
1209.838843838393
 21
407.6442098405624
 31
0.0
  0
LINE
  5
307
330
1F
100
AcDbEntity
  8
0
  6
Continuous
 62
     7
370
    15
100
AcDbLine
 10
1209.838843838393
 20
407.6442098405624
 30
0.0
 11
1209.838843838393
 21
427.6442098405624
 31
0.0
  0
LINE
  5
308
330
1F
100
AcDbEntity
  8
0
  6
Continuous
 62
     7
370
    15
100
AcDbLine
 10
1209.838843838393
 20
427.6442098405624
 30
0.0
 11
1199.838843838392
 21
427.6442098405624
 31
0.0
  0
LINE
  5
309
330
1F
100
AcDbEntity
  8
0
  6
Continuous
 62
     7
370
    15
100
AcDbLine
 10
1199.838843838392
 20
427.6442098405624
 30
0.0
 11
1199.838843838392
 21
407.6442098405624
 31
0.0
  0
ENDSEC
  0
SECTION
  2
OBJECTS
  0
DICTIONARY
  5
C
330
0
100
AcDbDictionary
281
     1
  3
ACAD_COLOR
350
335
  3
ACAD_GROUP
350
D
  3
ACAD_LAYOUT
350
1A
  3
ACAD_MATERIAL
350
30B
  3
ACAD_MLEADERSTYLE
350
34A
  3
ACAD_MLINESTYLE
350
17
  3
ACAD_PLOTSETTINGS
350
19
  3
ACAD_PLOTSTYLENAME
350
E
  3
ACAD_SCALELIST
350
338
  3
ACAD_TABLESTYLE
350
336
  3
ACAD_VISUALSTYLE
350
324
  3
ACDB_RECOMPOSE_DATA
350
372
  3
AcDbVariableDictionary
350
368
  0
DICTIONARY
  5
366
330
10
100
AcDbDictionary
280
     1
281
     1
  3
ADSK_XREC_LAYER_RECONCILED
360
367
  0
DICTIONARY
  5
335
102
{ACAD_REACTORS
330
C
102
}
330
C
100
AcDbDictionary
281
     1
  0
DICTIONARY
  5
D
102
{ACAD_REACTORS
330
C
102
}
330
C
100
AcDbDictionary
281
     1
  0
DICTIONARY
  5
1A
102
{ACAD_REACTORS
330
C
102
}
330
C
100
AcDbDictionary
281
     1
  3
Layout1
350
1E
  3
Layout2
350
26
  3
Model
350
22
  0
DICTIONARY
  5
30B
102
{ACAD_REACTORS
330
C
102
}
330
C
100
AcDbDictionary
281
     1
  3
ByBlock
350
314
  3
ByLayer
350
30C
  3
Global
350
31C
  0
DICTIONARY
  5
34A
102
{ACAD_REACTORS
330
C
102
}
330
C
100
AcDbDictionary
281
     1
  3
Standard
350
34B
  0
DICTIONARY
  5
17
102
{ACAD_REACTORS
330
C
102
}
330
C
100
AcDbDictionary
281
     1
  3
Standard
350
18
  0
DICTIONARY
  5
19
102
{ACAD_REACTORS
330
C
102
}
330
C
100
AcDbDictionary
281
     1
  0
ACDBDICTIONARYWDFLT
  5
E
102
{ACAD_REACTORS
330
C
102
}
330
C
100
AcDbDictionary
281
     1
  3
Normal
350
F
100
AcDbDictionaryWithDefault
340
F
  0
DICTIONARY
  5
338
102
{ACAD_REACTORS
330
C
102
}
330
C
100
AcDbDictionary
281
     1
  3
A0
350
339
  3
A1
350
33A
  3
A2
350
33B
  3
A3
350
33C
  3
A4
350
33D
  3
A5
350
33E
  3
A6
350
33F
  3
A7
350
340
  3
A8
350
341
  3
A9
350
342
  3
B0
350
343
  3
B1
350
344
  3
B2
350
345
  3
B3
350
346
  3
B4
350
347
  3
B5
350
348
  3
B6
350
349
  0
DICTIONARY
  5
336
102
{ACAD_REACTORS
330
C
102
}
330
C
100
AcDbDictionary
281
     1
  3
Standard
350
337
  0
DICTIONARY
  5
324
102
{ACAD_REACTORS
330
C
102
}
330
C
100
AcDbDictionary
281
     1
  3
2dWireframe
350
32A
  3
3D Hidden
350
32C
  3
3dWireframe
350
32B
  3
Basic
350
329
  3
Brighten
350
330
  3
ColorChange
350
334
  3
Conceptual
350
32D
  3
Dim
350
32F
  3
Facepattern
350
333
  3
Flat
350
325
  3
FlatWithEdges
350
326
  3
Gouraud
350
327
  3
GouraudWithEdges
350
328
  3
Linepattern
350
332
  3
Realistic
350
32E
  3
Thicken
350
331
  0
XRECORD
  5
372
102
{ACAD_REACTORS
330
C
102
}
330
C
100
AcDbXrecord
280
     1
 90
        1
330
337
  0
DICTIONARY
  5
368
102
{ACAD_REACTORS
330
C
102
}
330
C
100
AcDbDictionary
281
     1
  3
CANNOSCALE
350
36C
  3
CMLEADERSTYLE
350
36A
  3
CTABLESTYLE
350
369
  3
LAYEREVAL
350
36E
  3
LAYERNOTIFY
350
36F
  3
LIGHTINGUNITS
350
36D
  3
MSLTSCALE
350
36B
  0
XRECORD
  5
367
102
{ACAD_REACTORS
330
366
102
}
330
366
100
AcDbXrecord
280
     1
290
     1
  0
LAYOUT
  5
1E
102
{ACAD_REACTORS
330
1A
102
}
330
1A
100
AcDbPlotSettings
  1

  2
none_device
  4

  6

 40
0.0
 41
0.0
 42
0.0
 43
0.0
 44
0.0
 45
0.0
 46
0.0
 47
0.0
 48
0.0
 49
0.0
140
0.0
141
0.0
142
1.0
143
1.0
 70
   688
 72
     0
 73
     0
 74
     5
  7

 75
    16
147
1.0
 76
     0
 77
     2
 78
   300
148
0.0
149
0.0
100
AcDbLayout
  1
Layout1
 70
     1
 71
     1
 10
0.0
 20
0.0
 11
420.0
 21
297.0
 12
0.0
 22
0.0
 32
0.0
 14
1.000000000000000E+20
 24
1.000000000000000E+20
 34
1.000000000000000E+20
 15
-1.000000000000000E+20
 25
-1.000000000000000E+20
 35
-1.000000000000000E+20
146
0.0
 13
0.0
 23
0.0
 33
0.0
 16
1.0
 26
0.0
 36
0.0
 17
0.0
 27
1.0
 37
0.0
 76
     0
330
1B
  0
LAYOUT
  5
26
102
{ACAD_REACTORS
330
1A
102
}
330
1A
100
AcDbPlotSettings
  1

  2
none_device
  4

  6

 40
0.0
 41
0.0
 42
0.0
 43
0.0
 44
0.0
 45
0.0
 46
0.0
 47
0.0
 48
0.0
 49
0.0
140
0.0
141
0.0
142
1.0
143
1.0
 70
   688
 72
     0
 73
     0
 74
     5
  7

 75
    16
147
1.0
 76
     0
 77
     2
 78
   300
148
0.0
149
0.0
100
AcDbLayout
  1
Layout2
 70
     1
 71
     2
 10
0.0
 20
0.0
 11
0.0
 21
0.0
 12
0.0
 22
0.0
 32
0.0
 14
0.0
 24
0.0
 34
0.0
 15
0.0
 25
0.0
 35
0.0
146
0.0
 13
0.0
 23
0.0
 33
0.0
 16
1.0
 26
0.0
 36
0.0
 17
0.0
 27
1.0
 37
0.0
 76
     0
330
23
  0
LAYOUT
  5
22
102
{ACAD_REACTORS
330
1A
102
}
330
1A
100
AcDbPlotSettings
  1

  2
none_device
  4

  6

 40
0.0
 41
0.0
 42
0.0
 43
0.0
 44
0.0
 45
0.0
 46
0.0
 47
0.0
 48
0.0
 49
0.0
140
0.0
141
0.0
142
1.0
143
1.0
 70
  1712
 72
     0
 73
     0
 74
     0
  7

 75
     0
147
1.0
 76
     0
 77
     2
 78
   300
148
0.0
149
0.0
100
AcDbLayout
  1
Model
 70
     1
 71
     0
 10
0.0
 20
0.0
 11
1397.0
 21
1079.5
 12
0.0
 22
0.0
 32
0.0
 14
0.0
 24
0.0
 34
0.0
 15
1397.0
 25
1079.5
 35
0.0
146
0.0
 13
0.0
 23
0.0
 33
0.0
 16
1.0
 26
0.0
 36
0.0
 17
0.0
 27
1.0
 37
0.0
 76
     0
330
1F
331
29
  0
MATERIAL
  5
314
102
{ACAD_XDICTIONARY
360
315
102
}
102
{ACAD_REACTORS
330
30B
102
}
330
30B
100
AcDbMaterial
  1
ByBlock
 72
     0
 43
0.0008202099737533
 43
0.0
 43
0.0
 43
0.0
 43
0.0
 43
0.0008202099737533
 43
0.0
 43
0.0
 43
0.0
 43
0.0
 43
1.0
 43
0.0
 43
0.0
 43
0.0
 43
0.0
 43
1.0
 77
     0
 47
0.0008202099737533
 47
0.0
 47
0.0
 47
0.0
 47
0.0
 47
0.0008202099737533
 47
0.0
 47
0.0
 47
0.0
 47
0.0
 47
1.0
 47
0.0
 47
0.0
 47
0.0
 47
0.0
 47
1.0
171
     0
 49
0.0008202099737533
 49
0.0
 49
0.0
 49
0.0
 49
0.0
 49
0.0008202099737533
 49
0.0
 49
0.0
 49
0.0
 49
0.0
 49
1.0
 49
0.0
 49
0.0
 49
0.0
 49
0.0
 49
1.0
175
     0
142
0.0008202099737533
142
0.0
142
0.0
142
0.0
142
0.0
142
0.0008202099737533
142
0.0
142
0.0
142
0.0
142
0.0
142
1.0
142
0.0
142
0.0
142
0.0
142
0.0
142
1.0
179
     0
144
0.0008202099737533
144
0.0
144
0.0
144
0.0
144
0.0
144
0.0008202099737533
144
0.0
144
0.0
144
0.0
144
0.0
144
1.0
144
0.0
144
0.0
144
0.0
144
0.0
144
1.0
147
0.0008202099737533
147
0.0
147
0.0
147
0.0
147
0.0
147
0.0008202099737533
147
0.0
147
0.0
147
0.0
147
0.0
147
1.0
147
0.0
147
0.0
147
0.0
147
0.0
147
1.0
  0
MATERIAL
  5
30C
102
{ACAD_XDICTIONARY
360
30D
102
}
102
{ACAD_REACTORS
330
30B
102
}
330
30B
100
AcDbMaterial
  1
ByLayer
 72
     0
 43
0.0008202099737533
 43
0.0
 43
0.0
 43
0.0
 43
0.0
 43
0.0008202099737533
 43
0.0
 43
0.0
 43
0.0
 43
0.0
 43
1.0
 43
0.0
 43
0.0
 43
0.0
 43
0.0
 43
1.0
 77
     0
 47
0.0008202099737533
 47
0.0
 47
0.0
 47
0.0
 47
0.0
 47
0.0008202099737533
 47
0.0
 47
0.0
 47
0.0
 47
0.0
 47
1.0
 47
0.0
 47
0.0
 47
0.0
 47
0.0
 47
1.0
171
     0
 49
0.0008202099737533
 49
0.0
 49
0.0
 49
0.0
 49
0.0
 49
0.0008202099737533
 49
0.0
 49
0.0
 49
0.0
 49
0.0
 49
1.0
 49
0.0
 49
0.0
 49
0.0
 49
0.0
 49
1.0
175
     0
142
0.0008202099737533
142
0.0
142
0.0
142
0.0
142
0.0
142
0.0008202099737533
142
0.0
142
0.0
142
0.0
142
0.0
142
1.0
142
0.0
142
0.0
142
0.0
142
0.0
142
1.0
179
     0
144
0.0008202099737533
144
0.0
144
0.0
144
0.0
144
0.0
144
0.0008202099737533
144
0.0
144
0.0
144
0.0
144
0.0
144
1.0
144
0.0
144
0.0
144
0.0
144
0.0
144
1.0
147
0.0008202099737533
147
0.0
147
0.0
147
0.0
147
0.0
147
0.0008202099737533
147
0.0
147
0.0
147
0.0
147
0.0
147
1.0
147
0.0
147
0.0
147
0.0
147
0.0
147
1.0
  0
MATERIAL
  5
31C
102
{ACAD_XDICTIONARY
360
31D
102
}
102
{ACAD_REACTORS
330
30B
102
}
330
30B
100
AcDbMaterial
  1
Global
 72
     0
 43
0.0008202099737533
 43
0.0
 43
0.0
 43
0.0
 43
0.0
 43
0.0008202099737533
 43
0.0
 43
0.0
 43
0.0
 43
0.0
 43
1.0
 43
0.0
 43
0.0
 43
0.0
 43
0.0
 43
1.0
 77
     0
 47
0.0008202099737533
 47
0.0
 47
0.0
 47
0.0
 47
0.0
 47
0.0008202099737533
 47
0.0
 47
0.0
 47
0.0
 47
0.0
 47
1.0
 47
0.0
 47
0.0
 47
0.0
 47
0.0
 47
1.0
171
     0
 49
0.0008202099737533
 49
0.0
 49
0.0
 49
0.0
 49
0.0
 49
0.0008202099737533
 49
0.0
 49
0.0
 49
0.0
 49
0.0
 49
1.0
 49
0.0
 49
0.0
 49
0.0
 49
0.0
 49
1.0
175
     0
142
0.0008202099737533
142
0.0
142
0.0
142
0.0
142
0.0
142
0.0008202099737533
142
0.0
142
0.0
142
0.0
142
0.0
142
1.0
142
0.0
142
0.0
142
0.0
142
0.0
142
1.0
179
     0
144
0.0008202099737533
144
0.0
144
0.0
144
0.0
144
0.0
144
0.0008202099737533
144
0.0
144
0.0
144
0.0
144
0.0
144
1.0
144
0.0
144
0.0
144
0.0
144
0.0
144
1.0
147
0.0008202099737533
147
0.0
147
0.0
147
0.0
147
0.0
147
0.0008202099737533
147
0.0
147
0.0
147
0.0
147
0.0
147
1.0
147
0.0
147
0.0
147
0.0
147
0.0
147
1.0
  0
MLEADERSTYLE
  5
34B
102
{ACAD_REACTORS
330
34A
102
}
330
34A
100
AcDbMLeaderStyle
170
     2
171
     1
172
     0
 90
        2
 40
0.0
 41
0.0
173
     1
 91
-1056964608
340
14
 92
       -2
290
     1
 42
2.0
291
     1
 43
0.36
  3
Standard
 44
4.0
300

342
11
174
     1
178
     6
175
     1
176
     0
 93
-1056964608
 45
4.0
292
     0
297
     0
 46
4.0
 94
-1056964608
 47
1.0
 49
1.0
140
1.0
293
     1
141
0.0
294
     1
177
     0
142
1.0
295
     1
296
     0
143
0.125
1001
ACAD_MLEADERVER
1070
     2
  0
MLINESTYLE
  5
18
102
{ACAD_REACTORS
330
17
102
}
330
17
100
AcDbMlineStyle
  2
STANDARD
 70
     0
  3

 62
   256
 51
90.0
 52
90.0
 71
     2
 49
0.5
 62
   256
  6
BYLAYER
 49
-0.5
 62
   256
  6
BYLAYER
  0
ACDBPLACEHOLDER
  5
F
102
{ACAD_REACTORS
330
E
102
}
330
E
  0
SCALE
  5
339
102
{ACAD_REACTORS
330
338
102
}
330
338
100
AcDbScale
 70
     0
300
1:1
140
1.0
141
1.0
290
     1
  0
SCALE
  5
33A
102
{ACAD_REACTORS
330
338
102
}
330
338
100
AcDbScale
 70
     0
300
1:2
140
1.0
141
2.0
290
     0
  0
SCALE
  5
33B
102
{ACAD_REACTORS
330
338
102
}
330
338
100
AcDbScale
 70
     0
300
1:4
140
1.0
141
4.0
290
     0
  0
SCALE
  5
33C
102
{ACAD_REACTORS
330
338
102
}
330
338
100
AcDbScale
 70
     0
300
1:5
140
1.0
141
5.0
290
     0
  0
SCALE
  5
33D
102
{ACAD_REACTORS
330
338
102
}
330
338
100
AcDbScale
 70
     0
300
1:8
140
1.0
141
8.0
290
     0
  0
SCALE
  5
33E
102
{ACAD_REACTORS
330
338
102
}
330
338
100
AcDbScale
 70
     0
300
1:10
140
1.0
141
10.0
290
     0
  0
SCALE
  5
33F
102
{ACAD_REACTORS
330
338
102
}
330
338
100
AcDbScale
 70
     0
300
1:16
140
1.0
141
16.0
290
     0
  0
SCALE
  5
340
102
{ACAD_REACTORS
330
338
102
}
330
338
100
AcDbScale
 70
     0
300
1:20
140
1.0
141
20.0
290
     0
  0
SCALE
  5
341
102
{ACAD_REACTORS
330
338
102
}
330
338
100
AcDbScale
 70
     0
300
1:30
140
1.0
141
30.0
290
     0
  0
SCALE
  5
342
102
{ACAD_REACTORS
330
338
102
}
330
338
100
AcDbScale
 70
     0
300
1:40
140
1.0
141
40.0
290
     0
  0
SCALE
  5
343
102
{ACAD_REACTORS
330
338
102
}
330
338
100
AcDbScale
 70
     0
300
1:50
140
1.0
141
50.0
290
     0
  0
SCALE
  5
344
102
{ACAD_REACTORS
330
338
102
}
330
338
100
AcDbScale
 70
     0
300
1:100
140
1.0
141
100.0
290
     0
  0
SCALE
  5
345
102
{ACAD_REACTORS
330
338
102
}
330
338
100
AcDbScale
 70
     0
300
2:1
140
2.0
141
1.0
290
     0
  0
SCALE
  5
346
102
{ACAD_REACTORS
330
338
102
}
330
338
100
AcDbScale
 70
     0
300
4:1
140
4.0
141
1.0
290
     0
  0
SCALE
  5
347
102
{ACAD_REACTORS
330
338
102
}
330
338
100
AcDbScale
 70
     0
300
8:1
140
8.0
141
1.0
290
     0
  0
SCALE
  5
348
102
{ACAD_REACTORS
330
338
102
}
330
338
100
AcDbScale
 70
     0
300
10:1
140
10.0
141
1.0
290
     0
  0
SCALE
  5
349
102
{ACAD_REACTORS
330
338
102
}
330
338
100
AcDbScale
 70
     0
300
100:1
140
100.0
141
1.0
290
     0
  0
TABLESTYLE
  5
337
102
{ACAD_XDICTIONARY
360
370
102
}
102
{ACAD_REACTORS
330
336
102
}
330
336
100
AcDbTableStyle
  3
Standard
 70
     0
 71
     0
 40
1.5
 41
1.5
280
     0
281
     0
  7
Standard
140
4.5
170
     2
 62
     0
 63
     7
283
     0
 90
      512
 91
        0
  1

274
    -2
284
     1
 64
     0
275
    -2
285
     1
 65
     0
276
    -2
286
     1
 66
     0
277
    -2
287
     1
 67
     0
278
    -2
288
     1
 68
     0
279
    -2
289
     1
 69
     0
  7
Standard
140
6.0
170
     5
 62
     0
 63
     7
283
     0
 90
      512
 91
        0
  1

274
    -2
284
     1
 64
     0
275
    -2
285
     1
 65
     0
276
    -2
286
     1
 66
     0
277
    -2
287
     1
 67
     0
278
    -2
288
     1
 68
     0
279
    -2
289
     1
 69
     0
  7
Standard
140
4.5
170
     5
 62
     0
 63
     7
283
     0
 90
      512
 91
        0
  1

274
    -2
284
     1
 64
     0
275
    -2
285
     1
 65
     0
276
    -2
286
     1
 66
     0
277
    -2
287
     1
 67
     0
278
    -2
288
     1
 68
     0
279
    -2
289
     1
 69
     0
  0
VISUALSTYLE
  5
32A
102
{ACAD_REACTORS
330
324
102
}
330
324
100
AcDbVisualStyle
  2
2dWireframe
 70
     4
 71
     0
 72
     2
 73
     0
 90
        0
 40
-0.6
 41
-30.0
 62
     5
 63
     7
421
 16777215
 74
     1
 91
        4
 64
     7
 65
   257
 75
     1
175
     1
 42
1.0
 92
        0
 66
   257
 43
1.0
 76
     1
 77
     6
 78
     2
 67
     7
 79
     5
170
     0
171
     0
290
     0
174
     0
 93
        1
 44
0.0
173
     0
291
     0
 45
0.0
  0
VISUALSTYLE
  5
32C
102
{ACAD_REACTORS
330
324
102
}
330
324
100
AcDbVisualStyle
  2
3D Hidden
 70
     6
 71
     1
 72
     2
 73
     2
 90
        0
 40
-0.6
 41
-30.0
 62
     5
 63
     7
421
 16777215
 74
     2
 91
        2
 64
     7
 65
   257
 75
     2
175
     1
 42
40.0
 92
        0
 66
   257
 43
1.0
 76
     1
 77
     6
 78
     2
 67
     7
 79
     3
170
     0
171
     0
290
     0
174
     0
 93
        1
 44
0.0
173
     0
291
     0
 45
0.0
  0
VISUALSTYLE
  5
32B
102
{ACAD_REACTORS
330
324
102
}
330
324
100
AcDbVisualStyle
  2
3dWireframe
 70
     5
 71
     0
 72
     2
 73
     0
 90
        0
 40
-0.6
 41
-30.0
 62
     5
 63
     7
421
 16777215
 74
     1
 91
        4
 64
     7
 65
   257
 75
     1
175
     1
 42
1.0
 92
        0
 66
   257
 43
1.0
 76
     1
 77
     6
 78
     2
 67
     7
 79
     5
170
     0
171
     0
290
     0
174
     0
 93
        1
 44
0.0
173
     0
291
     0
 45
0.0
  0
VISUALSTYLE
  5
329
102
{ACAD_REACTORS
330
324
102
}
330
324
100
AcDbVisualStyle
  2
Basic
 70
     7
 71
     1
 72
     0
 73
     1
 90
        0
 40
-0.6
 41
-30.0
 62
     5
 63
     7
421
 16777215
 74
     0
 91
        4
 64
     7
 65
   257
 75
     1
175
     1
 42
1.0
 92
        8
 66
     7
 43
1.0
 76
     1
 77
     6
 78
     2
 67
     7
 79
     5
170
     0
171
     0
290
     0
174
     0
 93
        1
 44
0.0
173
     0
291
     1
 45
0.0
  0
VISUALSTYLE
  5
330
102
{ACAD_REACTORS
330
324
102
}
330
324
100
AcDbVisualStyle
  2
Brighten
 70
    12
 71
     2
 72
     2
 73
     0
 90
        0
 40
-0.6
 41
-30.0
 62
     5
 63
     7
421
 16777215
 74
     1
 91
        4
 64
     7
 65
   257
 75
     1
175
     1
 42
1.0
 92
        8
 66
     7
 43
1.0
 76
     1
 77
     6
 78
     2
 67
     7
 79
     5
170
     0
171
     0
290
     0
174
     0
 93
        1
 44
50.0
173
     0
291
     1
 45
0.0
  0
VISUALSTYLE
  5
334
102
{ACAD_REACTORS
330
324
102
}
330
324
100
AcDbVisualStyle
  2
ColorChange
 70
    16
 71
     2
 72
     2
 73
     3
 90
        0
 40
-0.6
 41
-30.0
 62
     5
 63
     8
421
  8421504
 74
     1
 91
        4
 64
     7
 65
   257
 75
     1
175
     1
 42
1.0
 92
        8
 66
     8
424
  8421504
 43
1.0
 76
     1
 77
     6
 78
     2
 67
     7
 79
     5
170
     0
171
     0
290
     0
174
     0
 93
        1
 44
0.0
173
     0
291
     1
 45
0.0
  0
VISUALSTYLE
  5
32D
102
{ACAD_REACTORS
330
324
102
}
330
324
100
AcDbVisualStyle
  2
Conceptual
 70
     9
 71
     3
 72
     2
 73
     0
 90
        0
 40
-0.6
 41
-30.0
 62
     5
 63
     7
421
 16777215
 74
     2
 91
        2
 64
     7
 65
   257
 75
     1
175
     1
 42
40.0
 92
        8
 66
     7
 43
1.0
 76
     1
 77
     6
 78
     2
 67
     7
 79
     3
170
     0
171
     0
290
     0
174
     0
 93
        1
 44
0.0
173
     0
291
     0
 45
0.0
  0
VISUALSTYLE
  5
32F
102
{ACAD_REACTORS
330
324
102
}
330
324
100
AcDbVisualStyle
  2
Dim
 70
    11
 71
     2
 72
     2
 73
     0
 90
        0
 40
-0.6
 41
-30.0
 62
     5
 63
     7
421
 16777215
 74
     1
 91
        4
 64
     7
 65
   257
 75
     1
175
     1
 42
1.0
 92
        8
 66
     7
 43
1.0
 76
     1
 77
     6
 78
     2
 67
     7
 79
     5
170
     0
171
     0
290
     0
174
     0
 93
        1
 44
-50.0
173
     0
291
     1
 45
0.0
  0
VISUALSTYLE
  5
333
102
{ACAD_REACTORS
330
324
102
}
330
324
100
AcDbVisualStyle
  2
Facepattern
 70
    15
 71
     2
 72
     2
 73
     0
 90
        0
 40
-0.6
 41
-30.0
 62
     5
 63
     7
421
 16777215
 74
     1
 91
        4
 64
     7
 65
   257
 75
     1
175
     1
 42
1.0
 92
        8
 66
     7
 43
1.0
 76
     1
 77
     6
 78
     2
 67
     7
 79
     5
170
     0
171
     0
290
     0
174
     0
 93
        1
 44
0.0
173
     0
291
     1
 45
0.0
  0
VISUALSTYLE
  5
325
102
{ACAD_REACTORS
330
324
102
}
330
324
100
AcDbVisualStyle
  2
Flat
 70
     0
 71
     2
 72
     1
 73
     1
 90
        2
 40
-0.6
 41
30.0
 62
     5
 63
     7
421
 16777215
 74
     0
 91
        4
 64
     7
 65
   257
 75
     1
175
     1
 42
1.0
 92
        8
 66
     7
 43
1.0
 76
     1
 77
     6
 78
     2
 67
     7
 79
     5
170
     0
171
     0
290
     0
174
     0
 93
       13
 44
0.0
173
     0
291
     1
 45
0.0
  0
VISUALSTYLE
  5
326
102
{ACAD_REACTORS
330
324
102
}
330
324
100
AcDbVisualStyle
  2
FlatWithEdges
 70
     1
 71
     2
 72
     1
 73
     1
 90
        2
 40
-0.6
 41
30.0
 62
     5
 63
     7
421
 16777215
 74
     1
 91
        4
 64
     7
 65
   257
 75
     1
175
     1
 42
1.0
 92
        0
 66
   257
 43
1.0
 76
     1
 77
     6
 78
     2
 67
     7
 79
     5
170
     0
171
     0
290
     0
174
     0
 93
       13
 44
0.0
173
     0
291
     1
 45
0.0
  0
VISUALSTYLE
  5
327
102
{ACAD_REACTORS
330
324
102
}
330
324
100
AcDbVisualStyle
  2
Gouraud
 70
     2
 71
     2
 72
     2
 73
     1
 90
        2
 40
-0.6
 41
30.0
 62
     5
 63
     7
421
 16777215
 74
     0
 91
        4
 64
     7
 65
   257
 75
     1
175
     1
 42
1.0
 92
        0
 66
     7
 43
1.0
 76
     1
 77
     6
 78
     2
 67
     7
 79
     5
170
     0
171
     0
290
     0
174
     0
 93
       13
 44
0.0
173
     0
291
     1
 45
0.0
  0
VISUALSTYLE
  5
328
102
{ACAD_REACTORS
330
324
102
}
330
324
100
AcDbVisualStyle
  2
GouraudWithEdges
 70
     3
 71
     2
 72
     2
 73
     1
 90
        2
 40
-0.6
 41
30.0
 62
     5
 63
     7
421
 16777215
 74
     1
 91
        4
 64
     7
 65
   257
 75
     1
175
     1
 42
1.0
 92
        0
 66
   257
 43
1.0
 76
     1
 77
     6
 78
     2
 67
     7
 79
     5
170
     0
171
     0
290
     0
174
     0
 93
       13
 44
0.0
173
     0
291
     1
 45
0.0
  0
VISUALSTYLE
  5
332
102
{ACAD_REACTORS
330
324
102
}
330
324
100
AcDbVisualStyle
  2
Linepattern
 70
    14
 71
     2
 72
     2
 73
     0
 90
        0
 40
-0.6
 41
-30.0
 62
     5
 63
     7
421
 16777215
 74
     1
 91
        4
 64
     7
 65
   257
 75
     7
175
     7
 42
1.0
 92
        8
 66
     7
 43
1.0
 76
     1
 77
     6
 78
     2
 67
     7
 79
     5
170
     0
171
     0
290
     0
174
     0
 93
        1
 44
0.0
173
     0
291
     1
 45
0.0
  0
VISUALSTYLE
  5
32E
102
{ACAD_REACTORS
330
324
102
}
330
324
100
AcDbVisualStyle
  2
Realistic
 70
     8
 71
     2
 72
     2
 73
     0
 90
        0
 40
-0.6
 41
-30.0
 62
     5
 63
     7
421
 16777215
 74
     1
 91
        0
 64
     7
 65
   257
 75
     1
175
     1
 42
1.0
 92
        8
 66
     8
424
  7895160
 43
1.0
 76
     1
 77
     6
 78
     2
 67
     7
 79
     5
170
     0
171
     0
290
     0
174
     0
 93
       13
 44
0.0
173
     0
291
     0
 45
0.0
  0
VISUALSTYLE
  5
331
102
{ACAD_REACTORS
330
324
102
}
330
324
100
AcDbVisualStyle
  2
Thicken
 70
    13
 71
     2
 72
     2
 73
     0
 90
        0
 40
-0.6
 41
-30.0
 62
     5
 63
     7
421
 16777215
 74
     1
 91
        4
 64
     7
 65
   257
 75
     1
175
     1
 42
1.0
 92
       12
 66
     7
 43
1.0
 76
     1
 77
     6
 78
     2
 67
     7
 79
     5
170
     0
171
     0
290
     0
174
     0
 93
        1
 44
0.0
173
     0
291
     1
 45
0.0
  0
DICTIONARYVAR
  5
36C
102
{ACAD_REACTORS
330
368
102
}
330
368
100
DictionaryVariables
280
     0
  1
1:1
  0
DICTIONARYVAR
  5
36A
102
{ACAD_REACTORS
330
368
102
}
330
368
100
DictionaryVariables
280
     0
  1
STANDARD
  0
DICTIONARYVAR
  5
369
102
{ACAD_REACTORS
330
368
102
}
330
368
100
DictionaryVariables
280
     0
  1
STANDARD
  0
DICTIONARYVAR
  5
36E
102
{ACAD_REACTORS
330
368
102
}
330
368
100
DictionaryVariables
280
     0
  1
1
  0
DICTIONARYVAR
  5
36F
102
{ACAD_REACTORS
330
368
102
}
330
368
100
DictionaryVariables
280
     0
  1
15
  0
DICTIONARYVAR
  5
36D
102
{ACAD_REACTORS
330
368
102
}
330
368
100
DictionaryVariables
280
     0
  1
0
  0
DICTIONARYVAR
  5
36B
102
{ACAD_REACTORS
330
368
102
}
330
368
100
DictionaryVariables
280
     0
  1
0
  0
DICTIONARY
  5
315
330
314
100
AcDbDictionary
280
     1
281
     1
  3
BUMPTILE
360
317
  3
DIFFUSETILE
360
316
  3
OPACITYTILE
360
31A
  3
REFLECTIONTILE
360
319
  3
REFRACTIONTILE
360
31B
  3
SPECULARTILE
360
318
  0
DICTIONARY
  5
30D
330
30C
100
AcDbDictionary
280
     1
281
     1
  3
BUMPTILE
360
30F
  3
DIFFUSETILE
360
30E
  3
OPACITYTILE
360
312
  3
REFLECTIONTILE
360
311
  3
REFRACTIONTILE
360
313
  3
SPECULARTILE
360
310
  0
DICTIONARY
  5
31D
330
31C
100
AcDbDictionary
280
     1
281
     1
  3
BUMPTILE
360
31F
  3
DIFFUSETILE
360
31E
  3
OPACITYTILE
360
322
  3
REFLECTIONTILE
360
321
  3
REFRACTIONTILE
360
323
  3
SPECULARTILE
360
320
  0
DICTIONARY
  5
370
330
337
100
AcDbDictionary
280
     1
281
     1
  3
ACAD_ROUNDTRIP_2008_TABLESTYLE_CELLSTYLEMAP
360
371
  0
XRECORD
  5
317
102
{ACAD_REACTORS
330
315
102
}
330
315
100
AcDbXrecord
280
     1
270
     1
271
     1
  0
XRECORD
  5
316
102
{ACAD_REACTORS
330
315
102
}
330
315
100
AcDbXrecord
280
     1
270
     1
271
     1
  0
XRECORD
  5
31A
102
{ACAD_REACTORS
330
315
102
}
330
315
100
AcDbXrecord
280
     1
270
     1
271
     1
  0
XRECORD
  5
319
102
{ACAD_REACTORS
330
315
102
}
330
315
100
AcDbXrecord
280
     1
270
     1
271
     1
  0
XRECORD
  5
31B
102
{ACAD_REACTORS
330
315
102
}
330
315
100
AcDbXrecord
280
     1
270
     1
271
     1
  0
XRECORD
  5
318
102
{ACAD_REACTORS
330
315
102
}
330
315
100
AcDbXrecord
280
     1
270
     1
271
     1
  0
XRECORD
  5
30F
102
{ACAD_REACTORS
330
30D
102
}
330
30D
100
AcDbXrecord
280
     1
270
     1
271
     1
  0
XRECORD
  5
30E
102
{ACAD_REACTORS
330
30D
102
}
330
30D
100
AcDbXrecord
280
     1
270
     1
271
     1
  0
XRECORD
  5
312
102
{ACAD_REACTORS
330
30D
102
}
330
30D
100
AcDbXrecord
280
     1
270
     1
271
     1
  0
XRECORD
  5
311
102
{ACAD_REACTORS
330
30D
102
}
330
30D
100
AcDbXrecord
280
     1
270
     1
271
     1
  0
XRECORD
  5
313
102
{ACAD_REACTORS
330
30D
102
}
330
30D
100
AcDbXrecord
280
     1
270
     1
271
     1
  0
XRECORD
  5
310
102
{ACAD_REACTORS
330
30D
102
}
330
30D
100
AcDbXrecord
280
     1
270
     1
271
     1
  0
XRECORD
  5
31F
102
{ACAD_REACTORS
330
31D
102
}
330
31D
100
AcDbXrecord
280
     1
270
     1
271
     1
  0
XRECORD
  5
31E
102
{ACAD_REACTORS
330
31D
102
}
330
31D
100
AcDbXrecord
280
     1
270
     1
271
     1
  0
XRECORD
  5
322
102
{ACAD_REACTORS
330
31D
102
}
330
31D
100
AcDbXrecord
280
     1
270
     1
271
     1
  0
XRECORD
  5
321
102
{ACAD_REACTORS
330
31D
102
}
330
31D
100
AcDbXrecord
280
     1
270
     1
271
     1
  0
XRECORD
  5
323
102
{ACAD_REACTORS
330
31D
102
}
330
31D
100
AcDbXrecord
280
     1
270
     1
271
     1
  0
XRECORD
  5
320
102
{ACAD_REACTORS
330
31D
102
}
330
31D
100
AcDbXrecord
280
     1
270
     1
271
     1
  0
CELLSTYLEMAP
  5
371
102
{ACAD_REACTORS
330
370
102
}
330
370
100
AcDbCellStyleMap
 90
        3
300
CELLSTYLE
  1
TABLEFORMAT_BEGIN
 90
        5
170
     1
 91
        0
 92
    32768
 62
   257
 93
        1
300
CONTENTFORMAT
  1
CONTENTFORMAT_BEGIN
 90
        0
 91
        0
 92
      512
 93
        0
300

 40
0.0
140
1.0
 94
        5
 62
     0
340
11
144
6.0
309
CONTENTFORMAT_END
171
     1
301
MARGIN
  1
CELLMARGIN_BEGIN
 40
1.5
 40
1.5
 40
1.5
 40
1.5
 40
4.5
 40
4.5
309
CELLMARGIN_END
 94
        6
 95
        1
302
GRIDFORMAT
  1
GRIDFORMAT_BEGIN
 90
        0
 91
        1
 62
     0
 92
       -2
340
0
 93
        0
 40
1.125
309
GRIDFORMAT_END
 95
        2
302
GRIDFORMAT
  1
GRIDFORMAT_BEGIN
 90
        0
 91
        1
 62
     0
 92
       -2
340
0
 93
        0
 40
1.125
309
GRIDFORMAT_END
 95
        4
302
GRIDFORMAT
  1
GRIDFORMAT_BEGIN
 90
        0
 91
        1
 62
     0
 92
       -2
340
0
 93
        0
 40
1.125
309
GRIDFORMAT_END
 95
        8
302
GRIDFORMAT
  1
GRIDFORMAT_BEGIN
 90
        0
 91
        1
 62
     0
 92
       -2
340
0
 93
        0
 40
1.125
309
GRIDFORMAT_END
 95
       16
302
GRIDFORMAT
  1
GRIDFORMAT_BEGIN
 90
        0
 91
        1
 62
     0
 92
       -2
340
0
 93
        0
 40
1.125
309
GRIDFORMAT_END
 95
       32
302
GRIDFORMAT
  1
GRIDFORMAT_BEGIN
 90
        0
 91
        1
 62
     0
 92
       -2
340
0
 93
        0
 40
1.125
309
GRIDFORMAT_END
309
TABLEFORMAT_END
  1
CELLSTYLE_BEGIN
 90
        1
 91
        1
300
_TITLE
309
CELLSTYLE_END
300
CELLSTYLE
  1
TABLEFORMAT_BEGIN
 90
        5
170
     1
 91
        0
 92
        0
 62
   257
 93
        1
300
CONTENTFORMAT
  1
CONTENTFORMAT_BEGIN
 90
        0
 91
        0
 92
      512
 93
        0
300

 40
0.0
140
1.0
 94
        5
 62
     0
340
11
144
4.5
309
CONTENTFORMAT_END
171
     1
301
MARGIN
  1
CELLMARGIN_BEGIN
 40
1.5
 40
1.5
 40
1.5
 40
1.5
 40
4.5
 40
4.5
309
CELLMARGIN_END
 94
        6
 95
        1
302
GRIDFORMAT
  1
GRIDFORMAT_BEGIN
 90
        0
 91
        1
 62
     0
 92
       -2
340
0
 93
        0
 40
1.125
309
GRIDFORMAT_END
 95
        2
302
GRIDFORMAT
  1
GRIDFORMAT_BEGIN
 90
        0
 91
        1
 62
     0
 92
       -2
340
0
 93
        0
 40
1.125
309
GRIDFORMAT_END
 95
        4
302
GRIDFORMAT
  1
GRIDFORMAT_BEGIN
 90
        0
 91
        1
 62
     0
 92
       -2
340
0
 93
        0
 40
1.125
309
GRIDFORMAT_END
 95
        8
302
GRIDFORMAT
  1
GRIDFORMAT_BEGIN
 90
        0
 91
        1
 62
     0
 92
       -2
340
0
 93
        0
 40
1.125
309
GRIDFORMAT_END
 95
       16
302
GRIDFORMAT
  1
GRIDFORMAT_BEGIN
 90
        0
 91
        1
 62
     0
 92
       -2
340
0
 93
        0
 40
1.125
309
GRIDFORMAT_END
 95
       32
302
GRIDFORMAT
  1
GRIDFORMAT_BEGIN
 90
        0
 91
        1
 62
     0
 92
       -2
340
0
 93
        0
 40
1.125
309
GRIDFORMAT_END
309
TABLEFORMAT_END
  1
CELLSTYLE_BEGIN
 90
        2
 91
        1
300
_HEADER
309
CELLSTYLE_END
300
CELLSTYLE
  1
TABLEFORMAT_BEGIN
 90
        5
170
     1
 91
        0
 92
        0
 62
   257
 93
        1
300
CONTENTFORMAT
  1
CONTENTFORMAT_BEGIN
 90
        0
 91
        0
 92
      512
 93
        0
300

 40
0.0
140
1.0
 94
        2
 62
     0
340
11
144
4.5
309
CONTENTFORMAT_END
171
     1
301
MARGIN
  1
CELLMARGIN_BEGIN
 40
1.5
 40
1.5
 40
1.5
 40
1.5
 40
4.5
 40
4.5
309
CELLMARGIN_END
 94
        6
 95
        1
302
GRIDFORMAT
  1
GRIDFORMAT_BEGIN
 90
        0
 91
        1
 62
     0
 92
       -2
340
0
 93
        0
 40
1.125
309
GRIDFORMAT_END
 95
        2
302
GRIDFORMAT
  1
GRIDFORMAT_BEGIN
 90
        0
 91
        1
 62
     0
 92
       -2
340
0
 93
        0
 40
1.125
309
GRIDFORMAT_END
 95
        4
302
GRIDFORMAT
  1
GRIDFORMAT_BEGIN
 90
        0
 91
        1
 62
     0
 92
       -2
340
0
 93
        0
 40
1.125
309
GRIDFORMAT_END
 95
        8
302
GRIDFORMAT
  1
GRIDFORMAT_BEGIN
 90
        0
 91
        1
 62
     0
 92
       -2
340
0
 93
        0
 40
1.125
309
GRIDFORMAT_END
 95
       16
302
GRIDFORMAT
  1
GRIDFORMAT_BEGIN
 90
        0
 91
        1
 62
     0
 92
       -2
340
0
 93
        0
 40
1.125
309
GRIDFORMAT_END
 95
       32
302
GRIDFORMAT
  1
GRIDFORMAT_BEGIN
 90
        0
 91
        1
 62
     0
 92
       -2
340
0
 93
        0
 40
1.125
309
GRIDFORMAT_END
309
TABLEFORMAT_END
  1
CELLSTYLE_BEGIN
 90
        3
 91
        2
300
_DATA
309
CELLSTYLE_END
  0
ENDSEC
  0
EOF
