  0
SECTION
  2
HEADER
  9
$ACADVER
  1
AC1021
  9
$ACADMAINTVER
 70
    50
  9
$DWGCODEPAGE
  3
ANSI_1251
  9
$LASTSAVEDBY
  1
User
  9
$INSBASE
 10
0.0
 20
0.0
 30
0.0
  9
$EXTMIN
 10
685.6674572546817
 20
1521.769522789597
 30
-0.0015258207003583
  9
$EXTMAX
 10
992.838627455335
 20
1865.866734421889
 30
0.0000000349246037
  9
$LIMMIN
 10
0.0
 20
0.0
  9
$LIMMAX
 10
2794.0
 20
2159.0
  9
$ORTHOMODE
 70
     0
  9
$REGENMODE
 70
     1
  9
$FILLMODE
 70
     1
  9
$QTEXTMODE
 70
     0
  9
$MIRRTEXT
 70
     1
  9
$LTSCALE
 40
10.0
  9
$ATTMODE
 70
     1
  9
$TEXTSIZE
 40
35.0
  9
$TRACEWID
 40
1.0
  9
$TEXTSTYLE
  7
Standard
  9
$CLAYER
  8
0
  9
$CELTYPE
  6
ByLayer
  9
$CECOLOR
 62
   256
  9
$CELTSCALE
 40
1.0
  9
$DISPSILH
 70
     0
  9
$DIMSCALE
 40
1.0
  9
$DIMASZ
 40
35.0
  9
$DIMEXO
 40
0.1
  9
$DIMDLI
 40
3.75
  9
$DIMRND
 40
0.0
  9
$DIMDLE
 40
0.0
  9
$DIMEXE
 40
10.0
  9
$DIMTP
 40
0.0
  9
$DIMTM
 40
0.0
  9
$DIMTXT
 40
35.0
  9
$DIMCEN
 40
2.5
  9
$DIMTSZ
 40
0.0
  9
$DIMTOL
 70
     0
  9
$DIMLIM
 70
     0
  9
$DIMTIH
 70
     1
  9
$DIMTOH
 70
     1
  9
$DIMSE1
 70
     0
  9
$DIMSE2
 70
     0
  9
$DIMTAD
 70
     1
  9
$DIMZIN
 70
     0
  9
$DIMBLK
  1

  9
$DIMASO
 70
     1
  9
$DIMSHO
 70
     1
  9
$DIMPOST
  1

  9
$DIMAPOST
  1

  9
$DIMALT
 70
     0
  9
$DIMALTD
 70
     3
  9
$DIMALTF
 40
0.0393700787401575
  9
$DIMLFAC
 40
1.0
  9
$DIMTOFL
 70
     1
  9
$DIMTVP
 40
0.0
  9
$DIMTIX
 70
     0
  9
$DIMSOXD
 70
     0
  9
$DIMSAH
 70
     0
  9
$DIMBLK1
  1

  9
$DIMBLK2
  1

  9
$DIMSTYLE
  2
ISO-25
  9
$DIMCLRD
 70
     0
  9
$DIMCLRE
 70
     0
  9
$DIMCLRT
 70
     0
  9
$DIMTFAC
 40
1.0
  9
$DIMGAP
 40
30.0
  9
$DIMJUST
 70
     0
  9
$DIMSD1
 70
     0
  9
$DIMSD2
 70
     0
  9
$DIMTOLJ
 70
     0
  9
$DIMTZIN
 70
     0
  9
$DIMALTZ
 70
     0
  9
$DIMALTTZ
 70
     0
  9
$DIMUPT
 70
     0
  9
$DIMDEC
 70
     2
  9
$DIMTDEC
 70
     3
  9
$DIMALTU
 70
     2
  9
$DIMALTTD
 70
     3
  9
$DIMTXSTY
  7
Standard
  9
$DIMAUNIT
 70
     0
  9
$DIMADEC
 70
     2
  9
$DIMALTRND
 40
0.0
  9
$DIMAZIN
 70
     0
  9
$DIMDSEP
 70
    44
  9
$DIMATFIT
 70
     3
  9
$DIMFRAC
 70
     0
  9
$DIMLDRBLK
  1

  9
$DIMLUNIT
 70
     2
  9
$DIMLWD
 70
    -2
  9
$DIMLWE
 70
    -2
  9
$DIMTMOVE
 70
     0
  9
$DIMFXL
 40
1.0
  9
$DIMFXLON
 70
     0
  9
$DIMJOGANG
 40
0.7853981633974483
  9
$DIMTFILL
 70
     0
  9
$DIMTFILLCLR
 70
     0
  9
$DIMARCSYM
 70
     0
  9
$DIMLTYPE
  6

  9
$DIMLTEX1
  6

  9
$DIMLTEX2
  6

  9
$LUNITS
 70
     2
  9
$LUPREC
 70
     2
  9
$SKETCHINC
 40
1.0
  9
$FILLETRAD
 40
10.0
  9
$AUNITS
 70
     0
  9
$AUPREC
 70
     2
  9
$MENU
  1
.
  9
$ELEVATION
 40
0.0
  9
$PELEVATION
 40
0.0
  9
$THICKNESS
 40
0.0
  9
$LIMCHECK
 70
     0
  9
$CHAMFERA
 40
10.0
  9
$CHAMFERB
 40
10.0
  9
$CHAMFERC
 40
20.0
  9
$CHAMFERD
 40
0.0
  9
$SKPOLY
 70
     0
  9
$TDCREATE
 40
2458163.994195232
  9
$TDUCREATE
 40
2458163.910861898
  9
$TDUPDATE
 40
2458163.995187581
  9
$TDUUPDATE
 40
2458163.911854248
  9
$TDINDWG
 40
0.0008570949
  9
$TDUSRTIMER
 40
0.0008570949
  9
$USRTIMER
 70
     1
  9
$ANGBASE
 50
0.0
  9
$ANGDIR
 70
     0
  9
$PDMODE
 70
     0
  9
$PDSIZE
 40
-1.0
  9
$PLINEWID
 40
0.0
  9
$SPLFRAME
 70
     0
  9
$SPLINETYPE
 70
     6
  9
$SPLINESEGS
 70
     8
  9
$HANDSEED
  5
1B2
  9
$SURFTAB1
 70
     6
  9
$SURFTAB2
 70
     6
  9
$SURFTYPE
 70
     6
  9
$SURFU
 70
     6
  9
$SURFV
 70
     6
  9
$UCSBASE
  2

  9
$UCSNAME
  2

  9
$UCSORG
 10
0.0
 20
0.0
 30
0.0
  9
$UCSXDIR
 10
1.0
 20
0.0
 30
0.0
  9
$UCSYDIR
 10
0.0
 20
1.0
 30
0.0
  9
$UCSORTHOREF
  2

  9
$UCSORTHOVIEW
 70
     0
  9
$UCSORGTOP
 10
0.0
 20
0.0
 30
0.0
  9
$UCSORGBOTTOM
 10
0.0
 20
0.0
 30
0.0
  9
$UCSORGLEFT
 10
0.0
 20
0.0
 30
0.0
  9
$UCSORGRIGHT
 10
0.0
 20
0.0
 30
0.0
  9
$UCSORGFRONT
 10
0.0
 20
0.0
 30
0.0
  9
$UCSORGBACK
 10
0.0
 20
0.0
 30
0.0
  9
$PUCSBASE
  2

  9
$PUCSNAME
  2

  9
$PUCSORG
 10
0.0
 20
0.0
 30
0.0
  9
$PUCSXDIR
 10
1.0
 20
0.0
 30
0.0
  9
$PUCSYDIR
 10
0.0
 20
1.0
 30
0.0
  9
$PUCSORTHOREF
  2

  9
$PUCSORTHOVIEW
 70
     0
  9
$PUCSORGTOP
 10
0.0
 20
0.0
 30
0.0
  9
$PUCSORGBOTTOM
 10
0.0
 20
0.0
 30
0.0
  9
$PUCSORGLEFT
 10
0.0
 20
0.0
 30
0.0
  9
$PUCSORGRIGHT
 10
0.0
 20
0.0
 30
0.0
  9
$PUCSORGFRONT
 10
0.0
 20
0.0
 30
0.0
  9
$PUCSORGBACK
 10
0.0
 20
0.0
 30
0.0
  9
$USERI1
 70
     0
  9
$USERI2
 70
     0
  9
$USERI3
 70
     0
  9
$USERI4
 70
     0
  9
$USERI5
 70
     0
  9
$USERR1
 40
0.0
  9
$USERR2
 40
0.0
  9
$USERR3
 40
0.0
  9
$USERR4
 40
0.0
  9
$USERR5
 40
0.0
  9
$WORLDVIEW
 70
     1
  9
$SHADEDGE
 70
     3
  9
$SHADEDIF
 70
    70
  9
$TILEMODE
 70
     1
  9
$MAXACTVP
 70
    64
  9
$PINSBASE
 10
0.0
 20
0.0
 30
0.0
  9
$PLIMCHECK
 70
     0
  9
$PEXTMIN
 10
1.000000000000000E+20
 20
1.000000000000000E+20
 30
1.000000000000000E+20
  9
$PEXTMAX
 10
-1.000000000000000E+20
 20
-1.000000000000000E+20
 30
-1.000000000000000E+20
  9
$PLIMMIN
 10
0.0
 20
0.0
  9
$PLIMMAX
 10
420.0
 20
297.0
  9
$UNITMODE
 70
     0
  9
$VISRETAIN
 70
     1
  9
$PLINEGEN
 70
     0
  9
$PSLTSCALE
 70
     1
  9
$TREEDEPTH
 70
  3020
  9
$CMLSTYLE
  2
Standard
  9
$CMLJUST
 70
     0
  9
$CMLSCALE
 40
20.0
  9
$PROXYGRAPHICS
 70
     1
  9
$MEASUREMENT
 70
     1
  9
$CELWEIGHT
370
    -1
  9
$ENDCAPS
280
     0
  9
$JOINSTYLE
280
     0
  9
$LWDISPLAY
290
     1
  9
$INSUNITS
 70
     4
  9
$HYPERLINKBASE
  1

  9
$STYLESHEET
  1

  9
$XEDIT
290
     1
  9
$CEPSNTYPE
380
     0
  9
$PSTYLEMODE
290
     1
  9
$FINGERPRINTGUID
  2
{19636FC9-C71F-4952-A0FD-CBB6154AA38C}
  9
$VERSIONGUID
  2
{D36CC784-C5A5-40C4-ABEA-389232B59E1E}
  9
$EXTNAMES
290
     1
  9
$PSVPSCALE
 40
0.0
  9
$OLESTARTUP
290
     0
  9
$SORTENTS
280
   127
  9
$INDEXCTL
280
     0
  9
$HIDETEXT
280
     0
  9
$XCLIPFRAME
290
     0
  9
$HALOGAP
280
     0
  9
$OBSCOLOR
 70
   257
  9
$OBSLTYPE
280
     0
  9
$INTERSECTIONDISPLAY
280
     0
  9
$INTERSECTIONCOLOR
 70
   257
  9
$DIMASSOC
280
     1
  9
$PROJECTNAME
  1

  9
$CAMERADISPLAY
290
     0
  9
$LENSLENGTH
 40
50.0
  9
$CAMERAHEIGHT
 40
0.0
  9
$STEPSPERSEC
 40
2.0
  9
$STEPSIZE
 40
6.0
  9
$3DDWFPREC
 40
2.0
  9
$PSOLWIDTH
 40
0.25
  9
$PSOLHEIGHT
 40
4.0
  9
$LOFTANG1
 40
1.570796326794896
  9
$LOFTANG2
 40
1.570796326794896
  9
$LOFTMAG1
 40
0.0
  9
$LOFTMAG2
 40
0.0
  9
$LOFTPARAM
 70
     7
  9
$LOFTNORMALS
280
     1
  9
$LATITUDE
 40
37.795
  9
$LONGITUDE
 40
-122.394
  9
$NORTHDIRECTION
 40
0.0
  9
$TIMEZONE
 70
 -8000
  9
$LIGHTGLYPHDISPLAY
280
     1
  9
$TILEMODELIGHTSYNCH
280
     1
  9
$CMATERIAL
347
162
  9
$SOLIDHIST
280
     1
  9
$SHOWHIST
280
     1
  9
$DWFFRAME
280
     2
  9
$DGNFRAME
280
     0
  9
$REALWORLDSCALE
290
     1
  9
$INTERFERECOLOR
 62
     1
  9
$INTERFEREOBJVS
345
184
  9
$INTERFEREVPVS
346
181
  9
$CSHADOW
280
     0
  9
$SHADOWPLANELOCATION
 40
0.0
  0
ENDSEC
  0
SECTION
  2
CLASSES
  0
CLASS
  1
ACDBDICTIONARYWDFLT
  2
AcDbDictionaryWithDefault
  3
ObjectDBX Classes
 90
        0
 91
        1
280
     0
281
     0
  0
CLASS
  1
VISUALSTYLE
  2
AcDbVisualStyle
  3
ObjectDBX Classes
 90
     4095
 91
       16
280
     0
281
     0
  0
CLASS
  1
MATERIAL
  2
AcDbMaterial
  3
ObjectDBX Classes
 90
     1153
 91
        3
280
     0
281
     0
  0
CLASS
  1
TABLESTYLE
  2
AcDbTableStyle
  3
ObjectDBX Classes
 90
     4095
 91
        1
280
     0
281
     0
  0
CLASS
  1
SCALE
  2
AcDbScale
  3
ObjectDBX Classes
 90
     1153
 91
       17
280
     0
281
     0
  0
CLASS
  1
MLEADERSTYLE
  2
AcDbMLeaderStyle
  3
ACDB_MLEADERSTYLE_CLASS
 90
     4095
 91
        1
280
     0
281
     0
  0
CLASS
  1
DICTIONARYVAR
  2
AcDbDictionaryVar
  3
ObjectDBX Classes
 90
        0
 91
        7
280
     0
281
     0
  0
CLASS
  1
CELLSTYLEMAP
  2
AcDbCellStyleMap
  3
ObjectDBX Classes
 90
     1152
 91
        1
280
     0
281
     0
  0
ENDSEC
  0
SECTION
  2
TABLES
  0
TABLE
  2
VPORT
  5
8
330
0
100
AcDbSymbolTable
 70
     1
  0
VPORT
  5
29
330
8
100
AcDbSymbolTableRecord
100
AcDbViewportTableRecord
  2
*Active
 70
     0
 10
0.0
 20
0.0
 11
1.0
 21
1.0
 12
839.2530423550082
 22
1693.818128605743
 13
0.0
 23
0.0
 14
10.0
 24
10.0
 15
10.0
 25
10.0
 16
0.0
 26
0.0
 36
1.0
 17
0.0
 27
0.0
 37
0.0
 40
348.121740423313
 41
2.466796875
 42
50.0
 43
0.0
 44
0.0
 50
0.0
 51
0.0
 71
     0
 72
  2000
 73
     1
 74
     3
 75
     0
 76
     0
 77
     0
 78
     0
281
     0
 65
     1
110
0.0
120
0.0
130
0.0
111
1.0
121
0.0
131
0.0
112
0.0
122
1.0
132
0.0
 79
     0
146
0.0
348
180
 60
     3
 61
     5
292
     1
282
     1
141
0.0
142
0.0
 63
   250
421
  3355443
  0
ENDTAB
  0
TABLE
  2
LTYPE
  5
5
330
0
100
AcDbSymbolTable
 70
     6
  0
LTYPE
  5
14
330
5
100
AcDbSymbolTableRecord
100
AcDbLinetypeTableRecord
  2
ByBlock
 70
     0
  3

 72
    65
 73
     0
 40
0.0
  0
LTYPE
  5
15
330
5
100
AcDbSymbolTableRecord
100
AcDbLinetypeTableRecord
  2
ByLayer
 70
     0
  3

 72
    65
 73
     0
 40
0.0
  0
LTYPE
  5
16
330
5
100
AcDbSymbolTableRecord
100
AcDbLinetypeTableRecord
  2
Continuous
 70
     0
  3
Solid line
 72
    65
 73
     0
 40
0.0
  0
LTYPE
  5
3F
330
5
100
AcDbSymbolTableRecord
100
AcDbLinetypeTableRecord
  2
HIDDEN
 70
     0
  3
Hidden __ __ __ __ __ __ __ __ __ __ __ __ __ __
 72
    65
 73
     2
 40
1.905
 49
1.27
 74
     0
 49
-0.635
 74
     0
  0
LTYPE
  5
40
330
5
100
AcDbSymbolTableRecord
100
AcDbLinetypeTableRecord
  2
PHANTOM
 70
     0
  3
Phantom ______  __  __  ______  __  __  ______
 72
    65
 73
     6
 40
12.7
 49
6.349999999999999
 74
     0
 49
-1.27
 74
     0
 49
1.27
 74
     0
 49
-1.27
 74
     0
 49
1.27
 74
     0
 49
-1.27
 74
     0
  0
LTYPE
  5
41
330
5
100
AcDbSymbolTableRecord
100
AcDbLinetypeTableRecord
  2
CENTER
 70
     0
  3
Center ____ _ ____ _ ____ _ ____ _ ____ _ ____
 72
    65
 73
     4
 40
10.16
 49
6.349999999999999
 74
     0
 49
-1.27
 74
     0
 49
1.27
 74
     0
 49
-1.27
 74
     0
  0
LTYPE
  5
42
330
5
100
AcDbSymbolTableRecord
100
AcDbLinetypeTableRecord
  2
CENTERX2
 70
     0
  3
Center (2x) ________  __  ________  __  _____
 72
    65
 73
     4
 40
20.32
 49
12.7
 74
     0
 49
-2.54
 74
     0
 49
2.54
 74
     0
 49
-2.54
 74
     0
  0
LTYPE
  5
43
330
5
100
AcDbSymbolTableRecord
100
AcDbLinetypeTableRecord
  2
DOT2
 70
     0
  3
Dot (.5x) ........................................
 72
    65
 73
     2
 40
0.635
 49
0.0
 74
     0
 49
-0.635
 74
     0
  0
ENDTAB
  0
TABLE
  2
LAYER
  5
2
330
0
100
AcDbSymbolTable
 70
     1
  0
LAYER
  5
10
102
{ACAD_XDICTIONARY
360
1A5
102
}
330
2
100
AcDbSymbolTableRecord
100
AcDbLayerTableRecord
  2
0
 70
     0
 62
     7
  6
Continuous
370
    -3
390
F
347
172
  0
ENDTAB
  0
TABLE
  2
STYLE
  5
3
330
0
100
AcDbSymbolTable
 70
     1
  0
STYLE
  5
11
330
3
100
AcDbSymbolTableRecord
100
AcDbTextStyleTableRecord
  2
Standard
 70
     0
 40
0.0
 41
1.0
 50
0.0
 71
     0
 42
35.0
  3
txt
  4

  0
ENDTAB
  0
TABLE
  2
VIEW
  5
6
330
0
100
AcDbSymbolTable
 70
     0
  0
ENDTAB
  0
TABLE
  2
UCS
  5
7
330
0
100
AcDbSymbolTable
 70
     0
  0
ENDTAB
  0
TABLE
  2
APPID
  5
9
330
0
100
AcDbSymbolTable
 70
     2
  0
APPID
  5
12
330
9
100
AcDbSymbolTableRecord
100
AcDbRegAppTableRecord
  2
ACAD
 70
     0
  0
APPID
  5
1A2
330
9
100
AcDbSymbolTableRecord
100
AcDbRegAppTableRecord
  2
ACAD_MLEADERVER
 70
     0
  0
ENDTAB
  0
TABLE
  2
DIMSTYLE
  5
A
330
0
100
AcDbSymbolTable
 70
     1
100
AcDbDimStyleTable
 71
     0
  0
DIMSTYLE
105
27
330
A
100
AcDbSymbolTableRecord
100
AcDbDimStyleTableRecord
  2
ISO-25
 70
     0
 41
2.5
 42
0.625
 43
3.75
 44
1.25
 73
     0
 74
     0
 77
     1
 78
     8
140
2.5
141
2.5
143
0.03937007874016
147
0.625
171
     3
172
     1
271
     2
272
     2
274
     3
278
    44
283
     0
284
     8
340
11
  0
ENDTAB
  0
TABLE
  2
BLOCK_RECORD
  5
1
330
0
100
AcDbSymbolTable
 70
     1
  0
BLOCK_RECORD
  5
1F
330
1
100
AcDbSymbolTableRecord
100
AcDbBlockTableRecord
  2
*Model_Space
340
22
 70
     0
280
     1
281
     0
  0
BLOCK_RECORD
  5
1B
330
1
100
AcDbSymbolTableRecord
100
AcDbBlockTableRecord
  2
*Paper_Space
340
1E
 70
     0
280
     1
281
     0
  0
BLOCK_RECORD
  5
23
330
1
100
AcDbSymbolTableRecord
100
AcDbBlockTableRecord
  2
*Paper_Space0
340
26
 70
     0
280
     1
281
     0
  0
ENDTAB
  0
ENDSEC
  0
SECTION
  2
BLOCKS
  0
BLOCK
  5
20
330
1F
100
AcDbEntity
  8
0
100
AcDbBlockBegin
  2
*Model_Space
 70
     0
 10
0.0
 20
0.0
 30
0.0
  3
*Model_Space
  1

  0
ENDBLK
  5
21
330
1F
100
AcDbEntity
  8
0
100
AcDbBlockEnd
  0
BLOCK
  5
1C
330
1B
100
AcDbEntity
 67
     1
  8
0
100
AcDbBlockBegin
  2
*Paper_Space
 70
     0
 10
0.0
 20
0.0
 30
0.0
  3
*Paper_Space
  1

  0
ENDBLK
  5
1D
330
1B
100
AcDbEntity
 67
     1
  8
0
100
AcDbBlockEnd
  0
BLOCK
  5
24
330
23
100
AcDbEntity
 67
     1
  8
0
100
AcDbBlockBegin
  2
*Paper_Space0
 70
     0
 10
0.0
 20
0.0
 30
0.0
  3
*Paper_Space0
  1

  0
ENDBLK
  5
25
330
23
100
AcDbEntity
 67
     1
  8
0
100
AcDbBlockEnd
  0
ENDSEC
  0
SECTION
  2
ENTITIES
  0
LINE
  5
44
330
1F
100
AcDbEntity
  8
0
  6
Continuous
 62
     7
370
    15
100
AcDbLine
 10
816.3053187127518
 20
1735.616587598273
 30
0.0
 11
816.3053187127518
 21
1745.616587598273
 31
0.0
  0
LINE
  5
45
330
1F
100
AcDbEntity
  8
0
  6
Continuous
 62
     7
370
    15
100
AcDbLine
 10
695.3053187127518
 20
1745.616587598273
 30
0.0
 11
695.3053187127518
 21
1735.616587598273
 31
0.0
  0
LINE
  5
46
330
1F
100
AcDbEntity
  8
0
  6
Continuous
 62
     7
370
    15
100
AcDbLine
 10
708.8530187343645
 20
1735.616587598273
 30
0.0
 11
717.865928019778
 21
1720.616587598273
 31
0.0
  0
LINE
  5
47
330
1F
100
AcDbEntity
  8
0
  6
Continuous
 62
     7
370
    15
100
AcDbLine
 10
793.7447094057257
 20
1720.616587598273
 30
0.0
 11
802.7576186911392
 21
1735.616587598273
 31
0.0
  0
LINE
  5
48
330
1F
100
AcDbEntity
  8
0
  6
Continuous
 62
     7
370
    15
100
AcDbLine
 10
792.3147026523263
 20
1805.616587598272
 30
0.0
 11
792.3147026523263
 21
1815.616587598273
 31
0.0
  0
LINE
  5
49
330
1F
100
AcDbEntity
  8
0
  6
Continuous
 62
     7
370
    15
100
AcDbLine
 10
719.2959347731775
 20
1815.616587598273
 30
0.0
 11
719.2959347731775
 21
1805.616587598272
 31
0.0
  0
ARC
  5
4A
330
1F
100
AcDbEntity
  8
0
  6
Continuous
 62
     7
370
    15
100
AcDbCircle
 10
730.1044839190524
 20
1730.548030051594
 30
0.0
 40
59.9551916132717
100
AcDbArc
 50
311.6124104269055
 51
350.4651344933948
  0
ARC
  5
4B
330
1F
100
AcDbEntity
  8
0
  6
Continuous
 62
     7
370
    15
100
AcDbCircle
 10
781.5061535064512
 20
1730.548030051594
 30
0.0
 40
59.95519161327168
100
AcDbArc
 50
189.5348655066052
 51
228.3875895730945
  0
ARC
  5
4C
330
1F
100
AcDbEntity
  8
0
  6
Continuous
 62
     7
370
    15
100
AcDbCircle
 10
748.3324059128658
 20
1785.616587598273
 30
0.0
 40
40.00000000000003
100
AcDbArc
 50
91.96277793556257
 51
96.18727926850102
  0
ARC
  5
4D
330
1F
100
AcDbEntity
  8
0
  6
Continuous
 62
     7
370
    15
100
AcDbCircle
 10
763.2782315126379
 20
1785.616587598273
 30
0.0
 40
40.00000000000003
100
AcDbArc
 50
84.1877119638867
 51
88.03722206443742
  0
LINE
  5
4E
330
1F
100
AcDbEntity
  8
0
  6
Continuous
 62
     7
370
    15
100
AcDbLine
 10
746.9623964107666
 20
1827.616587598273
 30
0.0
 11
746.9623964107666
 21
1825.593119138217
 31
0.0
  0
LINE
  5
4F
330
1F
100
AcDbEntity
  8
0
  6
Continuous
 62
     7
370
    15
100
AcDbLine
 10
764.6482410147371
 20
1825.593119138217
 30
0.0
 11
764.6482410147371
 21
1827.616587598273
 31
0.0
  0
LINE
  5
50
330
1F
100
AcDbEntity
  8
0
  6
Continuous
 62
     7
370
    15
100
AcDbLine
 10
823.8053187127517
 20
1783.737870499849
 30
0.0
 11
823.8053187127517
 21
1856.690596281593
 31
0.0
  0
LINE
  5
51
330
1F
100
AcDbEntity
  8
0
  6
Continuous
 62
     7
370
    15
100
AcDbLine
 10
825.8053187127519
 20
1857.518090232564
 30
0.0
 11
817.6141948366382
 21
1865.722275352614
 31
0.0
  0
LINE
  5
52
330
1F
100
AcDbEntity
  8
0
  6
Continuous
 62
     7
370
    15
100
AcDbLine
 10
810.7328277380448
 20
1766.840381598735
 30
0.0
 11
823.8053187127517
 21
1783.737870499849
 31
0.0
  0
LINE
  5
53
330
1F
100
AcDbEntity
  8
0
  6
Continuous
 62
     7
370
    15
100
AcDbLine
 10
825.8053187127519
 20
1783.05454457153
 30
0.0
 11
825.8053187127519
 21
1857.518090232564
 31
0.0
  0
LINE
  5
54
330
1F
100
AcDbEntity
  8
0
  6
Continuous
 62
     7
370
    15
100
AcDbLine
 10
685.8053187127518
 20
1783.05454457153
 30
0.0
 11
685.8053187127518
 21
1857.518090232564
 31
0.0
  0
LINE
  5
55
330
1F
100
AcDbEntity
  8
0
  6
Continuous
 62
     7
370
    15
100
AcDbLine
 10
700.8778096874589
 20
1766.840381598735
 30
0.0
 11
699.2959347731774
 21
1765.616587598273
 31
0.0
  0
LINE
  5
56
330
1F
100
AcDbEntity
  8
0
  6
Continuous
 62
     7
370
    15
100
AcDbLine
 10
700.8778096874589
 20
1766.840381598735
 30
0.0
 11
687.8053187127518
 21
1783.73787049985
 31
0.0
  0
LINE
  5
57
330
1F
100
AcDbEntity
  8
0
  6
Continuous
 62
     7
370
    15
100
AcDbLine
 10
699.2959347731774
 20
1765.616587598273
 30
0.0
 11
685.8053187127518
 21
1783.05454457153
 31
0.0
  0
LINE
  5
58
330
1F
100
AcDbEntity
  8
0
  6
Continuous
 62
     7
370
    15
100
AcDbLine
 10
693.9964425888655
 20
1865.722275352614
 30
0.0
 11
817.6141948366382
 21
1865.722275352614
 31
0.0
  0
LINE
  5
59
330
1F
100
AcDbEntity
  8
0
  6
Continuous
 62
     7
370
    15
100
AcDbLine
 10
810.7328277380448
 20
1766.840381598735
 30
0.0
 11
812.3147026523263
 21
1765.616587598273
 31
0.0
  0
LINE
  5
5A
330
1F
100
AcDbEntity
  8
0
  6
Continuous
 62
     7
370
    15
100
AcDbLine
 10
694.825803195367
 20
1863.722275352614
 30
0.0
 11
816.7848342301367
 21
1863.722275352614
 31
0.0
  0
LINE
  5
5B
330
1F
100
AcDbEntity
  8
0
  6
Continuous
 62
     7
370
    15
100
AcDbLine
 10
812.3147026523263
 20
1765.616587598273
 30
0.0
 11
825.8053187127519
 21
1783.05454457153
 31
0.0
  0
LINE
  5
5C
330
1F
100
AcDbEntity
  8
0
  6
Continuous
 62
     7
370
    15
100
AcDbLine
 10
823.8053187127517
 20
1856.690596281593
 30
0.0
 11
816.7848342301367
 21
1863.722275352614
 31
0.0
  0
LINE
  5
5D
330
1F
100
AcDbEntity
  8
0
  6
Continuous
 62
     7
370
    15
100
AcDbLine
 10
685.8053187127518
 20
1857.518090232564
 30
0.0
 11
693.9964425888655
 21
1865.722275352614
 31
0.0
  0
LINE
  5
5E
330
1F
100
AcDbEntity
  8
0
  6
Continuous
 62
     7
370
    15
100
AcDbLine
 10
687.8053187127518
 20
1783.73787049985
 30
0.0
 11
687.8053187127518
 21
1856.690596281593
 31
0.0
  0
LINE
  5
5F
330
1F
100
AcDbEntity
  8
0
  6
Continuous
 62
     7
370
    15
100
AcDbLine
 10
687.8053187127518
 20
1856.690596281593
 30
0.0
 11
694.825803195367
 21
1863.722275352614
 31
0.0
  0
LINE
  5
60
330
1F
100
AcDbEntity
  8
0
  6
Continuous
 62
     7
370
    15
100
AcDbLine
 10
755.8053187127518
 20
1745.616587598273
 30
0.0
 11
816.3053187127518
 21
1745.616587598273
 31
0.0
  0
LINE
  5
61
330
1F
100
AcDbEntity
  8
0
  6
Continuous
 62
     7
370
    15
100
AcDbLine
 10
695.3053187127519
 20
1745.616587598273
 30
0.0
 11
755.8053187127518
 21
1745.616587598273
 31
0.0
  0
LINE
  5
62
330
1F
100
AcDbEntity
  8
0
  6
Continuous
 62
     7
370
    15
100
AcDbLine
 10
755.8053187127518
 20
1735.616587598273
 30
0.0
 11
816.3053187127518
 21
1735.616587598273
 31
0.0
  0
LINE
  5
63
330
1F
100
AcDbEntity
  8
0
  6
Continuous
 62
     7
370
    15
100
AcDbLine
 10
695.3053187127519
 20
1735.616587598273
 30
0.0
 11
755.8053187127518
 21
1735.616587598273
 31
0.0
  0
LINE
  5
64
330
1F
100
AcDbEntity
  8
0
  6
Continuous
 62
     7
370
    15
100
AcDbLine
 10
759.2053187127582
 20
1785.616587598273
 30
0.0
 11
752.4053187127582
 21
1785.616587598273
 31
0.0
  0
SPLINE
  5
65
330
1F
100
AcDbEntity
  8
0
  6
Continuous
 62
     7
370
    15
100
AcDbSpline
210
0.0
220
0.0
230
1.0
 70
    24
 71
     3
 72
    33
 73
    29
 74
     0
 42
0.0000000001
 43
0.0000000001
 40
0.0
 40
0.0
 40
0.0
 40
0.0
 40
0.1250000000000007
 40
0.1250000000000007
 40
0.187500000000001
 40
0.187500000000001
 40
0.2500000000000013
 40
0.2500000000000013
 40
0.3750000000000024
 40
0.3750000000000024
 40
0.4375000000000026
 40
0.4375000000000026
 40
0.5000000000000029
 40
0.5000000000000029
 40
0.625000000000004
 40
0.625000000000004
 40
0.656250000000004
 40
0.656250000000004
 40
0.6875000000000041
 40
0.6875000000000041
 40
0.7500000000000037
 40
0.8125000000000033
 40
0.8125000000000033
 40
0.8437500000000028
 40
0.8437500000000028
 40
0.8750000000000023
 40
0.8750000000000023
 40
1.0
 40
1.0
 40
1.0
 40
1.0
 10
752.4053187127582
 20
1805.616587598272
 30
0.0
 10
752.4053187127582
 20
1805.616587598272
 30
0.0
 10
752.4053187127582
 20
1805.487855429082
 30
0.0
 10
752.4053187127582
 20
1805.108394450109
 30
0.0
 10
752.4053187127582
 20
1804.950622346569
 30
0.0
 10
752.4053187127582
 20
1804.570915902815
 30
0.0
 10
752.4053187127582
 20
1804.348096865513
 30
0.0
 10
752.4053187127582
 20
1803.597258352879
 30
0.0
 10
752.4053187127582
 20
1802.984153481737
 30
0.0
 10
752.4053187127582
 20
1801.896599442002
 30
0.0
 10
752.4053187127582
 20
1801.504262674295
 30
0.0
 10
752.4053187127582
 20
1800.668370501707
 30
0.0
 10
752.4053187127582
 20
1800.228409366325
 30
0.0
 10
752.4053187127582
 20
1798.84446981115
 30
0.0
 10
752.4053187127582
 20
1797.837044755235
 30
0.0
 10
752.4053187127582
 20
1796.468991268079
 30
0.0
 10
752.4053187127582
 20
1796.189123015871
 30
0.0
 10
752.4053187127582
 20
1795.623667806085
 30
0.0
 10
752.4053187127582
 20
1795.337780562241
 30
0.0
 10
752.4053187127582
 20
1794.470811229295
 30
0.0
 10
752.4053187127582
 20
1793.290075916993
 30
0.0
 10
752.4053187127582
 20
1792.060498352
 30
0.0
 10
752.4053187127582
 20
1791.119732868776
 30
0.0
 10
752.4053187127582
 20
1790.803041810576
 30
0.0
 10
752.4053187127582
 20
1790.163340264387
 30
0.0
 10
752.4053187127582
 20
1789.839788547723
 30
0.0
 10
752.4053187127582
 20
1788.2237102362
 30
0.0
 10
752.4053187127582
 20
1786.923654906138
 30
0.0
 10
752.4053187127582
 20
1785.616587598273
 30
0.0
  0
LINE
  5
66
330
1F
100
AcDbEntity
  8
0
  6
Continuous
 62
     7
370
    15
100
AcDbLine
 10
752.4053187127582
 20
1805.616587598272
 30
0.0
 11
759.2053187127582
 21
1805.616587598272
 31
0.0
  0
SPLINE
  5
67
330
1F
100
AcDbEntity
  8
0
  6
Continuous
 62
     7
370
    15
100
AcDbSpline
210
0.0
220
0.0
230
1.0
 70
    24
 71
     3
 72
    33
 73
    29
 74
     0
 42
0.0000000001
 43
0.0000000001
 40
0.0
 40
0.0
 40
0.0
 40
0.0
 40
0.1249999999999986
 40
0.1249999999999986
 40
0.1874999999999981
 40
0.1874999999999981
 40
0.2499999999999977
 40
0.2499999999999977
 40
0.3749999999999967
 40
0.3749999999999967
 40
0.4374999999999969
 40
0.4374999999999969
 40
0.4999999999999972
 40
0.4999999999999972
 40
0.6249999999999979
 40
0.6249999999999979
 40
0.6562499999999981
 40
0.6562499999999981
 40
0.6874999999999982
 40
0.6874999999999982
 40
0.7499999999999984
 40
0.8124999999999985
 40
0.8124999999999985
 40
0.8437499999999987
 40
0.8437499999999987
 40
0.8749999999999989
 40
0.8749999999999989
 40
1.0
 40
1.0
 40
1.0
 40
1.0
 10
759.2053187127582
 20
1805.616587598272
 30
0.0
 10
759.2053187127582
 20
1805.616587598272
 30
0.0
 10
759.2053187127582
 20
1805.487855429082
 30
0.0
 10
759.2053187127582
 20
1805.108394450109
 30
0.0
 10
759.2053187127582
 20
1804.950622346569
 30
0.0
 10
759.2053187127582
 20
1804.570915902815
 30
0.0
 10
759.2053187127582
 20
1804.348096865513
 30
0.0
 10
759.2053187127582
 20
1803.597258352879
 30
0.0
 10
759.2053187127582
 20
1802.984153481737
 30
0.0
 10
759.2053187127582
 20
1801.896599442002
 30
0.0
 10
759.2053187127582
 20
1801.504262674295
 30
0.0
 10
759.2053187127582
 20
1800.668370501707
 30
0.0
 10
759.2053187127582
 20
1800.228409366325
 30
0.0
 10
759.2053187127582
 20
1798.844469811151
 30
0.0
 10
759.2053187127582
 20
1797.837044755235
 30
0.0
 10
759.2053187127582
 20
1796.468991268079
 30
0.0
 10
759.2053187127582
 20
1796.189123015872
 30
0.0
 10
759.2053187127582
 20
1795.623667806085
 30
0.0
 10
759.2053187127582
 20
1795.337780562241
 30
0.0
 10
759.2053187127582
 20
1794.470811229296
 30
0.0
 10
759.2053187127582
 20
1793.290075916993
 30
0.0
 10
759.2053187127582
 20
1792.060498352
 30
0.0
 10
759.2053187127582
 20
1791.119732868776
 30
0.0
 10
759.2053187127582
 20
1790.803041810576
 30
0.0
 10
759.2053187127582
 20
1790.163340264387
 30
0.0
 10
759.2053187127582
 20
1789.839788547723
 30
0.0
 10
759.2053187127582
 20
1788.2237102362
 30
0.0
 10
759.2053187127582
 20
1786.923654906138
 30
0.0
 10
759.2053187127582
 20
1785.616587598273
 30
0.0
  0
LINE
  5
68
330
1F
100
AcDbEntity
  8
0
  6
Continuous
 62
     7
370
    15
100
AcDbLine
 10
759.2053187127582
 20
1745.616587598273
 30
0.0
 11
759.2053187127582
 21
1785.616587598273
 31
0.0
  0
LINE
  5
69
330
1F
100
AcDbEntity
  8
0
  6
Continuous
 62
     7
370
    15
100
AcDbLine
 10
752.4053187127582
 20
1745.616587598273
 30
0.0
 11
752.4053187127582
 21
1785.616587598273
 31
0.0
  0
SPLINE
  5
6A
330
1F
100
AcDbEntity
  8
0
  6
Continuous
 62
     7
370
    15
100
AcDbSpline
210
0.0
220
0.0
230
1.0
 70
     8
 71
     3
 72
    33
 73
    29
 74
     0
 42
0.0000000001
 43
0.0000000001
 40
0.0
 40
0.0
 40
0.0
 40
0.0
 40
0.1249999999999996
 40
0.1249999999999996
 40
0.1874999999999994
 40
0.1874999999999994
 40
0.2499999999999992
 40
0.2499999999999992
 40
0.3749999999999988
 40
0.3749999999999988
 40
0.4374999999999987
 40
0.4374999999999987
 40
0.499999999999998
 40
0.499999999999998
 40
0.6249999999999967
 40
0.6249999999999967
 40
0.6562499999999966
 40
0.6562499999999966
 40
0.6874999999999965
 40
0.6874999999999965
 40
0.7499999999999968
 40
0.8124999999999971
 40
0.8124999999999971
 40
0.8437499999999975
 40
0.8437499999999975
 40
0.874999999999998
 40
0.874999999999998
 40
1.0
 40
1.0
 40
1.0
 40
1.0
 10
739.7079409000277
 20
1785.616587598273
 30
0.0
 10
739.7079409000277
 20
1786.940311119283
 30
0.0
 10
739.752525482256
 20
1788.24183005035
 30
0.0
 10
739.8835379472521
 20
1790.162166810575
 30
0.0
 10
739.937977901334
 20
1790.796915681456
 30
0.0
 10
740.0688909704018
 20
1792.055440183621
 30
0.0
 10
740.1457154742971
 20
1792.680755022071
 30
0.0
 10
740.4045065143209
 20
1794.499334738615
 30
0.0
 10
740.6156406443734
 20
1795.649168444735
 30
0.0
 10
740.9897469946427
 20
1797.280908074576
 30
0.0
 10
741.1246525429976
 20
1797.81119055484
 30
0.0
 10
741.4119098356417
 20
1798.830212014954
 30
0.0
 10
741.5630475167152
 20
1799.315080371739
 30
0.0
 10
742.0382878839939
 20
1800.698054788517
 30
0.0
 10
742.3840115923745
 20
1801.525207215105
 30
0.0
 10
742.8531579336521
 20
1802.437752195848
 30
0.0
 10
742.9491019831651
 20
1802.614538454699
 30
0.0
 10
743.1428593089361
 20
1802.952277133814
 30
0.0
 10
743.2408099218361
 20
1803.113547737481
 30
0.0
 10
743.5378186227747
 20
1803.574981487881
 30
0.0
 10
743.9422337173116
 20
1804.130656615609
 30
0.0
 10
744.3632027976634
 20
1804.568985445084
 30
0.0
 10
744.6852210416786
 20
1804.853133958331
 30
0.0
 10
744.7936108653344
 20
1804.940404091504
 30
0.0
 10
745.0125285432627
 20
1805.099788492596
 30
0.0
 10
745.1232065514342
 20
1805.171943605353
 30
0.0
 10
745.6759547684908
 20
1805.49079954074
 30
0.0
 10
746.1205893662759
 20
1805.616587598272
 30
0.0
 10
746.567593883529
 20
1805.616587598272
 30
0.0
  0
LINE
  5
6B
330
1F
100
AcDbEntity
  8
0
  6
Continuous
 62
     7
370
    15
100
AcDbLine
 10
739.7079409000277
 20
1785.616587598273
 30
0.0
 11
739.7079409000277
 21
1745.616587598273
 31
0.0
  0
SPLINE
  5
6C
330
1F
100
AcDbEntity
  8
0
  6
Continuous
 62
     7
370
    15
100
AcDbSpline
210
0.0
220
0.0
230
1.0
 70
     8
 71
     3
 72
    33
 73
    29
 74
     0
 42
0.0000000001
 43
0.0000000001
 40
0.0
 40
0.0
 40
0.0
 40
0.0
 40
0.1249999999999981
 40
0.1249999999999981
 40
0.1874999999999971
 40
0.1874999999999971
 40
0.2499999999999962
 40
0.2499999999999962
 40
0.3749999999999952
 40
0.3749999999999952
 40
0.4374999999999951
 40
0.4374999999999951
 40
0.4999999999999954
 40
0.4999999999999954
 40
0.6249999999999951
 40
0.6249999999999951
 40
0.6562499999999951
 40
0.6562499999999951
 40
0.6874999999999949
 40
0.6874999999999949
 40
0.7499999999999956
 40
0.812499999999996
 40
0.812499999999996
 40
0.8437499999999966
 40
0.8437499999999966
 40
0.8749999999999971
 40
0.8749999999999971
 40
1.0
 40
1.0
 40
1.0
 40
1.0
 10
733.3180310786831
 20
1785.616587598273
 30
0.0
 10
733.3180310786831
 20
1786.940311119283
 30
0.0
 10
733.3626156609116
 20
1788.24183005035
 30
0.0
 10
733.4936281259076
 20
1790.162166810575
 30
0.0
 10
733.5480680799896
 20
1790.796915681455
 30
0.0
 10
733.6789811490573
 20
1792.055440183621
 30
0.0
 10
733.7558056529526
 20
1792.680755022071
 30
0.0
 10
734.0145966929764
 20
1794.499334738614
 30
0.0
 10
734.2257308230289
 20
1795.649168444735
 30
0.0
 10
734.5998371732981
 20
1797.280908074576
 30
0.0
 10
734.7347427216531
 20
1797.81119055484
 30
0.0
 10
735.0220000142972
 20
1798.830212014954
 30
0.0
 10
735.1731376953706
 20
1799.315080371739
 30
0.0
 10
735.6483780626493
 20
1800.698054788516
 30
0.0
 10
735.99410177103
 20
1801.525207215105
 30
0.0
 10
736.4632481123075
 20
1802.437752195847
 30
0.0
 10
736.5591921618205
 20
1802.614538454699
 30
0.0
 10
736.7529494875914
 20
1802.952277133813
 30
0.0
 10
736.8509001004914
 20
1803.113547737481
 30
0.0
 10
737.1479088014301
 20
1803.574981487881
 30
0.0
 10
737.552323895967
 20
1804.130656615609
 30
0.0
 10
737.9732929763187
 20
1804.568985445084
 30
0.0
 10
738.295311220334
 20
1804.853133958331
 30
0.0
 10
738.4037010439898
 20
1804.940404091504
 30
0.0
 10
738.6226187219181
 20
1805.099788492596
 30
0.0
 10
738.7332967300895
 20
1805.171943605353
 30
0.0
 10
739.2860449471461
 20
1805.49079954074
 30
0.0
 10
739.7306795449311
 20
1805.616587598272
 30
0.0
 10
740.1776840621843
 20
1805.616587598272
 30
0.0
  0
LINE
  5
6D
330
1F
100
AcDbEntity
  8
0
  6
Continuous
 62
     7
370
    15
100
AcDbLine
 10
740.1776840621843
 20
1805.616587598272
 30
0.0
 11
746.567593883529
 21
1805.616587598272
 31
0.0
  0
LINE
  5
6E
330
1F
100
AcDbEntity
  8
0
  6
Continuous
 62
     7
370
    15
100
AcDbLine
 10
739.7079409000277
 20
1785.616587598273
 30
0.0
 11
733.3180310786832
 21
1785.616587598273
 31
0.0
  0
LINE
  5
6F
330
1F
100
AcDbEntity
  8
0
  6
Continuous
 62
     7
370
    15
100
AcDbLine
 10
771.9026965254913
 20
1785.616587598273
 30
0.0
 11
771.9026965254913
 21
1745.616587598273
 31
0.0
  0
SPLINE
  5
70
330
1F
100
AcDbEntity
  8
0
  6
Continuous
 62
     7
370
    15
100
AcDbSpline
210
0.0
220
0.0
230
1.0
 70
     8
 71
     3
 72
    33
 73
    29
 74
     0
 42
0.0000000001
 43
0.0000000001
 40
0.0
 40
0.0
 40
0.0
 40
0.0
 40
0.1250000000000015
 40
0.1250000000000015
 40
0.1875000000000023
 40
0.1875000000000023
 40
0.250000000000003
 40
0.250000000000003
 40
0.3750000000000042
 40
0.3750000000000042
 40
0.4375000000000046
 40
0.4375000000000046
 40
0.5000000000000044
 40
0.5000000000000044
 40
0.6250000000000036
 40
0.6250000000000036
 40
0.6562500000000034
 40
0.6562500000000034
 40
0.6875000000000032
 40
0.6875000000000032
 40
0.7500000000000028
 40
0.8125000000000023
 40
0.8125000000000023
 40
0.8437500000000021
 40
0.8437500000000021
 40
0.8750000000000019
 40
0.8750000000000019
 40
1.0
 40
1.0
 40
1.0
 40
1.0
 10
771.9026965254913
 20
1785.616587598273
 30
0.0
 10
771.9026965254913
 20
1786.940311119283
 30
0.0
 10
771.8581119432631
 20
1788.24183005035
 30
0.0
 10
771.7270994782669
 20
1790.162166810575
 30
0.0
 10
771.672659524185
 20
1790.796915681455
 30
0.0
 10
771.5417464551173
 20
1792.055440183621
 30
0.0
 10
771.4649219512219
 20
1792.680755022071
 30
0.0
 10
771.2061309111982
 20
1794.499334738614
 30
0.0
 10
770.9949967811458
 20
1795.649168444735
 30
0.0
 10
770.6208904308765
 20
1797.280908074576
 30
0.0
 10
770.4859848825215
 20
1797.81119055484
 30
0.0
 10
770.1987275898775
 20
1798.830212014954
 30
0.0
 10
770.0475899088039
 20
1799.315080371739
 30
0.0
 10
769.5723495415254
 20
1800.698054788516
 30
0.0
 10
769.2266258331447
 20
1801.525207215105
 30
0.0
 10
768.7574794918672
 20
1802.437752195847
 30
0.0
 10
768.6615354423543
 20
1802.614538454699
 30
0.0
 10
768.4677781165833
 20
1802.952277133813
 30
0.0
 10
768.3698275036833
 20
1803.113547737481
 30
0.0
 10
768.0728188027447
 20
1803.574981487881
 30
0.0
 10
767.6684037545994
 20
1804.130656944466
 30
0.0
 10
767.2474346278561
 20
1804.568985445084
 30
0.0
 10
766.9254163838409
 20
1804.853133958331
 30
0.0
 10
766.817026560185
 20
1804.940404091504
 30
0.0
 10
766.5981088822568
 20
1805.099788492596
 30
0.0
 10
766.4874308740855
 20
1805.171943605353
 30
0.0
 10
765.9346826570287
 20
1805.49079954074
 30
0.0
 10
765.4900480592438
 20
1805.616587598272
 30
0.0
 10
765.0430435419907
 20
1805.616587598272
 30
0.0
  0
LINE
  5
71
330
1F
100
AcDbEntity
  8
0
  6
Continuous
 62
     7
370
    15
100
AcDbLine
 10
765.0430435419907
 20
1805.616587598272
 30
0.0
 11
771.4329533633343
 21
1805.616587598272
 31
0.0
  0
SPLINE
  5
72
330
1F
100
AcDbEntity
  8
0
  6
Continuous
 62
     7
370
    15
100
AcDbSpline
210
0.0
220
0.0
230
1.0
 70
     8
 71
     3
 72
    33
 73
    29
 74
     0
 42
0.0000000001
 43
0.0000000001
 40
0.0
 40
0.0
 40
0.0
 40
0.0
 40
0.1249999999999999
 40
0.1249999999999999
 40
0.1874999999999999
 40
0.1874999999999999
 40
0.2499999999999998
 40
0.2499999999999998
 40
0.3749999999999991
 40
0.3749999999999991
 40
0.4374999999999988
 40
0.4374999999999988
 40
0.4999999999999979
 40
0.4999999999999979
 40
0.6249999999999961
 40
0.6249999999999961
 40
0.6562499999999963
 40
0.6562499999999963
 40
0.6874999999999964
 40
0.6874999999999964
 40
0.7499999999999973
 40
0.812499999999998
 40
0.812499999999998
 40
0.8437499999999985
 40
0.8437499999999985
 40
0.8749999999999991
 40
0.8749999999999991
 40
1.0
 40
1.0
 40
1.0
 40
1.0
 10
778.2926063468353
 20
1785.616587598273
 30
0.0
 10
778.2926063468353
 20
1786.940311119283
 30
0.0
 10
778.2480217646068
 20
1788.24183005035
 30
0.0
 10
778.1170092996108
 20
1790.162166810575
 30
0.0
 10
778.0625693455289
 20
1790.796915681456
 30
0.0
 10
777.9316562764611
 20
1792.055440183621
 30
0.0
 10
777.8548317725658
 20
1792.680755022071
 30
0.0
 10
777.596040732542
 20
1794.499334738615
 30
0.0
 10
777.3849066024895
 20
1795.649168444735
 30
0.0
 10
777.0108002522204
 20
1797.280908074576
 30
0.0
 10
776.8758947038653
 20
1797.81119055484
 30
0.0
 10
776.5886374112214
 20
1798.830212014954
 30
0.0
 10
776.4374997301477
 20
1799.315080371739
 30
0.0
 10
775.9622593628692
 20
1800.698054788516
 30
0.0
 10
775.6165356544885
 20
1801.525207215105
 30
0.0
 10
775.1473893132111
 20
1802.437752195848
 30
0.0
 10
775.0514452636979
 20
1802.614538454699
 30
0.0
 10
774.857687937927
 20
1802.952277133814
 30
0.0
 10
774.759737325027
 20
1803.113547737481
 30
0.0
 10
774.4627286240884
 20
1803.574981487881
 30
0.0
 10
774.0583135295516
 20
1804.130656615609
 30
0.0
 10
773.6373444491997
 20
1804.568985445084
 30
0.0
 10
773.3153262051846
 20
1804.853133958331
 30
0.0
 10
773.2069363815287
 20
1804.940404091504
 30
0.0
 10
772.9880187036004
 20
1805.099788492596
 30
0.0
 10
772.8773406954291
 20
1805.171943605353
 30
0.0
 10
772.3245924783724
 20
1805.49079954074
 30
0.0
 10
771.8799578805874
 20
1805.616587598272
 30
0.0
 10
771.4329533633343
 20
1805.616587598272
 30
0.0
  0
LINE
  5
73
330
1F
100
AcDbEntity
  8
0
  6
Continuous
 62
     7
370
    15
100
AcDbLine
 10
778.2926063468353
 20
1785.616587598273
 30
0.0
 11
771.9026965254913
 21
1785.616587598273
 31
0.0
  0
LINE
  5
74
330
1F
100
AcDbEntity
  8
0
  6
Continuous
 62
     7
370
    15
100
AcDbLine
 10
733.3180310786832
 20
1785.616587598273
 30
0.0
 11
733.3180310786832
 21
1745.616587598273
 31
0.0
  0
LINE
  5
75
330
1F
100
AcDbEntity
  8
0
  6
Continuous
 62
     7
370
    15
100
AcDbLine
 10
778.2926063468353
 20
1785.616587598273
 30
0.0
 11
778.2926063468353
 21
1745.616587598273
 31
0.0
  0
LINE
  5
76
330
1F
100
AcDbEntity
  8
0
  6
Continuous
 62
     7
370
    15
100
AcDbLine
 10
793.7447094057257
 20
1720.616587598273
 30
0.0
 11
717.865928019778
 21
1720.616587598273
 31
0.0
  0
LINE
  5
77
330
1F
100
AcDbEntity
  8
0
  6
Continuous
 62
     7
370
    15
100
AcDbLine
 10
722.1521444235008
 20
1745.616587598273
 30
0.0
 11
722.1521444235008
 21
1785.616587598273
 31
0.0
  0
SPLINE
  5
78
330
1F
100
AcDbEntity
  8
0
  6
Continuous
 62
     7
370
    15
100
AcDbSpline
210
0.0
220
0.0
230
1.0
 70
     8
 71
     3
 72
    29
 73
    25
 74
     0
 42
0.0000000001
 43
0.0000000001
 40
0.0
 40
0.0
 40
0.0
 40
0.0
 40
0.1249999999999995
 40
0.1249999999999995
 40
0.1874999999999992
 40
0.1874999999999992
 40
0.2499999999999989
 40
0.2499999999999989
 40
0.3749999999999987
 40
0.3749999999999987
 40
0.4374999999999983
 40
0.4374999999999983
 40
0.4999999999999978
 40
0.4999999999999978
 40
0.6249999999999976
 40
0.6249999999999976
 40
0.6874999999999979
 40
0.6874999999999979
 40
0.7499999999999983
 40
0.8124999999999985
 40
0.8124999999999985
 40
0.8749999999999987
 40
0.8749999999999987
 40
1.0
 40
1.0
 40
1.0
 40
1.0
 10
735.0440750029969
 20
1805.616587598272
 30
0.0
 10
734.1948608137047
 20
1805.616587598272
 30
0.0
 10
733.3592370500733
 20
1805.488063173498
 30
0.0
 10
732.1254685319148
 20
1805.109284847426
 30
0.0
 10
731.7175139015225
 20
1804.951802775658
 30
0.0
 10
730.9083739127903
 20
1804.572821741234
 30
0.0
 10
730.5063664217152
 20
1804.350390014902
 30
0.0
 10
729.3369243659745
 20
1803.600801520676
 30
0.0
 10
728.5969286534468
 20
1802.988735591512
 30
0.0
 10
727.5460226702336
 20
1801.90314929542
 30
0.0
 10
727.2044495157437
 20
1801.511646547374
 30
0.0
 10
726.5473046732374
 20
1800.677002093883
 30
0.0
 10
726.2345038723128
 20
1800.237707236848
 30
0.0
 10
725.3419750203142
 20
1798.855912772512
 30
0.0
 10
724.807685495409
 20
1797.850109337474
 30
0.0
 10
724.0996492533128
 20
1796.211284344623
 30
0.0
 10
723.8797636107908
 20
1795.643364983025
 30
0.0
 10
723.48115495896
 20
1794.488887746075
 30
0.0
 10
723.120936364062
 20
1793.309704052704
 30
0.0
 10
722.8363621829202
 20
1792.081838342134
 30
0.0
 10
722.5901406176657
 20
1790.829290270851
 30
0.0
 10
722.4858672463287
 20
1790.187782008129
 30
0.0
 10
722.2358159770232
 20
1788.247364124093
 30
0.0
 10
722.1521444235007
 20
1786.9392719778
 30
0.0
 10
722.1521444235007
 20
1785.616587598273
 30
0.0
  0
LINE
  5
79
330
1F
100
AcDbEntity
  8
0
  6
Continuous
 62
     7
370
    15
100
AcDbLine
 10
722.1521444235008
 20
1785.616587598273
 30
0.0
 11
716.9430422102915
 21
1785.616587598273
 31
0.0
  0
SPLINE
  5
7A
330
1F
100
AcDbEntity
  8
0
  6
Continuous
 62
     7
370
    15
100
AcDbSpline
210
0.0
220
0.0
230
1.0
 70
     8
 71
     3
 72
    29
 73
    25
 74
     0
 42
0.0000000001
 43
0.0000000001
 40
0.0
 40
0.0
 40
0.0
 40
0.0
 40
0.1250000000000001
 40
0.1250000000000001
 40
0.1875000000000001
 40
0.1875000000000001
 40
0.25
 40
0.25
 40
0.3749999999999997
 40
0.3749999999999997
 40
0.4374999999999992
 40
0.4374999999999992
 40
0.4999999999999987
 40
0.4999999999999987
 40
0.624999999999999
 40
0.624999999999999
 40
0.6874999999999992
 40
0.6874999999999992
 40
0.7499999999999995
 40
0.8124999999999998
 40
0.8124999999999998
 40
0.8750000000000001
 40
0.8750000000000001
 40
1.0
 40
1.0
 40
1.0
 40
1.0
 10
729.8349727897876
 20
1805.616587598272
 30
0.0
 10
728.985758600495
 20
1805.616587598272
 30
0.0
 10
728.1501348368636
 20
1805.488063173498
 30
0.0
 10
726.9163663187052
 20
1805.109284847426
 30
0.0
 10
726.508411688313
 20
1804.951802775658
 30
0.0
 10
725.6992716995808
 20
1804.572821741234
 30
0.0
 10
725.2972642085059
 20
1804.350390014902
 30
0.0
 10
724.1278221527648
 20
1803.600801520676
 30
0.0
 10
723.3878264402372
 20
1802.988735591512
 30
0.0
 10
722.3369204570242
 20
1801.90314929542
 30
0.0
 10
721.9953473025346
 20
1801.511646547374
 30
0.0
 10
721.338202460028
 20
1800.677002093883
 30
0.0
 10
721.0254016591035
 20
1800.237707236848
 30
0.0
 10
720.1328728071047
 20
1798.855912772512
 30
0.0
 10
719.5985832821995
 20
1797.850109337474
 30
0.0
 10
718.8905470401035
 20
1796.211284344623
 30
0.0
 10
718.6706613975815
 20
1795.643364983025
 30
0.0
 10
718.2720527457506
 20
1794.488887746075
 30
0.0
 10
717.9118340791458
 20
1793.309704098852
 30
0.0
 10
717.6272599697108
 20
1792.081838342134
 30
0.0
 10
717.3810384044563
 20
1790.829290270851
 30
0.0
 10
717.2767650331195
 20
1790.187782008129
 30
0.0
 10
717.0267137638139
 20
1788.247364124093
 30
0.0
 10
716.9430422102914
 20
1786.9392719778
 30
0.0
 10
716.9430422102914
 20
1785.616587598273
 30
0.0
  0
LINE
  5
7B
330
1F
100
AcDbEntity
  8
0
  6
Continuous
 62
     7
370
    15
100
AcDbLine
 10
729.8349727897876
 20
1805.616587598272
 30
0.0
 11
735.0440750029969
 21
1805.616587598272
 31
0.0
  0
LINE
  5
7C
330
1F
100
AcDbEntity
  8
0
  6
Continuous
 62
     7
370
    15
100
AcDbLine
 10
794.6675952152173
 20
1785.616587598273
 30
0.0
 11
789.4584930020084
 21
1785.616587598273
 31
0.0
  0
SPLINE
  5
7D
330
1F
100
AcDbEntity
  8
0
  6
Continuous
 62
     7
370
    15
100
AcDbSpline
210
0.0
220
0.0
230
1.0
 70
     8
 71
     3
 72
    29
 73
    25
 74
     0
 42
0.0000000001
 43
0.0000000001
 40
0.0
 40
0.0
 40
0.0
 40
0.0
 40
0.1249999999999986
 40
0.1249999999999986
 40
0.1874999999999981
 40
0.1874999999999981
 40
0.2499999999999976
 40
0.2499999999999976
 40
0.3749999999999964
 40
0.3749999999999964
 40
0.437499999999996
 40
0.437499999999996
 40
0.4999999999999956
 40
0.4999999999999956
 40
0.6249999999999963
 40
0.6249999999999963
 40
0.6874999999999968
 40
0.6874999999999968
 40
0.7499999999999973
 40
0.8124999999999978
 40
0.8124999999999978
 40
0.8749999999999984
 40
0.8749999999999984
 40
1.0
 40
1.0
 40
1.0
 40
1.0
 10
776.5665624225127
 20
1805.616587598272
 30
0.0
 10
777.4157766118054
 20
1805.616587598272
 30
0.0
 10
778.2514003754368
 20
1805.488063173498
 30
0.0
 10
779.485168893595
 20
1805.109284847426
 30
0.0
 10
779.8931235239873
 20
1804.951802775658
 30
0.0
 10
780.7022635127193
 20
1804.572821741234
 30
0.0
 10
781.1042710037943
 20
1804.350390014902
 30
0.0
 10
782.2737130595355
 20
1803.600801520676
 30
0.0
 10
783.0137087720629
 20
1802.988735591512
 30
0.0
 10
784.0646147552758
 20
1801.90314929542
 30
0.0
 10
784.4061879097654
 20
1801.511646547374
 30
0.0
 10
785.0633327522721
 20
1800.677002093883
 30
0.0
 10
785.3761335531966
 20
1800.237707236848
 30
0.0
 10
786.2686624051955
 20
1798.855912772512
 30
0.0
 10
786.8029519301005
 20
1797.850109337473
 30
0.0
 10
787.5109881721964
 20
1796.211284344623
 30
0.0
 10
787.7308738147185
 20
1795.643364983025
 30
0.0
 10
788.1294824665493
 20
1794.488887746075
 30
0.0
 10
788.4897011331542
 20
1793.309704098852
 30
0.0
 10
788.7742752425891
 20
1792.081838342134
 30
0.0
 10
789.0204968078435
 20
1790.829290270851
 30
0.0
 10
789.1247701791804
 20
1790.18778200813
 30
0.0
 10
789.374821448486
 20
1788.247364124093
 30
0.0
 10
789.4584930020085
 20
1786.9392719778
 30
0.0
 10
789.4584930020085
 20
1785.616587598273
 30
0.0
  0
LINE
  5
7E
330
1F
100
AcDbEntity
  8
0
  6
Continuous
 62
     7
370
    15
100
AcDbLine
 10
776.5665624225127
 20
1805.616587598272
 30
0.0
 11
781.7756646357215
 21
1805.616587598272
 31
0.0
  0
SPLINE
  5
7F
330
1F
100
AcDbEntity
  8
0
  6
Continuous
 62
     7
370
    15
100
AcDbSpline
210
0.0
220
0.0
230
1.0
 70
     8
 71
     3
 72
    29
 73
    25
 74
     0
 42
0.0000000001
 43
0.0000000001
 40
0.0
 40
0.0
 40
0.0
 40
0.0
 40
0.1249999999999991
 40
0.1249999999999991
 40
0.1874999999999986
 40
0.1874999999999986
 40
0.2499999999999982
 40
0.2499999999999982
 40
0.3749999999999982
 40
0.3749999999999982
 40
0.4374999999999979
 40
0.4374999999999979
 40
0.4999999999999976
 40
0.4999999999999976
 40
0.6249999999999981
 40
0.6249999999999981
 40
0.6874999999999983
 40
0.6874999999999983
 40
0.7499999999999984
 40
0.8124999999999985
 40
0.8124999999999985
 40
0.8749999999999989
 40
0.8749999999999989
 40
1.0
 40
1.0
 40
1.0
 40
1.0
 10
781.7756646357215
 20
1805.616587598272
 30
0.0
 10
782.6248788250138
 20
1805.616587598272
 30
0.0
 10
783.4605025886451
 20
1805.488063173498
 30
0.0
 10
784.6942711068034
 20
1805.109284847426
 30
0.0
 10
785.1022257371957
 20
1804.951802775658
 30
0.0
 10
785.9113657259279
 20
1804.572821741234
 30
0.0
 10
786.3133732170029
 20
1804.350390014902
 30
0.0
 10
787.4828152727439
 20
1803.600801520676
 30
0.0
 10
788.2228109852714
 20
1802.988735591512
 30
0.0
 10
789.2737169684846
 20
1801.90314929542
 30
0.0
 10
789.6152901229743
 20
1801.511646547374
 30
0.0
 10
790.2724349654808
 20
1800.677002093883
 30
0.0
 10
790.5852357664053
 20
1800.237707236848
 30
0.0
 10
791.4777646184041
 20
1798.855912772512
 30
0.0
 10
792.0120541433092
 20
1797.850109337474
 30
0.0
 10
792.7200903854052
 20
1796.211284344623
 30
0.0
 10
792.9399760279273
 20
1795.643364983025
 30
0.0
 10
793.3385846797579
 20
1794.488887746075
 30
0.0
 10
793.6988033463629
 20
1793.309704098852
 30
0.0
 10
793.9833774557979
 20
1792.081838342134
 30
0.0
 10
794.2295990210523
 20
1790.829290270851
 30
0.0
 10
794.3338723923893
 20
1790.187782008129
 30
0.0
 10
794.5839236616948
 20
1788.247364124093
 30
0.0
 10
794.6675952152173
 20
1786.9392719778
 30
0.0
 10
794.6675952152173
 20
1785.616587598273
 30
0.0
  0
LINE
  5
80
330
1F
100
AcDbEntity
  8
0
  6
Continuous
 62
     7
370
    15
100
AcDbLine
 10
789.4584930020084
 20
1745.616587598273
 30
0.0
 11
789.4584930020084
 21
1785.616587598273
 31
0.0
  0
LINE
  5
81
330
1F
100
AcDbEntity
  8
0
  6
Continuous
 62
     7
370
    15
100
AcDbLine
 10
716.9430422102915
 20
1745.616587598273
 30
0.0
 11
716.9430422102915
 21
1785.616587598273
 31
0.0
  0
LINE
  5
82
330
1F
100
AcDbEntity
  8
0
  6
Continuous
 62
     7
370
    15
100
AcDbLine
 10
794.6675952152173
 20
1745.616587598273
 30
0.0
 11
794.6675952152173
 21
1785.616587598273
 31
0.0
  0
LINE
  5
83
330
1F
100
AcDbEntity
  8
0
  6
Continuous
 62
     7
370
    15
100
AcDbLine
 10
746.567593883529
 20
1805.616587598272
 30
0.0
 11
752.4053187127582
 21
1805.616587598272
 31
0.0
  0
LINE
  5
84
330
1F
100
AcDbEntity
  8
0
  6
Continuous
 62
     7
370
    15
100
AcDbLine
 10
735.0440750029969
 20
1805.616587598272
 30
0.0
 11
740.1776840621843
 21
1805.616587598272
 31
0.0
  0
LINE
  5
85
330
1F
100
AcDbEntity
  8
0
  6
Continuous
 62
     7
370
    15
100
AcDbLine
 10
726.0246685171908
 20
1805.616587598272
 30
0.0
 11
729.8349727897876
 21
1805.616587598272
 31
0.0
  0
LINE
  5
86
330
1F
100
AcDbEntity
  8
0
  6
Continuous
 62
     7
370
    15
100
AcDbLine
 10
722.62466851719
 20
1805.616587598272
 30
0.0
 11
726.0246685171908
 21
1805.616587598272
 31
0.0
  0
LINE
  5
87
330
1F
100
AcDbEntity
  8
0
  6
Continuous
 62
     7
370
    15
100
AcDbLine
 10
720.5972479605541
 20
1805.616587598272
 30
0.0
 11
722.62466851719
 21
1805.616587598272
 31
0.0
  0
LINE
  5
88
330
1F
100
AcDbEntity
  8
0
  6
Continuous
 62
     7
370
    15
100
AcDbLine
 10
788.9859689083176
 20
1805.616587598272
 30
0.0
 11
791.0133894649492
 21
1805.616587598272
 31
0.0
  0
LINE
  5
89
330
1F
100
AcDbEntity
  8
0
  6
Continuous
 62
     7
370
    15
100
AcDbLine
 10
785.5859689083184
 20
1805.616587598272
 30
0.0
 11
788.9859689083176
 21
1805.616587598272
 31
0.0
  0
LINE
  5
8A
330
1F
100
AcDbEntity
  8
0
  6
Continuous
 62
     7
370
    15
100
AcDbLine
 10
781.7756646357215
 20
1805.616587598272
 30
0.0
 11
785.5859689083184
 21
1805.616587598272
 31
0.0
  0
LINE
  5
8B
330
1F
100
AcDbEntity
  8
0
  6
Continuous
 62
     7
370
    15
100
AcDbLine
 10
771.4329533633343
 20
1805.616587598272
 30
0.0
 11
776.5665624225127
 21
1805.616587598272
 31
0.0
  0
LINE
  5
8C
330
1F
100
AcDbEntity
  8
0
  6
Continuous
 62
     7
370
    15
100
AcDbLine
 10
759.2053187127582
 20
1805.616587598272
 30
0.0
 11
765.0430435419907
 21
1805.616587598272
 31
0.0
  0
LINE
  5
8D
330
1F
100
AcDbEntity
  8
0
  6
Continuous
 62
     7
370
    15
100
AcDbLine
 10
755.8053187127518
 20
1815.616587598273
 30
0.0
 11
792.3147026523263
 21
1815.616587598273
 31
0.0
  0
LINE
  5
8E
330
1F
100
AcDbEntity
  8
0
  6
Continuous
 62
     7
370
    15
100
AcDbLine
 10
719.2959347731775
 20
1815.616587598273
 30
0.0
 11
755.8053187127518
 21
1815.616587598273
 31
0.0
  0
LINE
  5
8F
330
1F
100
AcDbEntity
  8
0
  6
Continuous
 62
     7
370
    15
100
AcDbLine
 10
757.8053187127549
 20
1816.702426056552
 30
0.0
 11
753.8053187127549
 21
1816.702426056552
 31
0.0
  0
LINE
  5
90
330
1F
100
AcDbEntity
  8
0
  6
Continuous
 62
     7
370
    15
100
AcDbLine
 10
757.8053187127549
 20
1815.616587598273
 30
0.0
 11
757.8053187127549
 21
1816.702426056552
 31
0.0
  0
LINE
  5
91
330
1F
100
AcDbEntity
  8
0
  6
Continuous
 62
     7
370
    15
100
AcDbLine
 10
753.8053187127549
 20
1815.616587598273
 30
0.0
 11
753.8053187127549
 21
1816.702426056552
 31
0.0
  0
LINE
  5
92
330
1F
100
AcDbEntity
  8
0
  6
Continuous
 62
     7
370
    15
100
AcDbLine
 10
755.8053187127518
 20
1685.722275352613
 30
0.0
 11
769.9200175340993
 21
1685.722275352613
 31
0.0
  0
LINE
  5
93
330
1F
100
AcDbEntity
  8
0
  6
Continuous
 62
     7
370
    15
100
AcDbLine
 10
741.6906198914045
 20
1685.722275352613
 30
0.0
 11
755.8053187127518
 21
1685.722275352613
 31
0.0
  0
SPLINE
  5
94
330
1F
100
AcDbEntity
  8
0
  6
Continuous
 62
     7
370
    15
100
AcDbSpline
210
0.0
220
0.0
230
1.0
 70
     8
 71
     3
 72
    10
 73
     6
 74
     0
 42
0.0000000001
 43
0.0000000001
 40
0.0
 40
0.0
 40
0.0
 40
0.0
 40
0.0438451554187194
 40
0.5169089224140483
 40
1.0
 40
1.0
 40
1.0
 40
1.0
 10
777.9760323126184
 20
1822.748630566535
 30
0.0
 10
778.1417351876825
 20
1822.694448714736
 30
0.0
 10
780.0952758644662
 20
1822.055676144315
 30
0.0
 10
783.6267477645963
 20
1820.114058176164
 30
0.0
 10
786.6928588957772
 20
1817.847559776652
 30
0.0
 10
788.2419917990457
 20
1816.702426056552
 30
0.0
  0
LINE
  5
95
330
1F
100
AcDbEntity
  8
0
  6
Continuous
 62
     7
370
    15
100
AcDbLine
 10
788.2419917990457
 20
1816.702426056552
 30
0.0
 11
787.5473990883778
 21
1816.702426056552
 31
0.0
  0
SPLINE
  5
96
330
1F
100
AcDbEntity
  8
0
  6
Continuous
 62
     7
370
    15
100
AcDbSpline
210
0.0
220
0.0
230
1.0
 70
     8
 71
     3
 72
    14
 73
    10
 74
     0
 42
0.0000000001
 43
0.0000000001
 40
0.0
 40
0.0
 40
0.0
 40
0.0
 40
0.25
 40
0.25
 40
0.5
 40
0.5
 40
0.75
 40
0.75
 40
1.0
 40
1.0
 40
1.0
 40
1.0
 10
766.6282669683811
 20
1825.411574506117
 30
0.0
 10
768.5428520513344
 20
1825.216982539761
 30
0.0
 10
770.4236719758845
 20
1824.885137062744
 30
0.0
 10
774.1189981619596
 20
1823.951884718051
 30
0.0
 10
775.9335476415575
 20
1823.350653529462
 30
0.0
 10
779.4940841313209
 20
1821.869488487342
 30
0.0
 10
781.2039390977006
 20
1821.004456237324
 30
0.0
 10
784.4818275429197
 20
1819.035276567069
 30
0.0
 10
786.0507597596328
 20
1817.930765401885
 30
0.0
 10
787.5473990883778
 20
1816.702426056552
 30
0.0
  0
SPLINE
  5
97
330
1F
100
AcDbEntity
  8
0
  6
Continuous
 62
     7
370
    15
100
AcDbSpline
210
0.0
220
0.0
230
1.0
 70
     8
 71
     3
 72
    16
 73
    12
 74
     0
 42
0.0000000001
 43
0.0000000001
 40
0.0
 40
0.0
 40
0.0
 40
0.0
 40
0.2500000000000004
 40
0.2500000000000004
 40
0.5000000000000009
 40
0.5000000000000009
 40
0.6250000000000007
 40
0.6250000000000007
 40
0.7500000000000006
 40
0.7500000000000006
 40
1.0
 40
1.0
 40
1.0
 40
1.0
 10
785.0242430211975
 20
1816.702426056552
 30
0.0
 10
783.7073864633341
 20
1817.931450464162
 30
0.0
 10
782.3292581812015
 20
1819.034311748345
 30
0.0
 10
779.4555733019614
 20
1820.998240517485
 30
0.0
 10
777.9599998422277
 20
1821.859273281018
 30
0.0
 10
775.6267545099997
 20
1822.965742106171
 30
0.0
 10
774.831074228156
 20
1823.304596981742
 30
0.0
 10
773.2266462575316
 20
1823.911839910593
 30
0.0
 10
772.4176691777385
 20
1824.180676360093
 30
0.0
 10
769.9707554109216
 20
1824.884408419717
 30
0.0
 10
768.3129028385401
 20
1825.21686950503
 30
0.0
 10
766.6282669683811
 20
1825.411574506117
 30
0.0
  0
LINE
  5
98
330
1F
100
AcDbEntity
  8
0
  6
Continuous
 62
     7
370
    15
100
AcDbLine
 10
785.0242430211975
 20
1816.702426056552
 30
0.0
 11
783.0242430211979
 21
1816.702426056552
 31
0.0
  0
SPLINE
  5
99
330
1F
100
AcDbEntity
  8
0
  6
Continuous
 62
     7
370
    15
100
AcDbSpline
210
0.0
220
0.0
230
1.0
 70
     8
 71
     3
 72
    16
 73
    12
 74
     0
 42
0.0000000001
 43
0.0000000001
 40
0.0
 40
0.0
 40
0.0
 40
0.0
 40
0.25
 40
0.25
 40
0.5000000000000002
 40
0.5000000000000002
 40
0.6250000000000004
 40
0.6250000000000004
 40
0.7500000000000004
 40
0.7500000000000004
 40
1.0
 40
1.0
 40
1.0
 40
1.0
 10
783.0242430211979
 20
1816.702426056552
 30
0.0
 10
781.7073864633337
 20
1817.931450464163
 30
0.0
 10
780.3292581812005
 20
1819.034311748346
 30
0.0
 10
777.4555733019588
 20
1820.998240517487
 30
0.0
 10
775.9599998422243
 20
1821.85927328102
 30
0.0
 10
773.6267545099949
 20
1822.965742106173
 30
0.0
 10
772.8310742281507
 20
1823.304596981745
 30
0.0
 10
771.2266462575255
 20
1823.911839910595
 30
0.0
 10
770.417669177732
 20
1824.180676360095
 30
0.0
 10
767.9707554109137
 20
1824.884408419719
 30
0.0
 10
766.3129028385315
 20
1825.216869505032
 30
0.0
 10
764.6282669683714
 20
1825.411574506118
 30
0.0
  0
SPLINE
  5
9A
330
1F
100
AcDbEntity
  8
0
  6
Continuous
 62
     7
370
    15
100
AcDbSpline
210
0.0
220
0.0
230
1.0
 70
     8
 71
     3
 72
    14
 73
    10
 74
     0
 42
0.0000000001
 43
0.0000000001
 40
0.0
 40
0.0
 40
0.0
 40
0.0
 40
0.25
 40
0.25
 40
0.5
 40
0.5
 40
0.75
 40
0.75
 40
1.0
 40
1.0
 40
1.0
 40
1.0
 10
764.6282669683714
 20
1825.411574506118
 30
0.0
 10
765.8779234320222
 20
1825.216982570597
 30
0.0
 10
767.1055414620354
 20
1824.885137135888
 30
0.0
 10
769.5174947201501
 20
1823.951884639961
 30
0.0
 10
770.7018581569884
 20
1823.350653260369
 30
0.0
 10
773.0258343937253
 20
1821.869487322371
 30
0.0
 10
774.1418616611519
 20
1821.004455915288
 30
0.0
 10
776.2813510290879
 20
1819.035276544926
 30
0.0
 10
777.3053987517113
 20
1817.930765464782
 30
0.0
 10
778.2822607463538
 20
1816.702426056552
 30
0.0
  0
LINE
  5
9B
330
1F
100
AcDbEntity
  8
0
  6
Continuous
 62
     7
370
    15
100
AcDbLine
 10
778.2822607463538
 20
1816.702426056552
 30
0.0
 11
775.218082973878
 21
1816.702426056552
 31
0.0
  0
SPLINE
  5
9C
330
1F
100
AcDbEntity
  8
0
  6
Continuous
 62
     7
370
    15
100
AcDbSpline
210
0.0
220
0.0
230
1.0
 70
     8
 71
     3
 72
    14
 73
    10
 74
     0
 42
0.0000000001
 43
0.0000000001
 40
0.0
 40
0.0
 40
0.0
 40
0.0
 40
0.2499999999999998
 40
0.2499999999999998
 40
0.5
 40
0.5
 40
0.75
 40
0.75
 40
1.0
 40
1.0
 40
1.0
 40
1.0
 10
761.5640891959023
 20
1825.411574506117
 30
0.0
 10
762.8137456595525
 20
1825.216982570596
 30
0.0
 10
764.0413636895651
 20
1824.885137135886
 30
0.0
 10
766.4533169476785
 20
1823.95188463996
 30
0.0
 10
767.6376803845162
 20
1823.350653260367
 30
0.0
 10
769.9616566212519
 20
1821.869487322369
 30
0.0
 10
771.077683888678
 20
1821.004455915286
 30
0.0
 10
773.217173256613
 20
1819.035276544925
 30
0.0
 10
774.241220979236
 20
1817.930765464781
 30
0.0
 10
775.218082973878
 20
1816.702426056552
 30
0.0
  0
SPLINE
  5
9D
330
1F
100
AcDbEntity
  8
0
  6
Continuous
 62
     7
370
    15
100
AcDbSpline
210
0.0
220
0.0
230
1.0
 70
     8
 71
     3
 72
    16
 73
    12
 74
     0
 42
0.0000000001
 43
0.0000000001
 40
0.0
 40
0.0
 40
0.0
 40
0.0
 40
0.25
 40
0.25
 40
0.5000000000000001
 40
0.5000000000000001
 40
0.6250000000000001
 40
0.6250000000000001
 40
0.7500000000000002
 40
0.7500000000000002
 40
1.0
 40
1.0
 40
1.0
 40
1.0
 10
768.8292275379256
 20
1816.702426056552
 30
0.0
 10
768.3091602725853
 20
1817.931450449977
 30
0.0
 10
767.764894914044
 20
1819.034311722871
 30
0.0
 10
766.6299881345207
 20
1820.998240474957
 30
0.0
 10
766.0393400539676
 20
1821.859273232723
 30
0.0
 10
765.1178695187869
 20
1822.965742053695
 30
0.0
 10
764.8036308389428
 20
1823.304596927897
 30
0.0
 10
764.1699927511474
 20
1823.911839861203
 30
0.0
 10
763.8505027500464
 20
1824.180676315785
 30
0.0
 10
762.8841410222768
 20
1824.884408394114
 30
0.0
 10
762.2294038901884
 20
1825.216869496582
 30
0.0
 10
761.5640891959023
 20
1825.411574506117
 30
0.0
  0
LINE
  5
9E
330
1F
100
AcDbEntity
  8
0
  6
Continuous
 62
     7
370
    15
100
AcDbLine
 10
768.8292275379256
 20
1816.702426056552
 30
0.0
 11
765.0704570547823
 21
1816.702426056552
 31
0.0
  0
SPLINE
  5
9F
330
1F
100
AcDbEntity
  8
0
  6
Continuous
 62
     7
370
    15
100
AcDbSpline
210
0.0
220
0.0
230
1.0
 70
     8
 71
     3
 72
    16
 73
    12
 74
     0
 42
0.0000000001
 43
0.0000000001
 40
0.0
 40
0.0
 40
0.0
 40
0.0
 40
0.25
 40
0.25
 40
0.5
 40
0.5
 40
0.625
 40
0.625
 40
0.7499999999999999
 40
0.7499999999999999
 40
1.0
 40
1.0
 40
1.0
 40
1.0
 10
765.0704570547823
 20
1816.702426056552
 30
0.0
 10
764.5503897894416
 20
1817.931450449978
 30
0.0
 10
764.0061244309
 20
1819.034311722873
 30
0.0
 10
762.8712176513761
 20
1820.998240474959
 30
0.0
 10
762.2805695708227
 20
1821.859273232725
 30
0.0
 10
761.3590990356414
 20
1822.965742053697
 30
0.0
 10
761.0448603557974
 20
1823.3045969279
 30
0.0
 10
760.4112222680015
 20
1823.911839861206
 30
0.0
 10
760.0917322669003
 20
1824.180676315788
 30
0.0
 10
759.1253705391302
 20
1824.884408394115
 30
0.0
 10
758.4706334070415
 20
1825.216869496584
 30
0.0
 10
757.8053187127551
 20
1825.411574506118
 30
0.0
  0
SPLINE
  5
A0
330
1F
100
AcDbEntity
  8
0
  6
Continuous
 62
     7
370
    15
100
AcDbSpline
210
0.0
220
0.0
230
1.0
 70
     8
 71
     3
 72
    16
 73
    12
 74
     0
 42
0.0000000001
 43
0.0000000001
 40
0.0
 40
0.0
 40
0.0
 40
0.0
 40
0.2499999999999996
 40
0.2499999999999996
 40
0.4999999999999992
 40
0.4999999999999992
 40
0.6249999999999992
 40
0.6249999999999992
 40
0.7499999999999993
 40
0.7499999999999993
 40
1.0
 40
1.0
 40
1.0
 40
1.0
 10
746.5401803707305
 20
1816.702426056552
 30
0.0
 10
747.060247636071
 20
1817.931450449977
 30
0.0
 10
747.6045129946124
 20
1819.034311722872
 30
0.0
 10
748.7394197741359
 20
1820.998240474958
 30
0.0
 10
749.3300678546891
 20
1821.859273232724
 30
0.0
 10
750.25153838987
 20
1822.965742053695
 30
0.0
 10
750.5657770697141
 20
1823.304596927898
 30
0.0
 10
751.1994151575096
 20
1823.911839861204
 30
0.0
 10
751.5189051586108
 20
1824.180676315786
 30
0.0
 10
752.4852668863805
 20
1824.884408394114
 30
0.0
 10
753.1400040184689
 20
1825.216869496583
 30
0.0
 10
753.8053187127551
 20
1825.411574506117
 30
0.0
  0
LINE
  5
A1
330
1F
100
AcDbEntity
  8
0
  6
Continuous
 62
     7
370
    15
100
AcDbLine
 10
746.5401803707305
 20
1816.702426056552
 30
0.0
 11
742.7814098875867
 21
1816.702426056552
 31
0.0
  0
SPLINE
  5
A2
330
1F
100
AcDbEntity
  8
0
  6
Continuous
 62
     7
370
    15
100
AcDbSpline
210
0.0
220
0.0
230
1.0
 70
     8
 71
     3
 72
    16
 73
    12
 74
     0
 42
0.0000000001
 43
0.0000000001
 40
0.0
 40
0.0
 40
0.0
 40
0.0
 40
0.2500000000000002
 40
0.2500000000000002
 40
0.5000000000000005
 40
0.5000000000000005
 40
0.6250000000000006
 40
0.6250000000000006
 40
0.7500000000000007
 40
0.7500000000000007
 40
1.0
 40
1.0
 40
1.0
 40
1.0
 10
742.7814098875867
 20
1816.702426056552
 30
0.0
 10
743.3014771529274
 20
1817.931450449978
 30
0.0
 10
743.8457425114691
 20
1819.034311722873
 30
0.0
 10
744.9806492909933
 20
1820.998240474959
 30
0.0
 10
745.5712973715467
 20
1821.859273232726
 30
0.0
 10
746.4927679067281
 20
1822.965742053698
 30
0.0
 10
746.8070065865724
 20
1823.3045969279
 30
0.0
 10
747.4406446743683
 20
1823.911839861206
 30
0.0
 10
747.7601346754696
 20
1824.180676315788
 30
0.0
 10
748.7264964032399
 20
1824.884408394116
 30
0.0
 10
749.3812335353287
 20
1825.216869496584
 30
0.0
 10
750.0465482296152
 20
1825.411574506119
 30
0.0
  0
SPLINE
  5
A3
330
1F
100
AcDbEntity
  8
0
  6
Continuous
 62
     7
370
    15
100
AcDbSpline
210
0.0
220
0.0
230
1.0
 70
     8
 71
     3
 72
    14
 73
    10
 74
     0
 42
0.0000000001
 43
0.0000000001
 40
0.0
 40
0.0
 40
0.0
 40
0.0
 40
0.25
 40
0.25
 40
0.5
 40
0.5
 40
0.75
 40
0.75
 40
1.0
 40
1.0
 40
1.0
 40
1.0
 10
750.0465482296152
 20
1825.411574506118
 30
0.0
 10
748.7968917659641
 20
1825.216982570598
 30
0.0
 10
747.5692737359505
 20
1824.885137135889
 30
0.0
 10
745.1573204778351
 20
1823.951884639962
 30
0.0
 10
743.9729570409964
 20
1823.35065326037
 30
0.0
 10
741.6489808042586
 20
1821.869487322371
 30
0.0
 10
740.532953536832
 20
1821.004455915288
 30
0.0
 10
738.3934641688954
 20
1819.035276544927
 30
0.0
 10
737.3694164462717
 20
1817.930765464782
 30
0.0
 10
736.3925544516289
 20
1816.702426056552
 30
0.0
  0
LINE
  5
A4
330
1F
100
AcDbEntity
  8
0
  6
Continuous
 62
     7
370
    15
100
AcDbLine
 10
736.3925544516289
 20
1816.702426056552
 30
0.0
 11
733.3283766791529
 21
1816.702426056552
 31
0.0
  0
SPLINE
  5
A5
330
1F
100
AcDbEntity
  8
0
  6
Continuous
 62
     7
370
    15
100
AcDbSpline
210
0.0
220
0.0
230
1.0
 70
     8
 71
     3
 72
    14
 73
    10
 74
     0
 42
0.0000000001
 43
0.0000000001
 40
0.0
 40
0.0
 40
0.0
 40
0.0
 40
0.2499999999999999
 40
0.2499999999999999
 40
0.4999999999999999
 40
0.4999999999999999
 40
0.75
 40
0.75
 40
1.0
 40
1.0
 40
1.0
 40
1.0
 10
746.9823704571325
 20
1825.411574506118
 30
0.0
 10
745.7327139934819
 20
1825.216982570596
 30
0.0
 10
744.505095963469
 20
1824.885137135887
 30
0.0
 10
742.0931427053549
 20
1823.95188463996
 30
0.0
 10
740.9087792685168
 20
1823.350653260368
 30
0.0
 10
738.5848030317803
 20
1821.86948732237
 30
0.0
 10
737.468775764354
 20
1821.004455915287
 30
0.0
 10
735.3292863964184
 20
1819.035276544926
 30
0.0
 10
734.3052386737952
 20
1817.930765464781
 30
0.0
 10
733.3283766791529
 20
1816.702426056552
 30
0.0
  0
SPLINE
  5
A6
330
1F
100
AcDbEntity
  8
0
  6
Continuous
 62
     7
370
    15
100
AcDbSpline
210
0.0
220
0.0
230
1.0
 70
     8
 71
     3
 72
    16
 73
    12
 74
     0
 42
0.0000000001
 43
0.0000000001
 40
0.0
 40
0.0
 40
0.0
 40
0.0
 40
0.2499999999999996
 40
0.2499999999999996
 40
0.4999999999999992
 40
0.4999999999999992
 40
0.6249999999999996
 40
0.6249999999999996
 40
0.7499999999999997
 40
0.7499999999999997
 40
1.0
 40
1.0
 40
1.0
 40
1.0
 10
728.586394404309
 20
1816.702426056552
 30
0.0
 10
729.9032509621729
 20
1817.931450464163
 30
0.0
 10
731.2813792443059
 20
1819.034311748346
 30
0.0
 10
734.1550641235471
 20
1820.998240517487
 30
0.0
 10
735.6506375832815
 20
1821.85927328102
 30
0.0
 10
737.9838829155105
 20
1822.965742106173
 30
0.0
 10
738.7795631973545
 20
1823.304596981745
 30
0.0
 10
740.3839911679795
 20
1823.911839910595
 30
0.0
 10
741.1929682477729
 20
1824.180676360094
 30
0.0
 10
743.6398820145909
 20
1824.884408419718
 30
0.0
 10
745.2977345869729
 20
1825.216869505031
 30
0.0
 10
746.9823704571325
 20
1825.411574506118
 30
0.0
  0
LINE
  5
A7
330
1F
100
AcDbEntity
  8
0
  6
Continuous
 62
     7
370
    15
100
AcDbLine
 10
728.586394404309
 20
1816.702426056552
 30
0.0
 11
726.5863944043087
 21
1816.702426056552
 31
0.0
  0
SPLINE
  5
A8
330
1F
100
AcDbEntity
  8
0
  6
Continuous
 62
     7
370
    15
100
AcDbSpline
210
0.0
220
0.0
230
1.0
 70
     8
 71
     3
 72
    16
 73
    12
 74
     0
 42
0.0000000001
 43
0.0000000001
 40
0.0
 40
0.0
 40
0.0
 40
0.0
 40
0.25
 40
0.25
 40
0.5
 40
0.5
 40
0.625
 40
0.625
 40
0.7499999999999999
 40
0.7499999999999999
 40
1.0
 40
1.0
 40
1.0
 40
1.0
 10
726.5863944043087
 20
1816.702426056552
 30
0.0
 10
727.9032509621733
 20
1817.931450464163
 30
0.0
 10
729.281379244307
 20
1819.034311748347
 30
0.0
 10
732.1550641235497
 20
1820.998240517489
 30
0.0
 10
733.6506375832848
 20
1821.859273281022
 30
0.0
 10
735.9838829155151
 20
1822.965742106175
 30
0.0
 10
736.7795631973595
 20
1823.304596981747
 30
0.0
 10
738.3839911679854
 20
1823.911839910597
 30
0.0
 10
739.1929682477792
 20
1824.180676360096
 30
0.0
 10
741.6398820145984
 20
1824.88440841972
 30
0.0
 10
743.2977345869812
 20
1825.216869505032
 30
0.0
 10
744.9823704571419
 20
1825.411574506119
 30
0.0
  0
SPLINE
  5
A9
330
1F
100
AcDbEntity
  8
0
  6
Continuous
 62
     7
370
    15
100
AcDbSpline
210
0.0
220
0.0
230
1.0
 70
     8
 71
     3
 72
    14
 73
    10
 74
     0
 42
0.0000000001
 43
0.0000000001
 40
0.0
 40
0.0
 40
0.0
 40
0.0
 40
0.25
 40
0.25
 40
0.5
 40
0.5
 40
0.75
 40
0.75
 40
1.0
 40
1.0
 40
1.0
 40
1.0
 10
744.9823704571419
 20
1825.411574506119
 30
0.0
 10
743.0677853741869
 20
1825.216982539764
 30
0.0
 10
741.1869654496349
 20
1824.885137062748
 30
0.0
 10
737.4916392635561
 20
1823.951884718055
 30
0.0
 10
735.6770897839563
 20
1823.350653529466
 30
0.0
 10
732.1165532941891
 20
1821.869488487345
 30
0.0
 10
730.4066983278082
 20
1821.004456237328
 30
0.0
 10
727.1288098825865
 20
1819.03527656707
 30
0.0
 10
725.5598776658719
 20
1817.930765401886
 30
0.0
 10
724.0632383371255
 20
1816.702426056552
 30
0.0
  0
LINE
  5
AA
330
1F
100
AcDbEntity
  8
0
  6
Continuous
 62
     7
370
    15
100
AcDbLine
 10
724.0632383371255
 20
1816.702426056552
 30
0.0
 11
723.3686456264579
 21
1816.702426056552
 31
0.0
  0
SPLINE
  5
AB
330
1F
100
AcDbEntity
  8
0
  6
Continuous
 62
     7
370
    15
100
AcDbSpline
210
0.0
220
0.0
230
1.0
 70
     8
 71
     3
 72
    10
 73
     6
 74
     0
 42
0.0000000001
 43
0.0000000001
 40
0.0
 40
0.0
 40
0.0
 40
0.0
 40
0.0438451554226092
 40
0.5169089224160181
 40
1.0
 40
1.0
 40
1.0
 40
1.0
 10
733.6346051129265
 20
1822.748630566548
 30
0.0
 10
733.468902237847
 20
1822.694448714745
 30
0.0
 10
731.5153615610484
 20
1822.05567614432
 30
0.0
 10
727.9838896609049
 20
1820.114058176164
 30
0.0
 10
724.9177785297256
 20
1817.847559776652
 30
0.0
 10
723.3686456264579
 20
1816.702426056552
 30
0.0
  0
LINE
  5
AC
330
1F
100
AcDbEntity
  8
0
  6
Continuous
 62
     7
370
    15
100
AcDbLine
 10
744.023557440641
 20
1825.368124363965
 30
0.0
 11
744.2877777464635
 21
1825.411574506117
 31
0.0
  0
LINE
  5
AD
330
1F
100
AcDbEntity
  8
0
  6
Continuous
 62
     7
370
    15
100
AcDbLine
 10
746.9623964107666
 20
1825.593119138217
 30
0.0
 11
764.6482410147371
 21
1825.593119138217
 31
0.0
  0
SPLINE
  5
AE
330
1F
100
AcDbEntity
  8
0
  6
Continuous
 62
     7
370
    15
100
AcDbSpline
210
0.0
220
0.0
230
1.0
 70
    24
 71
     3
 72
    22
 73
    18
 74
     0
 42
0.0000000001
 43
0.0000000001
 40
0.0
 40
0.0
 40
0.0
 40
0.0
 40
0.2500000000000051
 40
0.2500000000000051
 40
0.3750000000000082
 40
0.3750000000000082
 40
0.4375000000000098
 40
0.4375000000000098
 40
0.4687500000000103
 40
0.4843750000000105
 40
0.4843750000000105
 40
0.4921875000000105
 40
0.4921875000000105
 40
0.5000000000000106
 40
0.7500000000000053
 40
0.7500000000000053
 40
1.0
 40
1.0
 40
1.0
 40
1.0
 10
757.8053187127551
 20
1825.411574506118
 30
0.0
 10
757.8053187127551
 20
1825.21742157985
 30
0.0
 10
757.8053187127551
 20
1824.884471682683
 30
0.0
 10
757.805318712755
 20
1824.165881861272
 30
0.0
 10
757.805318712755
 20
1823.889729627122
 30
0.0
 10
757.805318712755
 20
1823.41795068654
 30
0.0
 10
757.805318712755
 20
1823.251378722511
 30
0.0
 10
757.805318712755
 20
1822.98861354857
 30
0.0
 10
757.805318712755
 20
1822.853925767854
 30
0.0
 10
757.805318712755
 20
1822.714276176432
 30
0.0
 10
757.805318712755
 20
1822.643623681313
 30
0.0
 10
757.805318712755
 20
1822.619671054678
 30
0.0
 10
757.805318712755
 20
1822.574099534458
 30
0.0
 10
757.805318712755
 20
1821.818291163066
 30
0.0
 10
757.805318712755
 20
1820.936021650783
 30
0.0
 10
757.8053187127549
 20
1818.994134866941
 30
0.0
 10
757.8053187127549
 20
1817.907788576933
 30
0.0
 10
757.8053187127549
 20
1816.702426056552
 30
0.0
  0
SPLINE
  5
AF
330
1F
100
AcDbEntity
  8
0
  6
Continuous
 62
     7
370
    15
100
AcDbSpline
210
0.0
220
0.0
230
1.0
 70
    24
 71
     3
 72
    22
 73
    18
 74
     0
 42
0.0000000001
 43
0.0000000001
 40
0.0
 40
0.0
 40
0.0
 40
0.0
 40
0.2500000000000004
 40
0.2500000000000004
 40
0.3750000000000009
 40
0.3750000000000009
 40
0.4375000000000009
 40
0.4375000000000009
 40
0.4687500000000011
 40
0.4843750000000013
 40
0.4843750000000013
 40
0.4921875000000011
 40
0.4921875000000011
 40
0.5000000000000009
 40
0.7500000000000005
 40
0.7500000000000005
 40
1.0
 40
1.0
 40
1.0
 40
1.0
 10
753.8053187127551
 20
1825.411574506117
 30
0.0
 10
753.8053187127551
 20
1825.217421579849
 30
0.0
 10
753.8053187127551
 20
1824.884471682681
 30
0.0
 10
753.805318712755
 20
1824.16588186127
 30
0.0
 10
753.805318712755
 20
1823.88972962712
 30
0.0
 10
753.805318712755
 20
1823.417950686538
 30
0.0
 10
753.805318712755
 20
1823.251378722509
 30
0.0
 10
753.805318712755
 20
1822.988613548568
 30
0.0
 10
753.805318712755
 20
1822.853925767853
 30
0.0
 10
753.805318712755
 20
1822.71427617643
 30
0.0
 10
753.805318712755
 20
1822.643623681311
 30
0.0
 10
753.805318712755
 20
1822.619671054676
 30
0.0
 10
753.805318712755
 20
1822.574099534456
 30
0.0
 10
753.805318712755
 20
1821.818291163065
 30
0.0
 10
753.805318712755
 20
1820.936021650782
 30
0.0
 10
753.805318712755
 20
1818.99413486694
 30
0.0
 10
753.8053187127549
 20
1817.907788576933
 30
0.0
 10
753.8053187127549
 20
1816.702426056552
 30
0.0
  0
LINE
  5
B0
330
1F
100
AcDbEntity
  8
0
  6
Continuous
 62
     7
370
    15
100
AcDbLine
 10
746.5401803707305
 20
1816.702426056552
 30
0.0
 11
746.0807370282428
 21
1815.616587598273
 31
0.0
  0
LINE
  5
B1
330
1F
100
AcDbEntity
  8
0
  6
Continuous
 62
     7
370
    15
100
AcDbLine
 10
742.7814098875867
 20
1816.702426056552
 30
0.0
 11
742.321966545099
 21
1815.616587598273
 31
0.0
  0
LINE
  5
B2
330
1F
100
AcDbEntity
  8
0
  6
Continuous
 62
     7
370
    15
100
AcDbLine
 10
765.0704570547823
 20
1816.702426056552
 30
0.0
 11
765.5299003972698
 21
1815.616587598273
 31
0.0
  0
LINE
  5
B3
330
1F
100
AcDbEntity
  8
0
  6
Continuous
 62
     7
370
    15
100
AcDbLine
 10
768.8292275379256
 20
1816.702426056552
 30
0.0
 11
769.2886708804133
 21
1815.616587598273
 31
0.0
  0
SPLINE
  5
B4
330
1F
100
AcDbEntity
  8
0
  6
Continuous
 62
     7
370
    15
100
AcDbSpline
210
0.0
220
0.0
230
1.0
 70
     8
 71
     3
 72
    33
 73
    29
 74
     0
 42
0.0000000001
 43
0.0000000001
 40
0.0
 40
0.0
 40
0.0
 40
0.0
 40
0.1250000000000013
 40
0.1250000000000013
 40
0.187500000000002
 40
0.187500000000002
 40
0.2500000000000027
 40
0.2500000000000027
 40
0.3750000000000033
 40
0.3750000000000033
 40
0.4375000000000037
 40
0.4375000000000037
 40
0.5000000000000035
 40
0.5000000000000035
 40
0.6250000000000031
 40
0.6250000000000031
 40
0.6562500000000026
 40
0.6562500000000026
 40
0.6875000000000022
 40
0.6875000000000022
 40
0.7500000000000018
 40
0.8125000000000015
 40
0.8125000000000015
 40
0.8437500000000014
 40
0.8437500000000014
 40
0.8750000000000014
 40
0.8750000000000014
 40
1.0
 40
1.0
 40
1.0
 40
1.0
 10
705.2554174342182
 20
1785.616587598273
 30
0.0
 10
705.2554174342182
 20
1786.940311119283
 30
0.0
 10
705.3683095593762
 20
1788.24183005035
 30
0.0
 10
705.7000447659516
 20
1790.162166810575
 30
0.0
 10
705.8378915686494
 20
1790.796915681456
 30
0.0
 10
706.1693750958994
 20
1792.055440183621
 30
0.0
 10
706.3639015684034
 20
1792.680755022071
 30
0.0
 10
707.0191834847054
 20
1794.499334738614
 30
0.0
 10
707.5537938689169
 20
1795.649168444735
 30
0.0
 10
708.5010644007046
 20
1797.280908074576
 30
0.0
 10
708.8426572403862
 20
1797.81119055484
 30
0.0
 10
709.570018238581
 20
1798.830212014954
 30
0.0
 10
709.952712281119
 20
1799.315080371739
 30
0.0
 10
711.1560631333968
 20
1800.698054788516
 30
0.0
 10
712.0314662930965
 20
1801.525207215105
 30
0.0
 10
713.2193865298646
 20
1802.437752195847
 30
0.0
 10
713.4623253913371
 20
1802.614538454699
 30
0.0
 10
713.9529361625488
 20
1802.952277133813
 30
0.0
 10
714.2009558208731
 20
1803.113547737481
 30
0.0
 10
714.9530082516358
 20
1803.574981487881
 30
0.0
 10
715.9770231004716
 20
1804.130656944466
 30
0.0
 10
717.042954347748
 20
1804.568985445084
 30
0.0
 10
717.8583331645848
 20
1804.853133958331
 30
0.0
 10
718.1327858324451
 20
1804.940404091504
 30
0.0
 10
718.6871048517282
 20
1805.099788492596
 30
0.0
 10
718.9673514061699
 20
1805.171943605353
 30
0.0
 10
720.3669590234669
 20
1805.49079954074
 30
0.0
 10
721.4928133469552
 20
1805.616587598272
 30
0.0
 10
722.62466851719
 20
1805.616587598272
 30
0.0
  0
SPLINE
  5
B5
330
1F
100
AcDbEntity
  8
0
  6
Continuous
 62
     7
370
    15
100
AcDbSpline
210
0.0
220
0.0
230
1.0
 70
     8
 71
     3
 72
    33
 73
    29
 74
     0
 42
0.0000000001
 43
0.0000000001
 40
0.0
 40
0.0
 40
0.0
 40
0.0
 40
0.1250000000000013
 40
0.1250000000000013
 40
0.1875000000000019
 40
0.1875000000000019
 40
0.2500000000000026
 40
0.2500000000000026
 40
0.375000000000004
 40
0.375000000000004
 40
0.4375000000000047
 40
0.4375000000000047
 40
0.5000000000000048
 40
0.5000000000000048
 40
0.625000000000005
 40
0.625000000000005
 40
0.6562500000000046
 40
0.6562500000000046
 40
0.6875000000000041
 40
0.6875000000000041
 40
0.7500000000000034
 40
0.8125000000000024
 40
0.8125000000000024
 40
0.8437500000000023
 40
0.8437500000000023
 40
0.8750000000000021
 40
0.8750000000000021
 40
1.0
 40
1.0
 40
1.0
 40
1.0
 10
708.6554174342187
 20
1785.616587598273
 30
0.0
 10
708.6554174342187
 20
1786.940311119283
 30
0.0
 10
708.7683095593766
 20
1788.24183005035
 30
0.0
 10
709.100044765952
 20
1790.162166810575
 30
0.0
 10
709.23789156865
 20
1790.796915681456
 30
0.0
 10
709.5693750958998
 20
1792.055440183621
 30
0.0
 10
709.7639015684039
 20
1792.680755022071
 30
0.0
 10
710.419183484706
 20
1794.499334738614
 30
0.0
 10
710.9537938689173
 20
1795.649168444735
 30
0.0
 10
711.9010644007052
 20
1797.280908074576
 30
0.0
 10
712.2426572403867
 20
1797.81119055484
 30
0.0
 10
712.9700182385816
 20
1798.830212014954
 30
0.0
 10
713.3527122811195
 20
1799.315080371739
 30
0.0
 10
714.5560631333975
 20
1800.698054788516
 30
0.0
 10
715.4314662930971
 20
1801.525207215105
 30
0.0
 10
716.6193865298651
 20
1802.437752195848
 30
0.0
 10
716.8623253913377
 20
1802.614538454699
 30
0.0
 10
717.3529361625494
 20
1802.952277133814
 30
0.0
 10
717.6009558208737
 20
1803.113547737481
 30
0.0
 10
718.3530082516365
 20
1803.574981487881
 30
0.0
 10
719.3770232179401
 20
1804.130656615609
 30
0.0
 10
720.4429543477488
 20
1804.568985445084
 30
0.0
 10
721.2583331645856
 20
1804.853133958331
 30
0.0
 10
721.5327858324457
 20
1804.940404091504
 30
0.0
 10
722.087104851729
 20
1805.099788492596
 30
0.0
 10
722.3673514061706
 20
1805.171943605353
 30
0.0
 10
723.7669590234677
 20
1805.49079954074
 30
0.0
 10
724.892813346956
 20
1805.616587598272
 30
0.0
 10
726.0246685171908
 20
1805.616587598272
 30
0.0
  0
LINE
  5
B6
330
1F
100
AcDbEntity
  8
0
  6
Continuous
 62
     7
370
    15
100
AcDbLine
 10
708.6554174342187
 20
1785.616587598273
 30
0.0
 11
705.2554174342182
 21
1785.616587598273
 31
0.0
  0
LINE
  5
B7
330
1F
100
AcDbEntity
  8
0
  6
Continuous
 62
     7
370
    15
100
AcDbLine
 10
708.6554174342187
 20
1785.616587598273
 30
0.0
 11
708.6554174342187
 21
1745.616587598273
 31
0.0
  0
LINE
  5
B8
330
1F
100
AcDbEntity
  8
0
  6
Continuous
 62
     7
370
    15
100
AcDbLine
 10
802.9552199912902
 20
1785.616587598273
 30
0.0
 11
802.9552199912902
 21
1745.616587598273
 31
0.0
  0
SPLINE
  5
B9
330
1F
100
AcDbEntity
  8
0
  6
Continuous
 62
     7
370
    15
100
AcDbSpline
210
0.0
220
0.0
230
1.0
 70
     8
 71
     3
 72
    33
 73
    29
 74
     0
 42
0.0000000001
 43
0.0000000001
 40
0.0
 40
0.0
 40
0.0
 40
0.0
 40
0.1250000000000005
 40
0.1250000000000005
 40
0.1875000000000009
 40
0.1875000000000009
 40
0.2500000000000012
 40
0.2500000000000012
 40
0.3750000000000022
 40
0.3750000000000022
 40
0.4375000000000028
 40
0.4375000000000028
 40
0.5000000000000028
 40
0.5000000000000028
 40
0.6250000000000019
 40
0.6250000000000019
 40
0.6562500000000019
 40
0.6562500000000019
 40
0.6875000000000019
 40
0.6875000000000019
 40
0.7500000000000014
 40
0.8125000000000007
 40
0.8125000000000007
 40
0.8437500000000003
 40
0.8437500000000003
 40
0.8750000000000001
 40
0.8750000000000001
 40
1.0
 40
1.0
 40
1.0
 40
1.0
 10
802.9552199912902
 20
1785.616587598273
 30
0.0
 10
802.9552199912902
 20
1786.940311119283
 30
0.0
 10
802.8423278661323
 20
1788.24183005035
 30
0.0
 10
802.5105926595569
 20
1790.162166810575
 30
0.0
 10
802.3727458568592
 20
1790.796915681456
 30
0.0
 10
802.0412623296092
 20
1792.055440183621
 30
0.0
 10
801.8467358571051
 20
1792.680755022071
 30
0.0
 10
801.1914539408031
 20
1794.499334738614
 30
0.0
 10
800.6568435565917
 20
1795.649168444735
 30
0.0
 10
799.7095730248038
 20
1797.280908074576
 30
0.0
 10
799.3679801851223
 20
1797.81119055484
 30
0.0
 10
798.6406191869275
 20
1798.830212014954
 30
0.0
 10
798.2579251443895
 20
1799.315080371739
 30
0.0
 10
797.0545742921116
 20
1800.698054788516
 30
0.0
 10
796.1791711324121
 20
1801.525207215105
 30
0.0
 10
794.991250895644
 20
1802.437752195847
 30
0.0
 10
794.7483120341715
 20
1802.614538454699
 30
0.0
 10
794.2577012629598
 20
1802.952277133813
 30
0.0
 10
794.0096816046355
 20
1803.113547737481
 30
0.0
 10
793.2576291738727
 20
1803.574981487881
 30
0.0
 10
792.2336142075691
 20
1804.130656615609
 30
0.0
 10
791.1676830777605
 20
1804.568985445084
 30
0.0
 10
790.3523042609237
 20
1804.853133958331
 30
0.0
 10
790.0778515930635
 20
1804.940404091504
 30
0.0
 10
789.5235325737803
 20
1805.099788492596
 30
0.0
 10
789.2432860193386
 20
1805.171943605353
 30
0.0
 10
787.8436784020416
 20
1805.49079954074
 30
0.0
 10
786.7178240785533
 20
1805.616587598272
 30
0.0
 10
785.5859689083184
 20
1805.616587598272
 30
0.0
  0
SPLINE
  5
BA
330
1F
100
AcDbEntity
  8
0
  6
Continuous
 62
     7
370
    15
100
AcDbSpline
210
0.0
220
0.0
230
1.0
 70
     8
 71
     3
 72
    33
 73
    29
 74
     0
 42
0.0000000001
 43
0.0000000001
 40
0.0
 40
0.0
 40
0.0
 40
0.0
 40
0.1250000000000014
 40
0.1250000000000014
 40
0.187500000000002
 40
0.187500000000002
 40
0.2500000000000027
 40
0.2500000000000027
 40
0.3750000000000042
 40
0.3750000000000042
 40
0.4375000000000052
 40
0.4375000000000052
 40
0.5000000000000055
 40
0.5000000000000055
 40
0.6250000000000072
 40
0.6250000000000072
 40
0.6562500000000071
 40
0.6562500000000071
 40
0.6875000000000068
 40
0.6875000000000068
 40
0.750000000000005
 40
0.8125000000000031
 40
0.8125000000000031
 40
0.8437500000000026
 40
0.8437500000000026
 40
0.8750000000000021
 40
0.8750000000000021
 40
1.0
 40
1.0
 40
1.0
 40
1.0
 10
806.3552199912898
 20
1785.616587598273
 30
0.0
 10
806.3552199912898
 20
1786.940311119283
 30
0.0
 10
806.2423278661317
 20
1788.24183005035
 30
0.0
 10
805.9105926595565
 20
1790.162166810575
 30
0.0
 10
805.7727458568585
 20
1790.796915681456
 30
0.0
 10
805.4412623296085
 20
1792.055440183621
 30
0.0
 10
805.2467358571044
 20
1792.680755022071
 30
0.0
 10
804.5914539408025
 20
1794.499334738615
 30
0.0
 10
804.056843556591
 20
1795.649168444735
 30
0.0
 10
803.1095730248033
 20
1797.280908074576
 30
0.0
 10
802.7679801851217
 20
1797.81119055484
 30
0.0
 10
802.040619186927
 20
1798.830212014954
 30
0.0
 10
801.6579251443888
 20
1799.315080371739
 30
0.0
 10
800.4545742921109
 20
1800.698054788517
 30
0.0
 10
799.5791711324113
 20
1801.525207215105
 30
0.0
 10
798.3912508956433
 20
1802.437752195848
 30
0.0
 10
798.1483120341708
 20
1802.614538454699
 30
0.0
 10
797.6577012629591
 20
1802.952277133814
 30
0.0
 10
797.4096816046347
 20
1803.113547737481
 30
0.0
 10
796.657629173872
 20
1803.574981487881
 30
0.0
 10
795.6336143250361
 20
1804.130656944466
 30
0.0
 10
794.5676830777597
 20
1804.568985445084
 30
0.0
 10
793.7523042609229
 20
1804.853133958331
 30
0.0
 10
793.4778515930627
 20
1804.940404091504
 30
0.0
 10
792.9235325737795
 20
1805.099788492596
 30
0.0
 10
792.6432860193378
 20
1805.171943605353
 30
0.0
 10
791.2436784020408
 20
1805.49079954074
 30
0.0
 10
790.1178240785525
 20
1805.616587598272
 30
0.0
 10
788.9859689083176
 20
1805.616587598272
 30
0.0
  0
LINE
  5
BB
330
1F
100
AcDbEntity
  8
0
  6
Continuous
 62
     7
370
    15
100
AcDbLine
 10
806.3552199912898
 20
1785.616587598273
 30
0.0
 11
802.9552199912902
 21
1785.616587598273
 31
0.0
  0
LINE
  5
BC
330
1F
100
AcDbEntity
  8
0
  6
Continuous
 62
     7
370
    15
100
AcDbLine
 10
705.2554174342182
 20
1785.616587598273
 30
0.0
 11
705.2554174342182
 21
1745.616587598273
 31
0.0
  0
LINE
  5
BD
330
1F
100
AcDbEntity
  8
0
  6
Continuous
 62
     7
370
    15
100
AcDbLine
 10
806.3552199912898
 20
1785.616587598273
 30
0.0
 11
806.3552199912898
 21
1745.616587598273
 31
0.0
  0
LINE
  5
BE
330
1F
100
AcDbEntity
  8
0
  6
Continuous
 62
     7
370
    15
100
AcDbLine
 10
735.5290834144192
 20
1815.616587598273
 30
0.0
 11
736.3925544516289
 21
1816.702426056552
 31
0.0
  0
LINE
  5
BF
330
1F
100
AcDbEntity
  8
0
  6
Continuous
 62
     7
370
    15
100
AcDbLine
 10
732.4649056419432
 20
1815.616587598273
 30
0.0
 11
733.3283766791529
 21
1816.702426056552
 31
0.0
  0
LINE
  5
C0
330
1F
100
AcDbEntity
  8
0
  6
Continuous
 62
     7
370
    15
100
AcDbLine
 10
779.1457317835635
 20
1815.616587598273
 30
0.0
 11
778.2822607463538
 21
1816.702426056552
 31
0.0
  0
LINE
  5
C1
330
1F
100
AcDbEntity
  8
0
  6
Continuous
 62
     7
370
    15
100
AcDbLine
 10
776.0815540110877
 20
1815.616587598273
 30
0.0
 11
775.218082973878
 21
1816.702426056552
 31
0.0
  0
LINE
  5
C2
330
1F
100
AcDbEntity
  8
0
  6
Continuous
 62
     7
370
    15
100
AcDbLine
 10
728.586394404309
 20
1816.702426056552
 30
0.0
 11
727.42304302294
 21
1815.616587598273
 31
0.0
  0
LINE
  5
C3
330
1F
100
AcDbEntity
  8
0
  6
Continuous
 62
     7
370
    15
100
AcDbLine
 10
726.5863944043087
 20
1816.702426056552
 30
0.0
 11
725.4230430229397
 21
1815.616587598273
 31
0.0
  0
LINE
  5
C4
330
1F
100
AcDbEntity
  8
0
  6
Continuous
 62
     7
370
    15
100
AcDbLine
 10
785.0242430211975
 20
1816.702426056552
 30
0.0
 11
786.1875944025664
 21
1815.616587598273
 31
0.0
  0
LINE
  5
C5
330
1F
100
AcDbEntity
  8
0
  6
Continuous
 62
     7
370
    15
100
AcDbLine
 10
783.0242430211979
 20
1816.702426056552
 30
0.0
 11
784.1875944025668
 21
1815.616587598273
 31
0.0
  0
LINE
  5
C6
330
1F
100
AcDbEntity
  8
0
  6
Continuous
 62
     7
370
    15
100
AcDbLine
 10
811.9457806360813
 20
1785.616587598273
 30
0.0
 11
810.764973027946
 21
1785.616587598273
 31
0.0
  0
SPLINE
  5
C7
330
1F
100
AcDbEntity
  8
0
  6
Continuous
 62
     7
370
    15
100
AcDbSpline
210
0.0
220
0.0
230
1.0
 70
     8
 71
     3
 72
    29
 73
    25
 74
     0
 42
0.0000000001
 43
0.0000000001
 40
0.0
 40
0.0
 40
0.0
 40
0.0
 40
0.1250000000000002
 40
0.1250000000000002
 40
0.1875000000000003
 40
0.1875000000000003
 40
0.2500000000000005
 40
0.2500000000000005
 40
0.3750000000000005
 40
0.3750000000000005
 40
0.4375000000000006
 40
0.4375000000000006
 40
0.5000000000000007
 40
0.5000000000000007
 40
0.6250000000000002
 40
0.6250000000000002
 40
0.6875000000000002
 40
0.6875000000000002
 40
0.7500000000000002
 40
0.8125000000000001
 40
0.8125000000000001
 40
0.8750000000000001
 40
0.8750000000000001
 40
1.0
 40
1.0
 40
1.0
 40
1.0
 10
791.0133894649492
 20
1805.616587598272
 30
0.0
 10
792.3144621859184
 20
1805.616587598272
 30
0.0
 10
793.5947124340907
 20
1805.488062961022
 30
0.0
 10
795.4849550540667
 20
1805.109284596045
 30
0.0
 10
796.1099775088073
 20
1804.951802556684
 30
0.0
 10
797.3496509755221
 20
1804.572821781562
 30
0.0
 10
797.9655624453878
 20
1804.350389991909
 30
0.0
 10
799.7572526048704
 20
1803.600801037427
 30
0.0
 10
800.8909917697103
 20
1802.988734940596
 30
0.0
 10
802.5010723283674
 20
1801.90314912646
 30
0.0
 10
803.02439181545
 20
1801.511647135563
 30
0.0
 10
804.0311969544118
 20
1800.67700203001
 30
0.0
 10
804.5104358246844
 20
1800.237706924798
 30
0.0
 10
805.8778696827538
 20
1798.85591204562
 30
0.0
 10
806.6964484138438
 20
1797.850108766771
 30
0.0
 10
807.7812220456797
 20
1796.211285086309
 30
0.0
 10
808.1181067376142
 20
1795.643365238746
 30
0.0
 10
808.7288109273124
 20
1794.488887421159
 30
0.0
 10
809.2806980270941
 20
1793.309703475262
 30
0.0
 10
809.7166906885625
 20
1792.081838051457
 30
0.0
 10
810.0939238077234
 20
1790.829290672224
 30
0.0
 10
810.2536797344912
 20
1790.187783202241
 30
0.0
 10
810.6367807809219
 20
1788.247364373791
 30
0.0
 10
810.7649730279463
 20
1786.939271925743
 30
0.0
 10
810.7649730279463
 20
1785.616587598273
 30
0.0
  0
SPLINE
  5
C8
330
1F
100
AcDbEntity
  8
0
  6
Continuous
 62
     7
370
    15
100
AcDbSpline
210
0.0
220
0.0
230
1.0
 70
     8
 71
     3
 72
    29
 73
    25
 74
     0
 42
0.0000000001
 43
0.0000000001
 40
0.0
 40
0.0
 40
0.0
 40
0.0
 40
0.1249999999999994
 40
0.1249999999999994
 40
0.1874999999999994
 40
0.1874999999999994
 40
0.2499999999999995
 40
0.2499999999999995
 40
0.3750000000000001
 40
0.3750000000000001
 40
0.4375000000000005
 40
0.4375000000000005
 40
0.5000000000000008
 40
0.5000000000000008
 40
0.6250000000000006
 40
0.6250000000000006
 40
0.6875000000000005
 40
0.6875000000000005
 40
0.7500000000000004
 40
0.8125000000000003
 40
0.8125000000000003
 40
0.8750000000000001
 40
0.8750000000000001
 40
1.0
 40
1.0
 40
1.0
 40
1.0
 10
792.1941970730845
 20
1805.616587598272
 30
0.0
 10
793.4963520093362
 20
1805.616587598272
 30
0.0
 10
794.7769730205227
 20
1805.487853866281
 30
0.0
 10
796.6668373820742
 20
1805.10902814746
 30
0.0
 10
797.2915766269197
 20
1804.9515734444
 30
0.0
 10
798.5303778824723
 20
1804.572833584994
 30
0.0
 10
799.1464632017254
 20
1804.3503672454
 30
0.0
 10
800.9391278406862
 20
1803.600321909517
 30
0.0
 10
802.072839085709
 20
1802.98808390027
 30
0.0
 10
803.6821453526338
 20
1801.902945165356
 30
0.0
 10
804.204481568596
 20
1801.512224958122
 30
0.0
 10
805.2121033269767
 20
1800.676937425152
 30
0.0
 10
805.6915801375151
 20
1800.23739611646
 30
0.0
 10
807.0593429996284
 20
1798.855180437276
 30
0.0
 10
807.8776277735926
 20
1797.849513890961
 30
0.0
 10
808.9616115264298
 20
1796.211933393354
 30
0.0
 10
809.2987842500493
 20
1795.643614294665
 30
0.0
 10
809.9097906058961
 20
1794.488559015782
 30
0.0
 10
810.4617649416052
 20
1793.3090703395
 30
0.0
 10
810.8975970656549
 20
1792.081510314727
 30
0.0
 10
811.2746337320315
 20
1790.829614805937
 30
0.0
 10
811.4342307329271
 20
1790.188937161477
 30
0.0
 10
811.8175984479975
 20
1788.247604692002
 30
0.0
 10
811.9457806360815
 20
1786.939220900439
 30
0.0
 10
811.9457806360815
 20
1785.616587598273
 30
0.0
  0
LINE
  5
C9
330
1F
100
AcDbEntity
  8
0
  6
Continuous
 62
     7
370
    15
100
AcDbLine
 10
810.764973027946
 20
1745.616587598273
 30
0.0
 11
810.764973027946
 21
1766.815512873295
 31
0.0
  0
LINE
  5
CA
330
1F
100
AcDbEntity
  8
0
  6
Continuous
 62
     7
370
    15
100
AcDbLine
 10
810.764973027946
 20
1766.881932568659
 30
0.0
 11
810.764973027946
 21
1785.616587598273
 31
0.0
  0
LINE
  5
CB
330
1F
100
AcDbEntity
  8
0
  6
Continuous
 62
     7
370
    15
100
AcDbLine
 10
700.8456643975572
 20
1785.616587598273
 30
0.0
 11
699.6648567894221
 21
1785.616587598273
 31
0.0
  0
SPLINE
  5
CC
330
1F
100
AcDbEntity
  8
0
  6
Continuous
 62
     7
370
    15
100
AcDbSpline
210
0.0
220
0.0
230
1.0
 70
     8
 71
     3
 72
    16
 73
    12
 74
     0
 42
0.0000000001
 43
0.0000000001
 40
0.0
 40
0.0
 40
0.0
 40
0.0
 40
0.0327525204107913
 40
0.1493834042189944
 40
0.264370717204272
 40
0.3827177808937468
 40
0.4972699607610537
 40
0.6151609144871797
 40
0.7294238468328804
 40
0.8470100568979937
 40
1.0
 40
1.0
 40
1.0
 40
1.0
 10
717.1138981074967
 20
1805.424681862615
 30
0.0
 10
716.8016895435098
 20
1805.403758040261
 30
0.0
 10
715.3777143034448
 20
1805.308325024016
 30
0.0
 10
712.9287808377981
 20
1804.582394642546
 30
0.0
 10
709.8562766645279
 20
1803.238172875857
 30
0.0
 10
707.0754550801399
 20
1801.357038886355
 30
0.0
 10
704.6256063173713
 20
1799.019714024474
 30
0.0
 10
702.6183137312774
 20
1796.324645574994
 30
0.0
 10
701.0855569990005
 20
1793.300982900801
 30
0.0
 10
699.9225708305398
 20
1789.731167647519
 30
0.0
 10
699.7579418045696
 20
1787.102753212488
 30
0.0
 10
699.6648567894221
 20
1785.616587598273
 30
0.0
  0
SPLINE
  5
CD
330
1F
100
AcDbEntity
  8
0
  6
Continuous
 62
     7
370
    15
100
AcDbSpline
210
0.0
220
0.0
230
1.0
 70
     8
 71
     3
 72
    29
 73
    25
 74
     0
 42
0.0000000001
 43
0.0000000001
 40
0.0
 40
0.0
 40
0.0
 40
0.0
 40
0.125000000000001
 40
0.125000000000001
 40
0.1875000000000015
 40
0.1875000000000015
 40
0.250000000000002
 40
0.250000000000002
 40
0.3750000000000031
 40
0.3750000000000031
 40
0.4375000000000034
 40
0.4375000000000034
 40
0.5000000000000036
 40
0.5000000000000036
 40
0.6250000000000027
 40
0.6250000000000027
 40
0.6875000000000023
 40
0.6875000000000023
 40
0.7500000000000017
 40
0.8125000000000012
 40
0.8125000000000012
 40
0.8750000000000007
 40
0.8750000000000007
 40
1.0
 40
1.0
 40
1.0
 40
1.0
 10
720.5972479605541
 20
1805.616587598272
 30
0.0
 10
719.2961752395855
 20
1805.616587598272
 30
0.0
 10
718.0159249914135
 20
1805.488062961022
 30
0.0
 10
716.1256823714372
 20
1805.109284596045
 30
0.0
 10
715.5006599166963
 20
1804.951802556684
 30
0.0
 10
714.2609864499811
 20
1804.572821781562
 30
0.0
 10
713.6450749801156
 20
1804.35038999191
 30
0.0
 10
711.8533848206336
 20
1803.600801037427
 30
0.0
 10
710.7196456557934
 20
1802.988734940596
 30
0.0
 10
709.1095650971359
 20
1801.90314912646
 30
0.0
 10
708.5862456100529
 20
1801.511647135563
 30
0.0
 10
707.5794404710915
 20
1800.67700203001
 30
0.0
 10
707.1002016008192
 20
1800.237706924798
 30
0.0
 10
705.7327677427499
 20
1798.85591204562
 30
0.0
 10
704.9141890116596
 20
1797.850108766772
 30
0.0
 10
703.8294153798234
 20
1796.211285086309
 30
0.0
 10
703.4925306878891
 20
1795.643365238746
 30
0.0
 10
702.881826498191
 20
1794.488887421159
 30
0.0
 10
702.3299393984093
 20
1793.309703475262
 30
0.0
 10
701.8939467369409
 20
1792.081838051457
 30
0.0
 10
701.5167136177796
 20
1790.829290672224
 30
0.0
 10
701.3569576910119
 20
1790.187783202241
 30
0.0
 10
700.9738566445813
 20
1788.247364373791
 30
0.0
 10
700.845664397557
 20
1786.939271925743
 30
0.0
 10
700.845664397557
 20
1785.616587598273
 30
0.0
  0
LINE
  5
CE
330
1F
100
AcDbEntity
  8
0
  6
Continuous
 62
     7
370
    15
100
AcDbLine
 10
700.8456643975572
 20
1745.616587598273
 30
0.0
 11
700.8456643975572
 21
1766.815512873294
 31
0.0
  0
LINE
  5
CF
330
1F
100
AcDbEntity
  8
0
  6
Continuous
 62
     7
370
    15
100
AcDbLine
 10
700.8456643975572
 20
1766.88193256866
 30
0.0
 11
700.8456643975572
 21
1785.616587598273
 31
0.0
  0
LINE
  5
D0
330
1F
100
AcDbEntity
  8
0
  6
Continuous
 62
     7
370
    15
100
AcDbLine
 10
811.9457806360813
 20
1745.616587598273
 30
0.0
 11
811.9457806360813
 21
1765.901998629223
 31
0.0
  0
LINE
  5
D1
330
1F
100
AcDbEntity
  8
0
  6
Continuous
 62
     7
370
    15
100
AcDbLine
 10
811.9457806360813
 20
1768.408243314746
 30
0.0
 11
811.9457806360813
 21
1785.616587598273
 31
0.0
  0
LINE
  5
D2
330
1F
100
AcDbEntity
  8
0
  6
Continuous
 62
     7
370
    15
100
AcDbLine
 10
699.6648567894221
 20
1745.616587598273
 30
0.0
 11
699.6648567894221
 21
1765.901998629223
 31
0.0
  0
LINE
  5
D3
330
1F
100
AcDbEntity
  8
0
  6
Continuous
 62
     7
370
    15
100
AcDbLine
 10
699.6648567894221
 20
1768.408243314746
 30
0.0
 11
699.6648567894221
 21
1785.616587598273
 31
0.0
  0
LINE
  5
D4
330
1F
100
AcDbEntity
  8
0
  6
Continuous
 62
     7
370
    15
100
AcDbLine
 10
788.8703134680753
 20
1815.616587598273
 30
0.0
 11
787.5473990883778
 21
1816.702426056552
 31
0.0
  0
LINE
  5
D5
330
1F
100
AcDbEntity
  8
0
  6
Continuous
 62
     7
370
    15
100
AcDbLine
 10
722.7403239574282
 20
1815.616587598273
 30
0.0
 11
724.0632383371255
 21
1816.702426056552
 31
0.0
  0
LINE
  5
D6
330
1F
100
AcDbEntity
  8
0
  6
Continuous
 62
     7
370
    15
100
AcDbLine
 10
755.8053187127518
 20
1827.616587598273
 30
0.0
 11
764.6482410147371
 21
1827.616587598273
 31
0.0
  0
LINE
  5
D7
330
1F
100
AcDbEntity
  8
0
  6
Continuous
 62
     7
370
    15
100
AcDbLine
 10
746.9623964107666
 20
1827.616587598273
 30
0.0
 11
755.8053187127518
 21
1827.616587598273
 31
0.0
  0
LINE
  5
D8
330
1F
100
AcDbEntity
  8
0
  6
Continuous
 62
     7
370
    15
100
AcDbLine
 10
789.564906178743
 20
1815.616587598273
 30
0.0
 11
788.2419917990457
 21
1816.702426056552
 31
0.0
  0
LINE
  5
D9
330
1F
100
AcDbEntity
  8
0
  6
Continuous
 62
     7
370
    15
100
AcDbLine
 10
722.0457312467606
 20
1815.616587598273
 30
0.0
 11
723.3686456264579
 21
1816.702426056552
 31
0.0
  0
LINE
  5
DA
330
1F
100
AcDbEntity
  8
0
  6
Continuous
 62
     7
370
    15
100
AcDbLine
 10
992.7144404525227
 20
1735.616587598273
 30
0.0
 11
992.7144404525227
 21
1745.616587598273
 31
0.0
  0
LINE
  5
DB
330
1F
100
AcDbEntity
  8
0
  6
Continuous
 62
     7
370
    15
100
AcDbLine
 10
871.7144404525226
 20
1745.616587598273
 30
0.0
 11
871.7144404525226
 21
1735.616587598273
 31
0.0
  0
LINE
  5
DC
330
1F
100
AcDbEntity
  8
0
  6
Continuous
 62
     7
370
    15
100
AcDbLine
 10
885.2621404741354
 20
1735.616587598273
 30
0.0
 11
894.2750497595488
 21
1720.616587598273
 31
0.0
  0
LINE
  5
DD
330
1F
100
AcDbEntity
  8
0
  6
Continuous
 62
     7
370
    15
100
AcDbLine
 10
970.1538311454966
 20
1720.616587598273
 30
0.0
 11
979.16674043091
 21
1735.616587598273
 31
0.0
  0
LINE
  5
DE
330
1F
100
AcDbEntity
  8
0
  6
Continuous
 62
     7
370
    15
100
AcDbLine
 10
968.7238243920971
 20
1805.616587598272
 30
0.0
 11
968.7238243920971
 21
1815.616587598273
 31
0.0
  0
LINE
  5
DF
330
1F
100
AcDbEntity
  8
0
  6
Continuous
 62
     7
370
    15
100
AcDbLine
 10
895.7050565129481
 20
1815.616587598273
 30
0.0
 11
895.7050565129481
 21
1805.616587598272
 31
0.0
  0
ARC
  5
E0
330
1F
100
AcDbEntity
  8
0
  6
Continuous
 62
     7
370
    15
100
AcDbCircle
 10
906.5136056588233
 20
1730.548030051594
 30
0.0
 40
59.95519161327171
100
AcDbArc
 50
311.6124104269055
 51
350.4651344933948
  0
ARC
  5
E1
330
1F
100
AcDbEntity
  8
0
  6
Continuous
 62
     7
370
    15
100
AcDbCircle
 10
957.9152752462221
 20
1730.548030051594
 30
0.0
 40
59.9551916132717
100
AcDbArc
 50
189.5348655066052
 51
228.3875895730945
  0
ARC
  5
E2
330
1F
100
AcDbEntity
  8
0
  6
Continuous
 62
     7
370
    15
100
AcDbCircle
 10
924.7415276526366
 20
1785.616587598273
 30
0.0
 40
40.00000000000006
100
AcDbArc
 50
103.6617325217366
 51
128.9999999999865
  0
ARC
  5
E3
330
1F
100
AcDbEntity
  8
0
  6
Continuous
 62
     7
370
    15
100
AcDbCircle
 10
939.6873532524088
 20
1785.616587598273
 30
0.0
 40
40.00000000000006
100
AcDbArc
 50
51.0000000000135
 51
79.15357441641821
  0
ARC
  5
E4
330
1F
100
AcDbEntity
  8
0
  6
Continuous
 62
     7
370
    15
100
AcDbCircle
 10
895.7050565129481
 20
1785.616587598273
 30
0.0
 40
20.0
100
AcDbArc
 50
90.0
 51
180.0
  0
LINE
  5
E5
330
1F
100
AcDbEntity
  8
0
  6
Continuous
 62
     7
370
    15
100
AcDbLine
 10
875.7050565129482
 20
1785.616587598273
 30
0.0
 11
875.7050565129482
 21
1745.616587598273
 31
0.0
  0
LINE
  5
E6
330
1F
100
AcDbEntity
  8
0
  6
Continuous
 62
     7
370
    15
100
AcDbLine
 10
988.7238243920972
 20
1745.616587598273
 30
0.0
 11
988.7238243920972
 21
1785.616587598273
 31
0.0
  0
LINE
  5
E7
330
1F
100
AcDbEntity
  8
0
  6
Continuous
 62
     7
370
    15
100
AcDbLine
 10
966.201067718987
 20
1815.616587598273
 30
0.0
 11
964.8601688944022
 21
1816.702426056552
 31
0.0
  0
LINE
  5
E8
330
1F
100
AcDbEntity
  8
0
  6
Continuous
 62
     7
370
    15
100
AcDbLine
 10
899.5687120106431
 20
1816.702426056552
 30
0.0
 11
898.2278131860581
 21
1815.616587598273
 31
0.0
  0
LINE
  5
E9
330
1F
100
AcDbEntity
  8
0
  6
Continuous
 62
     7
370
    15
100
AcDbLine
 10
917.2144404525226
 20
1783.05454457153
 30
0.0
 11
947.2144404525227
 21
1783.05454457153
 31
0.0
  0
LINE
  5
EA
330
1F
100
AcDbEntity
  8
0
  6
Continuous
 62
     7
370
    15
100
AcDbLine
 10
947.2144404525227
 20
1765.616587598273
 30
0.0
 11
947.2144404525227
 21
1783.05454457153
 31
0.0
  0
LINE
  5
EB
330
1F
100
AcDbEntity
  8
0
  6
Continuous
 62
     7
370
    15
100
AcDbLine
 10
917.2144404525226
 20
1765.616587598273
 30
0.0
 11
947.2144404525227
 21
1765.616587598273
 31
0.0
  0
LINE
  5
EC
330
1F
100
AcDbEntity
  8
0
  6
Continuous
 62
     7
370
    15
100
AcDbLine
 10
917.2144404525226
 20
1765.616587598273
 30
0.0
 11
917.2144404525226
 21
1783.05454457153
 31
0.0
  0
LINE
  5
ED
330
1F
100
AcDbEntity
  8
0
  6
Continuous
 62
     7
370
    15
100
AcDbLine
 10
917.2144404525226
 20
1857.518090232564
 30
0.0
 11
947.2144404525227
 21
1857.518090232564
 31
0.0
  0
LINE
  5
EE
330
1F
100
AcDbEntity
  8
0
  6
Continuous
 62
     7
370
    15
100
AcDbLine
 10
947.2144404525227
 20
1783.05454457153
 30
0.0
 11
947.2144404525227
 21
1857.518090232564
 31
0.0
  0
LINE
  5
EF
330
1F
100
AcDbEntity
  8
0
  6
Continuous
 62
     7
370
    15
100
AcDbLine
 10
917.2144404525226
 20
1783.05454457153
 30
0.0
 11
917.2144404525226
 21
1857.518090232564
 31
0.0
  0
LINE
  5
F0
330
1F
100
AcDbEntity
  8
0
  6
Continuous
 62
     7
370
    15
100
AcDbLine
 10
917.2144404525226
 20
1865.722275352614
 30
0.0
 11
947.2144404525227
 21
1865.722275352614
 31
0.0
  0
LINE
  5
F1
330
1F
100
AcDbEntity
  8
0
  6
Continuous
 62
     7
370
    15
100
AcDbLine
 10
947.2144404525227
 20
1857.518090232564
 30
0.0
 11
947.2144404525227
 21
1865.722275352614
 31
0.0
  0
LINE
  5
F2
330
1F
100
AcDbEntity
  8
0
  6
Continuous
 62
     7
370
    15
100
AcDbLine
 10
917.2144404525226
 20
1857.518090232564
 30
0.0
 11
917.2144404525226
 21
1865.722275352614
 31
0.0
  0
LINE
  5
F3
330
1F
100
AcDbEntity
  8
0
  6
Continuous
 62
     7
370
    15
100
AcDbLine
 10
871.7144404525226
 20
1735.616587598273
 30
0.0
 11
992.7144404525227
 21
1735.616587598273
 31
0.0
  0
LINE
  5
F4
330
1F
100
AcDbEntity
  8
0
  6
Continuous
 62
     7
370
    15
100
AcDbLine
 10
871.7144404525226
 20
1745.616587598273
 30
0.0
 11
992.7144404525227
 21
1745.616587598273
 31
0.0
  0
LINE
  5
F5
330
1F
100
AcDbEntity
  8
0
  6
Continuous
 62
     7
370
    15
100
AcDbLine
 10
932.2144404525221
 20
1745.616587598273
 30
0.0
 11
932.2144404525221
 21
1765.616587598273
 31
0.0
  0
LINE
  5
F6
330
1F
100
AcDbEntity
  8
0
  6
Continuous
 62
     7
370
    15
100
AcDbLine
 10
938.6610681186292
 20
1745.616587598273
 30
0.0
 11
938.6610681186292
 21
1765.616587598273
 31
0.0
  0
LINE
  5
F7
330
1F
100
AcDbEntity
  8
0
  6
Continuous
 62
     7
370
    15
100
AcDbLine
 10
925.7678127864144
 20
1765.616587598273
 30
0.0
 11
925.7678127864144
 21
1745.616587598273
 31
0.0
  0
LINE
  5
F8
330
1F
100
AcDbEntity
  8
0
  6
Continuous
 62
     7
370
    15
100
AcDbLine
 10
945.3577608391121
 20
1745.616587598273
 30
0.0
 11
945.3577608391121
 21
1765.616587598273
 31
0.0
  0
LINE
  5
F9
330
1F
100
AcDbEntity
  8
0
  6
Continuous
 62
     7
370
    15
100
AcDbLine
 10
919.0711200659313
 20
1765.616587598273
 30
0.0
 11
919.0711200659313
 21
1745.616587598273
 31
0.0
  0
LINE
  5
FA
330
1F
100
AcDbEntity
  8
0
  6
Continuous
 62
     7
370
    15
100
AcDbLine
 10
906.955423172336
 20
1785.616587598273
 30
0.0
 11
901.0664504266021
 21
1785.616587598273
 31
0.0
  0
SPLINE
  5
FB
330
1F
100
AcDbEntity
  8
0
  6
Continuous
 62
     7
370
    15
100
AcDbSpline
210
0.0
220
0.0
230
1.0
 70
     8
 71
     3
 72
    29
 73
    25
 74
     0
 42
0.0000000001
 43
0.0000000001
 40
0.0
 40
0.0
 40
0.0
 40
0.0
 40
0.125
 40
0.125
 40
0.1874999999999999
 40
0.1874999999999999
 40
0.2499999999999999
 40
0.2499999999999999
 40
0.3750000000000004
 40
0.3750000000000004
 40
0.4375000000000003
 40
0.4375000000000003
 40
0.5000000000000002
 40
0.5000000000000002
 40
0.6249999999999996
 40
0.6249999999999996
 40
0.6874999999999996
 40
0.6874999999999996
 40
0.7499999999999997
 40
0.8124999999999998
 40
0.8124999999999998
 40
0.8749999999999998
 40
0.8749999999999998
 40
1.0
 40
1.0
 40
1.0
 40
1.0
 10
911.0945922149783
 20
1805.616587598272
 30
0.0
 10
910.4340205506606
 20
1805.616587598272
 30
0.0
 10
909.784020554181
 20
1805.488063063073
 30
0.0
 10
908.8243191233935
 20
1805.109284716783
 30
0.0
 10
908.5069868333157
 20
1804.951802661859
 30
0.0
 10
907.8775878955285
 20
1804.5728217622
 30
0.0
 10
907.5648815105322
 20
1804.350390002953
 30
0.0
 10
906.6552168160885
 20
1803.600801269528
 30
0.0
 10
906.0796023463451
 20
1802.988735253228
 30
0.0
 10
905.2621428234383
 20
1801.90314920762
 30
0.0
 10
904.9964463257158
 20
1801.511646853062
 30
0.0
 10
904.4852781623514
 20
1800.677002060688
 30
0.0
 10
904.2419622696083
 20
1800.237707074674
 30
0.0
 10
903.5476979837019
 20
1798.855912394743
 30
0.0
 10
903.1320945938739
 20
1797.850109040883
 30
0.0
 10
902.581340385703
 20
1796.211284730106
 30
0.0
 10
902.4102996286202
 20
1795.643365115927
 30
0.0
 10
902.100237059712
 20
1794.488887577216
 30
0.0
 10
901.8200366562735
 20
1793.309703774772
 30
0.0
 10
901.5986773395651
 20
1792.081838191078
 30
0.0
 10
901.4071510156538
 20
1790.829290479467
 30
0.0
 10
901.3260407701832
 20
1790.187782628726
 30
0.0
 10
901.1315353386276
 20
1788.247364253865
 30
0.0
 10
901.0664504266021
 20
1786.939271950745
 30
0.0
 10
901.0664504266021
 20
1785.616587598273
 30
0.0
  0
LINE
  5
FC
330
1F
100
AcDbEntity
  8
0
  6
Continuous
 62
     7
370
    15
100
AcDbLine
 10
911.0945922149783
 20
1805.616587598272
 30
0.0
 11
916.983564960712
 21
1805.616587598272
 31
0.0
  0
SPLINE
  5
FD
330
1F
100
AcDbEntity
  8
0
  6
Continuous
 62
     7
370
    15
100
AcDbSpline
210
0.0
220
0.0
230
1.0
 70
     8
 71
     3
 72
    29
 73
    25
 74
     0
 42
0.0000000001
 43
0.0000000001
 40
0.0
 40
0.0
 40
0.0
 40
0.0
 40
0.1249999999999995
 40
0.1249999999999995
 40
0.1874999999999995
 40
0.1874999999999995
 40
0.2499999999999996
 40
0.2499999999999996
 40
0.3749999999999996
 40
0.3749999999999996
 40
0.4375
 40
0.4375
 40
0.5000000000000002
 40
0.5000000000000002
 40
0.6249999999999999
 40
0.6249999999999999
 40
0.6875
 40
0.6875
 40
0.75
 40
0.8125000000000001
 40
0.8125000000000001
 40
0.8750000000000001
 40
0.8750000000000001
 40
1.0
 40
1.0
 40
1.0
 40
1.0
 10
916.983564960712
 20
1805.616587598272
 30
0.0
 10
916.3229932963943
 20
1805.616587598272
 30
0.0
 10
915.6729932999152
 20
1805.488063063073
 30
0.0
 10
914.7132918691273
 20
1805.109284716784
 30
0.0
 10
914.3959595790494
 20
1804.951802661859
 30
0.0
 10
913.7665606412623
 20
1804.5728217622
 30
0.0
 10
913.4538542562662
 20
1804.350390002953
 30
0.0
 10
912.5441895618223
 20
1803.600801269528
 30
0.0
 10
911.968575092079
 20
1802.988735253228
 30
0.0
 10
911.151115569172
 20
1801.90314920762
 30
0.0
 10
910.8854190714493
 20
1801.511646853062
 30
0.0
 10
910.3742509080852
 20
1800.677002060688
 30
0.0
 10
910.1309350153421
 20
1800.237707074674
 30
0.0
 10
909.4366707294357
 20
1798.855912394744
 30
0.0
 10
909.0210673396077
 20
1797.850109040883
 30
0.0
 10
908.4703131314368
 20
1796.211284730106
 30
0.0
 10
908.2992723743542
 20
1795.643365115927
 30
0.0
 10
907.9892098054459
 20
1794.488887577216
 30
0.0
 10
907.7090094020075
 20
1793.309703774772
 30
0.0
 10
907.487650085299
 20
1792.081838191078
 30
0.0
 10
907.2961237613876
 20
1790.829290479467
 30
0.0
 10
907.2150135159169
 20
1790.187782628726
 30
0.0
 10
907.0205080843615
 20
1788.247364253865
 30
0.0
 10
906.9554231723358
 20
1786.939271950745
 30
0.0
 10
906.9554231723358
 20
1785.616587598273
 30
0.0
  0
LINE
  5
FE
330
1F
100
AcDbEntity
  8
0
  6
Continuous
 62
     7
370
    15
100
AcDbLine
 10
906.955423172336
 20
1745.616587598273
 30
0.0
 11
906.955423172336
 21
1785.616587598273
 31
0.0
  0
LINE
  5
FF
330
1F
100
AcDbEntity
  8
0
  6
Continuous
 62
     7
370
    15
100
AcDbLine
 10
957.4734577327088
 20
1785.616587598273
 30
0.0
 11
957.4734577327088
 21
1745.616587598273
 31
0.0
  0
SPLINE
  5
100
330
1F
100
AcDbEntity
  8
0
  6
Continuous
 62
     7
370
    15
100
AcDbSpline
210
0.0
220
0.0
230
1.0
 70
     8
 71
     3
 72
    33
 73
    29
 74
     0
 42
0.0000000001
 43
0.0000000001
 40
0.0
 40
0.0
 40
0.0
 40
0.0
 40
0.1250000000000013
 40
0.1250000000000013
 40
0.187500000000002
 40
0.187500000000002
 40
0.2500000000000027
 40
0.2500000000000027
 40
0.3750000000000033
 40
0.3750000000000033
 40
0.4375000000000037
 40
0.4375000000000037
 40
0.5000000000000035
 40
0.5000000000000035
 40
0.6250000000000031
 40
0.6250000000000031
 40
0.6562500000000026
 40
0.6562500000000026
 40
0.6875000000000022
 40
0.6875000000000022
 40
0.7500000000000018
 40
0.8125000000000015
 40
0.8125000000000015
 40
0.8437500000000014
 40
0.8437500000000014
 40
0.8750000000000014
 40
0.8750000000000014
 40
1.0
 40
1.0
 40
1.0
 40
1.0
 10
957.4734577327088
 20
1785.616587598273
 30
0.0
 10
957.4734577327088
 20
1786.940311119283
 30
0.0
 10
957.4082794338593
 20
1788.24183005035
 30
0.0
 10
957.2167520230435
 20
1790.162166810575
 30
0.0
 10
957.137166134399
 20
1790.796915681456
 30
0.0
 10
956.9457840307093
 20
1792.055440183621
 30
0.0
 10
956.8334741194446
 20
1792.680755022071
 30
0.0
 10
956.4551469286724
 20
1794.499334738615
 30
0.0
 10
956.1464894794365
 20
1795.649168444735
 30
0.0
 10
955.5995825829134
 20
1797.280908074576
 30
0.0
 10
955.4023638649699
 20
1797.81119055484
 30
0.0
 10
954.9824217968641
 20
1798.830212014954
 30
0.0
 10
954.7614732883875
 20
1799.315080371739
 30
0.0
 10
954.0667183498953
 20
1800.698054788516
 30
0.0
 10
953.5613040999933
 20
1801.525207215105
 30
0.0
 10
952.8754580315196
 20
1802.437752195848
 30
0.0
 10
952.7351972144517
 20
1802.614538454699
 30
0.0
 10
952.4519429536253
 20
1802.952277133814
 30
0.0
 10
952.3087487371274
 20
1803.113547737481
 30
0.0
 10
951.8745510637819
 20
1803.574981487881
 30
0.0
 10
951.2833358151523
 20
1804.130656944466
 30
0.0
 10
950.6679201225997
 20
1804.568985445084
 30
0.0
 10
950.1971609432073
 20
1804.853133958331
 30
0.0
 10
950.0387056215386
 20
1804.940404091504
 30
0.0
 10
949.7186693865385
 20
1805.099788492596
 30
0.0
 10
949.5568689628921
 20
1805.171943605353
 30
0.0
 10
948.7488051282857
 20
1805.49079954074
 30
0.0
 10
948.0987928315514
 20
1805.616587598272
 30
0.0
 10
947.4453159443328
 20
1805.616587598272
 30
0.0
  0
LINE
  5
101
330
1F
100
AcDbEntity
  8
0
  6
Continuous
 62
     7
370
    15
100
AcDbLine
 10
947.4453159443328
 20
1805.616587598272
 30
0.0
 11
953.3342886900666
 21
1805.616587598272
 31
0.0
  0
SPLINE
  5
102
330
1F
100
AcDbEntity
  8
0
  6
Continuous
 62
     7
370
    15
100
AcDbSpline
210
0.0
220
0.0
230
1.0
 70
     8
 71
     3
 72
    33
 73
    29
 74
     0
 42
0.0000000001
 43
0.0000000001
 40
0.0
 40
0.0
 40
0.0
 40
0.0
 40
0.1250000000000013
 40
0.1250000000000013
 40
0.1875000000000019
 40
0.1875000000000019
 40
0.2500000000000026
 40
0.2500000000000026
 40
0.375000000000004
 40
0.375000000000004
 40
0.4375000000000047
 40
0.4375000000000047
 40
0.5000000000000048
 40
0.5000000000000048
 40
0.625000000000005
 40
0.625000000000005
 40
0.6562500000000046
 40
0.6562500000000046
 40
0.6875000000000041
 40
0.6875000000000041
 40
0.7500000000000034
 40
0.8125000000000024
 40
0.8125000000000024
 40
0.8437500000000023
 40
0.8437500000000023
 40
0.8750000000000021
 40
0.8750000000000021
 40
1.0
 40
1.0
 40
1.0
 40
1.0
 10
963.3624304784428
 20
1785.616587598273
 30
0.0
 10
963.3624304784428
 20
1786.940311119283
 30
0.0
 10
963.2972521795933
 20
1788.24183005035
 30
0.0
 10
963.1057247687774
 20
1790.162166810576
 30
0.0
 10
963.0261388801327
 20
1790.796915681456
 30
0.0
 10
962.834756776443
 20
1792.055440183621
 30
0.0
 10
962.7224468651784
 20
1792.680755022071
 30
0.0
 10
962.3441196744064
 20
1794.499334738615
 30
0.0
 10
962.0354622251703
 20
1795.649168444735
 30
0.0
 10
961.4885553286471
 20
1797.280908074576
 30
0.0
 10
961.2913366107038
 20
1797.81119055484
 30
0.0
 10
960.871394542598
 20
1798.830212014954
 30
0.0
 10
960.6504460341213
 20
1799.315080371739
 30
0.0
 10
959.9556910956291
 20
1800.698054788517
 30
0.0
 10
959.4502768457273
 20
1801.525207215105
 30
0.0
 10
958.7644307772533
 20
1802.437752195848
 30
0.0
 10
958.6241699601854
 20
1802.614538454699
 30
0.0
 10
958.3409156993591
 20
1802.952277133814
 30
0.0
 10
958.1977214828611
 20
1803.113547737481
 30
0.0
 10
957.7635238095156
 20
1803.574981487881
 30
0.0
 10
957.1723084930662
 20
1804.130656615609
 30
0.0
 10
956.5568928683335
 20
1804.568985445084
 30
0.0
 10
956.0861336889413
 20
1804.853133958331
 30
0.0
 10
955.9276783672723
 20
1804.940404091504
 30
0.0
 10
955.6076421322723
 20
1805.099788492596
 30
0.0
 10
955.4458417086259
 20
1805.171943605353
 30
0.0
 10
954.6377778740195
 20
1805.49079954074
 30
0.0
 10
953.9877655772853
 20
1805.616587598272
 30
0.0
 10
953.3342886900666
 20
1805.616587598272
 30
0.0
  0
LINE
  5
103
330
1F
100
AcDbEntity
  8
0
  6
Continuous
 62
     7
370
    15
100
AcDbLine
 10
963.3624304784428
 20
1785.616587598273
 30
0.0
 11
957.4734577327088
 21
1785.616587598273
 31
0.0
  0
LINE
  5
104
330
1F
100
AcDbEntity
  8
0
  6
Continuous
 62
     7
370
    15
100
AcDbLine
 10
963.3624304784428
 20
1785.616587598273
 30
0.0
 11
963.3624304784428
 21
1745.616587598273
 31
0.0
  0
LINE
  5
105
330
1F
100
AcDbEntity
  8
0
  6
Continuous
 62
     7
370
    15
100
AcDbLine
 10
901.0664504266021
 20
1745.616587598273
 30
0.0
 11
901.0664504266021
 21
1785.616587598273
 31
0.0
  0
LINE
  5
106
330
1F
100
AcDbEntity
  8
0
  6
Continuous
 62
     7
370
    15
100
AcDbLine
 10
970.1538311454966
 20
1720.616587598273
 30
0.0
 11
894.2750497595488
 21
1720.616587598273
 31
0.0
  0
LINE
  5
107
330
1F
100
AcDbEntity
  8
0
  6
Continuous
 62
     7
370
    15
100
AcDbLine
 10
947.4453159443328
 20
1805.616587598272
 30
0.0
 11
953.3342886900586
 21
1805.616587598272
 31
0.0
  0
SPLINE
  5
108
330
1F
100
AcDbEntity
  8
0
  6
Continuous
 62
     7
370
    15
100
AcDbSpline
210
0.0
220
0.0
230
1.0
 70
     8
 71
     3
 72
    29
 73
    25
 74
     0
 42
0.0000000001
 43
0.0000000001
 40
0.0
 40
0.0
 40
0.0
 40
0.0
 40
0.1250000000000001
 40
0.1250000000000001
 40
0.1875000000000001
 40
0.1875000000000001
 40
0.25
 40
0.25
 40
0.3749999999999997
 40
0.3749999999999997
 40
0.4374999999999992
 40
0.4374999999999992
 40
0.4999999999999987
 40
0.4999999999999987
 40
0.624999999999999
 40
0.624999999999999
 40
0.6874999999999992
 40
0.6874999999999992
 40
0.7499999999999995
 40
0.8124999999999998
 40
0.8124999999999998
 40
0.8750000000000001
 40
0.8750000000000001
 40
1.0
 40
1.0
 40
1.0
 40
1.0
 10
957.8752324958097
 20
1805.616587598272
 30
0.0
 10
958.8872865567811
 20
1805.616587598272
 30
0.0
 10
959.8831441791459
 20
1805.488063173498
 30
0.0
 10
961.3534922430906
 20
1805.109284847426
 30
0.0
 10
961.839673639476
 20
1804.951802775658
 30
0.0
 10
962.8039691279591
 20
1804.572821741234
 30
0.0
 10
963.2830629996977
 20
1804.350390014902
 30
0.0
 10
964.6767497709577
 20
1803.600801520676
 30
0.0
 10
965.5586423198668
 20
1802.988735591512
 30
0.0
 10
966.8110633008396
 20
1801.90314929542
 30
0.0
 10
967.2181343348363
 20
1801.511646547374
 30
0.0
 10
968.0012890617483
 20
1800.677002093883
 30
0.0
 10
968.3740705400165
 20
1800.237707236848
 30
0.0
 10
969.43774500588
 20
1798.855912772512
 30
0.0
 10
970.0744864666711
 20
1797.850109337474
 30
0.0
 10
970.9182912018759
 20
1796.211284344623
 30
0.0
 10
971.1803407063113
 20
1795.643364983025
 30
0.0
 10
971.65538399917
 20
1794.488887746075
 30
0.0
 10
972.0846758892157
 20
1793.309704098852
 30
0.0
 10
972.4238181064944
 20
1792.081838342134
 30
0.0
 10
972.7172535414604
 20
1790.829290270851
 30
0.0
 10
972.8415217063629
 20
1790.187782008129
 30
0.0
 10
973.1395212048907
 20
1788.247364124093
 30
0.0
 10
973.2392370793991
 20
1786.9392719778
 30
0.0
 10
973.2392370793991
 20
1785.616587598273
 30
0.0
  0
LINE
  5
109
330
1F
100
AcDbEntity
  8
0
  6
Continuous
 62
     7
370
    15
100
AcDbLine
 10
973.2392370793988
 20
1745.616587598273
 30
0.0
 11
973.2392370793988
 21
1785.616587598273
 31
0.0
  0
LINE
  5
10A
330
1F
100
AcDbEntity
  8
0
  6
Continuous
 62
     7
370
    15
100
AcDbLine
 10
977.6101928252671
 20
1785.616587598273
 30
0.0
 11
973.2392370793988
 21
1785.616587598273
 31
0.0
  0
LINE
  5
10B
330
1F
100
AcDbEntity
  8
0
  6
Continuous
 62
     7
370
    15
100
AcDbLine
 10
957.8752324958097
 20
1805.616587598272
 30
0.0
 11
962.2461882416777
 21
1805.616587598272
 31
0.0
  0
SPLINE
  5
10C
330
1F
100
AcDbEntity
  8
0
  6
Continuous
 62
     7
370
    15
100
AcDbSpline
210
0.0
220
0.0
230
1.0
 70
     8
 71
     3
 72
    29
 73
    25
 74
     0
 42
0.0000000001
 43
0.0000000001
 40
0.0
 40
0.0
 40
0.0
 40
0.0
 40
0.1249999999999995
 40
0.1249999999999995
 40
0.1874999999999992
 40
0.1874999999999992
 40
0.2499999999999989
 40
0.2499999999999989
 40
0.3749999999999987
 40
0.3749999999999987
 40
0.4374999999999983
 40
0.4374999999999983
 40
0.4999999999999978
 40
0.4999999999999978
 40
0.6249999999999976
 40
0.6249999999999976
 40
0.6874999999999979
 40
0.6874999999999979
 40
0.7499999999999983
 40
0.8124999999999985
 40
0.8124999999999985
 40
0.8749999999999987
 40
0.8749999999999987
 40
1.0
 40
1.0
 40
1.0
 40
1.0
 10
962.2461882416777
 20
1805.616587598272
 30
0.0
 10
963.2582423026487
 20
1805.616587598272
 30
0.0
 10
964.2540999250133
 20
1805.488063173498
 30
0.0
 10
965.7244479889584
 20
1805.109284847426
 30
0.0
 10
966.2106293853438
 20
1804.951802775658
 30
0.0
 10
967.1749248738272
 20
1804.572821741234
 30
0.0
 10
967.6540187455657
 20
1804.350390014902
 30
0.0
 10
969.0477055168255
 20
1803.600801520676
 30
0.0
 10
969.9295980657346
 20
1802.988735591512
 30
0.0
 10
971.1820190467076
 20
1801.903149295421
 30
0.0
 10
971.5890900807046
 20
1801.511646547374
 30
0.0
 10
972.3722448076165
 20
1800.677002093883
 30
0.0
 10
972.7450262858845
 20
1800.237707236848
 30
0.0
 10
973.8087007517478
 20
1798.855912772512
 30
0.0
 10
974.4454422125391
 20
1797.850109337474
 30
0.0
 10
975.2892469477441
 20
1796.211284344623
 30
0.0
 10
975.5512964521797
 20
1795.643364983025
 30
0.0
 10
976.026339745038
 20
1794.488887746075
 30
0.0
 10
976.4556315496269
 20
1793.309704052704
 30
0.0
 10
976.7947738523623
 20
1792.081838342134
 30
0.0
 10
977.0882092873284
 20
1790.829290270851
 30
0.0
 10
977.212477452231
 20
1790.187782008129
 30
0.0
 10
977.5104769507588
 20
1788.247364124093
 30
0.0
 10
977.6101928252671
 20
1786.9392719778
 30
0.0
 10
977.6101928252671
 20
1785.616587598273
 30
0.0
  0
SPLINE
  5
10D
330
1F
100
AcDbEntity
  8
0
  6
Continuous
 62
     7
370
    15
100
AcDbSpline
210
0.0
220
0.0
230
1.0
 70
     8
 71
     3
 72
    33
 73
    29
 74
     0
 42
0.0000000001
 43
0.0000000001
 40
0.0
 40
0.0
 40
0.0
 40
0.0
 40
0.1250000000000022
 40
0.1250000000000022
 40
0.1875000000000035
 40
0.1875000000000035
 40
0.2500000000000047
 40
0.2500000000000047
 40
0.3750000000000069
 40
0.3750000000000069
 40
0.437500000000008
 40
0.437500000000008
 40
0.5000000000000086
 40
0.5000000000000086
 40
0.6250000000000093
 40
0.6250000000000093
 40
0.6562500000000089
 40
0.6562500000000089
 40
0.6875000000000086
 40
0.6875000000000086
 40
0.7500000000000072
 40
0.812500000000006
 40
0.812500000000006
 40
0.8437500000000051
 40
0.8437500000000051
 40
0.8750000000000042
 40
0.8750000000000042
 40
1.0
 40
1.0
 40
1.0
 40
1.0
 10
886.8186880797773
 20
1785.616587598273
 30
0.0
 10
886.8186880797773
 20
1786.940311119283
 30
0.0
 10
886.9185470270684
 20
1788.24183005035
 30
0.0
 10
887.2119840445893
 20
1790.162166810576
 30
0.0
 10
887.3339167000832
 20
1790.796915681456
 30
0.0
 10
887.627131094171
 20
1792.055440183621
 30
0.0
 10
887.7991998610339
 20
1792.680755022071
 30
0.0
 10
888.3788307453773
 20
1794.499334738615
 30
0.0
 10
888.8517213930064
 20
1795.649168444735
 30
0.0
 10
889.6896313709765
 20
1797.280908074576
 30
0.0
 10
889.9917879768956
 20
1797.81119055484
 30
0.0
 10
890.6351765523043
 20
1798.830212014954
 30
0.0
 10
890.9736893065721
 20
1799.315080371739
 30
0.0
 10
892.038115626495
 20
1800.698054788517
 30
0.0
 10
892.8124551817163
 20
1801.525207215105
 30
0.0
 10
893.8632323208949
 20
1802.437752195848
 30
0.0
 10
894.0781243598992
 20
1802.614538454699
 30
0.0
 10
894.5120950648909
 20
1802.952277133814
 30
0.0
 10
894.7314813325608
 20
1803.113547737481
 30
0.0
 10
895.396710762324
 20
1803.574981487881
 30
0.0
 10
896.3025050741238
 20
1804.130656944466
 30
0.0
 10
897.2453766171001
 20
1804.568985445084
 30
0.0
 10
897.9666215239415
 20
1804.853133958331
 30
0.0
 10
898.2093891612358
 20
1804.940404091504
 30
0.0
 10
898.6997131200729
 20
1805.099788492596
 30
0.0
 10
898.94760575093
 20
1805.171943605353
 30
0.0
 10
900.1856313713012
 20
1805.49079954074
 30
0.0
 10
901.1815079870457
 20
1805.616587598272
 30
0.0
 10
902.182692663367
 20
1805.616587598272
 30
0.0
  0
LINE
  5
10E
330
1F
100
AcDbEntity
  8
0
  6
Continuous
 62
     7
370
    15
100
AcDbLine
 10
902.182692663367
 20
1805.616587598272
 30
0.0
 11
906.5536484092346
 21
1805.616587598272
 31
0.0
  0
SPLINE
  5
10F
330
1F
100
AcDbEntity
  8
0
  6
Continuous
 62
     7
370
    15
100
AcDbSpline
210
0.0
220
0.0
230
1.0
 70
     8
 71
     3
 72
    33
 73
    29
 74
     0
 42
0.0000000001
 43
0.0000000001
 40
0.0
 40
0.0
 40
0.0
 40
0.0
 40
0.125
 40
0.125
 40
0.1874999999999999
 40
0.1874999999999999
 40
0.2499999999999999
 40
0.2499999999999999
 40
0.3749999999999994
 40
0.3749999999999994
 40
0.4374999999999991
 40
0.4374999999999991
 40
0.4999999999999982
 40
0.4999999999999982
 40
0.624999999999997
 40
0.624999999999997
 40
0.6562499999999968
 40
0.6562499999999968
 40
0.6874999999999967
 40
0.6874999999999967
 40
0.749999999999997
 40
0.8124999999999975
 40
0.8124999999999975
 40
0.8437499999999978
 40
0.8437499999999978
 40
0.874999999999998
 40
0.874999999999998
 40
1.0
 40
1.0
 40
1.0
 40
1.0
 10
891.1896438256453
 20
1785.616587598273
 30
0.0
 10
891.1896438256453
 20
1786.940311119283
 30
0.0
 10
891.2895027729364
 20
1788.24183005035
 30
0.0
 10
891.5829397904573
 20
1790.162166810575
 30
0.0
 10
891.704872445951
 20
1790.796915681456
 30
0.0
 10
891.9980868400388
 20
1792.055440183621
 30
0.0
 10
892.170155606902
 20
1792.680755022071
 30
0.0
 10
892.7497864912455
 20
1794.499334738615
 30
0.0
 10
893.2226771388746
 20
1795.649168444735
 30
0.0
 10
894.0605871168443
 20
1797.280908074576
 30
0.0
 10
894.3627437227636
 20
1797.81119055484
 30
0.0
 10
895.0061322981722
 20
1798.830212014954
 30
0.0
 10
895.3446450524401
 20
1799.315080371739
 30
0.0
 10
896.409071372363
 20
1800.698054788516
 30
0.0
 10
897.1834109275842
 20
1801.525207215105
 30
0.0
 10
898.2341880667629
 20
1802.437752195848
 30
0.0
 10
898.4490801057672
 20
1802.614538454699
 30
0.0
 10
898.8830508107588
 20
1802.952277133813
 30
0.0
 10
899.1024370784288
 20
1803.113547737481
 30
0.0
 10
899.767666508192
 20
1803.574981487881
 30
0.0
 10
900.6734608199916
 20
1804.130656944466
 30
0.0
 10
901.616332362968
 20
1804.568985445084
 30
0.0
 10
902.3375772698093
 20
1804.853133958331
 30
0.0
 10
902.5803449071036
 20
1804.940404091504
 30
0.0
 10
903.0706688659407
 20
1805.099788492596
 30
0.0
 10
903.3185614967978
 20
1805.171943605353
 30
0.0
 10
904.5565871171691
 20
1805.49079954074
 30
0.0
 10
905.5524637329135
 20
1805.616587598272
 30
0.0
 10
906.5536484092346
 20
1805.616587598272
 30
0.0
  0
LINE
  5
110
330
1F
100
AcDbEntity
  8
0
  6
Continuous
 62
     7
370
    15
100
AcDbLine
 10
891.1896438256453
 20
1785.616587598273
 30
0.0
 11
886.8186880797773
 21
1785.616587598273
 31
0.0
  0
LINE
  5
111
330
1F
100
AcDbEntity
  8
0
  6
Continuous
 62
     7
370
    15
100
AcDbLine
 10
911.0945922149859
 20
1805.616587598272
 30
0.0
 11
916.983564960712
 21
1805.616587598272
 31
0.0
  0
LINE
  5
112
330
1F
100
AcDbEntity
  8
0
  6
Continuous
 62
     7
370
    15
100
AcDbLine
 10
891.1896438256453
 20
1785.616587598273
 30
0.0
 11
891.1896438256453
 21
1745.616587598273
 31
0.0
  0
LINE
  5
113
330
1F
100
AcDbEntity
  8
0
  6
Continuous
 62
     7
370
    15
100
AcDbLine
 10
977.6101928252671
 20
1745.616587598273
 30
0.0
 11
977.6101928252671
 21
1785.616587598273
 31
0.0
  0
LINE
  5
114
330
1F
100
AcDbEntity
  8
0
  6
Continuous
 62
     7
370
    15
100
AcDbLine
 10
886.8186880797773
 20
1785.616587598273
 30
0.0
 11
886.8186880797773
 21
1745.616587598273
 31
0.0
  0
LINE
  5
115
330
1F
100
AcDbEntity
  8
0
  6
Continuous
 62
     7
370
    15
100
AcDbLine
 10
967.5358157885259
 20
1805.616587598272
 30
0.0
 11
968.5651641818694
 21
1805.616587598272
 31
0.0
  0
LINE
  5
116
330
1F
100
AcDbEntity
  8
0
  6
Continuous
 62
     7
370
    15
100
AcDbLine
 10
965.2100788139128
 20
1805.616587598272
 30
0.0
 11
967.5358157885259
 21
1805.616587598272
 31
0.0
  0
LINE
  5
117
330
1F
100
AcDbEntity
  8
0
  6
Continuous
 62
     7
370
    15
100
AcDbLine
 10
962.2461882416777
 20
1805.616587598272
 30
0.0
 11
965.2100788139128
 21
1805.616587598272
 31
0.0
  0
LINE
  5
118
330
1F
100
AcDbEntity
  8
0
  6
Continuous
 62
     7
370
    15
100
AcDbLine
 10
953.3342886900666
 20
1805.616587598272
 30
0.0
 11
957.8752324958097
 21
1805.616587598272
 31
0.0
  0
LINE
  5
119
330
1F
100
AcDbEntity
  8
0
  6
Continuous
 62
     7
370
    15
100
AcDbLine
 10
947.2144404525224
 20
1805.616587598272
 30
0.0
 11
947.4453159443328
 21
1805.616587598272
 31
0.0
  0
LINE
  5
11A
330
1F
100
AcDbEntity
  8
0
  6
Continuous
 62
     7
370
    15
100
AcDbLine
 10
916.983564960712
 20
1805.616587598272
 30
0.0
 11
917.2144404525223
 21
1805.616587598272
 31
0.0
  0
LINE
  5
11B
330
1F
100
AcDbEntity
  8
0
  6
Continuous
 62
     7
370
    15
100
AcDbLine
 10
906.5536484092346
 20
1805.616587598272
 30
0.0
 11
911.0945922149783
 21
1805.616587598272
 31
0.0
  0
LINE
  5
11C
330
1F
100
AcDbEntity
  8
0
  6
Continuous
 62
     7
370
    15
100
AcDbLine
 10
899.2188020911321
 20
1805.616587598272
 30
0.0
 11
902.182692663367
 21
1805.616587598272
 31
0.0
  0
LINE
  5
11D
330
1F
100
AcDbEntity
  8
0
  6
Continuous
 62
     7
370
    15
100
AcDbLine
 10
896.8930651165193
 20
1805.616587598272
 30
0.0
 11
899.2188020911321
 21
1805.616587598272
 31
0.0
  0
LINE
  5
11E
330
1F
100
AcDbEntity
  8
0
  6
Continuous
 62
     7
370
    15
100
AcDbLine
 10
895.8637167231758
 20
1805.616587598272
 30
0.0
 11
896.8930651165193
 21
1805.616587598272
 31
0.0
  0
LINE
  5
11F
330
1F
100
AcDbEntity
  8
0
  6
Continuous
 62
     7
370
    15
100
AcDbLine
 10
895.7050565129481
 20
1815.616587598273
 30
0.0
 11
917.2144404525228
 21
1815.616587598273
 31
0.0
  0
LINE
  5
120
330
1F
100
AcDbEntity
  8
0
  6
Continuous
 62
     7
370
    15
100
AcDbLine
 10
947.2144404525229
 20
1815.616587598273
 30
0.0
 11
968.7238243920971
 21
1815.616587598273
 31
0.0
  0
LINE
  5
121
330
1F
100
AcDbEntity
  8
0
  6
Continuous
 62
     7
370
    15
100
AcDbLine
 10
918.0997416311752
 20
1685.722275352613
 30
0.0
 11
946.3291392738701
 21
1685.722275352613
 31
0.0
  0
SPLINE
  5
122
330
1F
100
AcDbEntity
  8
0
  6
Continuous
 62
     7
370
    15
100
AcDbSpline
210
0.0
220
0.0
230
1.0
 70
     8
 71
     3
 72
    12
 73
     8
 74
     0
 42
0.0000000001
 43
0.0000000001
 40
0.0
 40
0.0
 40
0.0
 40
0.0
 40
0.0422036096022163
 40
0.2766030304811918
 40
0.4049305805366837
 40
0.6993014653836953
 40
1.0
 40
1.0
 40
1.0
 40
1.0
 10
947.2144404525229
 20
1824.837781095605
 30
0.0
 10
947.486754332592
 20
1824.797225025227
 30
0.0
 10
949.2715032007373
 20
1824.531419989198
 30
0.0
 10
951.8104262245833
 20
1823.745332857361
 30
0.0
 10
955.8274471440945
 20
1822.263824736239
 30
0.0
 10
960.0954640780855
 20
1820.182943186459
 30
0.0
 10
963.2199782514364
 20
1817.870793819546
 30
0.0
 10
964.7988475439669
 20
1816.702426056552
 30
0.0
  0
SPLINE
  5
123
330
1F
100
AcDbEntity
  8
0
  6
Continuous
 62
     7
370
    15
100
AcDbSpline
210
0.0
220
0.0
230
1.0
 70
     8
 71
     3
 72
    13
 73
     9
 74
     0
 42
0.0000000001
 43
0.0000000001
 40
0.0
 40
0.0
 40
0.0
 40
0.0
 40
0.1714204963227815
 40
0.3440317171152042
 40
0.5203952808291157
 40
0.6980537165161637
 40
0.9491376570704764
 40
1.0
 40
1.0
 40
1.0
 40
1.0
 10
963.5178076356892
 20
1816.702426056552
 30
0.0
 10
962.6947269235852
 20
1817.376475045983
 30
0.0
 10
961.0428481997226
 20
1818.729255117378
 30
0.0
 10
958.3524643229198
 20
1820.484845338321
 30
0.0
 10
955.510793623018
 20
1822.035772995631
 30
0.0
 10
952.1065800669719
 20
1823.475195543895
 30
0.0
 10
949.32701226475
 20
1824.438346743531
 30
0.0
 10
947.5189974954414
 20
1824.731811632379
 30
0.0
 10
947.2144404525224
 20
1824.781245298666
 30
0.0
  0
LINE
  5
124
330
1F
100
AcDbEntity
  8
0
  6
Continuous
 62
     7
370
    15
100
AcDbLine
 10
963.5178076356892
 20
1816.702426056552
 30
0.0
 11
962.1497270623873
 21
1816.702426056552
 31
0.0
  0
SPLINE
  5
125
330
1F
100
AcDbEntity
  8
0
  6
Continuous
 62
     7
370
    15
100
AcDbSpline
210
0.0
220
0.0
230
1.0
 70
     8
 71
     3
 72
    12
 73
     8
 74
     0
 42
0.0000000001
 43
0.0000000001
 40
0.0
 40
0.0
 40
0.0
 40
0.0
 40
0.1863662048971459
 40
0.3727325574641803
 40
0.5645104054287924
 40
0.7562886826917041
 40
1.0
 40
1.0
 40
1.0
 40
1.0
 10
962.1497270623873
 20
1816.702426056552
 30
0.0
 10
961.3236232810624
 20
1817.378426122391
 30
0.0
 10
959.6714150638382
 20
1818.730426789707
 30
0.0
 10
956.9784521371566
 20
1820.491575878743
 30
0.0
 10
954.1369204567798
 20
1822.027007428786
 30
0.0
 10
950.8902045224457
 20
1823.456307877277
 30
0.0
 10
948.5333805303806
 20
1824.114882241576
 30
0.0
 10
947.2144404525229
 20
1824.48343760517
 30
0.0
  0
SPLINE
  5
126
330
1F
100
AcDbEntity
  8
0
  6
Continuous
 62
     7
370
    15
100
AcDbSpline
210
0.0
220
0.0
230
1.0
 70
     8
 71
     3
 72
    10
 73
     6
 74
     0
 42
0.0000000001
 43
0.0000000001
 40
0.0
 40
0.0
 40
0.0
 40
0.0
 40
0.3023069431768798
 40
0.6474950008182319
 40
1.0
 40
1.0
 40
1.0
 40
1.0
 10
947.2144404525224
 20
1824.14422459984
 30
0.0
 10
948.4419269220991
 20
1823.667194233584
 30
0.0
 10
951.0710142472882
 20
1822.645468519503
 30
0.0
 10
954.8806145002881
 20
1820.149084240373
 30
0.0
 10
957.2593025708012
 20
1817.859316638591
 30
0.0
 10
958.4611196566241
 20
1816.702426056552
 30
0.0
  0
LINE
  5
127
330
1F
100
AcDbEntity
  8
0
  6
Continuous
 62
     7
370
    15
100
AcDbLine
 10
958.4611196566241
 20
1816.702426056552
 30
0.0
 11
955.8899692178782
 21
1816.702426056552
 31
0.0
  0
SPLINE
  5
128
330
1F
100
AcDbEntity
  8
0
  6
Continuous
 62
     7
370
    15
100
AcDbSpline
210
0.0
220
0.0
230
1.0
 70
     8
 71
     3
 72
    10
 73
     6
 74
     0
 42
0.0000000001
 43
0.0000000001
 40
0.0
 40
0.0
 40
0.0
 40
0.0
 40
0.113337867468382
 40
0.5520195718648385
 40
1.0
 40
1.0
 40
1.0
 40
1.0
 10
947.2144404525229
 20
1823.043929218768
 30
0.0
 10
947.5746629928771
 20
1822.896261251464
 30
0.0
 10
949.3291506759803
 20
1822.177034660123
 30
0.0
 10
952.3030302189326
 20
1820.125523600169
 30
0.0
 10
954.6859925758928
 20
1817.851408374613
 30
0.0
 10
955.8899692178782
 20
1816.702426056552
 30
0.0
  0
SPLINE
  5
129
330
1F
100
AcDbEntity
  8
0
  6
Continuous
 62
     7
370
    15
100
AcDbSpline
210
0.0
220
0.0
230
1.0
 70
     8
 71
     3
 72
    10
 73
     6
 74
     0
 42
0.0000000001
 43
0.0000000001
 40
0.0
 40
0.0
 40
0.0
 40
0.0
 40
0.4574187982587226
 40
0.914837958959675
 40
1.0
 40
1.0
 40
1.0
 40
1.0
 10
950.2386948058157
 20
1816.702426056552
 30
0.0
 10
949.7980672760789
 20
1817.374318074639
 30
0.0
 10
948.9168118674676
 20
1818.718102643197
 30
0.0
 10
947.8942948129763
 20
1820.034100322018
 30
0.0
 10
947.3066720864144
 20
1820.623762553787
 30
0.0
 10
947.2144404525224
 20
1820.716314302761
 30
0.0
  0
SPLINE
  5
12A
330
1F
100
AcDbEntity
  8
0
  6
Continuous
 62
     7
370
    15
100
AcDbSpline
210
0.0
220
0.0
230
1.0
 70
     8
 71
     3
 72
     9
 73
     5
 74
     0
 42
0.0000000001
 43
0.0000000001
 40
0.0
 40
0.0
 40
0.0
 40
0.0
 40
0.1927797967376863
 40
1.0
 40
1.0
 40
1.0
 40
1.0
 10
917.2144404525228
 20
1820.655150168201
 30
0.0
 10
917.0046410839072
 20
1820.453399986422
 30
0.0
 10
915.9163560448835
 20
1819.406868217051
 30
0.0
 10
914.961204070299
 20
1817.910403007323
 30
0.0
 10
914.1901860992289
 20
1816.702426056552
 30
0.0
  0
SPLINE
  5
12B
330
1F
100
AcDbEntity
  8
0
  6
Continuous
 62
     7
370
    15
100
AcDbSpline
210
0.0
220
0.0
230
1.0
 70
     8
 71
     3
 72
    11
 73
     7
 74
     0
 42
0.0000000001
 43
0.0000000001
 40
0.0
 40
0.0
 40
0.0
 40
0.0
 40
0.2544010272544847
 40
0.5088022560872081
 40
0.7705905001187788
 40
1.0
 40
1.0
 40
1.0
 40
1.0
 10
908.5389116871665
 20
1816.702426056552
 30
0.0
 10
909.2122360167387
 20
1817.378881536946
 30
0.0
 10
910.558885209401
 20
1818.731793033734
 30
0.0
 10
912.7560510119554
 20
1820.486044778434
 30
0.0
 10
914.9691811385627
 20
1821.983396869445
 30
0.0
 10
916.49964911403
 20
1822.754189645386
 30
0.0
 10
917.2144404525228
 20
1823.114181496799
 30
0.0
  0
LINE
  5
12C
330
1F
100
AcDbEntity
  8
0
  6
Continuous
 62
     7
370
    15
100
AcDbLine
 10
908.5389116871665
 20
1816.702426056552
 30
0.0
 11
905.9677612484206
 21
1816.702426056552
 31
0.0
  0
SPLINE
  5
12D
330
1F
100
AcDbEntity
  8
0
  6
Continuous
 62
     7
370
    15
100
AcDbSpline
210
0.0
220
0.0
230
1.0
 70
     8
 71
     3
 72
    12
 73
     8
 74
     0
 42
0.0000000001
 43
0.0000000001
 40
0.0
 40
0.0
 40
0.0
 40
0.0
 40
0.2005536130346468
 40
0.4011073849807744
 40
0.6074846105648809
 40
0.8138622981282662
 40
1.0
 40
1.0
 40
1.0
 40
1.0
 10
905.9677612484206
 20
1816.702426056552
 30
0.0
 10
906.6412265448132
 20
1817.378349126093
 30
0.0
 10
907.9881576712278
 20
1818.730195800753
 30
0.0
 10
910.1831885031536
 20
1820.492511014085
 30
0.0
 10
912.5007697127397
 20
1822.023386764232
 30
0.0
 10
914.844867768096
 20
1823.308060392552
 30
0.0
 10
916.4522103348174
 20
1823.867069178744
 30
0.0
 10
917.2144404525225
 20
1824.132160977915
 30
0.0
  0
SPLINE
  5
12E
330
1F
100
AcDbEntity
  8
0
  6
Continuous
 62
     7
370
    15
100
AcDbSpline
210
0.0
220
0.0
230
1.0
 70
     8
 71
     3
 72
    11
 73
     7
 74
     0
 42
0.0000000001
 43
0.0000000001
 40
0.0
 40
0.0
 40
0.0
 40
0.0
 40
0.0202237138896698
 40
0.3516968454903089
 40
0.6724489944838475
 40
1.0
 40
1.0
 40
1.0
 40
1.0
 10
917.2144404525228
 20
1824.486602703543
 30
0.0
 10
917.1030164262919
 20
1824.466559797019
 30
0.0
 10
915.165317013067
 20
1824.118007249378
 30
0.0
 10
911.62279979577
 20
1822.674386198202
 30
0.0
 10
906.6651605892452
 20
1820.176065778163
 30
0.0
 10
903.7513419819259
 20
1817.868373008691
 30
0.0
 10
902.2791538426579
 20
1816.702426056552
 30
0.0
  0
LINE
  5
12F
330
1F
100
AcDbEntity
  8
0
  6
Continuous
 62
     7
370
    15
100
AcDbLine
 10
902.2791538426579
 20
1816.702426056552
 30
0.0
 11
900.9110732693558
 21
1816.702426056552
 31
0.0
  0
SPLINE
  5
130
330
1F
100
AcDbEntity
  8
0
  6
Continuous
 62
     7
370
    15
100
AcDbSpline
210
0.0
220
0.0
230
1.0
 70
     8
 71
     3
 72
    11
 73
     7
 74
     0
 42
0.0000000001
 43
0.0000000001
 40
0.0
 40
0.0
 40
0.0
 40
0.0
 40
0.0717950102392248
 40
0.385820792538437
 40
0.6896898995913609
 40
1.0
 40
1.0
 40
1.0
 40
1.0
 10
916.7639280021194
 20
1824.655485756123
 30
0.0
 10
916.3456285597886
 20
1824.584027150393
 30
0.0
 10
914.0977199402239
 20
1824.200014169485
 30
0.0
 10
910.2517482538162
 20
1822.688605027606
 30
0.0
 10
905.2978307201199
 20
1820.172472965145
 30
0.0
 10
902.3835133867553
 20
1817.867167060543
 30
0.0
 10
900.9110732693558
 20
1816.702426056552
 30
0.0
  0
SPLINE
  5
131
330
1F
100
AcDbEntity
  8
0
  6
Continuous
 62
     7
370
    15
100
AcDbSpline
210
0.0
220
0.0
230
1.0
 70
     8
 71
     3
 72
    12
 73
     8
 74
     0
 42
0.0000000001
 43
0.0000000001
 40
0.0
 40
0.0
 40
0.0
 40
0.0
 40
0.2413932050733471
 40
0.4862316888536391
 40
0.5956197359587313
 40
0.889612427206779
 40
1.0
 40
1.0
 40
1.0
 40
1.0
 10
899.6300333610786
 20
1816.702426056552
 30
0.0
 10
900.8881727682544
 20
1817.649919806347
 30
0.0
 10
903.4224083470007
 20
1819.558430387666
 30
0.0
 10
906.8524001321589
 20
1821.414296522144
 30
0.0
 10
910.7197548500881
 20
1823.107073600451
 30
0.0
 10
913.8963586247427
 20
1824.257677450805
 30
0.0
 10
916.5029061003568
 20
1824.664158524258
 30
0.0
 10
917.2144404525228
 20
1824.775119575216
 30
0.0
  0
LINE
  5
132
330
1F
100
AcDbEntity
  8
0
  6
Continuous
 62
     7
370
    15
100
AcDbLine
 10
947.2144404525229
 20
1815.991348732039
 30
0.0
 11
947.4462544238736
 21
1815.616587598273
 31
0.0
  0
LINE
  5
133
330
1F
100
AcDbEntity
  8
0
  6
Continuous
 62
     7
370
    15
100
AcDbLine
 10
950.2386948058157
 20
1816.702426056552
 30
0.0
 11
950.9103560390112
 21
1815.616587598273
 31
0.0
  0
LINE
  5
134
330
1F
100
AcDbEntity
  8
0
  6
Continuous
 62
     7
370
    15
100
AcDbLine
 10
916.9826264811707
 20
1815.616587598273
 30
0.0
 11
917.2144404525228
 21
1815.991348732041
 31
0.0
  0
LINE
  5
135
330
1F
100
AcDbEntity
  8
0
  6
Continuous
 62
     7
370
    15
100
AcDbLine
 10
913.5185248660333
 20
1815.616587598273
 30
0.0
 11
914.1901860992289
 21
1816.702426056552
 31
0.0
  0
LINE
  5
136
330
1F
100
AcDbEntity
  8
0
  6
Continuous
 62
     7
370
    15
100
AcDbLine
 10
880.3720604136687
 20
1785.616587598273
 30
0.0
 11
878.0463234390552
 21
1785.616587598273
 31
0.0
  0
SPLINE
  5
137
330
1F
100
AcDbEntity
  8
0
  6
Continuous
 62
     7
370
    15
100
AcDbSpline
210
0.0
220
0.0
230
1.0
 70
     8
 71
     3
 72
    29
 73
    25
 74
     0
 42
0.0000000001
 43
0.0000000001
 40
0.0
 40
0.0
 40
0.0
 40
0.0
 40
0.125
 40
0.125
 40
0.1874999999999998
 40
0.1874999999999998
 40
0.2499999999999996
 40
0.2499999999999996
 40
0.375
 40
0.375
 40
0.4375000000000002
 40
0.4375000000000002
 40
0.5000000000000004
 40
0.5000000000000004
 40
0.6250000000000001
 40
0.6250000000000001
 40
0.6875000000000001
 40
0.6875000000000001
 40
0.7500000000000001
 40
0.8125000000000001
 40
0.8125000000000001
 40
0.875
 40
0.875
 40
1.0
 40
1.0
 40
1.0
 40
1.0
 10
896.8930651165193
 20
1805.616587598272
 30
0.0
 10
895.6515961520873
 20
1805.616587598272
 30
0.0
 10
894.4299956424119
 20
1805.488062996744
 30
0.0
 10
892.6263470606521
 20
1805.109284638309
 30
0.0
 10
892.0299575275354
 20
1804.9518025935
 30
0.0
 10
890.8470747260688
 20
1804.572821774786
 30
0.0
 10
890.2593788835444
 20
1804.350389995775
 30
0.0
 10
888.5497681892866
 20
1803.600801118671
 30
0.0
 10
887.4679668625805
 20
1802.98873505003
 30
0.0
 10
885.9316457435099
 20
1801.903149154871
 30
0.0
 10
885.4322999489658
 20
1801.511647036677
 30
0.0
 10
884.4716177998115
 20
1800.677002040749
 30
0.0
 10
884.0143334305897
 20
1800.237706977261
 30
0.0
 10
882.7095432816118
 20
1798.855912167828
 30
0.0
 10
881.9284644973706
 20
1797.850108862723
 30
0.0
 10
880.8933854127584
 20
1796.211284961629
 30
0.0
 10
880.571933836091
 20
1795.643365195755
 30
0.0
 10
879.9892067294878
 20
1794.488887475786
 30
0.0
 10
879.4626023067225
 20
1793.309703533802
 30
0.0
 10
879.0465828189491
 20
1792.081838100332
 30
0.0
 10
878.6866311333366
 20
1790.829290604756
 30
0.0
 10
878.5341937787244
 20
1790.18778300149
 30
0.0
 10
878.1686430591202
 20
1788.247364331812
 30
0.0
 10
878.0463234390552
 20
1786.939271934494
 30
0.0
 10
878.0463234390552
 20
1785.616587598273
 30
0.0
  0
SPLINE
  5
138
330
1F
100
AcDbEntity
  8
0
  6
Continuous
 62
     7
370
    15
100
AcDbSpline
210
0.0
220
0.0
230
1.0
 70
     8
 71
     3
 72
    29
 73
    25
 74
     0
 42
0.0000000001
 43
0.0000000001
 40
0.0
 40
0.0
 40
0.0
 40
0.0
 40
0.1249999999999998
 40
0.1249999999999998
 40
0.1874999999999995
 40
0.1874999999999995
 40
0.2499999999999992
 40
0.2499999999999992
 40
0.3749999999999992
 40
0.3749999999999992
 40
0.4374999999999992
 40
0.4374999999999992
 40
0.4999999999999991
 40
0.4999999999999991
 40
0.6249999999999993
 40
0.6249999999999993
 40
0.6874999999999995
 40
0.6874999999999995
 40
0.7499999999999996
 40
0.8124999999999996
 40
0.8124999999999996
 40
0.8749999999999998
 40
0.8749999999999998
 40
1.0
 40
1.0
 40
1.0
 40
1.0
 10
899.2188020911321
 20
1805.616587598272
 30
0.0
 10
897.9773331267006
 20
1805.616587598272
 30
0.0
 10
896.7557326170254
 20
1805.488062996744
 30
0.0
 10
894.9520840352652
 20
1805.109284638309
 30
0.0
 10
894.3556945021487
 20
1804.9518025935
 30
0.0
 10
893.1728117006816
 20
1804.572821774786
 30
0.0
 10
892.5851158581577
 20
1804.350389995775
 30
0.0
 10
890.8755051639001
 20
1803.600801118671
 30
0.0
 10
889.793703837194
 20
1802.98873505003
 30
0.0
 10
888.2573827181232
 20
1801.903149154871
 30
0.0
 10
887.7580369235788
 20
1801.511647036677
 30
0.0
 10
886.7973547744247
 20
1800.677002040749
 30
0.0
 10
886.3400704052031
 20
1800.237706977261
 30
0.0
 10
885.0352802562253
 20
1798.855912167828
 30
0.0
 10
884.2542014719841
 20
1797.850108862723
 30
0.0
 10
883.2191223873715
 20
1796.211284961628
 30
0.0
 10
882.8976708107044
 20
1795.643365195755
 30
0.0
 10
882.3149437041013
 20
1794.488887475786
 30
0.0
 10
881.788339176157
 20
1793.309703580104
 30
0.0
 10
881.3723197935626
 20
1792.081838100332
 30
0.0
 10
881.0123681079501
 20
1790.829290604756
 30
0.0
 10
880.8599307533377
 20
1790.187783001489
 30
0.0
 10
880.4943800337337
 20
1788.247364331812
 30
0.0
 10
880.3720604136687
 20
1786.939271934494
 30
0.0
 10
880.3720604136687
 20
1785.616587598273
 30
0.0
  0
LINE
  5
139
330
1F
100
AcDbEntity
  8
0
  6
Continuous
 62
     7
370
    15
100
AcDbLine
 10
880.3720604136687
 20
1745.616587598273
 30
0.0
 11
880.3720604136687
 21
1785.616587598273
 31
0.0
  0
LINE
  5
13A
330
1F
100
AcDbEntity
  8
0
  6
Continuous
 62
     7
370
    15
100
AcDbLine
 10
984.0568204913761
 20
1785.616587598273
 30
0.0
 11
984.0568204913761
 21
1745.616587598273
 31
0.0
  0
SPLINE
  5
13B
330
1F
100
AcDbEntity
  8
0
  6
Continuous
 62
     7
370
    15
100
AcDbSpline
210
0.0
220
0.0
230
1.0
 70
     8
 71
     3
 72
    33
 73
    29
 74
     0
 42
0.0000000001
 43
0.0000000001
 40
0.0
 40
0.0
 40
0.0
 40
0.0
 40
0.1249999999999981
 40
0.1249999999999981
 40
0.1874999999999971
 40
0.1874999999999971
 40
0.2499999999999962
 40
0.2499999999999962
 40
0.3749999999999952
 40
0.3749999999999952
 40
0.4374999999999951
 40
0.4374999999999951
 40
0.4999999999999954
 40
0.4999999999999954
 40
0.6249999999999951
 40
0.6249999999999951
 40
0.6562499999999951
 40
0.6562499999999951
 40
0.6874999999999949
 40
0.6874999999999949
 40
0.7499999999999956
 40
0.812499999999996
 40
0.812499999999996
 40
0.8437499999999966
 40
0.8437499999999966
 40
0.8749999999999971
 40
0.8749999999999971
 40
1.0
 40
1.0
 40
1.0
 40
1.0
 10
984.0568204913761
 20
1785.616587598273
 30
0.0
 10
984.0568204913761
 20
1786.940311119283
 30
0.0
 10
983.9343253584477
 20
1788.24183005035
 30
0.0
 10
983.5743715692037
 20
1790.162166810575
 30
0.0
 10
983.4247990246479
 20
1790.796915681456
 30
0.0
 10
983.0651183234724
 20
1792.055440183621
 30
0.0
 10
982.8540447337593
 20
1792.680755022071
 30
0.0
 10
982.143022194937
 20
1794.499334738614
 30
0.0
 10
981.5629359401416
 20
1795.649168444735
 30
0.0
 10
980.5350871903025
 20
1797.280908074576
 30
0.0
 10
980.1644372424377
 20
1797.81119055484
 30
0.0
 10
979.3752043173247
 20
1798.830212014954
 30
0.0
 10
978.9599569513464
 20
1799.315080371739
 30
0.0
 10
977.6542447734351
 20
1800.698054788516
 30
0.0
 10
976.7043766912891
 20
1801.525207215105
 30
0.0
 10
975.4154077122095
 20
1802.437752195848
 30
0.0
 10
975.1518036026414
 20
1802.614538454699
 30
0.0
 10
974.6194597252319
 20
1802.952277133814
 30
0.0
 10
974.3503426280675
 20
1803.113547737481
 30
0.0
 10
973.534317928857
 20
1803.574981487881
 30
0.0
 10
972.4231965885303
 20
1804.130656615609
 30
0.0
 10
971.2665935459751
 20
1804.568985445084
 30
0.0
 10
970.3818556918911
 20
1804.853133958331
 30
0.0
 10
970.084057098898
 20
1804.940404091504
 30
0.0
 10
969.4825857220704
 20
1805.099788492596
 30
0.0
 10
969.1785003937894
 20
1805.171943605353
 30
0.0
 10
967.6598371487825
 20
1805.49079954074
 30
0.0
 10
966.4382136314598
 20
1805.616587598272
 30
0.0
 10
965.2100788139128
 20
1805.616587598272
 30
0.0
  0
SPLINE
  5
13C
330
1F
100
AcDbEntity
  8
0
  6
Continuous
 62
     7
370
    15
100
AcDbSpline
210
0.0
220
0.0
230
1.0
 70
     8
 71
     3
 72
    33
 73
    29
 74
     0
 42
0.0000000001
 43
0.0000000001
 40
0.0
 40
0.0
 40
0.0
 40
0.0
 40
0.1249999999999996
 40
0.1249999999999996
 40
0.1874999999999994
 40
0.1874999999999994
 40
0.2499999999999992
 40
0.2499999999999992
 40
0.3749999999999988
 40
0.3749999999999988
 40
0.4374999999999987
 40
0.4374999999999987
 40
0.499999999999998
 40
0.499999999999998
 40
0.6249999999999967
 40
0.6249999999999967
 40
0.6562499999999966
 40
0.6562499999999966
 40
0.6874999999999965
 40
0.6874999999999965
 40
0.7499999999999968
 40
0.8124999999999971
 40
0.8124999999999971
 40
0.8437499999999975
 40
0.8437499999999975
 40
0.874999999999998
 40
0.874999999999998
 40
1.0
 40
1.0
 40
1.0
 40
1.0
 10
986.3825574659896
 20
1785.616587598273
 30
0.0
 10
986.3825574659896
 20
1786.940311119283
 30
0.0
 10
986.2600623330614
 20
1788.24183005035
 30
0.0
 10
985.9001085438174
 20
1790.162166810576
 30
0.0
 10
985.7505359992615
 20
1790.796915681456
 30
0.0
 10
985.3908552980861
 20
1792.055440183621
 30
0.0
 10
985.1797817083729
 20
1792.680755022071
 30
0.0
 10
984.4687591695505
 20
1794.499334738615
 30
0.0
 10
983.8886729147553
 20
1795.649168444735
 30
0.0
 10
982.8608241649158
 20
1797.280908074576
 30
0.0
 10
982.4901742170514
 20
1797.81119055484
 30
0.0
 10
981.7009412919382
 20
1798.830212014954
 30
0.0
 10
981.2856939259599
 20
1799.315080371739
 30
0.0
 10
979.9799817480485
 20
1800.698054788517
 30
0.0
 10
979.0301136659026
 20
1801.525207215105
 30
0.0
 10
977.7411446868226
 20
1802.437752195848
 30
0.0
 10
977.4775405772547
 20
1802.614538454699
 30
0.0
 10
976.9451966998454
 20
1802.952277133814
 30
0.0
 10
976.6760796026806
 20
1803.113547737481
 30
0.0
 10
975.8600549034701
 20
1803.574981487881
 30
0.0
 10
974.7489335631435
 20
1804.130656615609
 30
0.0
 10
973.5923305205883
 20
1804.568985445084
 30
0.0
 10
972.7075926665042
 20
1804.853133958331
 30
0.0
 10
972.4097940735111
 20
1804.940404091504
 30
0.0
 10
971.8083226966838
 20
1805.099788492596
 30
0.0
 10
971.5042373684026
 20
1805.171943605353
 30
0.0
 10
969.9855741233957
 20
1805.49079954074
 30
0.0
 10
968.7639506060731
 20
1805.616587598272
 30
0.0
 10
967.5358157885259
 20
1805.616587598272
 30
0.0
  0
LINE
  5
13D
330
1F
100
AcDbEntity
  8
0
  6
Continuous
 62
     7
370
    15
100
AcDbLine
 10
986.3825574659896
 20
1785.616587598273
 30
0.0
 11
984.0568204913761
 21
1785.616587598273
 31
0.0
  0
LINE
  5
13E
330
1F
100
AcDbEntity
  8
0
  6
Continuous
 62
     7
370
    15
100
AcDbLine
 10
956.9190139285739
 20
1815.616587598273
 30
0.0
 11
955.8899692178782
 21
1816.702426056552
 31
0.0
  0
LINE
  5
13F
330
1F
100
AcDbEntity
  8
0
  6
Continuous
 62
     7
370
    15
100
AcDbLine
 10
959.49016436732
 20
1815.616587598273
 30
0.0
 11
958.4611196566241
 21
1816.702426056552
 31
0.0
  0
LINE
  5
140
330
1F
100
AcDbEntity
  8
0
  6
Continuous
 62
     7
370
    15
100
AcDbLine
 10
908.5389116871665
 20
1816.702426056552
 30
0.0
 11
907.509866976471
 21
1815.616587598273
 31
0.0
  0
LINE
  5
141
330
1F
100
AcDbEntity
  8
0
  6
Continuous
 62
     7
370
    15
100
AcDbLine
 10
905.9677612484206
 20
1816.702426056552
 30
0.0
 11
904.938716537725
 21
1815.616587598273
 31
0.0
  0
LINE
  5
142
330
1F
100
AcDbEntity
  8
0
  6
Continuous
 62
     7
370
    15
100
AcDbLine
 10
986.3825574659896
 20
1785.616587598273
 30
0.0
 11
986.3825574659896
 21
1745.616587598273
 31
0.0
  0
LINE
  5
143
330
1F
100
AcDbEntity
  8
0
  6
Continuous
 62
     7
370
    15
100
AcDbLine
 10
878.0463234390552
 20
1745.616587598273
 30
0.0
 11
878.0463234390552
 21
1785.616587598273
 31
0.0
  0
LINE
  5
144
330
1F
100
AcDbEntity
  8
0
  6
Continuous
 62
     7
370
    15
100
AcDbLine
 10
962.1497270623873
 20
1816.702426056552
 30
0.0
 11
963.4120372713907
 21
1815.616587598273
 31
0.0
  0
LINE
  5
145
330
1F
100
AcDbEntity
  8
0
  6
Continuous
 62
     7
370
    15
100
AcDbLine
 10
901.0168436336543
 20
1815.616587598273
 30
0.0
 11
902.2791538426579
 21
1816.702426056552
 31
0.0
  0
LINE
  5
146
330
1F
100
AcDbEntity
  8
0
  6
Continuous
 62
     7
370
    15
100
AcDbLine
 10
963.5178076356892
 20
1816.702426056552
 30
0.0
 11
964.7801178446927
 21
1815.616587598273
 31
0.0
  0
LINE
  5
147
330
1F
100
AcDbEntity
  8
0
  6
Continuous
 62
     7
370
    15
100
AcDbLine
 10
899.6487630603523
 20
1815.616587598273
 30
0.0
 11
900.9110732693558
 21
1816.702426056552
 31
0.0
  0
SPLINE
  5
148
330
1F
100
AcDbEntity
  8
0
  6
Continuous
 62
     7
370
    15
100
AcDbSpline
210
0.0
220
0.0
230
1.0
 70
     8
 71
     3
 72
    30
 73
    26
 74
     0
 42
0.0000000001
 43
0.0000000001
 40
0.0
 40
0.0
 40
0.0
 40
0.0
 40
0.0624999999999997
 40
0.0624999999999997
 40
0.1249999999999993
 40
0.1249999999999993
 40
0.1874999999999989
 40
0.1874999999999989
 40
0.2499999999999986
 40
0.2499999999999986
 40
0.3749999999999978
 40
0.3749999999999978
 40
0.4374999999999975
 40
0.4374999999999975
 40
0.4999999999999972
 40
0.4999999999999972
 40
0.6249999999999978
 40
0.6249999999999978
 40
0.7499999999999986
 40
0.7499999999999986
 40
0.8124999999999989
 40
0.8124999999999989
 40
0.8749999999999991
 40
0.8749999999999991
 40
1.0
 40
1.0
 40
1.0
 40
1.0
 10
875.8074331464239
 20
1785.616587598273
 30
0.0
 10
875.8074331464239
 20
1786.269841802109
 30
0.0
 10
875.8394138973269
 20
1786.925175463669
 30
0.0
 10
875.9695459438384
 20
1788.24014533899
 30
0.0
 10
876.0670802104007
 20
1788.892608622093
 30
0.0
 10
876.3254064466892
 20
1790.182355665321
 30
0.0
 10
876.4862833233374
 20
1790.820511358706
 30
0.0
 10
876.8721811936575
 20
1792.083235293834
 30
0.0
 10
877.0963665455552
 20
1792.704221346126
 30
0.0
 10
877.8525209857242
 20
1794.515747412199
 30
0.0
 10
878.469894488572
 20
1795.664115216025
 30
0.0
 10
879.5668507646521
 20
1797.297174020628
 30
0.0
 10
879.9636111687014
 20
1797.829176920063
 30
0.0
 10
880.8008235866825
 20
1798.842901498976
 30
0.0
 10
881.2416815725987
 20
1799.325933198011
 30
0.0
 10
882.6294105212616
 20
1800.705250411419
 30
0.0
 10
883.6408030435691
 20
1801.532436416822
 30
0.0
 10
885.8427638692969
 20
1802.994919722857
 30
0.0
 10
886.9993903244127
 20
1803.607317902518
 30
0.0
 10
888.8084417908421
 20
1804.351808907444
 30
0.0
 10
889.4242257507684
 20
1804.570953886927
 30
0.0
 10
890.6818516741454
 20
1804.950014529846
 30
0.0
 10
891.3261577934305
 20
1805.110114709734
 30
0.0
 10
893.2580072392122
 20
1805.49062381774
 30
0.0
 10
894.555922566446
 20
1805.616587598272
 30
0.0
 10
895.8637167231758
 20
1805.616587598272
 30
0.0
  0
LINE
  5
149
330
1F
100
AcDbEntity
  8
0
  6
Continuous
 62
     7
370
    15
100
AcDbLine
 10
875.8074331464239
 20
1785.616587598273
 30
0.0
 11
875.8074331464239
 21
1745.616587598273
 31
0.0
  0
LINE
  5
14A
330
1F
100
AcDbEntity
  8
0
  6
Continuous
 62
     7
370
    15
100
AcDbLine
 10
896.8930651165237
 20
1805.616587598272
 30
0.0
 11
899.2188020911322
 21
1805.616587598272
 31
0.0
  0
SPLINE
  5
14B
330
1F
100
AcDbEntity
  8
0
  6
Continuous
 62
     7
370
    15
100
AcDbSpline
210
0.0
220
0.0
230
1.0
 70
     8
 71
     3
 72
    33
 73
    29
 74
     0
 42
0.0000000001
 43
0.0000000001
 40
0.0
 40
0.0
 40
0.0
 40
0.0
 40
0.1250000000000007
 40
0.1250000000000007
 40
0.187500000000001
 40
0.187500000000001
 40
0.2500000000000013
 40
0.2500000000000013
 40
0.3750000000000024
 40
0.3750000000000024
 40
0.4375000000000026
 40
0.4375000000000026
 40
0.5000000000000029
 40
0.5000000000000029
 40
0.625000000000004
 40
0.625000000000004
 40
0.656250000000004
 40
0.656250000000004
 40
0.6875000000000041
 40
0.6875000000000041
 40
0.7500000000000037
 40
0.8125000000000033
 40
0.8125000000000033
 40
0.8437500000000028
 40
0.8437500000000028
 40
0.8750000000000023
 40
0.8750000000000023
 40
1.0
 40
1.0
 40
1.0
 40
1.0
 10
968.5651641818694
 20
1805.616587598272
 30
0.0
 10
969.887382746762
 20
1805.616587598272
 30
0.0
 10
971.188504779575
 20
1805.487855429082
 30
0.0
 10
973.109646844089
 20
1805.108394450109
 30
0.0
 10
973.7449005516269
 20
1804.950622346569
 30
0.0
 10
975.004893107109
 20
1804.570915902815
 30
0.0
 10
975.6307582526487
 20
1804.348096865513
 30
0.0
 10
977.4512901291238
 20
1803.597258352879
 30
0.0
 10
978.6032974256572
 20
1802.984153481737
 30
0.0
 10
980.239292773207
 20
1801.896599442002
 30
0.0
 10
980.771154405342
 20
1801.504262674295
 30
0.0
 10
981.7936984822264
 20
1800.668370501707
 30
0.0
 10
982.2804169375604
 20
1800.228409366325
 30
0.0
 10
983.6691299019348
 20
1798.844469811151
 30
0.0
 10
984.5003618045989
 20
1797.837044755235
 30
0.0
 10
985.4180871022514
 20
1796.468991268079
 30
0.0
 10
985.5959466013775
 20
1796.189123015872
 30
0.0
 10
985.9358980268094
 20
1795.623667806085
 30
0.0
 10
986.0982488833091
 20
1795.337780562241
 30
0.0
 10
986.562840303417
 20
1794.470811229295
 30
0.0
 10
987.1225054787171
 20
1793.290075916993
 30
0.0
 10
987.5643042902158
 20
1792.060498352
 30
0.0
 10
987.8508104784426
 20
1791.119732868776
 30
0.0
 10
987.9388254190233
 20
1790.803041810576
 30
0.0
 10
988.0996052212124
 20
1790.163340264387
 30
0.0
 10
988.1724352920409
 20
1789.839788547723
 30
0.0
 10
988.494328462287
 20
1788.2237102362
 30
0.0
 10
988.6214477586214
 20
1786.923654906138
 30
0.0
 10
988.6214477586214
 20
1785.616587598273
 30
0.0
  0
LINE
  5
14C
330
1F
100
AcDbEntity
  8
0
  6
Continuous
 62
     7
370
    15
100
AcDbLine
 10
988.6214477586214
 20
1745.616587598273
 30
0.0
 11
988.6214477586214
 21
1785.616587598273
 31
0.0
  0
LINE
  5
14D
330
1F
100
AcDbEntity
  8
0
  6
Continuous
 62
     7
370
    15
100
AcDbLine
 10
965.2100788139128
 20
1805.616587598272
 30
0.0
 11
967.5358157885217
 21
1805.616587598272
 31
0.0
  0
LINE
  5
14E
330
1F
100
AcDbEntity
  8
0
  6
Continuous
 62
     7
370
    15
100
AcDbLine
 10
966.1421700103579
 20
1815.616587598273
 30
0.0
 11
964.7988475439669
 21
1816.702426056552
 31
0.0
  0
LWPOLYLINE
  5
14F
330
1F
100
AcDbEntity
  8
0
  6
Continuous
 62
     7
370
    15
100
AcDbPolyline
 90
        3
 70
   128
 43
0.0
 10
899.6300333610786
 20
1816.702426056552
 10
898.8539681459487
 20
1816.075133914488
 10
898.2867108946875
 20
1815.616587598273
  0
LINE
  5
150
330
1F
100
AcDbEntity
  8
0
  6
Continuous
 62
     8
370
    15
100
AcDbLine
 10
964.8601688944022
 20
1816.702426056552
 30
0.0
 11
964.7988475439669
 21
1816.702426056552
 31
0.0
  0
LINE
  5
151
330
1F
100
AcDbEntity
  8
0
  6
Continuous
 62
     8
370
    15
100
AcDbLine
 10
950.2386948058157
 20
1816.702426056552
 30
0.0
 11
947.2144404525229
 21
1816.702426056552
 31
0.0
  0
LINE
  5
152
330
1F
100
AcDbEntity
  8
0
  6
Continuous
 62
     8
370
    15
100
AcDbLine
 10
917.2144404525228
 20
1816.702426056552
 30
0.0
 11
914.1901860992289
 21
1816.702426056552
 31
0.0
  0
LINE
  5
153
330
1F
100
AcDbEntity
  8
0
  6
Continuous
 62
     8
370
    15
100
AcDbLine
 10
899.6300333610786
 20
1816.702426056552
 30
0.0
 11
899.5687120106431
 21
1816.702426056552
 31
0.0
  0
LINE
  5
154
330
1F
100
AcDbEntity
  8
0
  6
Continuous
 62
     8
370
    15
100
AcDbLine
 10
875.8074331464239
 20
1785.616587598273
 30
0.0
 11
875.7050565129482
 21
1785.616587598273
 31
0.0
  0
LINE
  5
155
330
1F
100
AcDbEntity
  8
0
  6
Continuous
 62
     7
370
    15
100
AcDbLine
 10
685.8053187127518
 20
1567.382567041556
 30
0.0
 11
685.8053187127518
 21
1597.382567041556
 31
0.0
  0
LINE
  5
156
330
1F
100
AcDbEntity
  8
0
  6
Continuous
 62
     7
370
    15
100
AcDbLine
 10
697.1943129203241
 20
1597.382567041556
 30
0.0
 11
685.8053187127518
 21
1597.382567041556
 31
0.0
  0
LINE
  5
157
330
1F
100
AcDbEntity
  8
0
  6
Continuous
 62
     7
370
    15
100
AcDbLine
 10
697.1943129203241
 20
1567.382567041556
 30
0.0
 11
685.8053187127518
 21
1567.382567041556
 31
0.0
  0
LINE
  5
158
330
1F
100
AcDbEntity
  8
0
  6
Continuous
 62
     7
370
    15
100
AcDbLine
 10
814.4163245051796
 20
1597.382567041556
 30
0.0
 11
825.8053187127519
 21
1597.382567041556
 31
0.0
  0
LINE
  5
159
330
1F
100
AcDbEntity
  8
0
  6
Continuous
 62
     7
370
    15
100
AcDbLine
 10
825.8053187127519
 20
1567.382567041556
 30
0.0
 11
825.8053187127519
 21
1597.382567041556
 31
0.0
  0
LINE
  5
15A
330
1F
100
AcDbEntity
  8
0
  6
Continuous
 62
     7
370
    15
100
AcDbLine
 10
814.4163245051796
 20
1567.382567041556
 30
0.0
 11
825.8053187127519
 21
1567.382567041556
 31
0.0
  0
CIRCLE
  5
15B
330
1F
100
AcDbEntity
  8
0
  6
Continuous
 62
     7
370
    15
100
AcDbCircle
 10
755.8053187127518
 20
1582.382567041556
 30
0.0
 40
14.11469882134745
  0
CIRCLE
  5
15C
330
1F
100
AcDbEntity
  8
0
  6
Continuous
 62
     7
370
    15
100
AcDbCircle
 10
755.8053187127518
 20
1582.382567041556
 30
0.0
 40
33.42607491905733
  0
CIRCLE
  5
15D
330
1F
100
AcDbEntity
  8
0
  6
Continuous
 62
     7
370
    15
100
AcDbCircle
 10
755.8053187127518
 20
1582.382567041556
 30
0.0
 40
46.95229997838731
  0
CIRCLE
  5
15E
330
1F
100
AcDbEntity
  8
0
  6
Continuous
 62
     7
370
    15
100
AcDbCircle
 10
755.8053187127518
 20
1582.382567041556
 30
0.0
 40
37.93939069297388
  0
CIRCLE
  5
15F
330
1F
100
AcDbEntity
  8
0
  6
Continuous
 62
     7
370
    15
100
AcDbCircle
 10
755.8053187127518
 20
1582.382567041556
 30
0.0
 40
60.5
  0
ENDSEC
  0
SECTION
  2
OBJECTS
  0
DICTIONARY
  5
C
330
0
100
AcDbDictionary
281
     1
  3
ACAD_COLOR
350
18B
  3
ACAD_GROUP
350
D
  3
ACAD_LAYOUT
350
1A
  3
ACAD_MATERIAL
350
161
  3
ACAD_MLEADERSTYLE
350
1A0
  3
ACAD_MLINESTYLE
350
17
  3
ACAD_PLOTSETTINGS
350
19
  3
ACAD_PLOTSTYLENAME
350
E
  3
ACAD_SCALELIST
350
18E
  3
ACAD_TABLESTYLE
350
18C
  3
ACAD_VISUALSTYLE
350
17A
  3
ACDB_RECOMPOSE_DATA
350
1B1
  3
AcDbVariableDictionary
350
1A7
  0
DICTIONARY
  5
1A5
330
10
100
AcDbDictionary
280
     1
281
     1
  3
ADSK_XREC_LAYER_RECONCILED
360
1A6
  0
DICTIONARY
  5
18B
102
{ACAD_REACTORS
330
C
102
}
330
C
100
AcDbDictionary
281
     1
  0
DICTIONARY
  5
D
102
{ACAD_REACTORS
330
C
102
}
330
C
100
AcDbDictionary
281
     1
  0
DICTIONARY
  5
1A
102
{ACAD_REACTORS
330
C
102
}
330
C
100
AcDbDictionary
281
     1
  3
Layout1
350
1E
  3
Layout2
350
26
  3
Model
350
22
  0
DICTIONARY
  5
161
102
{ACAD_REACTORS
330
C
102
}
330
C
100
AcDbDictionary
281
     1
  3
ByBlock
350
16A
  3
ByLayer
350
162
  3
Global
350
172
  0
DICTIONARY
  5
1A0
102
{ACAD_REACTORS
330
C
102
}
330
C
100
AcDbDictionary
281
     1
  3
Standard
350
1A1
  0
DICTIONARY
  5
17
102
{ACAD_REACTORS
330
C
102
}
330
C
100
AcDbDictionary
281
     1
  3
Standard
350
18
  0
DICTIONARY
  5
19
102
{ACAD_REACTORS
330
C
102
}
330
C
100
AcDbDictionary
281
     1
  0
ACDBDICTIONARYWDFLT
  5
E
102
{ACAD_REACTORS
330
C
102
}
330
C
100
AcDbDictionary
281
     1
  3
Normal
350
F
100
AcDbDictionaryWithDefault
340
F
  0
DICTIONARY
  5
18E
102
{ACAD_REACTORS
330
C
102
}
330
C
100
AcDbDictionary
281
     1
  3
A0
350
18F
  3
A1
350
190
  3
A2
350
191
  3
A3
350
192
  3
A4
350
193
  3
A5
350
194
  3
A6
350
195
  3
A7
350
196
  3
A8
350
197
  3
A9
350
198
  3
B0
350
199
  3
B1
350
19A
  3
B2
350
19B
  3
B3
350
19C
  3
B4
350
19D
  3
B5
350
19E
  3
B6
350
19F
  0
DICTIONARY
  5
18C
102
{ACAD_REACTORS
330
C
102
}
330
C
100
AcDbDictionary
281
     1
  3
Standard
350
18D
  0
DICTIONARY
  5
17A
102
{ACAD_REACTORS
330
C
102
}
330
C
100
AcDbDictionary
281
     1
  3
2dWireframe
350
180
  3
3D Hidden
350
182
  3
3dWireframe
350
181
  3
Basic
350
17F
  3
Brighten
350
186
  3
ColorChange
350
18A
  3
Conceptual
350
183
  3
Dim
350
185
  3
Facepattern
350
189
  3
Flat
350
17B
  3
FlatWithEdges
350
17C
  3
Gouraud
350
17D
  3
GouraudWithEdges
350
17E
  3
Linepattern
350
188
  3
Realistic
350
184
  3
Thicken
350
187
  0
XRECORD
  5
1B1
102
{ACAD_REACTORS
330
C
102
}
330
C
100
AcDbXrecord
280
     1
 90
        1
330
18D
  0
DICTIONARY
  5
1A7
102
{ACAD_REACTORS
330
C
102
}
330
C
100
AcDbDictionary
281
     1
  3
CANNOSCALE
350
1AB
  3
CMLEADERSTYLE
350
1A9
  3
CTABLESTYLE
350
1A8
  3
LAYEREVAL
350
1AD
  3
LAYERNOTIFY
350
1AE
  3
LIGHTINGUNITS
350
1AC
  3
MSLTSCALE
350
1AA
  0
XRECORD
  5
1A6
102
{ACAD_REACTORS
330
1A5
102
}
330
1A5
100
AcDbXrecord
280
     1
290
     1
  0
LAYOUT
  5
1E
102
{ACAD_REACTORS
330
1A
102
}
330
1A
100
AcDbPlotSettings
  1

  2
none_device
  4

  6

 40
0.0
 41
0.0
 42
0.0
 43
0.0
 44
0.0
 45
0.0
 46
0.0
 47
0.0
 48
0.0
 49
0.0
140
0.0
141
0.0
142
1.0
143
1.0
 70
   688
 72
     0
 73
     0
 74
     5
  7

 75
    16
147
1.0
 76
     0
 77
     2
 78
   300
148
0.0
149
0.0
100
AcDbLayout
  1
Layout1
 70
     1
 71
     1
 10
0.0
 20
0.0
 11
420.0
 21
297.0
 12
0.0
 22
0.0
 32
0.0
 14
1.000000000000000E+20
 24
1.000000000000000E+20
 34
1.000000000000000E+20
 15
-1.000000000000000E+20
 25
-1.000000000000000E+20
 35
-1.000000000000000E+20
146
0.0
 13
0.0
 23
0.0
 33
0.0
 16
1.0
 26
0.0
 36
0.0
 17
0.0
 27
1.0
 37
0.0
 76
     0
330
1B
  0
LAYOUT
  5
26
102
{ACAD_REACTORS
330
1A
102
}
330
1A
100
AcDbPlotSettings
  1

  2
none_device
  4

  6

 40
0.0
 41
0.0
 42
0.0
 43
0.0
 44
0.0
 45
0.0
 46
0.0
 47
0.0
 48
0.0
 49
0.0
140
0.0
141
0.0
142
1.0
143
1.0
 70
   688
 72
     0
 73
     0
 74
     5
  7

 75
    16
147
1.0
 76
     0
 77
     2
 78
   300
148
0.0
149
0.0
100
AcDbLayout
  1
Layout2
 70
     1
 71
     2
 10
0.0
 20
0.0
 11
0.0
 21
0.0
 12
0.0
 22
0.0
 32
0.0
 14
0.0
 24
0.0
 34
0.0
 15
0.0
 25
0.0
 35
0.0
146
0.0
 13
0.0
 23
0.0
 33
0.0
 16
1.0
 26
0.0
 36
0.0
 17
0.0
 27
1.0
 37
0.0
 76
     0
330
23
  0
LAYOUT
  5
22
102
{ACAD_REACTORS
330
1A
102
}
330
1A
100
AcDbPlotSettings
  1

  2
none_device
  4

  6

 40
0.0
 41
0.0
 42
0.0
 43
0.0
 44
0.0
 45
0.0
 46
0.0
 47
0.0
 48
0.0
 49
0.0
140
0.0
141
0.0
142
1.0
143
1.0
 70
  1712
 72
     0
 73
     0
 74
     0
  7

 75
     0
147
1.0
 76
     0
 77
     2
 78
   300
148
0.0
149
0.0
100
AcDbLayout
  1
Model
 70
     1
 71
     0
 10
0.0
 20
0.0
 11
2794.0
 21
2159.0
 12
0.0
 22
0.0
 32
0.0
 14
0.0
 24
0.0
 34
0.0
 15
2794.0
 25
2159.0
 35
0.0
146
0.0
 13
0.0
 23
0.0
 33
0.0
 16
1.0
 26
0.0
 36
0.0
 17
0.0
 27
1.0
 37
0.0
 76
     0
330
1F
331
29
  0
MATERIAL
  5
16A
102
{ACAD_XDICTIONARY
360
16B
102
}
102
{ACAD_REACTORS
330
161
102
}
330
161
100
AcDbMaterial
  1
ByBlock
 72
     0
 43
0.0008202099737533
 43
0.0
 43
0.0
 43
0.0
 43
0.0
 43
0.0008202099737533
 43
0.0
 43
0.0
 43
0.0
 43
0.0
 43
1.0
 43
0.0
 43
0.0
 43
0.0
 43
0.0
 43
1.0
 77
     0
 47
0.0008202099737533
 47
0.0
 47
0.0
 47
0.0
 47
0.0
 47
0.0008202099737533
 47
0.0
 47
0.0
 47
0.0
 47
0.0
 47
1.0
 47
0.0
 47
0.0
 47
0.0
 47
0.0
 47
1.0
171
     0
 49
0.0008202099737533
 49
0.0
 49
0.0
 49
0.0
 49
0.0
 49
0.0008202099737533
 49
0.0
 49
0.0
 49
0.0
 49
0.0
 49
1.0
 49
0.0
 49
0.0
 49
0.0
 49
0.0
 49
1.0
175
     0
142
0.0008202099737533
142
0.0
142
0.0
142
0.0
142
0.0
142
0.0008202099737533
142
0.0
142
0.0
142
0.0
142
0.0
142
1.0
142
0.0
142
0.0
142
0.0
142
0.0
142
1.0
179
     0
144
0.0008202099737533
144
0.0
144
0.0
144
0.0
144
0.0
144
0.0008202099737533
144
0.0
144
0.0
144
0.0
144
0.0
144
1.0
144
0.0
144
0.0
144
0.0
144
0.0
144
1.0
147
0.0008202099737533
147
0.0
147
0.0
147
0.0
147
0.0
147
0.0008202099737533
147
0.0
147
0.0
147
0.0
147
0.0
147
1.0
147
0.0
147
0.0
147
0.0
147
0.0
147
1.0
  0
MATERIAL
  5
162
102
{ACAD_XDICTIONARY
360
163
102
}
102
{ACAD_REACTORS
330
161
102
}
330
161
100
AcDbMaterial
  1
ByLayer
 72
     0
 43
0.0008202099737533
 43
0.0
 43
0.0
 43
0.0
 43
0.0
 43
0.0008202099737533
 43
0.0
 43
0.0
 43
0.0
 43
0.0
 43
1.0
 43
0.0
 43
0.0
 43
0.0
 43
0.0
 43
1.0
 77
     0
 47
0.0008202099737533
 47
0.0
 47
0.0
 47
0.0
 47
0.0
 47
0.0008202099737533
 47
0.0
 47
0.0
 47
0.0
 47
0.0
 47
1.0
 47
0.0
 47
0.0
 47
0.0
 47
0.0
 47
1.0
171
     0
 49
0.0008202099737533
 49
0.0
 49
0.0
 49
0.0
 49
0.0
 49
0.0008202099737533
 49
0.0
 49
0.0
 49
0.0
 49
0.0
 49
1.0
 49
0.0
 49
0.0
 49
0.0
 49
0.0
 49
1.0
175
     0
142
0.0008202099737533
142
0.0
142
0.0
142
0.0
142
0.0
142
0.0008202099737533
142
0.0
142
0.0
142
0.0
142
0.0
142
1.0
142
0.0
142
0.0
142
0.0
142
0.0
142
1.0
179
     0
144
0.0008202099737533
144
0.0
144
0.0
144
0.0
144
0.0
144
0.0008202099737533
144
0.0
144
0.0
144
0.0
144
0.0
144
1.0
144
0.0
144
0.0
144
0.0
144
0.0
144
1.0
147
0.0008202099737533
147
0.0
147
0.0
147
0.0
147
0.0
147
0.0008202099737533
147
0.0
147
0.0
147
0.0
147
0.0
147
1.0
147
0.0
147
0.0
147
0.0
147
0.0
147
1.0
  0
MATERIAL
  5
172
102
{ACAD_XDICTIONARY
360
173
102
}
102
{ACAD_REACTORS
330
161
102
}
330
161
100
AcDbMaterial
  1
Global
 72
     0
 43
0.0008202099737533
 43
0.0
 43
0.0
 43
0.0
 43
0.0
 43
0.0008202099737533
 43
0.0
 43
0.0
 43
0.0
 43
0.0
 43
1.0
 43
0.0
 43
0.0
 43
0.0
 43
0.0
 43
1.0
 77
     0
 47
0.0008202099737533
 47
0.0
 47
0.0
 47
0.0
 47
0.0
 47
0.0008202099737533
 47
0.0
 47
0.0
 47
0.0
 47
0.0
 47
1.0
 47
0.0
 47
0.0
 47
0.0
 47
0.0
 47
1.0
171
     0
 49
0.0008202099737533
 49
0.0
 49
0.0
 49
0.0
 49
0.0
 49
0.0008202099737533
 49
0.0
 49
0.0
 49
0.0
 49
0.0
 49
1.0
 49
0.0
 49
0.0
 49
0.0
 49
0.0
 49
1.0
175
     0
142
0.0008202099737533
142
0.0
142
0.0
142
0.0
142
0.0
142
0.0008202099737533
142
0.0
142
0.0
142
0.0
142
0.0
142
1.0
142
0.0
142
0.0
142
0.0
142
0.0
142
1.0
179
     0
144
0.0008202099737533
144
0.0
144
0.0
144
0.0
144
0.0
144
0.0008202099737533
144
0.0
144
0.0
144
0.0
144
0.0
144
1.0
144
0.0
144
0.0
144
0.0
144
0.0
144
1.0
147
0.0008202099737533
147
0.0
147
0.0
147
0.0
147
0.0
147
0.0008202099737533
147
0.0
147
0.0
147
0.0
147
0.0
147
1.0
147
0.0
147
0.0
147
0.0
147
0.0
147
1.0
  0
MLEADERSTYLE
  5
1A1
102
{ACAD_REACTORS
330
1A0
102
}
330
1A0
100
AcDbMLeaderStyle
170
     2
171
     1
172
     0
 90
        2
 40
0.0
 41
0.0
173
     1
 91
-1056964608
340
14
 92
       -2
290
     1
 42
2.0
291
     1
 43
0.36
  3
Standard
 44
4.0
300

342
11
174
     1
178
     6
175
     1
176
     0
 93
-1056964608
 45
4.0
292
     0
297
     0
 46
4.0
 94
-1056964608
 47
1.0
 49
1.0
140
1.0
293
     1
141
0.0
294
     1
177
     0
142
1.0
295
     1
296
     0
143
0.125
1001
ACAD_MLEADERVER
1070
     2
  0
MLINESTYLE
  5
18
102
{ACAD_REACTORS
330
17
102
}
330
17
100
AcDbMlineStyle
  2
STANDARD
 70
     0
  3

 62
   256
 51
90.0
 52
90.0
 71
     2
 49
0.5
 62
   256
  6
BYLAYER
 49
-0.5
 62
   256
  6
BYLAYER
  0
ACDBPLACEHOLDER
  5
F
102
{ACAD_REACTORS
330
E
102
}
330
E
  0
SCALE
  5
18F
102
{ACAD_REACTORS
330
18E
102
}
330
18E
100
AcDbScale
 70
     0
300
1:1
140
1.0
141
1.0
290
     1
  0
SCALE
  5
190
102
{ACAD_REACTORS
330
18E
102
}
330
18E
100
AcDbScale
 70
     0
300
1:2
140
1.0
141
2.0
290
     0
  0
SCALE
  5
191
102
{ACAD_REACTORS
330
18E
102
}
330
18E
100
AcDbScale
 70
     0
300
1:4
140
1.0
141
4.0
290
     0
  0
SCALE
  5
192
102
{ACAD_REACTORS
330
18E
102
}
330
18E
100
AcDbScale
 70
     0
300
1:5
140
1.0
141
5.0
290
     0
  0
SCALE
  5
193
102
{ACAD_REACTORS
330
18E
102
}
330
18E
100
AcDbScale
 70
     0
300
1:8
140
1.0
141
8.0
290
     0
  0
SCALE
  5
194
102
{ACAD_REACTORS
330
18E
102
}
330
18E
100
AcDbScale
 70
     0
300
1:10
140
1.0
141
10.0
290
     0
  0
SCALE
  5
195
102
{ACAD_REACTORS
330
18E
102
}
330
18E
100
AcDbScale
 70
     0
300
1:16
140
1.0
141
16.0
290
     0
  0
SCALE
  5
196
102
{ACAD_REACTORS
330
18E
102
}
330
18E
100
AcDbScale
 70
     0
300
1:20
140
1.0
141
20.0
290
     0
  0
SCALE
  5
197
102
{ACAD_REACTORS
330
18E
102
}
330
18E
100
AcDbScale
 70
     0
300
1:30
140
1.0
141
30.0
290
     0
  0
SCALE
  5
198
102
{ACAD_REACTORS
330
18E
102
}
330
18E
100
AcDbScale
 70
     0
300
1:40
140
1.0
141
40.0
290
     0
  0
SCALE
  5
199
102
{ACAD_REACTORS
330
18E
102
}
330
18E
100
AcDbScale
 70
     0
300
1:50
140
1.0
141
50.0
290
     0
  0
SCALE
  5
19A
102
{ACAD_REACTORS
330
18E
102
}
330
18E
100
AcDbScale
 70
     0
300
1:100
140
1.0
141
100.0
290
     0
  0
SCALE
  5
19B
102
{ACAD_REACTORS
330
18E
102
}
330
18E
100
AcDbScale
 70
     0
300
2:1
140
2.0
141
1.0
290
     0
  0
SCALE
  5
19C
102
{ACAD_REACTORS
330
18E
102
}
330
18E
100
AcDbScale
 70
     0
300
4:1
140
4.0
141
1.0
290
     0
  0
SCALE
  5
19D
102
{ACAD_REACTORS
330
18E
102
}
330
18E
100
AcDbScale
 70
     0
300
8:1
140
8.0
141
1.0
290
     0
  0
SCALE
  5
19E
102
{ACAD_REACTORS
330
18E
102
}
330
18E
100
AcDbScale
 70
     0
300
10:1
140
10.0
141
1.0
290
     0
  0
SCALE
  5
19F
102
{ACAD_REACTORS
330
18E
102
}
330
18E
100
AcDbScale
 70
     0
300
100:1
140
100.0
141
1.0
290
     0
  0
TABLESTYLE
  5
18D
102
{ACAD_XDICTIONARY
360
1AF
102
}
102
{ACAD_REACTORS
330
18C
102
}
330
18C
100
AcDbTableStyle
  3
Standard
 70
     0
 71
     0
 40
1.5
 41
1.5
280
     0
281
     0
  7
Standard
140
4.5
170
     2
 62
     0
 63
     7
283
     0
 90
      512
 91
        0
  1

274
    -2
284
     1
 64
     0
275
    -2
285
     1
 65
     0
276
    -2
286
     1
 66
     0
277
    -2
287
     1
 67
     0
278
    -2
288
     1
 68
     0
279
    -2
289
     1
 69
     0
  7
Standard
140
6.0
170
     5
 62
     0
 63
     7
283
     0
 90
      512
 91
        0
  1

274
    -2
284
     1
 64
     0
275
    -2
285
     1
 65
     0
276
    -2
286
     1
 66
     0
277
    -2
287
     1
 67
     0
278
    -2
288
     1
 68
     0
279
    -2
289
     1
 69
     0
  7
Standard
140
4.5
170
     5
 62
     0
 63
     7
283
     0
 90
      512
 91
        0
  1

274
    -2
284
     1
 64
     0
275
    -2
285
     1
 65
     0
276
    -2
286
     1
 66
     0
277
    -2
287
     1
 67
     0
278
    -2
288
     1
 68
     0
279
    -2
289
     1
 69
     0
  0
VISUALSTYLE
  5
180
102
{ACAD_REACTORS
330
17A
102
}
330
17A
100
AcDbVisualStyle
  2
2dWireframe
 70
     4
 71
     0
 72
     2
 73
     0
 90
        0
 40
-0.6
 41
-30.0
 62
     5
 63
     7
421
 16777215
 74
     1
 91
        4
 64
     7
 65
   257
 75
     1
175
     1
 42
1.0
 92
        0
 66
   257
 43
1.0
 76
     1
 77
     6
 78
     2
 67
     7
 79
     5
170
     0
171
     0
290
     0
174
     0
 93
        1
 44
0.0
173
     0
291
     0
 45
0.0
  0
VISUALSTYLE
  5
182
102
{ACAD_REACTORS
330
17A
102
}
330
17A
100
AcDbVisualStyle
  2
3D Hidden
 70
     6
 71
     1
 72
     2
 73
     2
 90
        0
 40
-0.6
 41
-30.0
 62
     5
 63
     7
421
 16777215
 74
     2
 91
        2
 64
     7
 65
   257
 75
     2
175
     1
 42
40.0
 92
        0
 66
   257
 43
1.0
 76
     1
 77
     6
 78
     2
 67
     7
 79
     3
170
     0
171
     0
290
     0
174
     0
 93
        1
 44
0.0
173
     0
291
     0
 45
0.0
  0
VISUALSTYLE
  5
181
102
{ACAD_REACTORS
330
17A
102
}
330
17A
100
AcDbVisualStyle
  2
3dWireframe
 70
     5
 71
     0
 72
     2
 73
     0
 90
        0
 40
-0.6
 41
-30.0
 62
     5
 63
     7
421
 16777215
 74
     1
 91
        4
 64
     7
 65
   257
 75
     1
175
     1
 42
1.0
 92
        0
 66
   257
 43
1.0
 76
     1
 77
     6
 78
     2
 67
     7
 79
     5
170
     0
171
     0
290
     0
174
     0
 93
        1
 44
0.0
173
     0
291
     0
 45
0.0
  0
VISUALSTYLE
  5
17F
102
{ACAD_REACTORS
330
17A
102
}
330
17A
100
AcDbVisualStyle
  2
Basic
 70
     7
 71
     1
 72
     0
 73
     1
 90
        0
 40
-0.6
 41
-30.0
 62
     5
 63
     7
421
 16777215
 74
     0
 91
        4
 64
     7
 65
   257
 75
     1
175
     1
 42
1.0
 92
        8
 66
     7
 43
1.0
 76
     1
 77
     6
 78
     2
 67
     7
 79
     5
170
     0
171
     0
290
     0
174
     0
 93
        1
 44
0.0
173
     0
291
     1
 45
0.0
  0
VISUALSTYLE
  5
186
102
{ACAD_REACTORS
330
17A
102
}
330
17A
100
AcDbVisualStyle
  2
Brighten
 70
    12
 71
     2
 72
     2
 73
     0
 90
        0
 40
-0.6
 41
-30.0
 62
     5
 63
     7
421
 16777215
 74
     1
 91
        4
 64
     7
 65
   257
 75
     1
175
     1
 42
1.0
 92
        8
 66
     7
 43
1.0
 76
     1
 77
     6
 78
     2
 67
     7
 79
     5
170
     0
171
     0
290
     0
174
     0
 93
        1
 44
50.0
173
     0
291
     1
 45
0.0
  0
VISUALSTYLE
  5
18A
102
{ACAD_REACTORS
330
17A
102
}
330
17A
100
AcDbVisualStyle
  2
ColorChange
 70
    16
 71
     2
 72
     2
 73
     3
 90
        0
 40
-0.6
 41
-30.0
 62
     5
 63
     8
421
  8421504
 74
     1
 91
        4
 64
     7
 65
   257
 75
     1
175
     1
 42
1.0
 92
        8
 66
     8
424
  8421504
 43
1.0
 76
     1
 77
     6
 78
     2
 67
     7
 79
     5
170
     0
171
     0
290
     0
174
     0
 93
        1
 44
0.0
173
     0
291
     1
 45
0.0
  0
VISUALSTYLE
  5
183
102
{ACAD_REACTORS
330
17A
102
}
330
17A
100
AcDbVisualStyle
  2
Conceptual
 70
     9
 71
     3
 72
     2
 73
     0
 90
        0
 40
-0.6
 41
-30.0
 62
     5
 63
     7
421
 16777215
 74
     2
 91
        2
 64
     7
 65
   257
 75
     1
175
     1
 42
40.0
 92
        8
 66
     7
 43
1.0
 76
     1
 77
     6
 78
     2
 67
     7
 79
     3
170
     0
171
     0
290
     0
174
     0
 93
        1
 44
0.0
173
     0
291
     0
 45
0.0
  0
VISUALSTYLE
  5
185
102
{ACAD_REACTORS
330
17A
102
}
330
17A
100
AcDbVisualStyle
  2
Dim
 70
    11
 71
     2
 72
     2
 73
     0
 90
        0
 40
-0.6
 41
-30.0
 62
     5
 63
     7
421
 16777215
 74
     1
 91
        4
 64
     7
 65
   257
 75
     1
175
     1
 42
1.0
 92
        8
 66
     7
 43
1.0
 76
     1
 77
     6
 78
     2
 67
     7
 79
     5
170
     0
171
     0
290
     0
174
     0
 93
        1
 44
-50.0
173
     0
291
     1
 45
0.0
  0
VISUALSTYLE
  5
189
102
{ACAD_REACTORS
330
17A
102
}
330
17A
100
AcDbVisualStyle
  2
Facepattern
 70
    15
 71
     2
 72
     2
 73
     0
 90
        0
 40
-0.6
 41
-30.0
 62
     5
 63
     7
421
 16777215
 74
     1
 91
        4
 64
     7
 65
   257
 75
     1
175
     1
 42
1.0
 92
        8
 66
     7
 43
1.0
 76
     1
 77
     6
 78
     2
 67
     7
 79
     5
170
     0
171
     0
290
     0
174
     0
 93
        1
 44
0.0
173
     0
291
     1
 45
0.0
  0
VISUALSTYLE
  5
17B
102
{ACAD_REACTORS
330
17A
102
}
330
17A
100
AcDbVisualStyle
  2
Flat
 70
     0
 71
     2
 72
     1
 73
     1
 90
        2
 40
-0.6
 41
30.0
 62
     5
 63
     7
421
 16777215
 74
     0
 91
        4
 64
     7
 65
   257
 75
     1
175
     1
 42
1.0
 92
        8
 66
     7
 43
1.0
 76
     1
 77
     6
 78
     2
 67
     7
 79
     5
170
     0
171
     0
290
     0
174
     0
 93
       13
 44
0.0
173
     0
291
     1
 45
0.0
  0
VISUALSTYLE
  5
17C
102
{ACAD_REACTORS
330
17A
102
}
330
17A
100
AcDbVisualStyle
  2
FlatWithEdges
 70
     1
 71
     2
 72
     1
 73
     1
 90
        2
 40
-0.6
 41
30.0
 62
     5
 63
     7
421
 16777215
 74
     1
 91
        4
 64
     7
 65
   257
 75
     1
175
     1
 42
1.0
 92
        0
 66
   257
 43
1.0
 76
     1
 77
     6
 78
     2
 67
     7
 79
     5
170
     0
171
     0
290
     0
174
     0
 93
       13
 44
0.0
173
     0
291
     1
 45
0.0
  0
VISUALSTYLE
  5
17D
102
{ACAD_REACTORS
330
17A
102
}
330
17A
100
AcDbVisualStyle
  2
Gouraud
 70
     2
 71
     2
 72
     2
 73
     1
 90
        2
 40
-0.6
 41
30.0
 62
     5
 63
     7
421
 16777215
 74
     0
 91
        4
 64
     7
 65
   257
 75
     1
175
     1
 42
1.0
 92
        0
 66
     7
 43
1.0
 76
     1
 77
     6
 78
     2
 67
     7
 79
     5
170
     0
171
     0
290
     0
174
     0
 93
       13
 44
0.0
173
     0
291
     1
 45
0.0
  0
VISUALSTYLE
  5
17E
102
{ACAD_REACTORS
330
17A
102
}
330
17A
100
AcDbVisualStyle
  2
GouraudWithEdges
 70
     3
 71
     2
 72
     2
 73
     1
 90
        2
 40
-0.6
 41
30.0
 62
     5
 63
     7
421
 16777215
 74
     1
 91
        4
 64
     7
 65
   257
 75
     1
175
     1
 42
1.0
 92
        0
 66
   257
 43
1.0
 76
     1
 77
     6
 78
     2
 67
     7
 79
     5
170
     0
171
     0
290
     0
174
     0
 93
       13
 44
0.0
173
     0
291
     1
 45
0.0
  0
VISUALSTYLE
  5
188
102
{ACAD_REACTORS
330
17A
102
}
330
17A
100
AcDbVisualStyle
  2
Linepattern
 70
    14
 71
     2
 72
     2
 73
     0
 90
        0
 40
-0.6
 41
-30.0
 62
     5
 63
     7
421
 16777215
 74
     1
 91
        4
 64
     7
 65
   257
 75
     7
175
     7
 42
1.0
 92
        8
 66
     7
 43
1.0
 76
     1
 77
     6
 78
     2
 67
     7
 79
     5
170
     0
171
     0
290
     0
174
     0
 93
        1
 44
0.0
173
     0
291
     1
 45
0.0
  0
VISUALSTYLE
  5
184
102
{ACAD_REACTORS
330
17A
102
}
330
17A
100
AcDbVisualStyle
  2
Realistic
 70
     8
 71
     2
 72
     2
 73
     0
 90
        0
 40
-0.6
 41
-30.0
 62
     5
 63
     7
421
 16777215
 74
     1
 91
        0
 64
     7
 65
   257
 75
     1
175
     1
 42
1.0
 92
        8
 66
     8
424
  7895160
 43
1.0
 76
     1
 77
     6
 78
     2
 67
     7
 79
     5
170
     0
171
     0
290
     0
174
     0
 93
       13
 44
0.0
173
     0
291
     0
 45
0.0
  0
VISUALSTYLE
  5
187
102
{ACAD_REACTORS
330
17A
102
}
330
17A
100
AcDbVisualStyle
  2
Thicken
 70
    13
 71
     2
 72
     2
 73
     0
 90
        0
 40
-0.6
 41
-30.0
 62
     5
 63
     7
421
 16777215
 74
     1
 91
        4
 64
     7
 65
   257
 75
     1
175
     1
 42
1.0
 92
       12
 66
     7
 43
1.0
 76
     1
 77
     6
 78
     2
 67
     7
 79
     5
170
     0
171
     0
290
     0
174
     0
 93
        1
 44
0.0
173
     0
291
     1
 45
0.0
  0
DICTIONARYVAR
  5
1AB
102
{ACAD_REACTORS
330
1A7
102
}
330
1A7
100
DictionaryVariables
280
     0
  1
1:1
  0
DICTIONARYVAR
  5
1A9
102
{ACAD_REACTORS
330
1A7
102
}
330
1A7
100
DictionaryVariables
280
     0
  1
STANDARD
  0
DICTIONARYVAR
  5
1A8
102
{ACAD_REACTORS
330
1A7
102
}
330
1A7
100
DictionaryVariables
280
     0
  1
STANDARD
  0
DICTIONARYVAR
  5
1AD
102
{ACAD_REACTORS
330
1A7
102
}
330
1A7
100
DictionaryVariables
280
     0
  1
1
  0
DICTIONARYVAR
  5
1AE
102
{ACAD_REACTORS
330
1A7
102
}
330
1A7
100
DictionaryVariables
280
     0
  1
15
  0
DICTIONARYVAR
  5
1AC
102
{ACAD_REACTORS
330
1A7
102
}
330
1A7
100
DictionaryVariables
280
     0
  1
0
  0
DICTIONARYVAR
  5
1AA
102
{ACAD_REACTORS
330
1A7
102
}
330
1A7
100
DictionaryVariables
280
     0
  1
0
  0
DICTIONARY
  5
16B
330
16A
100
AcDbDictionary
280
     1
281
     1
  3
BUMPTILE
360
16D
  3
DIFFUSETILE
360
16C
  3
OPACITYTILE
360
170
  3
REFLECTIONTILE
360
16F
  3
REFRACTIONTILE
360
171
  3
SPECULARTILE
360
16E
  0
DICTIONARY
  5
163
330
162
100
AcDbDictionary
280
     1
281
     1
  3
BUMPTILE
360
165
  3
DIFFUSETILE
360
164
  3
OPACITYTILE
360
168
  3
REFLECTIONTILE
360
167
  3
REFRACTIONTILE
360
169
  3
SPECULARTILE
360
166
  0
DICTIONARY
  5
173
330
172
100
AcDbDictionary
280
     1
281
     1
  3
BUMPTILE
360
175
  3
DIFFUSETILE
360
174
  3
OPACITYTILE
360
178
  3
REFLECTIONTILE
360
177
  3
REFRACTIONTILE
360
179
  3
SPECULARTILE
360
176
  0
DICTIONARY
  5
1AF
330
18D
100
AcDbDictionary
280
     1
281
     1
  3
ACAD_ROUNDTRIP_2008_TABLESTYLE_CELLSTYLEMAP
360
1B0
  0
XRECORD
  5
16D
102
{ACAD_REACTORS
330
16B
102
}
330
16B
100
AcDbXrecord
280
     1
270
     1
271
     1
  0
XRECORD
  5
16C
102
{ACAD_REACTORS
330
16B
102
}
330
16B
100
AcDbXrecord
280
     1
270
     1
271
     1
  0
XRECORD
  5
170
102
{ACAD_REACTORS
330
16B
102
}
330
16B
100
AcDbXrecord
280
     1
270
     1
271
     1
  0
XRECORD
  5
16F
102
{ACAD_REACTORS
330
16B
102
}
330
16B
100
AcDbXrecord
280
     1
270
     1
271
     1
  0
XRECORD
  5
171
102
{ACAD_REACTORS
330
16B
102
}
330
16B
100
AcDbXrecord
280
     1
270
     1
271
     1
  0
XRECORD
  5
16E
102
{ACAD_REACTORS
330
16B
102
}
330
16B
100
AcDbXrecord
280
     1
270
     1
271
     1
  0
XRECORD
  5
165
102
{ACAD_REACTORS
330
163
102
}
330
163
100
AcDbXrecord
280
     1
270
     1
271
     1
  0
XRECORD
  5
164
102
{ACAD_REACTORS
330
163
102
}
330
163
100
AcDbXrecord
280
     1
270
     1
271
     1
  0
XRECORD
  5
168
102
{ACAD_REACTORS
330
163
102
}
330
163
100
AcDbXrecord
280
     1
270
     1
271
     1
  0
XRECORD
  5
167
102
{ACAD_REACTORS
330
163
102
}
330
163
100
AcDbXrecord
280
     1
270
     1
271
     1
  0
XRECORD
  5
169
102
{ACAD_REACTORS
330
163
102
}
330
163
100
AcDbXrecord
280
     1
270
     1
271
     1
  0
XRECORD
  5
166
102
{ACAD_REACTORS
330
163
102
}
330
163
100
AcDbXrecord
280
     1
270
     1
271
     1
  0
XRECORD
  5
175
102
{ACAD_REACTORS
330
173
102
}
330
173
100
AcDbXrecord
280
     1
270
     1
271
     1
  0
XRECORD
  5
174
102
{ACAD_REACTORS
330
173
102
}
330
173
100
AcDbXrecord
280
     1
270
     1
271
     1
  0
XRECORD
  5
178
102
{ACAD_REACTORS
330
173
102
}
330
173
100
AcDbXrecord
280
     1
270
     1
271
     1
  0
XRECORD
  5
177
102
{ACAD_REACTORS
330
173
102
}
330
173
100
AcDbXrecord
280
     1
270
     1
271
     1
  0
XRECORD
  5
179
102
{ACAD_REACTORS
330
173
102
}
330
173
100
AcDbXrecord
280
     1
270
     1
271
     1
  0
XRECORD
  5
176
102
{ACAD_REACTORS
330
173
102
}
330
173
100
AcDbXrecord
280
     1
270
     1
271
     1
  0
CELLSTYLEMAP
  5
1B0
102
{ACAD_REACTORS
330
1AF
102
}
330
1AF
100
AcDbCellStyleMap
 90
        3
300
CELLSTYLE
  1
TABLEFORMAT_BEGIN
 90
        5
170
     1
 91
        0
 92
    32768
 62
   257
 93
        1
300
CONTENTFORMAT
  1
CONTENTFORMAT_BEGIN
 90
        0
 91
        0
 92
      512
 93
        0
300

 40
0.0
140
1.0
 94
        5
 62
     0
340
11
144
6.0
309
CONTENTFORMAT_END
171
     1
301
MARGIN
  1
CELLMARGIN_BEGIN
 40
1.5
 40
1.5
 40
1.5
 40
1.5
 40
4.5
 40
4.5
309
CELLMARGIN_END
 94
        6
 95
        1
302
GRIDFORMAT
  1
GRIDFORMAT_BEGIN
 90
        0
 91
        1
 62
     0
 92
       -2
340
0
 93
        0
 40
1.125
309
GRIDFORMAT_END
 95
        2
302
GRIDFORMAT
  1
GRIDFORMAT_BEGIN
 90
        0
 91
        1
 62
     0
 92
       -2
340
0
 93
        0
 40
1.125
309
GRIDFORMAT_END
 95
        4
302
GRIDFORMAT
  1
GRIDFORMAT_BEGIN
 90
        0
 91
        1
 62
     0
 92
       -2
340
0
 93
        0
 40
1.125
309
GRIDFORMAT_END
 95
        8
302
GRIDFORMAT
  1
GRIDFORMAT_BEGIN
 90
        0
 91
        1
 62
     0
 92
       -2
340
0
 93
        0
 40
1.125
309
GRIDFORMAT_END
 95
       16
302
GRIDFORMAT
  1
GRIDFORMAT_BEGIN
 90
        0
 91
        1
 62
     0
 92
       -2
340
0
 93
        0
 40
1.125
309
GRIDFORMAT_END
 95
       32
302
GRIDFORMAT
  1
GRIDFORMAT_BEGIN
 90
        0
 91
        1
 62
     0
 92
       -2
340
0
 93
        0
 40
1.125
309
GRIDFORMAT_END
309
TABLEFORMAT_END
  1
CELLSTYLE_BEGIN
 90
        1
 91
        1
300
_TITLE
309
CELLSTYLE_END
300
CELLSTYLE
  1
TABLEFORMAT_BEGIN
 90
        5
170
     1
 91
        0
 92
        0
 62
   257
 93
        1
300
CONTENTFORMAT
  1
CONTENTFORMAT_BEGIN
 90
        0
 91
        0
 92
      512
 93
        0
300

 40
0.0
140
1.0
 94
        5
 62
     0
340
11
144
4.5
309
CONTENTFORMAT_END
171
     1
301
MARGIN
  1
CELLMARGIN_BEGIN
 40
1.5
 40
1.5
 40
1.5
 40
1.5
 40
4.5
 40
4.5
309
CELLMARGIN_END
 94
        6
 95
        1
302
GRIDFORMAT
  1
GRIDFORMAT_BEGIN
 90
        0
 91
        1
 62
     0
 92
       -2
340
0
 93
        0
 40
1.125
309
GRIDFORMAT_END
 95
        2
302
GRIDFORMAT
  1
GRIDFORMAT_BEGIN
 90
        0
 91
        1
 62
     0
 92
       -2
340
0
 93
        0
 40
1.125
309
GRIDFORMAT_END
 95
        4
302
GRIDFORMAT
  1
GRIDFORMAT_BEGIN
 90
        0
 91
        1
 62
     0
 92
       -2
340
0
 93
        0
 40
1.125
309
GRIDFORMAT_END
 95
        8
302
GRIDFORMAT
  1
GRIDFORMAT_BEGIN
 90
        0
 91
        1
 62
     0
 92
       -2
340
0
 93
        0
 40
1.125
309
GRIDFORMAT_END
 95
       16
302
GRIDFORMAT
  1
GRIDFORMAT_BEGIN
 90
        0
 91
        1
 62
     0
 92
       -2
340
0
 93
        0
 40
1.125
309
GRIDFORMAT_END
 95
       32
302
GRIDFORMAT
  1
GRIDFORMAT_BEGIN
 90
        0
 91
        1
 62
     0
 92
       -2
340
0
 93
        0
 40
1.125
309
GRIDFORMAT_END
309
TABLEFORMAT_END
  1
CELLSTYLE_BEGIN
 90
        2
 91
        1
300
_HEADER
309
CELLSTYLE_END
300
CELLSTYLE
  1
TABLEFORMAT_BEGIN
 90
        5
170
     1
 91
        0
 92
        0
 62
   257
 93
        1
300
CONTENTFORMAT
  1
CONTENTFORMAT_BEGIN
 90
        0
 91
        0
 92
      512
 93
        0
300

 40
0.0
140
1.0
 94
        2
 62
     0
340
11
144
4.5
309
CONTENTFORMAT_END
171
     1
301
MARGIN
  1
CELLMARGIN_BEGIN
 40
1.5
 40
1.5
 40
1.5
 40
1.5
 40
4.5
 40
4.5
309
CELLMARGIN_END
 94
        6
 95
        1
302
GRIDFORMAT
  1
GRIDFORMAT_BEGIN
 90
        0
 91
        1
 62
     0
 92
       -2
340
0
 93
        0
 40
1.125
309
GRIDFORMAT_END
 95
        2
302
GRIDFORMAT
  1
GRIDFORMAT_BEGIN
 90
        0
 91
        1
 62
     0
 92
       -2
340
0
 93
        0
 40
1.125
309
GRIDFORMAT_END
 95
        4
302
GRIDFORMAT
  1
GRIDFORMAT_BEGIN
 90
        0
 91
        1
 62
     0
 92
       -2
340
0
 93
        0
 40
1.125
309
GRIDFORMAT_END
 95
        8
302
GRIDFORMAT
  1
GRIDFORMAT_BEGIN
 90
        0
 91
        1
 62
     0
 92
       -2
340
0
 93
        0
 40
1.125
309
GRIDFORMAT_END
 95
       16
302
GRIDFORMAT
  1
GRIDFORMAT_BEGIN
 90
        0
 91
        1
 62
     0
 92
       -2
340
0
 93
        0
 40
1.125
309
GRIDFORMAT_END
 95
       32
302
GRIDFORMAT
  1
GRIDFORMAT_BEGIN
 90
        0
 91
        1
 62
     0
 92
       -2
340
0
 93
        0
 40
1.125
309
GRIDFORMAT_END
309
TABLEFORMAT_END
  1
CELLSTYLE_BEGIN
 90
        3
 91
        2
300
_DATA
309
CELLSTYLE_END
  0
ENDSEC
  0
EOF
