  0
SECTION
  2
HEADER
  9
$ACADVER
  1
AC1015
  9
$ACADMAINTVER
 70
     6
  9
$DWGCODEPAGE
  3
ANSI_1251
  9
$INSBASE
 10
0.0
 20
0.0
 30
0.0
  9
$EXTMIN
 10
0.0
 20
0.0
 30
0.0
  9
$EXTMAX
 10
2794.0
 20
2159.0
 30
0.0
  9
$LIMMIN
 10
0.0
 20
0.0
  9
$LIMMAX
 10
2794.0
 20
2159.0
  9
$ORTHOMODE
 70
     0
  9
$REGENMODE
 70
     1
  9
$FILLMODE
 70
     1
  9
$QTEXTMODE
 70
     0
  9
$MIRRTEXT
 70
     1
  9
$LTSCALE
 40
10.0
  9
$ATTMODE
 70
     1
  9
$TEXTSIZE
 40
35.0
  9
$TRACEWID
 40
1.0
  9
$TEXTSTYLE
  7
Standard
  9
$CLAYER
  8
0
  9
$CELTYPE
  6
ByLayer
  9
$CECOLOR
 62
   256
  9
$CELTSCALE
 40
1.0
  9
$DISPSILH
 70
     0
  9
$DIMSCALE
 40
1.0
  9
$DIMASZ
 40
35.0
  9
$DIMEXO
 40
0.1
  9
$DIMDLI
 40
3.75
  9
$DIMRND
 40
0.0
  9
$DIMDLE
 40
0.0
  9
$DIMEXE
 40
10.0
  9
$DIMTP
 40
0.0
  9
$DIMTM
 40
0.0
  9
$DIMTXT
 40
35.0
  9
$DIMCEN
 40
2.5
  9
$DIMTSZ
 40
0.0
  9
$DIMTOL
 70
     0
  9
$DIMLIM
 70
     0
  9
$DIMTIH
 70
     1
  9
$DIMTOH
 70
     1
  9
$DIMSE1
 70
     0
  9
$DIMSE2
 70
     0
  9
$DIMTAD
 70
     1
  9
$DIMZIN
 70
     0
  9
$DIMBLK
  1

  9
$DIMASO
 70
     1
  9
$DIMSHO
 70
     1
  9
$DIMPOST
  1

  9
$DIMAPOST
  1

  9
$DIMALT
 70
     0
  9
$DIMALTD
 70
     3
  9
$DIMALTF
 40
0.0393700787
  9
$DIMLFAC
 40
1.0
  9
$DIMTOFL
 70
     1
  9
$DIMTVP
 40
0.0
  9
$DIMTIX
 70
     0
  9
$DIMSOXD
 70
     0
  9
$DIMSAH
 70
     0
  9
$DIMBLK1
  1

  9
$DIMBLK2
  1

  9
$DIMSTYLE
  2
ISO-25
  9
$DIMCLRD
 70
     0
  9
$DIMCLRE
 70
     0
  9
$DIMCLRT
 70
     0
  9
$DIMTFAC
 40
1.0
  9
$DIMGAP
 40
30.0
  9
$DIMJUST
 70
     0
  9
$DIMSD1
 70
     0
  9
$DIMSD2
 70
     0
  9
$DIMTOLJ
 70
     0
  9
$DIMTZIN
 70
     0
  9
$DIMALTZ
 70
     0
  9
$DIMALTTZ
 70
     0
  9
$DIMUPT
 70
     0
  9
$DIMDEC
 70
     2
  9
$DIMTDEC
 70
     3
  9
$DIMALTU
 70
     2
  9
$DIMALTTD
 70
     3
  9
$DIMTXSTY
  7
Standard
  9
$DIMAUNIT
 70
     0
  9
$DIMADEC
 70
     2
  9
$DIMALTRND
 40
0.0
  9
$DIMAZIN
 70
     0
  9
$DIMDSEP
 70
    44
  9
$DIMATFIT
 70
     3
  9
$DIMFRAC
 70
     0
  9
$DIMLDRBLK
  1

  9
$DIMLUNIT
 70
     2
  9
$DIMLWD
 70
    -2
  9
$DIMLWE
 70
    -2
  9
$DIMTMOVE
 70
     0
  9
$LUNITS
 70
     2
  9
$LUPREC
 70
     2
  9
$SKETCHINC
 40
1.0
  9
$FILLETRAD
 40
10.0
  9
$AUNITS
 70
     0
  9
$AUPREC
 70
     2
  9
$MENU
  1
.
  9
$ELEVATION
 40
0.0
  9
$PELEVATION
 40
0.0
  9
$THICKNESS
 40
0.0
  9
$LIMCHECK
 70
     0
  9
$CHAMFERA
 40
10.0
  9
$CHAMFERB
 40
10.0
  9
$CHAMFERC
 40
20.0
  9
$CHAMFERD
 40
0.0
  9
$SKPOLY
 70
     0
  9
$TDCREATE
 40
2458092.904953472
  9
$TDUCREATE
 40
2458092.821620139
  9
$TDUPDATE
 40
2458092.904954248
  9
$TDUUPDATE
 40
2458092.821620914
  9
$TDINDWG
 40
0.0000000116
  9
$TDUSRTIMER
 40
0.0000000116
  9
$USRTIMER
 70
     1
  9
$ANGBASE
 50
0.0
  9
$ANGDIR
 70
     0
  9
$PDMODE
 70
     0
  9
$PDSIZE
 40
-1.0
  9
$PLINEWID
 40
0.0
  9
$SPLFRAME
 70
     0
  9
$SPLINETYPE
 70
     6
  9
$SPLINESEGS
 70
     8
  9
$HANDSEED
  5
FD
  9
$SURFTAB1
 70
     6
  9
$SURFTAB2
 70
     6
  9
$SURFTYPE
 70
     6
  9
$SURFU
 70
     6
  9
$SURFV
 70
     6
  9
$UCSBASE
  2

  9
$UCSNAME
  2

  9
$UCSORG
 10
0.0
 20
0.0
 30
0.0
  9
$UCSXDIR
 10
1.0
 20
0.0
 30
0.0
  9
$UCSYDIR
 10
0.0
 20
1.0
 30
0.0
  9
$UCSORTHOREF
  2

  9
$UCSORTHOVIEW
 70
     0
  9
$UCSORGTOP
 10
0.0
 20
0.0
 30
0.0
  9
$UCSORGBOTTOM
 10
0.0
 20
0.0
 30
0.0
  9
$UCSORGLEFT
 10
0.0
 20
0.0
 30
0.0
  9
$UCSORGRIGHT
 10
0.0
 20
0.0
 30
0.0
  9
$UCSORGFRONT
 10
0.0
 20
0.0
 30
0.0
  9
$UCSORGBACK
 10
0.0
 20
0.0
 30
0.0
  9
$PUCSBASE
  2

  9
$PUCSNAME
  2

  9
$PUCSORG
 10
0.0
 20
0.0
 30
0.0
  9
$PUCSXDIR
 10
1.0
 20
0.0
 30
0.0
  9
$PUCSYDIR
 10
0.0
 20
1.0
 30
0.0
  9
$PUCSORTHOREF
  2

  9
$PUCSORTHOVIEW
 70
     0
  9
$PUCSORGTOP
 10
0.0
 20
0.0
 30
0.0
  9
$PUCSORGBOTTOM
 10
0.0
 20
0.0
 30
0.0
  9
$PUCSORGLEFT
 10
0.0
 20
0.0
 30
0.0
  9
$PUCSORGRIGHT
 10
0.0
 20
0.0
 30
0.0
  9
$PUCSORGFRONT
 10
0.0
 20
0.0
 30
0.0
  9
$PUCSORGBACK
 10
0.0
 20
0.0
 30
0.0
  9
$USERI1
 70
     0
  9
$USERI2
 70
     0
  9
$USERI3
 70
     0
  9
$USERI4
 70
     0
  9
$USERI5
 70
     0
  9
$USERR1
 40
0.0
  9
$USERR2
 40
0.0
  9
$USERR3
 40
0.0
  9
$USERR4
 40
0.0
  9
$USERR5
 40
0.0
  9
$WORLDVIEW
 70
     1
  9
$SHADEDGE
 70
     3
  9
$SHADEDIF
 70
    70
  9
$TILEMODE
 70
     1
  9
$MAXACTVP
 70
    64
  9
$PINSBASE
 10
0.0
 20
0.0
 30
0.0
  9
$PLIMCHECK
 70
     0
  9
$PEXTMIN
 10
1.0000000000E+20
 20
1.0000000000E+20
 30
1.0000000000E+20
  9
$PEXTMAX
 10
-1.0000000000E+20
 20
-1.0000000000E+20
 30
-1.0000000000E+20
  9
$PLIMMIN
 10
0.0
 20
0.0
  9
$PLIMMAX
 10
420.0
 20
297.0
  9
$UNITMODE
 70
     0
  9
$VISRETAIN
 70
     1
  9
$PLINEGEN
 70
     0
  9
$PSLTSCALE
 70
     1
  9
$TREEDEPTH
 70
  3020
  9
$CMLSTYLE
  2
Standard
  9
$CMLJUST
 70
     0
  9
$CMLSCALE
 40
20.0
  9
$PROXYGRAPHICS
 70
     1
  9
$MEASUREMENT
 70
     1
  9
$CELWEIGHT
370
    -1
  9
$ENDCAPS
280
     0
  9
$JOINSTYLE
280
     0
  9
$LWDISPLAY
290
     1
  9
$INSUNITS
 70
     4
  9
$HYPERLINKBASE
  1

  9
$STYLESHEET
  1

  9
$XEDIT
290
     1
  9
$CEPSNTYPE
380
     0
  9
$PSTYLEMODE
290
     1
  9
$FINGERPRINTGUID
  2
{05971812-C44C-41B2-A33E-6CA87790D19A}
  9
$VERSIONGUID
  2
{FAEB1C32-E019-11D5-929B-00C0DF256EC4}
  9
$EXTNAMES
290
     1
  9
$PSVPSCALE
 40
0.0
  9
$OLESTARTUP
290
     0
  0
ENDSEC
  0
SECTION
  2
CLASSES
  0
CLASS
  1
ACDBDICTIONARYWDFLT
  2
AcDbDictionaryWithDefault
  3
ObjectDBX Classes
 90
        0
280
     0
281
     0
  0
CLASS
  1
VISUALSTYLE
  2
AcDbVisualStyle
  3
ObjectDBX Classes
 90
     4095
280
     0
281
     0
  0
CLASS
  1
MATERIAL
  2
AcDbMaterial
  3
ObjectDBX Classes
 90
     1153
280
     0
281
     0
  0
CLASS
  1
ACDBPLACEHOLDER
  2
AcDbPlaceHolder
  3
ObjectDBX Classes
 90
        0
280
     0
281
     0
  0
CLASS
  1
LAYOUT
  2
AcDbLayout
  3
ObjectDBX Classes
 90
        0
280
     0
281
     0
  0
ENDSEC
  0
SECTION
  2
TABLES
  0
TABLE
  2
VPORT
  5
8
330
0
100
AcDbSymbolTable
 70
     1
  0
VPORT
  5
29
330
8
100
AcDbSymbolTableRecord
100
AcDbViewportTableRecord
  2
*Active
 70
     0
 10
0.0
 20
0.0
 11
1.0
 21
1.0
 12
1397.0
 22
1079.5
 13
0.0
 23
0.0
 14
10.0
 24
10.0
 15
10.0
 25
10.0
 16
0.0
 26
0.0
 36
1.0
 17
0.0
 27
0.0
 37
0.0
 40
2159.0
 41
1.2941176471
 42
50.0
 43
0.0
 44
0.0
 50
0.0
 51
0.0
 71
     0
 72
  2000
 73
     1
 74
     3
 75
     0
 76
     0
 77
     0
 78
     0
281
     0
 65
     1
110
0.0
120
0.0
130
0.0
111
1.0
121
0.0
131
0.0
112
0.0
122
1.0
132
0.0
 79
     0
146
0.0
  0
ENDTAB
  0
TABLE
  2
LTYPE
  5
5
330
0
100
AcDbSymbolTable
 70
     6
  0
LTYPE
  5
14
330
5
100
AcDbSymbolTableRecord
100
AcDbLinetypeTableRecord
  2
ByBlock
 70
     0
  3

 72
    65
 73
     0
 40
0.0
  0
LTYPE
  5
15
330
5
100
AcDbSymbolTableRecord
100
AcDbLinetypeTableRecord
  2
ByLayer
 70
     0
  3

 72
    65
 73
     0
 40
0.0
  0
LTYPE
  5
16
330
5
100
AcDbSymbolTableRecord
100
AcDbLinetypeTableRecord
  2
Continuous
 70
     0
  3
Solid line
 72
    65
 73
     0
 40
0.0
  0
LTYPE
  5
3F
330
5
100
AcDbSymbolTableRecord
100
AcDbLinetypeTableRecord
  2
HIDDEN
 70
     0
  3
Hidden __ __ __ __ __ __ __ __ __ __ __ __ __ __
 72
    65
 73
     2
 40
1.905
 49
1.27
 74
     0
 49
-0.635
 74
     0
  0
LTYPE
  5
40
330
5
100
AcDbSymbolTableRecord
100
AcDbLinetypeTableRecord
  2
PHANTOM
 70
     0
  3
Phantom ______  __  __  ______  __  __  ______
 72
    65
 73
     6
 40
12.7
 49
6.35
 74
     0
 49
-1.27
 74
     0
 49
1.27
 74
     0
 49
-1.27
 74
     0
 49
1.27
 74
     0
 49
-1.27
 74
     0
  0
LTYPE
  5
41
330
5
100
AcDbSymbolTableRecord
100
AcDbLinetypeTableRecord
  2
CENTER
 70
     0
  3
Center ____ _ ____ _ ____ _ ____ _ ____ _ ____
 72
    65
 73
     4
 40
10.16
 49
6.35
 74
     0
 49
-1.27
 74
     0
 49
1.27
 74
     0
 49
-1.27
 74
     0
  0
LTYPE
  5
42
330
5
100
AcDbSymbolTableRecord
100
AcDbLinetypeTableRecord
  2
CENTERX2
 70
     0
  3
Center (2x) ________  __  ________  __  _____
 72
    65
 73
     4
 40
20.32
 49
12.7
 74
     0
 49
-2.54
 74
     0
 49
2.54
 74
     0
 49
-2.54
 74
     0
  0
LTYPE
  5
43
330
5
100
AcDbSymbolTableRecord
100
AcDbLinetypeTableRecord
  2
DOT2
 70
     0
  3
Dot (.5x) ........................................
 72
    65
 73
     2
 40
0.635
 49
0.0
 74
     0
 49
-0.635
 74
     0
  0
ENDTAB
  0
TABLE
  2
LAYER
  5
2
330
0
100
AcDbSymbolTable
 70
     1
  0
LAYER
  5
10
330
2
100
AcDbSymbolTableRecord
100
AcDbLayerTableRecord
  2
0
 70
     0
 62
     7
  6
Continuous
370
    -3
390
F
  0
ENDTAB
  0
TABLE
  2
STYLE
  5
3
330
0
100
AcDbSymbolTable
 70
     1
  0
STYLE
  5
11
330
3
100
AcDbSymbolTableRecord
100
AcDbTextStyleTableRecord
  2
Standard
 70
     0
 40
0.0
 41
1.0
 50
0.0
 71
     0
 42
35.0
  3
txt
  4

  0
ENDTAB
  0
TABLE
  2
VIEW
  5
6
330
0
100
AcDbSymbolTable
 70
     0
  0
ENDTAB
  0
TABLE
  2
UCS
  5
7
330
0
100
AcDbSymbolTable
 70
     0
  0
ENDTAB
  0
TABLE
  2
APPID
  5
9
330
0
100
AcDbSymbolTable
 70
     1
  0
APPID
  5
12
330
9
100
AcDbSymbolTableRecord
100
AcDbRegAppTableRecord
  2
ACAD
 70
     0
  0
ENDTAB
  0
TABLE
  2
DIMSTYLE
  5
A
330
0
100
AcDbSymbolTable
 70
     1
100
AcDbDimStyleTable
  0
DIMSTYLE
105
27
330
A
100
AcDbSymbolTableRecord
100
AcDbDimStyleTableRecord
  2
ISO-25
 70
     0
 41
2.5
 42
0.625
 43
3.75
 44
1.25
 73
     0
 74
     0
 77
     1
 78
     8
140
2.5
141
2.5
143
0.0393700787
147
0.625
171
     3
172
     1
178
     0
271
     2
272
     2
274
     3
278
    44
283
     0
284
     8
340
11
  0
ENDTAB
  0
TABLE
  2
BLOCK_RECORD
  5
1
330
0
100
AcDbSymbolTable
 70
     1
  0
BLOCK_RECORD
  5
1F
330
1
100
AcDbSymbolTableRecord
100
AcDbBlockTableRecord
  2
*Model_Space
340
22
  0
BLOCK_RECORD
  5
1B
330
1
100
AcDbSymbolTableRecord
100
AcDbBlockTableRecord
  2
*Paper_Space
340
1E
  0
BLOCK_RECORD
  5
23
330
1
100
AcDbSymbolTableRecord
100
AcDbBlockTableRecord
  2
*Paper_Space0
340
26
  0
ENDTAB
  0
ENDSEC
  0
SECTION
  2
BLOCKS
  0
BLOCK
  5
20
330
1F
100
AcDbEntity
  8
0
100
AcDbBlockBegin
  2
*Model_Space
 70
     0
 10
0.0
 20
0.0
 30
0.0
  3
*Model_Space
  1

  0
ENDBLK
  5
21
330
1F
100
AcDbEntity
  8
0
100
AcDbBlockEnd
  0
BLOCK
  5
1C
330
1B
100
AcDbEntity
 67
     1
  8
0
100
AcDbBlockBegin
  2
*Paper_Space
 70
     0
 10
0.0
 20
0.0
 30
0.0
  3
*Paper_Space
  1

  0
ENDBLK
  5
1D
330
1B
100
AcDbEntity
 67
     1
  8
0
100
AcDbBlockEnd
  0
BLOCK
  5
24
330
23
100
AcDbEntity
  8
0
100
AcDbBlockBegin
  2
*Paper_Space0
 70
     0
 10
0.0
 20
0.0
 30
0.0
  3
*Paper_Space0
  1

  0
ENDBLK
  5
25
330
23
100
AcDbEntity
  8
0
100
AcDbBlockEnd
  0
ENDSEC
  0
SECTION
  2
ENTITIES
  0
LINE
  5
44
330
1F
100
AcDbEntity
  8
0
  6
Continuous
 62
     7
370
    15
100
AcDbLine
 10
154.6732490363
 20
1404.4585942126
 30
0.0
 11
154.489533216
 21
1406.1119145251
 31
0.0
  0
LINE
  5
45
330
1F
100
AcDbEntity
  8
0
  6
Continuous
 62
     7
370
    15
100
AcDbLine
 10
154.6731880011
 20
1404.4585331774
 30
0.0
 11
154.6732490363
 21
1404.4585942126
 31
0.0
  0
LINE
  5
46
330
1F
100
AcDbEntity
  8
0
  6
Continuous
 62
     7
370
    15
100
AcDbLine
 10
154.489533216
 20
1406.1119145251
 30
0.0
 11
154.6731880011
 21
1404.4585331774
 31
0.0
  0
LINE
  5
47
330
1F
100
AcDbEntity
  8
0
  6
Continuous
 62
     7
370
    15
100
AcDbLine
 10
154.489533216
 20
1406.1119145251
 30
0.0
 11
154.489533216
 21
1996.9266117907
 31
0.0
  0
LINE
  5
48
330
1F
100
AcDbEntity
  8
0
  6
Continuous
 62
     7
370
    15
100
AcDbLine
 10
154.6731880011
 20
1998.5799931384
 30
0.0
 11
154.6732490363
 21
1998.5799931384
 31
0.0
  0
LINE
  5
49
330
1F
100
AcDbEntity
  8
0
  6
Continuous
 62
     7
370
    15
100
AcDbLine
 10
154.489533216
 20
1996.9266117907
 30
0.0
 11
154.6732490363
 21
1998.5799931384
 31
0.0
  0
LINE
  5
4A
330
1F
100
AcDbEntity
  8
0
  6
Continuous
 62
     7
370
    15
100
AcDbLine
 10
154.6731880011
 20
1998.5799931384
 30
0.0
 11
154.489533216
 21
1996.9266117907
 31
0.0
  0
LINE
  5
4B
330
1F
100
AcDbEntity
  8
0
  6
Continuous
 62
     7
370
    15
100
AcDbLine
 10
155.2243354621
 20
1403.1726445056
 30
0.0
 11
154.6732490363
 21
1404.4585942126
 31
0.0
  0
LINE
  5
4C
330
1F
100
AcDbEntity
  8
0
  6
Continuous
 62
     7
370
    15
100
AcDbLine
 10
154.6731880011
 20
1404.4585331774
 30
0.0
 11
155.2243354621
 21
1403.1726445056
 31
0.0
  0
LINE
  5
4D
330
1F
100
AcDbEntity
  8
0
  6
Continuous
 62
     7
370
    15
100
AcDbLine
 10
156.1429145636
 20
1402.254065404
 30
0.0
 11
155.2243354621
 21
1403.1726445056
 31
0.0
  0
LINE
  5
4E
330
1F
100
AcDbEntity
  8
0
  6
Continuous
 62
     7
370
    15
100
AcDbLine
 10
157.4288032355
 20
1401.7029789782
 30
0.0
 11
156.1429145636
 21
1402.254065404
 31
0.0
  0
LINE
  5
4F
330
1F
100
AcDbEntity
  8
0
  6
Continuous
 62
     7
370
    15
100
AcDbLine
 10
159.0821845832
 20
1401.5192631579
 30
0.0
 11
157.4288032355
 21
1401.7029789782
 31
0.0
  0
LINE
  5
50
330
1F
100
AcDbEntity
  8
0
  6
Continuous
 62
     7
370
    15
100
AcDbLine
 10
749.8968208136
 20
1401.5192631579
 30
0.0
 11
159.0821845832
 21
1401.5192631579
 31
0.0
  0
LINE
  5
51
330
1F
100
AcDbEntity
  8
0
  6
Continuous
 62
     7
370
    15
100
AcDbLine
 10
751.5502021613
 20
1401.7029789782
 30
0.0
 11
749.8968208136
 21
1401.5192631579
 31
0.0
  0
LINE
  5
52
330
1F
100
AcDbEntity
  8
0
  6
Continuous
 62
     7
370
    15
100
AcDbLine
 10
752.8361518683
 20
1402.2541264391
 30
0.0
 11
751.5502021613
 21
1401.7029789782
 31
0.0
  0
LINE
  5
53
330
1F
100
AcDbEntity
  8
0
  6
Continuous
 62
     7
370
    15
100
AcDbLine
 10
753.7547309699
 20
1403.1726445056
 30
0.0
 11
752.8361518683
 21
1402.2541264391
 31
0.0
  0
LINE
  5
54
330
1F
100
AcDbEntity
  8
0
  6
Continuous
 62
     7
370
    15
100
AcDbLine
 10
754.3058173957
 20
1404.4585942126
 30
0.0
 11
753.7547309699
 21
1403.1726445056
 31
0.0
  0
LINE
  5
55
330
1F
100
AcDbEntity
  8
0
  6
Continuous
 62
     7
370
    15
100
AcDbLine
 10
754.489533216
 20
1406.1119145251
 30
0.0
 11
754.3058173957
 21
1404.4585942126
 31
0.0
  0
LINE
  5
56
330
1F
100
AcDbEntity
  8
0
  6
Continuous
 62
     7
370
    15
100
AcDbLine
 10
754.489533216
 20
1996.9266117907
 30
0.0
 11
754.489533216
 21
1970.4069584704
 31
0.0
  0
LINE
  5
57
330
1F
100
AcDbEntity
  8
0
  6
Continuous
 62
     7
370
    15
100
AcDbLine
 10
754.489533216
 20
1432.6315678454
 30
0.0
 11
754.489533216
 21
1406.1119145251
 31
0.0
  0
LINE
  5
58
330
1F
100
AcDbEntity
  8
0
  6
Continuous
 62
     7
370
    15
100
AcDbLine
 10
754.3058173957
 20
1998.5799931384
 30
0.0
 11
754.489533216
 21
1996.9266117907
 31
0.0
  0
LINE
  5
59
330
1F
100
AcDbEntity
  8
0
  6
Continuous
 62
     7
370
    15
100
AcDbLine
 10
753.7546699347
 20
1999.8658818102
 30
0.0
 11
754.3058173957
 21
1998.5799931384
 31
0.0
  0
LINE
  5
5A
330
1F
100
AcDbEntity
  8
0
  6
Continuous
 62
     7
370
    15
100
AcDbLine
 10
752.8361518683
 20
2000.7844609118
 30
0.0
 11
753.7546699347
 21
1999.8658818102
 31
0.0
  0
LINE
  5
5B
330
1F
100
AcDbEntity
  8
0
  6
Continuous
 62
     7
370
    15
100
AcDbLine
 10
751.5502021613
 20
2001.3355473376
 30
0.0
 11
752.8361518683
 21
2000.7844609118
 31
0.0
  0
LINE
  5
5C
330
1F
100
AcDbEntity
  8
0
  6
Continuous
 62
     7
370
    15
100
AcDbLine
 10
749.8968208136
 20
2001.5192631579
 30
0.0
 11
751.5502021613
 21
2001.3355473376
 31
0.0
  0
LINE
  5
5D
330
1F
100
AcDbEntity
  8
0
  6
Continuous
 62
     7
370
    15
100
AcDbLine
 10
159.0821845832
 20
2001.5192631579
 30
0.0
 11
749.8968208136
 21
2001.5192631579
 31
0.0
  0
LINE
  5
5E
330
1F
100
AcDbEntity
  8
0
  6
Continuous
 62
     7
370
    15
100
AcDbLine
 10
157.4288032355
 20
2001.3355473376
 30
0.0
 11
159.0821845832
 21
2001.5192631579
 31
0.0
  0
LINE
  5
5F
330
1F
100
AcDbEntity
  8
0
  6
Continuous
 62
     7
370
    15
100
AcDbLine
 10
156.1429145636
 20
2000.7843998766
 30
0.0
 11
157.4288032355
 21
2001.3355473376
 31
0.0
  0
LINE
  5
60
330
1F
100
AcDbEntity
  8
0
  6
Continuous
 62
     7
370
    15
100
AcDbLine
 10
156.1429145636
 20
2000.7844609118
 30
0.0
 11
156.1429145636
 21
2000.7843998766
 31
0.0
  0
LINE
  5
61
330
1F
100
AcDbEntity
  8
0
  6
Continuous
 62
     7
370
    15
100
AcDbLine
 10
157.4288032355
 20
2001.3355473376
 30
0.0
 11
156.1429145636
 21
2000.7844609118
 31
0.0
  0
LINE
  5
62
330
1F
100
AcDbEntity
  8
0
  6
Continuous
 62
     7
370
    15
100
AcDbLine
 10
155.2243354621
 20
1999.8658818102
 30
0.0
 11
156.1429145636
 21
2000.7843998766
 31
0.0
  0
LINE
  5
63
330
1F
100
AcDbEntity
  8
0
  6
Continuous
 62
     7
370
    15
100
AcDbLine
 10
156.1429145636
 20
2000.7844609118
 30
0.0
 11
155.2243354621
 21
1999.8658818102
 31
0.0
  0
LINE
  5
64
330
1F
100
AcDbEntity
  8
0
  6
Continuous
 62
     7
370
    15
100
AcDbLine
 10
154.6732490363
 20
1998.5799931384
 30
0.0
 11
155.2243354621
 21
1999.8658818102
 31
0.0
  0
LINE
  5
65
330
1F
100
AcDbEntity
  8
0
  6
Continuous
 62
     7
370
    15
100
AcDbLine
 10
155.2243354621
 20
1999.8658818102
 30
0.0
 11
154.6731880011
 21
1998.5799931384
 31
0.0
  0
LINE
  5
66
330
1F
100
AcDbEntity
  8
0
  6
Continuous
 62
     7
370
    15
100
AcDbLine
 10
769.5892036261
 20
1970.4069584704
 30
0.0
 11
169.1925361457
 21
1970.4069584704
 31
0.0
  0
LINE
  5
67
330
1F
100
AcDbEntity
  8
0
  6
Continuous
 62
     7
370
    15
100
AcDbLine
 10
769.5892036261
 20
1432.6315678454
 30
0.0
 11
169.1925361457
 21
1432.6315678454
 31
0.0
  0
LINE
  5
68
330
1F
100
AcDbEntity
  8
0
  6
Continuous
 62
     7
370
    15
100
AcDbLine
 10
769.5892036261
 20
1970.4069584704
 30
0.0
 11
769.5892036261
 21
1432.6315678454
 31
0.0
  0
LINE
  5
69
330
1F
100
AcDbEntity
  8
0
  6
Continuous
 62
     7
370
    15
100
AcDbLine
 10
169.1925361457
 20
1970.4069584704
 30
0.0
 11
169.1925361457
 21
1432.6315678454
 31
0.0
  0
LINE
  5
6A
330
1F
100
AcDbEntity
  8
0
  6
Continuous
 62
     7
370
    15
100
AcDbLine
 10
739.7865302863
 20
1986.8162602282
 30
0.0
 11
169.1925361457
 21
1986.8162602282
 31
0.0
  0
LINE
  5
6B
330
1F
100
AcDbEntity
  8
0
  6
Continuous
 62
     7
370
    15
100
AcDbLine
 10
169.1925361457
 20
1986.8162602282
 30
0.0
 11
169.1925361457
 21
1970.4069584704
 31
0.0
  0
LINE
  5
6C
330
1F
100
AcDbEntity
  8
0
  6
Continuous
 62
     7
370
    15
100
AcDbLine
 10
739.7865302863
 20
1986.8162602282
 30
0.0
 11
739.7865302863
 21
1970.4069584704
 31
0.0
  0
LINE
  5
6D
330
1F
100
AcDbEntity
  8
0
  6
Continuous
 62
     7
370
    15
100
AcDbLine
 10
739.7865302863
 20
1416.2222660876
 30
0.0
 11
169.1925361457
 21
1416.2222660876
 31
0.0
  0
LINE
  5
6E
330
1F
100
AcDbEntity
  8
0
  6
Continuous
 62
     7
370
    15
100
AcDbLine
 10
169.1925361457
 20
1432.6315678454
 30
0.0
 11
169.1925361457
 21
1416.2222660876
 31
0.0
  0
LINE
  5
6F
330
1F
100
AcDbEntity
  8
0
  6
Continuous
 62
     7
370
    15
100
AcDbLine
 10
739.7865302863
 20
1432.6315678454
 30
0.0
 11
739.7865302863
 21
1416.2222660876
 31
0.0
  0
LINE
  5
70
330
1F
100
AcDbEntity
  8
0
  6
Continuous
 62
     7
370
    15
100
AcDbLine
 10
1011.6020190783
 20
1996.9266117907
 30
0.0
 11
1045.6449878283
 21
1996.9266117907
 31
0.0
  0
LINE
  5
71
330
1F
100
AcDbEntity
  8
0
  6
Continuous
 62
     7
370
    15
100
AcDbLine
 10
1045.6449878283
 20
1406.1119145251
 30
0.0
 11
1045.6449878283
 21
1996.9266117907
 31
0.0
  0
LINE
  5
72
330
1F
100
AcDbEntity
  8
0
  6
Continuous
 62
     7
370
    15
100
AcDbLine
 10
1011.6020190783
 20
1406.1119145251
 30
0.0
 11
1045.6449878283
 21
1406.1119145251
 31
0.0
  0
LINE
  5
73
330
1F
100
AcDbEntity
  8
0
  6
Continuous
 62
     7
370
    15
100
AcDbLine
 10
1011.6020190783
 20
1996.9266117907
 30
0.0
 11
1011.6020190783
 21
1406.1119145251
 31
0.0
  0
LINE
  5
74
330
1F
100
AcDbEntity
  8
0
  6
Continuous
 62
     7
370
    15
100
AcDbLine
 10
1045.6449878283
 20
1404.4585942126
 30
0.0
 11
1045.6449878283
 21
1406.1119145251
 31
0.0
  0
LINE
  5
75
330
1F
100
AcDbEntity
  8
0
  6
Continuous
 62
     7
370
    15
100
AcDbLine
 10
1011.6020190783
 20
1404.4585331774
 30
0.0
 11
1045.6449878283
 21
1404.4585942126
 31
0.0
  0
LINE
  5
76
330
1F
100
AcDbEntity
  8
0
  6
Continuous
 62
     7
370
    15
100
AcDbLine
 10
1011.6020190783
 20
1406.1119145251
 30
0.0
 11
1011.6020190783
 21
1404.4585331774
 31
0.0
  0
LINE
  5
77
330
1F
100
AcDbEntity
  8
0
  6
Continuous
 62
     7
370
    15
100
AcDbLine
 10
1011.6020190783
 20
1998.5799931384
 30
0.0
 11
1045.6449878283
 21
1998.5799931384
 31
0.0
  0
LINE
  5
78
330
1F
100
AcDbEntity
  8
0
  6
Continuous
 62
     7
370
    15
100
AcDbLine
 10
1045.6449878283
 20
1996.9266117907
 30
0.0
 11
1045.6449878283
 21
1998.5799931384
 31
0.0
  0
LINE
  5
79
330
1F
100
AcDbEntity
  8
0
  6
Continuous
 62
     7
370
    15
100
AcDbLine
 10
1011.6020190783
 20
1998.5799931384
 30
0.0
 11
1011.6020190783
 21
1996.9266117907
 31
0.0
  0
LINE
  5
7A
330
1F
100
AcDbEntity
  8
0
  6
Continuous
 62
     7
370
    15
100
AcDbLine
 10
1011.6020190783
 20
1999.8658818102
 30
0.0
 11
1045.6449878283
 21
1999.8658818102
 31
0.0
  0
LINE
  5
7B
330
1F
100
AcDbEntity
  8
0
  6
Continuous
 62
     7
370
    15
100
AcDbLine
 10
1045.6449878283
 20
1998.5799931384
 30
0.0
 11
1045.6449878283
 21
1999.8658818102
 31
0.0
  0
LINE
  5
7C
330
1F
100
AcDbEntity
  8
0
  6
Continuous
 62
     7
370
    15
100
AcDbLine
 10
1011.6020190783
 20
1999.8658818102
 30
0.0
 11
1011.6020190783
 21
1998.5799931384
 31
0.0
  0
LINE
  5
7D
330
1F
100
AcDbEntity
  8
0
  6
Continuous
 62
     7
370
    15
100
AcDbLine
 10
1011.6020190783
 20
1403.1726445056
 30
0.0
 11
1045.6449878283
 21
1403.1726445056
 31
0.0
  0
LINE
  5
7E
330
1F
100
AcDbEntity
  8
0
  6
Continuous
 62
     7
370
    15
100
AcDbLine
 10
1045.6449878283
 20
1403.1726445056
 30
0.0
 11
1045.6449878283
 21
1404.4585942126
 31
0.0
  0
LINE
  5
7F
330
1F
100
AcDbEntity
  8
0
  6
Continuous
 62
     7
370
    15
100
AcDbLine
 10
1011.6020190783
 20
1404.4585331774
 30
0.0
 11
1011.6020190783
 21
1403.1726445056
 31
0.0
  0
LINE
  5
80
330
1F
100
AcDbEntity
  8
0
  6
Continuous
 62
     7
370
    15
100
AcDbLine
 10
1011.6020190783
 20
1402.254065404
 30
0.0
 11
1045.6449878283
 21
1402.254065404
 31
0.0
  0
LINE
  5
81
330
1F
100
AcDbEntity
  8
0
  6
Continuous
 62
     7
370
    15
100
AcDbLine
 10
1045.6449878283
 20
1402.254065404
 30
0.0
 11
1045.6449878283
 21
1403.1726445056
 31
0.0
  0
LINE
  5
82
330
1F
100
AcDbEntity
  8
0
  6
Continuous
 62
     7
370
    15
100
AcDbLine
 10
1011.6020190783
 20
1403.1726445056
 30
0.0
 11
1011.6020190783
 21
1402.254065404
 31
0.0
  0
LINE
  5
83
330
1F
100
AcDbEntity
  8
0
  6
Continuous
 62
     7
370
    15
100
AcDbLine
 10
1011.6020190783
 20
2000.7844609118
 30
0.0
 11
1045.6449878283
 21
2000.7843998766
 31
0.0
  0
LINE
  5
84
330
1F
100
AcDbEntity
  8
0
  6
Continuous
 62
     7
370
    15
100
AcDbLine
 10
1045.6449878283
 20
1999.8658818102
 30
0.0
 11
1045.6449878283
 21
2000.7843998766
 31
0.0
  0
LINE
  5
85
330
1F
100
AcDbEntity
  8
0
  6
Continuous
 62
     7
370
    15
100
AcDbLine
 10
1011.6020190783
 20
2000.7844609118
 30
0.0
 11
1011.6020190783
 21
1999.8658818102
 31
0.0
  0
LINE
  5
86
330
1F
100
AcDbEntity
  8
0
  6
Continuous
 62
     7
370
    15
100
AcDbLine
 10
1011.6020190783
 20
1401.7029789782
 30
0.0
 11
1045.6449878283
 21
1401.7029789782
 31
0.0
  0
LINE
  5
87
330
1F
100
AcDbEntity
  8
0
  6
Continuous
 62
     7
370
    15
100
AcDbLine
 10
1045.6449878283
 20
1401.7029789782
 30
0.0
 11
1045.6449878283
 21
1402.254065404
 31
0.0
  0
LINE
  5
88
330
1F
100
AcDbEntity
  8
0
  6
Continuous
 62
     7
370
    15
100
AcDbLine
 10
1011.6020190783
 20
1402.254065404
 30
0.0
 11
1011.6020190783
 21
1401.7029789782
 31
0.0
  0
LINE
  5
89
330
1F
100
AcDbEntity
  8
0
  6
Continuous
 62
     7
370
    15
100
AcDbLine
 10
1011.6020190783
 20
2001.3355473376
 30
0.0
 11
1045.6449878283
 21
2001.3355473376
 31
0.0
  0
LINE
  5
8A
330
1F
100
AcDbEntity
  8
0
  6
Continuous
 62
     7
370
    15
100
AcDbLine
 10
1045.6449878283
 20
2000.7843998766
 30
0.0
 11
1045.6449878283
 21
2001.3355473376
 31
0.0
  0
LINE
  5
8B
330
1F
100
AcDbEntity
  8
0
  6
Continuous
 62
     7
370
    15
100
AcDbLine
 10
1011.6020190783
 20
2001.3355473376
 30
0.0
 11
1011.6020190783
 21
2000.7844609118
 31
0.0
  0
LINE
  5
8C
330
1F
100
AcDbEntity
  8
0
  6
Continuous
 62
     7
370
    15
100
AcDbLine
 10
1011.6020190783
 20
1401.5192631579
 30
0.0
 11
1045.6449878283
 21
1401.5192631579
 31
0.0
  0
LINE
  5
8D
330
1F
100
AcDbEntity
  8
0
  6
Continuous
 62
     7
370
    15
100
AcDbLine
 10
1045.6449878283
 20
1401.5192631579
 30
0.0
 11
1045.6449878283
 21
1401.7029789782
 31
0.0
  0
LINE
  5
8E
330
1F
100
AcDbEntity
  8
0
  6
Continuous
 62
     7
370
    15
100
AcDbLine
 10
1011.6020190783
 20
1401.7029789782
 30
0.0
 11
1011.6020190783
 21
1401.5192631579
 31
0.0
  0
LINE
  5
8F
330
1F
100
AcDbEntity
  8
0
  6
Continuous
 62
     7
370
    15
100
AcDbLine
 10
1011.6020190783
 20
2001.5192631579
 30
0.0
 11
1045.6449878283
 21
2001.5192631579
 31
0.0
  0
LINE
  5
90
330
1F
100
AcDbEntity
  8
0
  6
Continuous
 62
     7
370
    15
100
AcDbLine
 10
1045.6449878283
 20
2001.3355473376
 30
0.0
 11
1045.6449878283
 21
2001.5192631579
 31
0.0
  0
LINE
  5
91
330
1F
100
AcDbEntity
  8
0
  6
Continuous
 62
     7
370
    15
100
AcDbLine
 10
1011.6020190783
 20
2001.5192631579
 30
0.0
 11
1011.6020190783
 21
2001.3355473376
 31
0.0
  0
LINE
  5
92
330
1F
100
AcDbEntity
  8
0
  6
Continuous
 62
     7
370
    15
100
AcDbLine
 10
1010.6449878283
 20
1403.7190312243
 30
0.0
 11
1010.6449878283
 21
1404.705237279
 31
0.0
  0
LINE
  5
93
330
1F
100
AcDbEntity
  8
0
  6
Continuous
 62
     7
370
    15
100
AcDbLine
 10
1010.6449878283
 20
1420.7554892126
 30
0.0
 11
1010.6449878283
 21
1982.2831181384
 31
0.0
  0
LINE
  5
94
330
1F
100
AcDbEntity
  8
0
  6
Continuous
 62
     7
370
    15
100
AcDbLine
 10
1010.6449878283
 20
1982.2831181384
 30
0.0
 11
1010.6449878283
 21
1996.8735722399
 31
0.0
  0
LINE
  5
95
330
1F
100
AcDbEntity
  8
0
  6
Continuous
 62
     7
370
    15
100
AcDbLine
 10
1010.6449878283
 20
1996.8735722399
 30
0.0
 11
1010.6449878283
 21
1998.333350072
 31
0.0
  0
LINE
  5
96
330
1F
100
AcDbEntity
  8
0
  6
Continuous
 62
     7
370
    15
100
AcDbLine
 10
1010.6449878283
 20
1998.333350072
 30
0.0
 11
1010.6449878283
 21
1999.3194950915
 31
0.0
  0
LINE
  5
97
330
1F
100
AcDbEntity
  8
0
  6
Continuous
 62
     7
370
    15
100
AcDbLine
 10
1010.6449878283
 20
1999.3194950915
 30
0.0
 11
1010.6449878283
 21
1999.9773930407
 31
0.0
  0
LINE
  5
98
330
1F
100
AcDbEntity
  8
0
  6
Continuous
 62
     7
370
    15
100
AcDbLine
 10
1010.6449878283
 20
1999.9773930407
 30
0.0
 11
1010.6449878283
 21
2000.4000614977
 31
0.0
  0
LINE
  5
99
330
1F
100
AcDbEntity
  8
0
  6
Continuous
 62
     7
370
    15
100
AcDbLine
 10
1010.6449878283
 20
1402.6385258532
 30
0.0
 11
1010.6449878283
 21
1403.0611332751
 31
0.0
  0
LINE
  5
9A
330
1F
100
AcDbEntity
  8
0
  6
Continuous
 62
     7
370
    15
100
AcDbLine
 10
1010.6449878283
 20
1403.0611332751
 30
0.0
 11
1010.6449878283
 21
1403.7190312243
 31
0.0
  0
SPLINE
  5
9B
330
1F
100
AcDbEntity
  8
0
  6
Continuous
 62
     7
370
    15
100
AcDbSpline
210
0.0
220
0.0
230
1.0
 70
     8
 71
     3
 72
    15
 73
    11
 74
     0
 42
0.00000001
 43
0.00000001
 12
1.0
 22
0.0
 32
0.0
 13
1.0
 23
0.0
 33
0.0
 40
0.0
 40
0.0
 40
0.0
 40
0.0
 40
0.2242258137468387
 40
0.2242278775898755
 40
0.4127523927478514
 40
0.5877194829993663
 40
0.5877238731610096
 40
0.7760826648422201
 40
0.7760845002328999
 40
1.0
 40
1.0
 40
1.0
 40
1.0
 10
1010.644987828305
 20
1404.705237278988
 30
0.0
 10
1010.650686658763
 20
1404.675350018509
 30
0.0
 10
1010.656385541674
 20
1404.645462482938
 30
0.0
 10
1010.705870142586
 20
1404.592022867789
 30
0.0
 10
1010.778322346314
 20
1404.546128178916
 30
0.0
 10
1010.914304282332
 20
1404.511099300638
 30
0.0
 10
1011.070498085178
 20
1404.483944691942
 30
0.0
 10
1011.162790267342
 20
1404.474252511403
 30
0.0
 10
1011.37006283047
 20
1404.461488207661
 30
0.0
 10
1011.48604142971
 20
1404.460010686488
 30
0.0
 10
1011.602019078305
 20
1404.458533177426
 30
0.0
  0
SPLINE
  5
9C
330
1F
100
AcDbEntity
  8
0
  6
Continuous
 62
     7
370
    15
100
AcDbSpline
210
0.0
220
0.0
230
1.0
 70
     8
 71
     3
 72
    15
 73
    11
 74
     0
 42
0.00000001
 43
0.00000001
 12
1.0
 22
0.0
 32
0.0
 13
1.0
 23
0.0
 33
0.0
 40
0.0
 40
0.0
 40
0.0
 40
0.0
 40
0.2242258137468387
 40
0.2242278775898755
 40
0.4127523927478514
 40
0.5877194829993663
 40
0.5877238731610096
 40
0.7760826648422201
 40
0.7760845002328999
 40
1.0
 40
1.0
 40
1.0
 40
1.0
 10
1010.644987828305
 20
1406.164954075863
 30
0.0
 10
1010.650686658763
 20
1406.158519401096
 30
0.0
 10
1010.656385541674
 20
1406.152084667102
 30
0.0
 10
1010.705870142586
 20
1406.140608304724
 30
0.0
 10
1010.778322346314
 20
1406.13077442159
 30
0.0
 10
1010.914304282332
 20
1406.123211487208
 30
0.0
 10
1011.070498085178
 20
1406.117369810938
 30
0.0
 10
1011.162790267342
 20
1406.115299991706
 30
0.0
 10
1011.37006283047
 20
1406.112565660817
 30
0.0
 10
1011.48604142971
 20
1406.112240091615
 30
0.0
 10
1011.602019078305
 20
1406.111914525082
 30
0.0
  0
LINE
  5
9D
330
1F
100
AcDbEntity
  8
0
  6
Continuous
 62
     7
370
    15
100
AcDbLine
 10
1010.6449878283
 20
1404.705237279
 30
0.0
 11
1010.6449878283
 21
1406.1649540759
 31
0.0
  0
LINE
  5
9E
330
1F
100
AcDbEntity
  8
0
  6
Continuous
 62
     7
370
    15
100
AcDbLine
 10
1010.6449878283
 20
1406.1649540759
 30
0.0
 11
1010.6449878283
 21
1420.7554692126
 31
0.0
  0
LINE
  5
9F
330
1F
100
AcDbEntity
  8
0
  6
Continuous
 62
     7
370
    15
100
AcDbLine
 10
1011.6020190783
 20
1406.1119145251
 30
0.0
 11
1011.6020190783
 21
1420.7050541735
 31
0.0
  0
SPLINE
  5
A0
330
1F
100
AcDbEntity
  8
0
  6
Continuous
 62
     7
370
    15
100
AcDbSpline
210
0.0
220
0.0
230
1.0
 70
     8
 71
     3
 72
    15
 73
    11
 74
     0
 42
0.00000001
 43
0.00000001
 12
1.0
 22
0.0
 32
0.0
 13
1.0
 23
0.0
 33
0.0
 40
0.0
 40
0.0
 40
0.0
 40
0.0
 40
0.2242258137468387
 40
0.2242278775898755
 40
0.4127523927478514
 40
0.5877194829993663
 40
0.5877238731610096
 40
0.7760826648422201
 40
0.7760845002328999
 40
1.0
 40
1.0
 40
1.0
 40
1.0
 10
1010.644987828305
 20
1420.755469212582
 30
0.0
 10
1010.650686658763
 20
1420.749376686983
 30
0.0
 10
1010.656385541674
 20
1420.743284105307
 30
0.0
 10
1010.705870142586
 20
1420.73234572386
 30
0.0
 10
1010.778322346314
 20
1420.722917612642
 30
0.0
 10
1010.914304282332
 20
1420.71577815055
 30
0.0
 10
1011.070498085178
 20
1420.710239118164
 30
0.0
 10
1011.162790267342
 20
1420.708258873567
 30
0.0
 10
1011.37006283047
 20
1420.705653017192
 30
0.0
 10
1011.48604142971
 20
1420.705353594129
 30
0.0
 10
1011.602019078305
 20
1420.70505417352
 30
0.0
  0
SPLINE
  5
A1
330
1F
100
AcDbEntity
  8
0
  6
Continuous
 62
     7
370
    15
100
AcDbSpline
210
0.0
220
0.0
230
1.0
 70
     8
 71
     3
 72
    15
 73
    11
 74
     0
 42
0.00000001
 43
0.00000001
 12
1.0
 22
0.0
 32
0.0
 13
1.0
 23
0.0
 33
0.0
 40
0.0
 40
0.0
 40
0.0
 40
0.0
 40
0.2242258137468387
 40
0.2242278775898755
 40
0.4127523927478514
 40
0.5877194829993663
 40
0.5877238731610096
 40
0.7760826648422201
 40
0.7760845002328999
 40
1.0
 40
1.0
 40
1.0
 40
1.0
 10
1010.644987828305
 20
1403.719031224301
 30
0.0
 10
1010.650686658763
 20
1403.652810546235
 30
0.0
 10
1010.656385541674
 20
1403.586589258653
 30
0.0
 10
1010.705870142586
 20
1403.468275938524
 30
0.0
 10
1010.778322346314
 20
1403.366736856408
 30
0.0
 10
1010.914304282332
 20
1403.28903085724
 30
0.0
 10
1011.070498085178
 20
1403.228842214247
 30
0.0
 10
1011.162790267342
 20
1403.207394984533
 30
0.0
 10
1011.37006283047
 20
1403.179159669809
 30
0.0
 10
1011.48604142971
 20
1403.175902074329
 30
0.0
 10
1011.602019078305
 20
1403.172644505551
 30
0.0
  0
SPLINE
  5
A2
330
1F
100
AcDbEntity
  8
0
  6
Continuous
 62
     7
370
    15
100
AcDbSpline
210
0.0
220
0.0
230
1.0
 70
     8
 71
     3
 72
    15
 73
    11
 74
     0
 42
0.00000001
 43
0.00000001
 12
1.0
 22
0.0
 32
0.0
 13
1.0
 23
0.0
 33
0.0
 40
0.0
 40
0.0
 40
0.0
 40
0.0
 40
0.2242258137468387
 40
0.2242278775898755
 40
0.4127523927478514
 40
0.5877194829993663
 40
0.5877238731610096
 40
0.7760826648422201
 40
0.7760845002328999
 40
1.0
 40
1.0
 40
1.0
 40
1.0
 10
1010.644987828305
 20
1403.061133275082
 30
0.0
 10
1010.650686658763
 20
1402.963341288496
 30
0.0
 10
1010.656385541674
 20
1402.865548401803
 30
0.0
 10
1010.705870142586
 20
1402.690782571647
 30
0.0
 10
1010.778322346314
 20
1402.54075995059
 30
0.0
 10
1010.914304282332
 20
1402.42601347525
 30
0.0
 10
1011.070498085178
 20
1402.33713914406
 30
0.0
 10
1011.162790267342
 20
1402.305473633988
 30
0.0
 10
1011.37006283047
 20
1402.263755945071
 30
0.0
 10
1011.48604142971
 20
1402.258910654672
 30
0.0
 10
1011.602019078305
 20
1402.254065403988
 30
0.0
  0
SPLINE
  5
A3
330
1F
100
AcDbEntity
  8
0
  6
Continuous
 62
     7
370
    15
100
AcDbSpline
210
0.0
220
0.0
230
1.0
 70
     8
 71
     3
 72
    15
 73
    11
 74
     0
 42
0.00000001
 43
0.00000001
 12
1.0
 22
0.0
 32
0.0
 13
1.0
 23
0.0
 33
0.0
 40
0.0
 40
0.0
 40
0.0
 40
0.0
 40
0.2242258137468387
 40
0.2242278775898755
 40
0.4127523927478514
 40
0.5877194829993663
 40
0.5877238731610096
 40
0.7760826648422201
 40
0.7760845002328999
 40
1.0
 40
1.0
 40
1.0
 40
1.0
 10
1010.644987828305
 20
1402.638525853207
 30
0.0
 10
1010.650686658763
 20
1402.525169564495
 30
0.0
 10
1010.656385541674
 20
1402.411812232417
 30
0.0
 10
1010.705870142586
 20
1402.209184916485
 30
0.0
 10
1010.778322346314
 20
1402.035210150724
 30
0.0
 10
1010.914304282332
 20
1401.902312053906
 30
0.0
 10
1011.070498085178
 20
1401.799283185223
 30
0.0
 10
1011.162790267342
 20
1401.762505622949
 30
0.0
 10
1011.37006283047
 20
1401.714106622272
 30
0.0
 10
1011.48604142971
 20
1401.708542777437
 30
0.0
 10
1011.602019078305
 20
1401.702978978207
 30
0.0
  0
SPLINE
  5
A4
330
1F
100
AcDbEntity
  8
0
  6
Continuous
 62
     7
370
    15
100
AcDbSpline
210
0.0
220
0.0
230
1.0
 70
     8
 71
     3
 72
    15
 73
    11
 74
     0
 42
0.00000001
 43
0.00000001
 12
1.0
 22
0.0
 32
0.0
 13
1.0
 23
0.0
 33
0.0
 40
0.0
 40
0.0
 40
0.0
 40
0.0
 40
0.2242258137468387
 40
0.2242278775898755
 40
0.4127523927478514
 40
0.5877194829993663
 40
0.5877238731610096
 40
0.7760826648422201
 40
0.7760845002328999
 40
1.0
 40
1.0
 40
1.0
 40
1.0
 10
1010.644987828305
 20
1402.476294407895
 30
0.0
 10
1010.650686658763
 20
1402.360320745734
 30
0.0
 10
1010.656385541674
 20
1402.244346016116
 30
0.0
 10
1010.705870142586
 20
1402.037086083308
 30
0.0
 10
1010.778322346314
 20
1401.859168856921
 30
0.0
 10
1010.914304282332
 20
1401.723160943232
 30
0.0
 10
1011.070498085178
 20
1401.617750734533
 30
0.0
 10
1011.162790267342
 20
1401.580144374115
 30
0.0
 10
1011.37006283047
 20
1401.530650798769
 30
0.0
 10
1011.48604142971
 20
1401.524956954996
 30
0.0
 10
1011.602019078305
 20
1401.519263157895
 30
0.0
  0
LINE
  5
A5
330
1F
100
AcDbEntity
  8
0
  6
Continuous
 62
     7
370
    15
100
AcDbLine
 10
1010.6449878283
 20
1402.4762944079
 30
0.0
 11
1010.6449878283
 21
1402.6385258532
 31
0.0
  0
SPLINE
  5
A6
330
1F
100
AcDbEntity
  8
0
  6
Continuous
 62
     7
370
    15
100
AcDbSpline
210
0.0
220
0.0
230
1.0
 70
     8
 71
     3
 72
    13
 73
     9
 74
     0
 42
0.00000001
 43
0.00000001
 12
1.0
 22
0.0
 32
0.0
 13
1.0
 23
0.0
 33
0.0
 40
0.0
 40
0.0
 40
0.0
 40
0.0
 40
0.2242262416264485
 40
0.4127523927480536
 40
0.4127836672158366
 40
0.5877230864337836
 40
0.7760840729454302
 40
1.0
 40
1.0
 40
1.0
 40
1.0
 10
1010.644987828305
 20
1982.283118138363
 30
0.0
 10
1010.650691859623
 20
1982.289220098934
 30
0.0
 10
1010.661191757216
 20
1982.300452498889
 30
0.0
 10
1010.743426792806
 20
1982.311081060756
 30
0.0
 10
1010.848833312433
 20
1982.319299049065
 30
0.0
 10
1010.98479193553
 20
1982.326454387774
 30
0.0
 10
1011.272496144547
 20
1982.332619419809
 30
0.0
 10
1011.486039412256
 20
1982.333172016069
 30
0.0
 10
1011.602019078305
 20
1982.33347214227
 30
0.0
  0
LINE
  5
A7
330
1F
100
AcDbEntity
  8
0
  6
Continuous
 62
     7
370
    15
100
AcDbLine
 10
1011.6020190783
 20
1982.3334721423
 30
0.0
 11
1011.6020190783
 21
1996.9266117907
 31
0.0
  0
SPLINE
  5
A8
330
1F
100
AcDbEntity
  8
0
  6
Continuous
 62
     7
370
    15
100
AcDbSpline
210
0.0
220
0.0
230
1.0
 70
     8
 71
     3
 72
    13
 73
     9
 74
     0
 42
0.00000001
 43
0.00000001
 12
1.0
 22
0.0
 32
0.0
 13
1.0
 23
0.0
 33
0.0
 40
0.0
 40
0.0
 40
0.0
 40
0.0
 40
0.2242262416264485
 40
0.4127523927480536
 40
0.4127836672158366
 40
0.5877230864337836
 40
0.7760840729454302
 40
1.0
 40
1.0
 40
1.0
 40
1.0
 10
1010.644987828305
 20
1996.873572239926
 30
0.0
 10
1010.650691859623
 20
1996.880007420602
 30
0.0
 10
1010.661191757216
 20
1996.891853207261
 30
0.0
 10
1010.743426792806
 20
1996.903016929646
 30
0.0
 10
1010.848833312433
 20
1996.911672869328
 30
0.0
 10
1010.98479193553
 20
1996.919235064006
 30
0.0
 10
1011.272496144547
 20
1996.925686494222
 30
0.0
 10
1011.486039412256
 20
1996.926286121182
 30
0.0
 10
1011.602019078305
 20
1996.926611790707
 30
0.0
  0
SPLINE
  5
A9
330
1F
100
AcDbEntity
  8
0
  6
Continuous
 62
     7
370
    15
100
AcDbSpline
210
0.0
220
0.0
230
1.0
 70
     8
 71
     3
 72
    13
 73
     9
 74
     0
 42
0.00000001
 43
0.00000001
 12
1.0
 22
0.0
 32
0.0
 13
1.0
 23
0.0
 33
0.0
 40
0.0
 40
0.0
 40
0.0
 40
0.0
 40
0.2242262416264485
 40
0.4127523927480536
 40
0.4127836672158366
 40
0.5877230864337836
 40
0.7760840729454302
 40
1.0
 40
1.0
 40
1.0
 40
1.0
 10
1010.644987828305
 20
1998.333350071957
 30
0.0
 10
1010.650691859623
 20
1998.363213444995
 30
0.0
 10
1010.661191757216
 20
1998.418185506193
 30
0.0
 10
1010.743426792806
 20
1998.470298234362
 30
0.0
 10
1010.848833312433
 20
1998.510560431123
 30
0.0
 10
1010.98479193553
 20
1998.545583351211
 30
0.0
 10
1011.272496144547
 20
1998.575794132086
 30
0.0
 10
1011.486039412256
 20
1998.578515246247
 30
0.0
 10
1011.602019078305
 20
1998.579993138363
 30
0.0
  0
SPLINE
  5
AA
330
1F
100
AcDbEntity
  8
0
  6
Continuous
 62
     7
370
    15
100
AcDbSpline
210
0.0
220
0.0
230
1.0
 70
     8
 71
     3
 72
    13
 73
     9
 74
     0
 42
0.00000001
 43
0.00000001
 12
1.0
 22
0.0
 32
0.0
 13
1.0
 23
0.0
 33
0.0
 40
0.0
 40
0.0
 40
0.0
 40
0.0
 40
0.2242262416264485
 40
0.4127523927480536
 40
0.4127836672158366
 40
0.5877230864337836
 40
0.7760840729454302
 40
1.0
 40
1.0
 40
1.0
 40
1.0
 10
1010.644987828305
 20
1999.319495091488
 30
0.0
 10
1010.650691859623
 20
1999.385709409094
 30
0.0
 10
1010.661191757216
 20
1999.507595758468
 30
0.0
 10
1010.743426792806
 20
1999.622962432153
 30
0.0
 10
1010.848833312433
 20
1999.712134562438
 30
0.0
 10
1010.98479193553
 20
1999.78974518041
 30
0.0
 10
1011.272496144547
 20
1999.856632520532
 30
0.0
 10
1011.486039412256
 20
1999.8626264085
 30
0.0
 10
1011.602019078305
 20
1999.865881810238
 30
0.0
  0
SPLINE
  5
AB
330
1F
100
AcDbEntity
  8
0
  6
Continuous
 62
     7
370
    15
100
AcDbSpline
210
0.0
220
0.0
230
1.0
 70
     8
 71
     3
 72
    13
 73
     9
 74
     0
 42
0.00000001
 43
0.00000001
 12
1.0
 22
0.0
 32
0.0
 13
1.0
 23
0.0
 33
0.0
 40
0.0
 40
0.0
 40
0.0
 40
0.0
 40
0.2242262416264485
 40
0.4127523927480536
 40
0.4127836672158366
 40
0.5877230864337836
 40
0.7760840729454302
 40
1.0
 40
1.0
 40
1.0
 40
1.0
 10
1010.644987828305
 20
1999.977393040707
 30
0.0
 10
1010.650691859623
 20
2000.075192026939
 30
0.0
 10
1010.661191757216
 20
2000.255218973305
 30
0.0
 10
1010.743426792806
 20
2000.425535159509
 30
0.0
 10
1010.848833312433
 20
2000.557252593773
 30
0.0
 10
1010.98479193553
 20
2000.671968807145
 30
0.0
 10
1011.272496144547
 20
2000.770790055369
 30
0.0
 10
1011.486039412256
 20
2000.779649285048
 30
0.0
 10
1011.602019078305
 20
2000.784460911801
 30
0.0
  0
SPLINE
  5
AC
330
1F
100
AcDbEntity
  8
0
  6
Continuous
 62
     7
370
    15
100
AcDbSpline
210
0.0
220
0.0
230
1.0
 70
     8
 71
     3
 72
    13
 73
     9
 74
     0
 42
0.00000001
 43
0.00000001
 12
1.0
 22
0.0
 32
0.0
 13
1.0
 23
0.0
 33
0.0
 40
0.0
 40
0.0
 40
0.0
 40
0.0
 40
0.2242262416264485
 40
0.4127523927480536
 40
0.4127836672158366
 40
0.5877230864337836
 40
0.7760840729454302
 40
1.0
 40
1.0
 40
1.0
 40
1.0
 10
1010.644987828305
 20
2000.400061497738
 30
0.0
 10
1010.650691859623
 20
2000.513403709858
 30
0.0
 10
1010.661191757216
 20
2000.722042399568
 30
0.0
 10
1010.743426792806
 20
2000.919528672366
 30
0.0
 10
1010.848833312433
 20
2001.072234777088
 30
0.0
 10
1010.98479193553
 20
2001.20520537112
 30
0.0
 10
1011.272496144547
 20
2001.319701659263
 30
0.0
 10
1011.486039412256
 20
2001.329970255408
 30
0.0
 10
1011.602019078305
 20
2001.335547337582
 30
0.0
  0
SPLINE
  5
AD
330
1F
100
AcDbEntity
  8
0
  6
Continuous
 62
     7
370
    15
100
AcDbSpline
210
0.0
220
0.0
230
1.0
 70
     8
 71
     3
 72
    13
 73
     9
 74
     0
 42
0.00000001
 43
0.00000001
 12
1.0
 22
0.0
 32
0.0
 13
1.0
 23
0.0
 33
0.0
 40
0.0
 40
0.0
 40
0.0
 40
0.0
 40
0.2242262416264485
 40
0.4127523927480536
 40
0.4127836672158366
 40
0.5877230864337836
 40
0.7760840729454302
 40
1.0
 40
1.0
 40
1.0
 40
1.0
 10
1010.644987828305
 20
2000.562231907895
 30
0.0
 10
1010.650691859623
 20
2000.678214706775
 30
0.0
 10
1010.661191757216
 20
2000.891714150052
 30
0.0
 10
1010.743426792806
 20
2001.093691289193
 30
0.0
 10
1010.848833312433
 20
2001.249870169929
 30
0.0
 10
1010.98479193553
 20
2001.385864960165
 30
0.0
 10
1011.272496144547
 20
2001.503080598005
 30
0.0
 10
1011.486039412256
 20
2001.513567506091
 30
0.0
 10
1011.602019078305
 20
2001.519263157895
 30
0.0
  0
LINE
  5
AE
330
1F
100
AcDbEntity
  8
0
  6
Continuous
 62
     7
370
    15
100
AcDbLine
 10
1010.6449878283
 20
2000.4000614977
 30
0.0
 11
1010.6449878283
 21
2000.5622319079
 31
0.0
  0
LINE
  5
AF
330
1F
100
AcDbEntity
  8
0
  6
Continuous
 62
     7
370
    15
100
AcDbLine
 10
1080.6449954577
 20
1416.2222660876
 30
0.0
 11
1045.6449954577
 21
1416.2222660876
 31
0.0
  0
LINE
  5
B0
330
1F
100
AcDbEntity
  8
0
  6
Continuous
 62
     7
370
    15
100
AcDbLine
 10
1045.6449954577
 20
1986.8162602282
 30
0.0
 11
1080.6449954577
 21
1986.8162602282
 31
0.0
  0
LINE
  5
B1
330
1F
100
AcDbEntity
  8
0
  6
Continuous
 62
     7
370
    15
100
AcDbLine
 10
1080.6449954577
 20
1432.6315678454
 30
0.0
 11
1080.6449954577
 21
1416.2222660876
 31
0.0
  0
LINE
  5
B2
330
1F
100
AcDbEntity
  8
0
  6
Continuous
 62
     7
370
    15
100
AcDbLine
 10
1080.6449954577
 20
1986.8162602282
 30
0.0
 11
1080.6449954577
 21
1970.4069584704
 31
0.0
  0
LINE
  5
B3
330
1F
100
AcDbEntity
  8
0
  6
Continuous
 62
     7
370
    15
100
AcDbLine
 10
1118.8375384875
 20
1432.6315678454
 30
0.0
 11
1080.6449954577
 21
1432.6315678454
 31
0.0
  0
LINE
  5
B4
330
1F
100
AcDbEntity
  8
0
  6
Continuous
 62
     7
370
    15
100
AcDbLine
 10
1080.6449954577
 20
1970.4069584704
 30
0.0
 11
1118.8375384875
 21
1970.4069584704
 31
0.0
  0
LINE
  5
B5
330
1F
100
AcDbEntity
  8
0
  6
Continuous
 62
     7
370
    15
100
AcDbLine
 10
1118.8375384875
 20
1970.4069584704
 30
0.0
 11
1118.8375384875
 21
1432.6315678454
 31
0.0
  0
LINE
  5
B6
330
1F
100
AcDbEntity
  8
0
  6
Continuous
 62
     7
370
    15
100
AcDbLine
 10
751.5502021613
 20
1206.0452440796
 30
0.0
 11
751.5502021613
 21
1172.0022753296
 31
0.0
  0
LINE
  5
B7
330
1F
100
AcDbEntity
  8
0
  6
Continuous
 62
     7
370
    15
100
AcDbLine
 10
749.8968208136
 20
1172.0022753296
 30
0.0
 11
751.5502021613
 21
1172.0022753296
 31
0.0
  0
LINE
  5
B8
330
1F
100
AcDbEntity
  8
0
  6
Continuous
 62
     7
370
    15
100
AcDbLine
 10
749.8968208136
 20
1206.0452440796
 30
0.0
 11
749.8968208136
 21
1172.0022753296
 31
0.0
  0
LINE
  5
B9
330
1F
100
AcDbEntity
  8
0
  6
Continuous
 62
     7
370
    15
100
AcDbLine
 10
751.5502021613
 20
1206.0452440796
 30
0.0
 11
749.8968208136
 21
1206.0452440796
 31
0.0
  0
LINE
  5
BA
330
1F
100
AcDbEntity
  8
0
  6
Continuous
 62
     7
370
    15
100
AcDbLine
 10
159.0821845832
 20
1206.0452440796
 30
0.0
 11
159.0821845832
 21
1172.0022753296
 31
0.0
  0
LINE
  5
BB
330
1F
100
AcDbEntity
  8
0
  6
Continuous
 62
     7
370
    15
100
AcDbLine
 10
157.4288032355
 20
1206.0452440796
 30
0.0
 11
157.4288032355
 21
1172.0022753296
 31
0.0
  0
LINE
  5
BC
330
1F
100
AcDbEntity
  8
0
  6
Continuous
 62
     7
370
    15
100
AcDbLine
 10
157.4288032355
 20
1172.0022753296
 30
0.0
 11
159.0821845832
 21
1172.0022753296
 31
0.0
  0
LINE
  5
BD
330
1F
100
AcDbEntity
  8
0
  6
Continuous
 62
     7
370
    15
100
AcDbLine
 10
159.0821845832
 20
1206.0452440796
 30
0.0
 11
157.4288032355
 21
1206.0452440796
 31
0.0
  0
LINE
  5
BE
330
1F
100
AcDbEntity
  8
0
  6
Continuous
 62
     7
370
    15
100
AcDbLine
 10
159.0821845832
 20
1172.0022753296
 30
0.0
 11
749.8968208136
 21
1172.0022753296
 31
0.0
  0
LINE
  5
BF
330
1F
100
AcDbEntity
  8
0
  6
Continuous
 62
     7
370
    15
100
AcDbLine
 10
749.8968208136
 20
1206.0452440796
 30
0.0
 11
159.0821845832
 21
1206.0452440796
 31
0.0
  0
LINE
  5
C0
330
1F
100
AcDbEntity
  8
0
  6
Continuous
 62
     7
370
    15
100
AcDbLine
 10
156.1429145636
 20
1206.0452440796
 30
0.0
 11
156.1429145636
 21
1172.0022753296
 31
0.0
  0
LINE
  5
C1
330
1F
100
AcDbEntity
  8
0
  6
Continuous
 62
     7
370
    15
100
AcDbLine
 10
156.1429145636
 20
1172.0022753296
 30
0.0
 11
157.4288032355
 21
1172.0022753296
 31
0.0
  0
LINE
  5
C2
330
1F
100
AcDbEntity
  8
0
  6
Continuous
 62
     7
370
    15
100
AcDbLine
 10
157.4288032355
 20
1206.0452440796
 30
0.0
 11
156.1429145636
 21
1206.0452440796
 31
0.0
  0
LINE
  5
C3
330
1F
100
AcDbEntity
  8
0
  6
Continuous
 62
     7
370
    15
100
AcDbLine
 10
752.8361518683
 20
1206.0452440796
 30
0.0
 11
752.8361518683
 21
1172.0022753296
 31
0.0
  0
LINE
  5
C4
330
1F
100
AcDbEntity
  8
0
  6
Continuous
 62
     7
370
    15
100
AcDbLine
 10
751.5502021613
 20
1172.0022753296
 30
0.0
 11
752.8361518683
 21
1172.0022753296
 31
0.0
  0
LINE
  5
C5
330
1F
100
AcDbEntity
  8
0
  6
Continuous
 62
     7
370
    15
100
AcDbLine
 10
752.8361518683
 20
1206.0452440796
 30
0.0
 11
751.5502021613
 21
1206.0452440796
 31
0.0
  0
LINE
  5
C6
330
1F
100
AcDbEntity
  8
0
  6
Continuous
 62
     7
370
    15
100
AcDbLine
 10
155.2243354621
 20
1206.0452440796
 30
0.0
 11
155.2243354621
 21
1172.0022753296
 31
0.0
  0
LINE
  5
C7
330
1F
100
AcDbEntity
  8
0
  6
Continuous
 62
     7
370
    15
100
AcDbLine
 10
155.2243354621
 20
1172.0022753296
 30
0.0
 11
156.1429145636
 21
1172.0022753296
 31
0.0
  0
LINE
  5
C8
330
1F
100
AcDbEntity
  8
0
  6
Continuous
 62
     7
370
    15
100
AcDbLine
 10
156.1429145636
 20
1206.0452440796
 30
0.0
 11
155.2243354621
 21
1206.0452440796
 31
0.0
  0
LINE
  5
C9
330
1F
100
AcDbEntity
  8
0
  6
Continuous
 62
     7
370
    15
100
AcDbLine
 10
753.7546699347
 20
1206.0452440796
 30
0.0
 11
753.7546699347
 21
1172.0022753296
 31
0.0
  0
LINE
  5
CA
330
1F
100
AcDbEntity
  8
0
  6
Continuous
 62
     7
370
    15
100
AcDbLine
 10
752.8361518683
 20
1172.0022753296
 30
0.0
 11
753.7546699347
 21
1172.0022753296
 31
0.0
  0
LINE
  5
CB
330
1F
100
AcDbEntity
  8
0
  6
Continuous
 62
     7
370
    15
100
AcDbLine
 10
753.7546699347
 20
1206.0452440796
 30
0.0
 11
752.8361518683
 21
1206.0452440796
 31
0.0
  0
LINE
  5
CC
330
1F
100
AcDbEntity
  8
0
  6
Continuous
 62
     7
370
    15
100
AcDbLine
 10
154.6731880011
 20
1206.0452440796
 30
0.0
 11
154.6732490363
 21
1172.0022753296
 31
0.0
  0
LINE
  5
CD
330
1F
100
AcDbEntity
  8
0
  6
Continuous
 62
     7
370
    15
100
AcDbLine
 10
154.6732490363
 20
1172.0022753296
 30
0.0
 11
155.2243354621
 21
1172.0022753296
 31
0.0
  0
LINE
  5
CE
330
1F
100
AcDbEntity
  8
0
  6
Continuous
 62
     7
370
    15
100
AcDbLine
 10
155.2243354621
 20
1206.0452440796
 30
0.0
 11
154.6731880011
 21
1206.0452440796
 31
0.0
  0
LINE
  5
CF
330
1F
100
AcDbEntity
  8
0
  6
Continuous
 62
     7
370
    15
100
AcDbLine
 10
754.3058173957
 20
1206.0452440796
 30
0.0
 11
754.3058173957
 21
1172.0022753296
 31
0.0
  0
LINE
  5
D0
330
1F
100
AcDbEntity
  8
0
  6
Continuous
 62
     7
370
    15
100
AcDbLine
 10
753.7546699347
 20
1172.0022753296
 30
0.0
 11
754.3058173957
 21
1172.0022753296
 31
0.0
  0
LINE
  5
D1
330
1F
100
AcDbEntity
  8
0
  6
Continuous
 62
     7
370
    15
100
AcDbLine
 10
754.3058173957
 20
1206.0452440796
 30
0.0
 11
753.7546699347
 21
1206.0452440796
 31
0.0
  0
LINE
  5
D2
330
1F
100
AcDbEntity
  8
0
  6
Continuous
 62
     7
370
    15
100
AcDbLine
 10
754.489533216
 20
1206.0452440796
 30
0.0
 11
754.489533216
 21
1172.0022753296
 31
0.0
  0
LINE
  5
D3
330
1F
100
AcDbEntity
  8
0
  6
Continuous
 62
     7
370
    15
100
AcDbLine
 10
754.3058173957
 20
1172.0022753296
 30
0.0
 11
754.489533216
 21
1172.0022753296
 31
0.0
  0
LINE
  5
D4
330
1F
100
AcDbEntity
  8
0
  6
Continuous
 62
     7
370
    15
100
AcDbLine
 10
754.489533216
 20
1206.0452440796
 30
0.0
 11
754.3058173957
 21
1206.0452440796
 31
0.0
  0
LINE
  5
D5
330
1F
100
AcDbEntity
  8
0
  6
Continuous
 62
     7
370
    15
100
AcDbLine
 10
154.489533216
 20
1206.0452440796
 30
0.0
 11
154.489533216
 21
1172.0022753296
 31
0.0
  0
LINE
  5
D6
330
1F
100
AcDbEntity
  8
0
  6
Continuous
 62
     7
370
    15
100
AcDbLine
 10
154.489533216
 20
1172.0022753296
 30
0.0
 11
154.6732490363
 21
1172.0022753296
 31
0.0
  0
LINE
  5
D7
330
1F
100
AcDbEntity
  8
0
  6
Continuous
 62
     7
370
    15
100
AcDbLine
 10
154.6731880011
 20
1206.0452440796
 30
0.0
 11
154.489533216
 21
1206.0452440796
 31
0.0
  0
LINE
  5
D8
330
1F
100
AcDbEntity
  8
0
  6
Continuous
 62
     7
370
    15
100
AcDbLine
 10
155.6087348761
 20
1207.0022753296
 30
0.0
 11
156.0314033332
 21
1207.0022753296
 31
0.0
  0
LINE
  5
D9
330
1F
100
AcDbEntity
  8
0
  6
Continuous
 62
     7
370
    15
100
AcDbLine
 10
156.0314033332
 20
1207.0022753296
 30
0.0
 11
156.6893012824
 21
1207.0022753296
 31
0.0
  0
LINE
  5
DA
330
1F
100
AcDbEntity
  8
0
  6
Continuous
 62
     7
370
    15
100
AcDbLine
 10
156.6893012824
 20
1207.0022753296
 30
0.0
 11
157.6754463019
 21
1207.0022753296
 31
0.0
  0
LINE
  5
DB
330
1F
100
AcDbEntity
  8
0
  6
Continuous
 62
     7
370
    15
100
AcDbLine
 10
173.7256982355
 20
1207.0022753296
 30
0.0
 11
735.2533071613
 21
1207.0022753296
 31
0.0
  0
LINE
  5
DC
330
1F
100
AcDbEntity
  8
0
  6
Continuous
 62
     7
370
    15
100
AcDbLine
 10
749.843842298
 20
1207.0022753296
 30
0.0
 11
751.3035590949
 21
1207.0022753296
 31
0.0
  0
LINE
  5
DD
330
1F
100
AcDbEntity
  8
0
  6
Continuous
 62
     7
370
    15
100
AcDbLine
 10
751.3035590949
 20
1207.0022753296
 30
0.0
 11
752.2897651496
 21
1207.0022753296
 31
0.0
  0
LINE
  5
DE
330
1F
100
AcDbEntity
  8
0
  6
Continuous
 62
     7
370
    15
100
AcDbLine
 10
752.2897651496
 20
1207.0022753296
 30
0.0
 11
752.9476020636
 21
1207.0022753296
 31
0.0
  0
LINE
  5
DF
330
1F
100
AcDbEntity
  8
0
  6
Continuous
 62
     7
370
    15
100
AcDbLine
 10
752.9476020636
 20
1207.0022753296
 30
0.0
 11
753.3702705207
 21
1207.0022753296
 31
0.0
  0
SPLINE
  5
E0
330
1F
100
AcDbEntity
  8
0
  6
Continuous
 62
     7
370
    15
100
AcDbSpline
210
0.0
220
0.0
230
1.0
 70
     8
 71
     3
 72
    14
 73
    10
 74
     0
 42
0.00000001
 43
0.00000001
 12
1.0
 22
0.0
 32
0.0
 13
1.0
 23
0.0
 33
0.0
 40
0.0
 40
0.0
 40
0.0
 40
0.0
 40
0.2241921436806441
 40
0.2242278270051411
 40
0.4127522996325161
 40
0.5877193504123016
 40
0.5877250035639391
 40
0.776082489760858
 40
1.0
 40
1.0
 40
1.0
 40
1.0
 10
749.8438422980063
 20
1207.00227532959
 30
0.0
 10
749.8502374871977
 20
1206.996577354145
 30
0.0
 10
749.856633694273
 20
1206.990878471787
 30
0.0
 10
749.8681395826651
 20
1206.941399715475
 30
0.0
 10
749.8780746962187
 20
1206.868940806593
 30
0.0
 10
749.885527981016
 20
1206.732958413146
 30
0.0
 10
749.8913611239877
 20
1206.576764443065
 30
0.0
 10
749.896005224575
 20
1206.374761388841
 30
0.0
 10
749.8965337548102
 20
1206.161222646917
 30
0.0
 10
749.8968208136313
 20
1206.04524407959
 30
0.0
  0
LINE
  5
E1
330
1F
100
AcDbEntity
  8
0
  6
Continuous
 62
     7
370
    15
100
AcDbLine
 10
735.2533271613
 20
1207.0022753296
 30
0.0
 11
749.843842298
 21
1207.0022753296
 31
0.0
  0
LINE
  5
E2
330
1F
100
AcDbEntity
  8
0
  6
Continuous
 62
     7
370
    15
100
AcDbLine
 10
735.3037422004
 20
1206.0452440796
 30
0.0
 11
749.8968208136
 21
1206.0452440796
 31
0.0
  0
SPLINE
  5
E3
330
1F
100
AcDbEntity
  8
0
  6
Continuous
 62
     7
370
    15
100
AcDbSpline
210
0.0
220
0.0
230
1.0
 70
     8
 71
     3
 72
    14
 73
    10
 74
     0
 42
0.00000001
 43
0.00000001
 12
1.0
 22
0.0
 32
0.0
 13
1.0
 23
0.0
 33
0.0
 40
0.0
 40
0.0
 40
0.0
 40
0.0
 40
0.2241921436806441
 40
0.2242278270051411
 40
0.4127522996325161
 40
0.5877193504123016
 40
0.5877250035639391
 40
0.776082489760858
 40
1.0
 40
1.0
 40
1.0
 40
1.0
 10
735.2533271612874
 20
1207.00227532959
 30
0.0
 10
735.2594155402529
 20
1206.996577354145
 30
0.0
 10
735.2655048882694
 20
1206.990878471787
 30
0.0
 10
735.2764552132181
 20
1206.941399715475
 30
0.0
 10
735.2859079048632
 20
1206.868940806593
 30
0.0
 10
735.2929594675215
 20
1206.732958413146
 30
0.0
 10
735.2984938065073
 20
1206.576764443065
 30
0.0
 10
735.3029243411886
 20
1206.374761388841
 30
0.0
 10
735.3034543425315
 20
1206.161222646917
 30
0.0
 10
735.30374220035
 20
1206.04524407959
 30
0.0
  0
SPLINE
  5
E4
330
1F
100
AcDbEntity
  8
0
  6
Continuous
 62
     7
370
    15
100
AcDbSpline
210
0.0
220
0.0
230
1.0
 70
     8
 71
     3
 72
    14
 73
    10
 74
     0
 42
0.00000001
 43
0.00000001
 12
1.0
 22
0.0
 32
0.0
 13
1.0
 23
0.0
 33
0.0
 40
0.0
 40
0.0
 40
0.0
 40
0.0
 40
0.2241921436806441
 40
0.2242278270051411
 40
0.4127522996325161
 40
0.5877193504123016
 40
0.5877250035639391
 40
0.776082489760858
 40
1.0
 40
1.0
 40
1.0
 40
1.0
 10
751.3035590948812
 20
1207.00227532959
 30
0.0
 10
751.3334533548087
 20
1206.996577354145
 30
0.0
 10
751.363352372827
 20
1206.990878471787
 30
0.0
 10
751.4167499613086
 20
1206.941399715475
 30
0.0
 10
751.4625647084137
 20
1206.868940806593
 30
0.0
 10
751.4976790169737
 20
1206.732958413146
 30
0.0
 10
751.5248713178704
 20
1206.576764443065
 30
0.0
 10
751.5460696439982
 20
1206.374761388841
 30
0.0
 10
751.5487476597448
 20
1206.161222646917
 30
0.0
 10
751.5502021612874
 20
1206.04524407959
 30
0.0
  0
SPLINE
  5
E5
330
1F
100
AcDbEntity
  8
0
  6
Continuous
 62
     7
370
    15
100
AcDbSpline
210
0.0
220
0.0
230
1.0
 70
     8
 71
     3
 72
    14
 73
    10
 74
     0
 42
0.00000001
 43
0.00000001
 12
1.0
 22
0.0
 32
0.0
 13
1.0
 23
0.0
 33
0.0
 40
0.0
 40
0.0
 40
0.0
 40
0.0
 40
0.2241921436806441
 40
0.2242278270051411
 40
0.4127522996325161
 40
0.5877193504123016
 40
0.5877250035639391
 40
0.776082489760858
 40
1.0
 40
1.0
 40
1.0
 40
1.0
 10
752.2897651495687
 20
1207.00227532959
 30
0.0
 10
752.3559374734153
 20
1206.996577354145
 30
0.0
 10
752.4221203295156
 20
1206.990878471787
 30
0.0
 10
752.540463306648
 20
1206.941399715475
 30
0.0
 10
752.6421114012619
 20
1206.868940806593
 30
0.0
 10
752.7197105895393
 20
1206.732958413146
 30
0.0
 10
752.7798869828256
 20
1206.576764443065
 30
0.0
 10
752.8269312929101
 20
1206.374761388841
 30
0.0
 10
752.8329065482831
 20
1206.161222646917
 30
0.0
 10
752.8361518683187
 20
1206.04524407959
 30
0.0
  0
SPLINE
  5
E6
330
1F
100
AcDbEntity
  8
0
  6
Continuous
 62
     7
370
    15
100
AcDbSpline
210
0.0
220
0.0
230
1.0
 70
     8
 71
     3
 72
    14
 73
    10
 74
     0
 42
0.00000001
 43
0.00000001
 12
1.0
 22
0.0
 32
0.0
 13
1.0
 23
0.0
 33
0.0
 40
0.0
 40
0.0
 40
0.0
 40
0.0
 40
0.2241921436806441
 40
0.2242278270051411
 40
0.4127522996325161
 40
0.5877193504123016
 40
0.5877250035639391
 40
0.776082489760858
 40
1.0
 40
1.0
 40
1.0
 40
1.0
 10
752.9476020636313
 20
1207.00227532959
 30
0.0
 10
753.0454055316392
 20
1206.996577354145
 30
0.0
 10
753.143224566441
 20
1206.990878471787
 30
0.0
 10
753.3180072750405
 20
1206.941399715475
 30
0.0
 10
753.4680342092686
 20
1206.868940806593
 30
0.0
 10
753.5827810782087
 20
1206.732958413146
 30
0.0
 10
753.6716598312851
 20
1206.576764443065
 30
0.0
 10
753.740977859053
 20
1206.374761388841
 30
0.0
 10
753.7498508029963
 20
1206.161222646917
 30
0.0
 10
753.754669934725
 20
1206.04524407959
 30
0.0
  0
SPLINE
  5
E7
330
1F
100
AcDbEntity
  8
0
  6
Continuous
 62
     7
370
    15
100
AcDbSpline
210
0.0
220
0.0
230
1.0
 70
     8
 71
     3
 72
    14
 73
    10
 74
     0
 42
0.00000001
 43
0.00000001
 12
1.0
 22
0.0
 32
0.0
 13
1.0
 23
0.0
 33
0.0
 40
0.0
 40
0.0
 40
0.0
 40
0.0
 40
0.2241921436806441
 40
0.2242278270051411
 40
0.4127522996325161
 40
0.5877193504123016
 40
0.5877250035639391
 40
0.776082489760858
 40
1.0
 40
1.0
 40
1.0
 40
1.0
 10
753.3702705206624
 20
1207.00227532959
 30
0.0
 10
753.4836105185974
 20
1206.996577354145
 30
0.0
 10
753.5969685561831
 20
1206.990878471787
 30
0.0
 10
753.7995941806431
 20
1206.941399715475
 30
0.0
 10
753.973579864698
 20
1206.868940806593
 30
0.0
 10
754.1064976062546
 20
1206.732958413146
 30
0.0
 10
754.2094996279636
 20
1206.576764443065
 30
0.0
 10
754.2899095084396
 20
1206.374761388841
 30
0.0
 10
754.3002183757702
 20
1206.161222646917
 30
0.0
 10
754.3058173956624
 20
1206.04524407959
 30
0.0
  0
SPLINE
  5
E8
330
1F
100
AcDbEntity
  8
0
  6
Continuous
 62
     7
370
    15
100
AcDbSpline
210
0.0
220
0.0
230
1.0
 70
     8
 71
     3
 72
    14
 73
    10
 74
     0
 42
0.00000001
 43
0.00000001
 12
1.0
 22
0.0
 32
0.0
 13
1.0
 23
0.0
 33
0.0
 40
0.0
 40
0.0
 40
0.0
 40
0.0
 40
0.2241921436806441
 40
0.2242278270051411
 40
0.4127522996325161
 40
0.5877193504123016
 40
0.5877250035639391
 40
0.776082489760858
 40
1.0
 40
1.0
 40
1.0
 40
1.0
 10
753.532501965975
 20
1207.00227532959
 30
0.0
 10
753.6484237526972
 20
1206.996577354145
 30
0.0
 10
753.7643639899977
 20
1206.990878471787
 30
0.0
 10
753.9716394766142
 20
1206.941399715475
 30
0.0
 10
754.1496438986948
 20
1206.868940806593
 30
0.0
 10
754.2856523111965
 20
1206.732958413146
 30
0.0
 10
754.3910282261456
 20
1206.576764443065
 30
0.0
 10
754.4732579752239
 20
1206.374761388841
 30
0.0
 10
754.4838049004899
 20
1206.161222646917
 30
0.0
 10
754.489533215975
 20
1206.04524407959
 30
0.0
  0
LINE
  5
E9
330
1F
100
AcDbEntity
  8
0
  6
Continuous
 62
     7
370
    15
100
AcDbLine
 10
753.3702705207
 20
1207.0022753296
 30
0.0
 11
753.532501966
 21
1207.0022753296
 31
0.0
  0
SPLINE
  5
EA
330
1F
100
AcDbEntity
  8
0
  6
Continuous
 62
     7
370
    15
100
AcDbSpline
210
0.0
220
0.0
230
1.0
 70
     8
 71
     3
 72
    13
 73
     9
 74
     0
 42
0.00000001
 43
0.00000001
 12
1.0
 22
0.0
 32
0.0
 13
1.0
 23
0.0
 33
0.0
 40
0.0
 40
0.0
 40
0.0
 40
0.0
 40
0.2242262416264485
 40
0.4127523927480536
 40
0.4127836672158366
 40
0.5877230864337836
 40
0.7760840729454302
 40
1.0
 40
1.0
 40
1.0
 40
1.0
 10
157.6754463019124
 20
1207.00227532959
 30
0.0
 10
157.6455829288746
 20
1206.996571298272
 30
0.0
 10
157.5906108676767
 20
1206.98607140068
 30
0.0
 10
157.5384981395074
 20
1206.903836365089
 30
0.0
 10
157.4982359427461
 20
1206.798429845462
 30
0.0
 10
157.4632130226587
 20
1206.662471222365
 30
0.0
 10
157.4330022417838
 20
1206.374767013348
 30
0.0
 10
157.430281127622
 20
1206.161223745639
 30
0.0
 10
157.4288032355061
 20
1206.04524407959
 30
0.0
  0
SPLINE
  5
EB
330
1F
100
AcDbEntity
  8
0
  6
Continuous
 62
     7
370
    15
100
AcDbSpline
210
0.0
220
0.0
230
1.0
 70
     8
 71
     3
 72
    13
 73
     9
 74
     0
 42
0.00000001
 43
0.00000001
 12
1.0
 22
0.0
 32
0.0
 13
1.0
 23
0.0
 33
0.0
 40
0.0
 40
0.0
 40
0.0
 40
0.0
 40
0.2242262416264485
 40
0.4127523927480536
 40
0.4127836672158366
 40
0.5877230864337836
 40
0.7760840729454302
 40
1.0
 40
1.0
 40
1.0
 40
1.0
 10
159.1351630987874
 20
1207.00227532959
 30
0.0
 10
159.1287541612557
 20
1206.996571298272
 30
0.0
 10
159.116956682593
 20
1206.98607140068
 30
0.0
 10
159.1057813104275
 20
1206.903836365089
 30
0.0
 10
159.0971217737153
 20
1206.798429845462
 30
0.0
 10
159.0895621673011
 20
1206.662471222365
 30
0.0
 10
159.0831096096213
 20
1206.374767013348
 30
0.0
 10
159.0825101576484
 20
1206.161223745639
 30
0.0
 10
159.0821845831624
 20
1206.04524407959
 30
0.0
  0
LINE
  5
EC
330
1F
100
AcDbEntity
  8
0
  6
Continuous
 62
     7
370
    15
100
AcDbLine
 10
157.6754463019
 20
1207.0022753296
 30
0.0
 11
159.1351630988
 21
1207.0022753296
 31
0.0
  0
LINE
  5
ED
330
1F
100
AcDbEntity
  8
0
  6
Continuous
 62
     7
370
    15
100
AcDbLine
 10
159.0821845832
 20
1206.0452440796
 30
0.0
 11
173.6753242316
 21
1206.0452440796
 31
0.0
  0
SPLINE
  5
EE
330
1F
100
AcDbEntity
  8
0
  6
Continuous
 62
     7
370
    15
100
AcDbSpline
210
0.0
220
0.0
230
1.0
 70
     8
 71
     3
 72
    13
 73
     9
 74
     0
 42
0.00000001
 43
0.00000001
 12
1.0
 22
0.0
 32
0.0
 13
1.0
 23
0.0
 33
0.0
 40
0.0
 40
0.0
 40
0.0
 40
0.0
 40
0.2242262416264485
 40
0.4127523927480536
 40
0.4127836672158366
 40
0.5877230864337836
 40
0.7760840729454302
 40
1.0
 40
1.0
 40
1.0
 40
1.0
 10
173.7256782355062
 20
1207.00227532959
 30
0.0
 10
173.7195885569373
 20
1206.996571298272
 30
0.0
 10
173.7083787655136
 20
1206.98607140068
 30
0.0
 10
173.6976479520704
 20
1206.903836365089
 30
0.0
 10
173.6894421566411
 20
1206.798429845462
 30
0.0
 10
173.6823938544283
 20
1206.662471222365
 30
0.0
 10
173.6760678085122
 20
1206.374767013348
 30
0.0
 10
173.6755859426772
 20
1206.161223745639
 30
0.0
 10
173.6753242315999
 20
1206.04524407959
 30
0.0
  0
LINE
  5
EF
330
1F
100
AcDbEntity
  8
0
  6
Continuous
 62
     7
370
    15
100
AcDbLine
 10
159.1351630988
 20
1207.0022753296
 30
0.0
 11
173.7256782355
 21
1207.0022753296
 31
0.0
  0
SPLINE
  5
F0
330
1F
100
AcDbEntity
  8
0
  6
Continuous
 62
     7
370
    15
100
AcDbSpline
210
0.0
220
0.0
230
1.0
 70
     8
 71
     3
 72
    13
 73
     9
 74
     0
 42
0.00000001
 43
0.00000001
 12
1.0
 22
0.0
 32
0.0
 13
1.0
 23
0.0
 33
0.0
 40
0.0
 40
0.0
 40
0.0
 40
0.0
 40
0.2242262416264485
 40
0.4127523927480536
 40
0.4127836672158366
 40
0.5877230864337836
 40
0.7760840729454302
 40
1.0
 40
1.0
 40
1.0
 40
1.0
 10
156.6893012823811
 20
1207.00227532959
 30
0.0
 10
156.6230524747978
 20
1206.996571298272
 30
0.0
 10
156.5011026367756
 20
1206.98607140068
 30
0.0
 10
156.3858162703842
 20
1206.903836365089
 30
0.0
 10
156.2966782008554
 20
1206.798429845462
 30
0.0
 10
156.219067612736
 20
1206.662471222365
 30
0.0
 10
156.1520658714664
 20
1206.374767013348
 30
0.0
 10
156.1461354794398
 20
1206.161223745639
 30
0.0
 10
156.1429145636312
 20
1206.04524407959
 30
0.0
  0
SPLINE
  5
F1
330
1F
100
AcDbEntity
  8
0
  6
Continuous
 62
     7
370
    15
100
AcDbSpline
210
0.0
220
0.0
230
1.0
 70
     8
 71
     3
 72
    13
 73
     9
 74
     0
 42
0.00000001
 43
0.00000001
 12
1.0
 22
0.0
 32
0.0
 13
1.0
 23
0.0
 33
0.0
 40
0.0
 40
0.0
 40
0.0
 40
0.0
 40
0.2242262416264485
 40
0.4127523927480536
 40
0.4127836672158366
 40
0.5877230864337836
 40
0.7760840729454302
 40
1.0
 40
1.0
 40
1.0
 40
1.0
 10
156.0314033331624
 20
1207.00227532959
 30
0.0
 10
155.9335807279406
 20
1206.996571298272
 30
0.0
 10
155.7535103040809
 20
1206.98607140068
 30
0.0
 10
155.5831839207425
 20
1206.903836365089
 30
0.0
 10
155.4514978239829
 20
1206.798429845462
 30
0.0
 10
155.3368503330155
 20
1206.662471222365
 30
0.0
 10
155.2379991489011
 20
1206.374767013348
 30
0.0
 10
155.2291445653919
 20
1206.161223745639
 30
0.0
 10
155.2243354620686
 20
1206.04524407959
 30
0.0
  0
SPLINE
  5
F2
330
1F
100
AcDbEntity
  8
0
  6
Continuous
 62
     7
370
    15
100
AcDbSpline
210
0.0
220
0.0
230
1.0
 70
     8
 71
     3
 72
    13
 73
     9
 74
     0
 42
0.00000001
 43
0.00000001
 12
1.0
 22
0.0
 32
0.0
 13
1.0
 23
0.0
 33
0.0
 40
0.0
 40
0.0
 40
0.0
 40
0.0
 40
0.2242262416264485
 40
0.4127523927480536
 40
0.4127836672158366
 40
0.5877230864337836
 40
0.7760840729454302
 40
1.0
 40
1.0
 40
1.0
 40
1.0
 10
155.6087348761311
 20
1207.00227532959
 30
0.0
 10
155.4953696550942
 20
1206.996571298272
 30
0.0
 10
155.2866886109043
 20
1206.98607140068
 30
0.0
 10
155.0891870619209
 20
1206.903836365089
 30
0.0
 10
154.9365187439099
 20
1206.798429845462
 30
0.0
 10
154.8036334508457
 20
1206.662471222365
 30
0.0
 10
154.6890010903264
 20
1206.374767013348
 30
0.0
 10
154.6787536131605
 20
1206.161223745639
 30
0.0
 10
154.6731880011312
 20
1206.04524407959
 30
0.0
  0
SPLINE
  5
F3
330
1F
100
AcDbEntity
  8
0
  6
Continuous
 62
     7
370
    15
100
AcDbSpline
210
0.0
220
0.0
230
1.0
 70
     8
 71
     3
 72
    13
 73
     9
 74
     0
 42
0.00000001
 43
0.00000001
 12
1.0
 22
0.0
 32
0.0
 13
1.0
 23
0.0
 33
0.0
 40
0.0
 40
0.0
 40
0.0
 40
0.0
 40
0.2242262416264485
 40
0.4127523927480536
 40
0.4127836672158366
 40
0.5877230864337836
 40
0.7760840729454302
 40
1.0
 40
1.0
 40
1.0
 40
1.0
 10
155.4465644659749
 20
1207.00227532959
 30
0.0
 10
155.3305932435894
 20
1206.996571298272
 30
0.0
 10
155.1171151101548
 20
1206.98607140068
 30
0.0
 10
154.9150415930124
 20
1206.903836365089
 30
0.0
 10
154.75886744709
 20
1206.798429845462
 30
0.0
 10
154.6229605213768
 20
1206.662471222365
 30
0.0
 10
154.5057066092263
 20
1206.374767013348
 30
0.0
 10
154.4952256414665
 20
1206.161223745639
 30
0.0
 10
154.4895332159749
 20
1206.04524407959
 30
0.0
  0
LINE
  5
F4
330
1F
100
AcDbEntity
  8
0
  6
Continuous
 62
     7
370
    15
100
AcDbLine
 10
155.446564466
 20
1207.0022753296
 30
0.0
 11
155.6087348761
 21
1207.0022753296
 31
0.0
  0
LINE
  5
F5
330
1F
100
AcDbEntity
  8
0
  6
Continuous
 62
     7
370
    15
100
AcDbLine
 10
739.7865302863
 20
1172.0022677002
 30
0.0
 11
739.7865302863
 21
1137.0022677002
 31
0.0
  0
LINE
  5
F6
330
1F
100
AcDbEntity
  8
0
  6
Continuous
 62
     7
370
    15
100
AcDbLine
 10
739.7865302863
 20
1137.0022677002
 30
0.0
 11
169.1925361457
 21
1137.0022677002
 31
0.0
  0
LINE
  5
F7
330
1F
100
AcDbEntity
  8
0
  6
Continuous
 62
     7
370
    15
100
AcDbLine
 10
169.1925361457
 20
1172.0022677002
 30
0.0
 11
169.1925361457
 21
1137.0022677002
 31
0.0
  0
LINE
  5
F8
330
1F
100
AcDbEntity
  8
0
  6
Continuous
 62
     7
370
    15
100
AcDbLine
 10
769.5892036261
 20
1098.8097246704
 30
0.0
 11
169.1925361457
 21
1098.8097246704
 31
0.0
  0
LINE
  5
F9
330
1F
100
AcDbEntity
  8
0
  6
Continuous
 62
     7
370
    15
100
AcDbLine
 10
169.1925361457
 20
1137.0022677002
 30
0.0
 11
169.1925361457
 21
1098.8097246704
 31
0.0
  0
LINE
  5
FA
330
1F
100
AcDbEntity
  8
0
  6
Continuous
 62
     7
370
    15
100
AcDbLine
 10
739.7865302863
 20
1137.0022677002
 30
0.0
 11
769.5892036261
 21
1098.8097246704
 31
0.0
  0
LINE
  5
FB
330
1F
100
AcDbEntity
  8
0
  6
Continuous
 62
     7
370
    15
100
AcDbLine
 10
769.5892036261
 20
1137.0022677002
 30
0.0
 11
769.5892036261
 21
1098.8097246704
 31
0.0
  0
LINE
  5
FC
330
1F
100
AcDbEntity
  8
0
  6
Continuous
 62
     7
370
    15
100
AcDbLine
 10
739.7865302863
 20
1137.0022677002
 30
0.0
 11
769.5892036261
 21
1137.0022677002
 31
0.0
  0
ENDSEC
  0
SECTION
  2
OBJECTS
  0
DICTIONARY
  5
C
330
0
100
AcDbDictionary
281
     1
  3
ACAD_GROUP
350
D
  3
ACAD_LAYOUT
350
1A
  3
ACAD_MLINESTYLE
350
17
  3
ACAD_PLOTSETTINGS
350
19
  3
ACAD_PLOTSTYLENAME
350
E
  0
DICTIONARY
  5
D
102
{ACAD_REACTORS
330
C
102
}
330
C
100
AcDbDictionary
281
     1
  0
DICTIONARY
  5
1A
102
{ACAD_REACTORS
330
C
102
}
330
C
100
AcDbDictionary
281
     1
  3
Layout1
350
1E
  3
Layout2
350
26
  3
Model
350
22
  0
DICTIONARY
  5
17
102
{ACAD_REACTORS
330
C
102
}
330
C
100
AcDbDictionary
281
     1
  3
Standard
350
18
  0
DICTIONARY
  5
19
102
{ACAD_REACTORS
330
C
102
}
330
C
100
AcDbDictionary
281
     1
  0
ACDBDICTIONARYWDFLT
  5
E
102
{ACAD_REACTORS
330
C
102
}
330
C
100
AcDbDictionary
281
     1
  3
Normal
350
F
100
AcDbDictionaryWithDefault
340
F
  0
LAYOUT
  5
1E
102
{ACAD_REACTORS
330
1A
102
}
330
1A
100
AcDbPlotSettings
  1

  2
none_device
  4

  6

 40
0.0
 41
0.0
 42
0.0
 43
0.0
 44
0.0
 45
0.0
 46
0.0
 47
0.0
 48
0.0
 49
0.0
140
0.0
141
0.0
142
1.0
143
1.0
 70
   688
 72
     0
 73
     0
 74
     5
  7

 75
    16
147
1.0
148
0.0
149
0.0
100
AcDbLayout
  1
Layout1
 70
     1
 71
     1
 10
0.0
 20
0.0
 11
420.0
 21
297.0
 12
0.0
 22
0.0
 32
0.0
 14
1.0000000000E+20
 24
1.0000000000E+20
 34
1.0000000000E+20
 15
-1.0000000000E+20
 25
-1.0000000000E+20
 35
-1.0000000000E+20
146
0.0
 13
0.0
 23
0.0
 33
0.0
 16
1.0
 26
0.0
 36
0.0
 17
0.0
 27
1.0
 37
0.0
 76
     0
330
1B
  0
LAYOUT
  5
26
102
{ACAD_REACTORS
330
1A
102
}
330
1A
100
AcDbPlotSettings
  1

  2
none_device
  4

  6

 40
0.0
 41
0.0
 42
0.0
 43
0.0
 44
0.0
 45
0.0
 46
0.0
 47
0.0
 48
0.0
 49
0.0
140
0.0
141
0.0
142
1.0
143
1.0
 70
   688
 72
     0
 73
     0
 74
     5
  7

 75
    16
147
1.0
148
0.0
149
0.0
100
AcDbLayout
  1
Layout2
 70
     1
 71
     2
 10
0.0
 20
0.0
 11
0.0
 21
0.0
 12
0.0
 22
0.0
 32
0.0
 14
0.0
 24
0.0
 34
0.0
 15
0.0
 25
0.0
 35
0.0
146
0.0
 13
0.0
 23
0.0
 33
0.0
 16
1.0
 26
0.0
 36
0.0
 17
0.0
 27
1.0
 37
0.0
 76
     0
330
23
  0
LAYOUT
  5
22
102
{ACAD_REACTORS
330
1A
102
}
330
1A
100
AcDbPlotSettings
  1

  2
none_device
  4

  6

 40
0.0
 41
0.0
 42
0.0
 43
0.0
 44
0.0
 45
0.0
 46
0.0
 47
0.0
 48
0.0
 49
0.0
140
0.0
141
0.0
142
1.0
143
1.0
 70
  1712
 72
     0
 73
     0
 74
     0
  7

 75
     0
147
1.0
148
0.0
149
0.0
100
AcDbLayout
  1
Model
 70
     1
 71
     0
 10
0.0
 20
0.0
 11
2794.0
 21
2159.0
 12
0.0
 22
0.0
 32
0.0
 14
0.0
 24
0.0
 34
0.0
 15
2794.0
 25
2159.0
 35
0.0
146
0.0
 13
0.0
 23
0.0
 33
0.0
 16
1.0
 26
0.0
 36
0.0
 17
0.0
 27
1.0
 37
0.0
 76
     0
330
1F
331
29
  0
MLINESTYLE
  5
18
102
{ACAD_REACTORS
330
17
102
}
330
17
100
AcDbMlineStyle
  2
Standard
 70
     0
  3

 62
   256
 51
90.0
 52
90.0
 71
     2
 49
0.5
 62
   256
  6
BYLAYER
 49
-0.5
 62
   256
  6
BYLAYER
  0
ACDBPLACEHOLDER
  5
F
102
{ACAD_REACTORS
330
E
102
}
330
E
  0
ENDSEC
  0
EOF
