  0
SECTION
  2
HEADER
  9
$ACADVER
  1
AC1015
  9
$ACADMAINTVER
 70
     6
  9
$DWGCODEPAGE
  3
ANSI_1251
  9
$INSBASE
 10
0.0
 20
0.0
 30
0.0
  9
$EXTMIN
 10
0.0
 20
0.0
 30
0.0
  9
$EXTMAX
 10
1397.0
 20
1079.5
 30
0.0
  9
$LIMMIN
 10
0.0
 20
0.0
  9
$LIMMAX
 10
1397.0
 20
1079.5
  9
$ORTHOMODE
 70
     0
  9
$REGENMODE
 70
     1
  9
$FILLMODE
 70
     1
  9
$QTEXTMODE
 70
     0
  9
$MIRRTEXT
 70
     1
  9
$LTSCALE
 40
5.0
  9
$ATTMODE
 70
     1
  9
$TEXTSIZE
 40
17.5
  9
$TRACEWID
 40
1.0
  9
$TEXTSTYLE
  7
Standard
  9
$CLAYER
  8
0
  9
$CELTYPE
  6
ByLayer
  9
$CECOLOR
 62
   256
  9
$CELTSCALE
 40
1.0
  9
$DISPSILH
 70
     0
  9
$DIMSCALE
 40
1.0
  9
$DIMASZ
 40
17.5
  9
$DIMEXO
 40
0.05
  9
$DIMDLI
 40
3.75
  9
$DIMRND
 40
0.0
  9
$DIMDLE
 40
0.0
  9
$DIMEXE
 40
5.0
  9
$DIMTP
 40
0.0
  9
$DIMTM
 40
0.0
  9
$DIMTXT
 40
17.5
  9
$DIMCEN
 40
2.5
  9
$DIMTSZ
 40
0.0
  9
$DIMTOL
 70
     0
  9
$DIMLIM
 70
     0
  9
$DIMTIH
 70
     1
  9
$DIMTOH
 70
     1
  9
$DIMSE1
 70
     0
  9
$DIMSE2
 70
     0
  9
$DIMTAD
 70
     1
  9
$DIMZIN
 70
     0
  9
$DIMBLK
  1

  9
$DIMASO
 70
     1
  9
$DIMSHO
 70
     1
  9
$DIMPOST
  1

  9
$DIMAPOST
  1

  9
$DIMALT
 70
     0
  9
$DIMALTD
 70
     3
  9
$DIMALTF
 40
0.0393700787
  9
$DIMLFAC
 40
1.0
  9
$DIMTOFL
 70
     1
  9
$DIMTVP
 40
0.0
  9
$DIMTIX
 70
     0
  9
$DIMSOXD
 70
     0
  9
$DIMSAH
 70
     0
  9
$DIMBLK1
  1

  9
$DIMBLK2
  1

  9
$DIMSTYLE
  2
ISO-25
  9
$DIMCLRD
 70
     0
  9
$DIMCLRE
 70
     0
  9
$DIMCLRT
 70
     0
  9
$DIMTFAC
 40
1.0
  9
$DIMGAP
 40
15.0
  9
$DIMJUST
 70
     0
  9
$DIMSD1
 70
     0
  9
$DIMSD2
 70
     0
  9
$DIMTOLJ
 70
     0
  9
$DIMTZIN
 70
     0
  9
$DIMALTZ
 70
     0
  9
$DIMALTTZ
 70
     0
  9
$DIMUPT
 70
     0
  9
$DIMDEC
 70
     2
  9
$DIMTDEC
 70
     3
  9
$DIMALTU
 70
     2
  9
$DIMALTTD
 70
     3
  9
$DIMTXSTY
  7
Standard
  9
$DIMAUNIT
 70
     0
  9
$DIMADEC
 70
     2
  9
$DIMALTRND
 40
0.0
  9
$DIMAZIN
 70
     0
  9
$DIMDSEP
 70
    44
  9
$DIMATFIT
 70
     3
  9
$DIMFRAC
 70
     0
  9
$DIMLDRBLK
  1

  9
$DIMLUNIT
 70
     2
  9
$DIMLWD
 70
    -2
  9
$DIMLWE
 70
    -2
  9
$DIMTMOVE
 70
     0
  9
$LUNITS
 70
     2
  9
$LUPREC
 70
     2
  9
$SKETCHINC
 40
1.0
  9
$FILLETRAD
 40
10.0
  9
$AUNITS
 70
     0
  9
$AUPREC
 70
     2
  9
$MENU
  1
.
  9
$ELEVATION
 40
0.0
  9
$PELEVATION
 40
0.0
  9
$THICKNESS
 40
0.0
  9
$LIMCHECK
 70
     0
  9
$CHAMFERA
 40
10.0
  9
$CHAMFERB
 40
10.0
  9
$CHAMFERC
 40
20.0
  9
$CHAMFERD
 40
0.0
  9
$SKPOLY
 70
     0
  9
$TDCREATE
 40
2458095.628351574
  9
$TDUCREATE
 40
2458095.545018241
  9
$TDUPDATE
 40
2458095.628354305
  9
$TDUUPDATE
 40
2458095.545020972
  9
$TDINDWG
 40
0.0000000116
  9
$TDUSRTIMER
 40
0.0000000116
  9
$USRTIMER
 70
     1
  9
$ANGBASE
 50
0.0
  9
$ANGDIR
 70
     0
  9
$PDMODE
 70
     0
  9
$PDSIZE
 40
-1.0
  9
$PLINEWID
 40
0.0
  9
$SPLFRAME
 70
     0
  9
$SPLINETYPE
 70
     6
  9
$SPLINESEGS
 70
     8
  9
$HANDSEED
  5
413
  9
$SURFTAB1
 70
     6
  9
$SURFTAB2
 70
     6
  9
$SURFTYPE
 70
     6
  9
$SURFU
 70
     6
  9
$SURFV
 70
     6
  9
$UCSBASE
  2

  9
$UCSNAME
  2

  9
$UCSORG
 10
0.0
 20
0.0
 30
0.0
  9
$UCSXDIR
 10
1.0
 20
0.0
 30
0.0
  9
$UCSYDIR
 10
0.0
 20
1.0
 30
0.0
  9
$UCSORTHOREF
  2

  9
$UCSORTHOVIEW
 70
     0
  9
$UCSORGTOP
 10
0.0
 20
0.0
 30
0.0
  9
$UCSORGBOTTOM
 10
0.0
 20
0.0
 30
0.0
  9
$UCSORGLEFT
 10
0.0
 20
0.0
 30
0.0
  9
$UCSORGRIGHT
 10
0.0
 20
0.0
 30
0.0
  9
$UCSORGFRONT
 10
0.0
 20
0.0
 30
0.0
  9
$UCSORGBACK
 10
0.0
 20
0.0
 30
0.0
  9
$PUCSBASE
  2

  9
$PUCSNAME
  2

  9
$PUCSORG
 10
0.0
 20
0.0
 30
0.0
  9
$PUCSXDIR
 10
1.0
 20
0.0
 30
0.0
  9
$PUCSYDIR
 10
0.0
 20
1.0
 30
0.0
  9
$PUCSORTHOREF
  2

  9
$PUCSORTHOVIEW
 70
     0
  9
$PUCSORGTOP
 10
0.0
 20
0.0
 30
0.0
  9
$PUCSORGBOTTOM
 10
0.0
 20
0.0
 30
0.0
  9
$PUCSORGLEFT
 10
0.0
 20
0.0
 30
0.0
  9
$PUCSORGRIGHT
 10
0.0
 20
0.0
 30
0.0
  9
$PUCSORGFRONT
 10
0.0
 20
0.0
 30
0.0
  9
$PUCSORGBACK
 10
0.0
 20
0.0
 30
0.0
  9
$USERI1
 70
     0
  9
$USERI2
 70
     0
  9
$USERI3
 70
     0
  9
$USERI4
 70
     0
  9
$USERI5
 70
     0
  9
$USERR1
 40
0.0
  9
$USERR2
 40
0.0
  9
$USERR3
 40
0.0
  9
$USERR4
 40
0.0
  9
$USERR5
 40
0.0
  9
$WORLDVIEW
 70
     1
  9
$SHADEDGE
 70
     3
  9
$SHADEDIF
 70
    70
  9
$TILEMODE
 70
     1
  9
$MAXACTVP
 70
    64
  9
$PINSBASE
 10
0.0
 20
0.0
 30
0.0
  9
$PLIMCHECK
 70
     0
  9
$PEXTMIN
 10
1.0000000000E+20
 20
1.0000000000E+20
 30
1.0000000000E+20
  9
$PEXTMAX
 10
-1.0000000000E+20
 20
-1.0000000000E+20
 30
-1.0000000000E+20
  9
$PLIMMIN
 10
0.0
 20
0.0
  9
$PLIMMAX
 10
420.0
 20
297.0
  9
$UNITMODE
 70
     0
  9
$VISRETAIN
 70
     1
  9
$PLINEGEN
 70
     0
  9
$PSLTSCALE
 70
     1
  9
$TREEDEPTH
 70
  3020
  9
$CMLSTYLE
  2
Standard
  9
$CMLJUST
 70
     0
  9
$CMLSCALE
 40
20.0
  9
$PROXYGRAPHICS
 70
     1
  9
$MEASUREMENT
 70
     1
  9
$CELWEIGHT
370
    -1
  9
$ENDCAPS
280
     0
  9
$JOINSTYLE
280
     0
  9
$LWDISPLAY
290
     1
  9
$INSUNITS
 70
     4
  9
$HYPERLINKBASE
  1

  9
$STYLESHEET
  1

  9
$XEDIT
290
     1
  9
$CEPSNTYPE
380
     0
  9
$PSTYLEMODE
290
     1
  9
$FINGERPRINTGUID
  2
{61C2BE83-A33C-498A-BAE9-CECA90A42CE3}
  9
$VERSIONGUID
  2
{FAEB1C32-E019-11D5-929B-00C0DF256EC4}
  9
$EXTNAMES
290
     1
  9
$PSVPSCALE
 40
0.0
  9
$OLESTARTUP
290
     0
  0
ENDSEC
  0
SECTION
  2
CLASSES
  0
CLASS
  1
ACDBDICTIONARYWDFLT
  2
AcDbDictionaryWithDefault
  3
ObjectDBX Classes
 90
        0
280
     0
281
     0
  0
CLASS
  1
VISUALSTYLE
  2
AcDbVisualStyle
  3
ObjectDBX Classes
 90
     4095
280
     0
281
     0
  0
CLASS
  1
MATERIAL
  2
AcDbMaterial
  3
ObjectDBX Classes
 90
     1153
280
     0
281
     0
  0
CLASS
  1
ACDBPLACEHOLDER
  2
AcDbPlaceHolder
  3
ObjectDBX Classes
 90
        0
280
     0
281
     0
  0
CLASS
  1
LAYOUT
  2
AcDbLayout
  3
ObjectDBX Classes
 90
        0
280
     0
281
     0
  0
ENDSEC
  0
SECTION
  2
TABLES
  0
TABLE
  2
VPORT
  5
8
330
0
100
AcDbSymbolTable
 70
     1
  0
VPORT
  5
29
330
8
100
AcDbSymbolTableRecord
100
AcDbViewportTableRecord
  2
*Active
 70
     0
 10
0.0
 20
0.0
 11
1.0
 21
1.0
 12
698.5
 22
539.75
 13
0.0
 23
0.0
 14
10.0
 24
10.0
 15
10.0
 25
10.0
 16
0.0
 26
0.0
 36
1.0
 17
0.0
 27
0.0
 37
0.0
 40
1079.5
 41
1.2941176471
 42
50.0
 43
0.0
 44
0.0
 50
0.0
 51
0.0
 71
     0
 72
  2000
 73
     1
 74
     3
 75
     0
 76
     0
 77
     0
 78
     0
281
     0
 65
     1
110
0.0
120
0.0
130
0.0
111
1.0
121
0.0
131
0.0
112
0.0
122
1.0
132
0.0
 79
     0
146
0.0
  0
ENDTAB
  0
TABLE
  2
LTYPE
  5
5
330
0
100
AcDbSymbolTable
 70
     6
  0
LTYPE
  5
14
330
5
100
AcDbSymbolTableRecord
100
AcDbLinetypeTableRecord
  2
ByBlock
 70
     0
  3

 72
    65
 73
     0
 40
0.0
  0
LTYPE
  5
15
330
5
100
AcDbSymbolTableRecord
100
AcDbLinetypeTableRecord
  2
ByLayer
 70
     0
  3

 72
    65
 73
     0
 40
0.0
  0
LTYPE
  5
16
330
5
100
AcDbSymbolTableRecord
100
AcDbLinetypeTableRecord
  2
Continuous
 70
     0
  3
Solid line
 72
    65
 73
     0
 40
0.0
  0
LTYPE
  5
3F
330
5
100
AcDbSymbolTableRecord
100
AcDbLinetypeTableRecord
  2
HIDDEN
 70
     0
  3
Hidden __ __ __ __ __ __ __ __ __ __ __ __ __ __
 72
    65
 73
     2
 40
1.905
 49
1.27
 74
     0
 49
-0.635
 74
     0
  0
LTYPE
  5
40
330
5
100
AcDbSymbolTableRecord
100
AcDbLinetypeTableRecord
  2
PHANTOM
 70
     0
  3
Phantom ______  __  __  ______  __  __  ______
 72
    65
 73
     6
 40
12.7
 49
6.35
 74
     0
 49
-1.27
 74
     0
 49
1.27
 74
     0
 49
-1.27
 74
     0
 49
1.27
 74
     0
 49
-1.27
 74
     0
  0
LTYPE
  5
41
330
5
100
AcDbSymbolTableRecord
100
AcDbLinetypeTableRecord
  2
CENTER
 70
     0
  3
Center ____ _ ____ _ ____ _ ____ _ ____ _ ____
 72
    65
 73
     4
 40
10.16
 49
6.35
 74
     0
 49
-1.27
 74
     0
 49
1.27
 74
     0
 49
-1.27
 74
     0
  0
LTYPE
  5
42
330
5
100
AcDbSymbolTableRecord
100
AcDbLinetypeTableRecord
  2
CENTERX2
 70
     0
  3
Center (2x) ________  __  ________  __  _____
 72
    65
 73
     4
 40
20.32
 49
12.7
 74
     0
 49
-2.54
 74
     0
 49
2.54
 74
     0
 49
-2.54
 74
     0
  0
LTYPE
  5
43
330
5
100
AcDbSymbolTableRecord
100
AcDbLinetypeTableRecord
  2
DOT2
 70
     0
  3
Dot (.5x) ........................................
 72
    65
 73
     2
 40
0.635
 49
0.0
 74
     0
 49
-0.635
 74
     0
  0
ENDTAB
  0
TABLE
  2
LAYER
  5
2
330
0
100
AcDbSymbolTable
 70
     1
  0
LAYER
  5
10
330
2
100
AcDbSymbolTableRecord
100
AcDbLayerTableRecord
  2
0
 70
     0
 62
     7
  6
Continuous
370
    -3
390
F
  0
ENDTAB
  0
TABLE
  2
STYLE
  5
3
330
0
100
AcDbSymbolTable
 70
     1
  0
STYLE
  5
11
330
3
100
AcDbSymbolTableRecord
100
AcDbTextStyleTableRecord
  2
Standard
 70
     0
 40
0.0
 41
1.0
 50
0.0
 71
     0
 42
17.5
  3
txt
  4

  0
ENDTAB
  0
TABLE
  2
VIEW
  5
6
330
0
100
AcDbSymbolTable
 70
     0
  0
ENDTAB
  0
TABLE
  2
UCS
  5
7
330
0
100
AcDbSymbolTable
 70
     0
  0
ENDTAB
  0
TABLE
  2
APPID
  5
9
330
0
100
AcDbSymbolTable
 70
     1
  0
APPID
  5
12
330
9
100
AcDbSymbolTableRecord
100
AcDbRegAppTableRecord
  2
ACAD
 70
     0
  0
ENDTAB
  0
TABLE
  2
DIMSTYLE
  5
A
330
0
100
AcDbSymbolTable
 70
     1
100
AcDbDimStyleTable
  0
DIMSTYLE
105
27
330
A
100
AcDbSymbolTableRecord
100
AcDbDimStyleTableRecord
  2
ISO-25
 70
     0
 41
2.5
 42
0.625
 43
3.75
 44
1.25
 73
     0
 74
     0
 77
     1
 78
     8
140
2.5
141
2.5
143
0.0393700787
147
0.625
171
     3
172
     1
178
     0
271
     2
272
     2
274
     3
278
    44
283
     0
284
     8
340
11
  0
ENDTAB
  0
TABLE
  2
BLOCK_RECORD
  5
1
330
0
100
AcDbSymbolTable
 70
     1
  0
BLOCK_RECORD
  5
1F
330
1
100
AcDbSymbolTableRecord
100
AcDbBlockTableRecord
  2
*Model_Space
340
22
  0
BLOCK_RECORD
  5
1B
330
1
100
AcDbSymbolTableRecord
100
AcDbBlockTableRecord
  2
*Paper_Space
340
1E
  0
BLOCK_RECORD
  5
23
330
1
100
AcDbSymbolTableRecord
100
AcDbBlockTableRecord
  2
*Paper_Space0
340
26
  0
ENDTAB
  0
ENDSEC
  0
SECTION
  2
BLOCKS
  0
BLOCK
  5
20
330
1F
100
AcDbEntity
  8
0
100
AcDbBlockBegin
  2
*Model_Space
 70
     0
 10
0.0
 20
0.0
 30
0.0
  3
*Model_Space
  1

  0
ENDBLK
  5
21
330
1F
100
AcDbEntity
  8
0
100
AcDbBlockEnd
  0
BLOCK
  5
1C
330
1B
100
AcDbEntity
 67
     1
  8
0
100
AcDbBlockBegin
  2
*Paper_Space
 70
     0
 10
0.0
 20
0.0
 30
0.0
  3
*Paper_Space
  1

  0
ENDBLK
  5
1D
330
1B
100
AcDbEntity
 67
     1
  8
0
100
AcDbBlockEnd
  0
BLOCK
  5
24
330
23
100
AcDbEntity
  8
0
100
AcDbBlockBegin
  2
*Paper_Space0
 70
     0
 10
0.0
 20
0.0
 30
0.0
  3
*Paper_Space0
  1

  0
ENDBLK
  5
25
330
23
100
AcDbEntity
  8
0
100
AcDbBlockEnd
  0
ENDSEC
  0
SECTION
  2
ENTITIES
  0
LINE
  5
44
330
1F
100
AcDbEntity
  8
0
  6
Continuous
 62
     7
370
    15
100
AcDbLine
 10
203.879266219
 20
803.3390853299
 30
0.0
 11
203.879266219
 21
801.8390777005
 31
0.0
  0
LINE
  5
45
330
1F
100
AcDbEntity
  8
0
  6
Continuous
 62
     7
370
    15
100
AcDbLine
 10
435.8793953676
 20
801.8390777005
 30
0.0
 11
435.8793953676
 21
803.3390853299
 31
0.0
  0
LINE
  5
46
330
1F
100
AcDbEntity
  8
0
  6
Continuous
 62
     7
370
    15
100
AcDbLine
 10
203.879266175
 20
801.8390777005
 30
0.0
 11
205.9671675217
 21
801.419142474
 31
0.0
  0
LINE
  5
47
330
1F
100
AcDbEntity
  8
0
  6
Continuous
 62
     7
370
    15
100
AcDbLine
 10
433.7914940649
 20
801.419142474
 30
0.0
 11
435.8793954116
 21
801.8390777005
 31
0.0
  0
LINE
  5
48
330
1F
100
AcDbEntity
  8
0
  6
Continuous
 62
     7
370
    15
100
AcDbLine
 10
205.9671675217
 20
801.419142474
 30
0.0
 11
208.0568235938
 21
801.0166985882
 31
0.0
  0
LINE
  5
49
330
1F
100
AcDbEntity
  8
0
  6
Continuous
 62
     7
370
    15
100
AcDbLine
 10
431.7018379928
 20
801.0166985882
 30
0.0
 11
433.7914940649
 21
801.419142474
 31
0.0
  0
LINE
  5
4A
330
1F
100
AcDbEntity
  8
0
  6
Continuous
 62
     7
370
    15
100
AcDbLine
 10
208.0568235938
 20
801.0166985882
 30
0.0
 11
210.1561108273
 21
800.6369988812
 31
0.0
  0
LINE
  5
4B
330
1F
100
AcDbEntity
  8
0
  6
Continuous
 62
     7
370
    15
100
AcDbLine
 10
429.6025507593
 20
800.6369988812
 30
0.0
 11
431.7018379928
 21
801.0166985882
 31
0.0
  0
LINE
  5
4C
330
1F
100
AcDbEntity
  8
0
  6
Continuous
 62
     7
370
    15
100
AcDbLine
 10
210.1561108273
 20
800.6369988812
 30
0.0
 11
212.2728752709
 21
800.2852857006
 31
0.0
  0
LINE
  5
4D
330
1F
100
AcDbEntity
  8
0
  6
Continuous
 62
     7
370
    15
100
AcDbLine
 10
427.4857863158
 20
800.2852857006
 30
0.0
 11
429.6025507593
 21
800.6369988812
 31
0.0
  0
LINE
  5
4E
330
1F
100
AcDbEntity
  8
0
  6
Continuous
 62
     7
370
    15
100
AcDbLine
 10
212.2728752709
 20
800.2852857006
 30
0.0
 11
214.4150089063
 21
799.96680807
 31
0.0
  0
LINE
  5
4F
330
1F
100
AcDbEntity
  8
0
  6
Continuous
 62
     7
370
    15
100
AcDbLine
 10
425.3436526804
 20
799.96680807
 30
0.0
 11
427.4857863158
 21
800.2852857006
 31
0.0
  0
LINE
  5
50
330
1F
100
AcDbEntity
  8
0
  6
Continuous
 62
     7
370
    15
100
AcDbLine
 10
214.4150089063
 20
799.96680807
 30
0.0
 11
216.5903805727
 21
799.6868150128
 31
0.0
  0
LINE
  5
51
330
1F
100
AcDbEntity
  8
0
  6
Continuous
 62
     7
370
    15
100
AcDbLine
 10
423.1682810139
 20
799.6868150128
 30
0.0
 11
425.3436526804
 21
799.96680807
 31
0.0
  0
LINE
  5
52
330
1F
100
AcDbEntity
  8
0
  6
Continuous
 62
     7
370
    15
100
AcDbLine
 10
216.5903805727
 20
799.6868150128
 30
0.0
 11
218.8068593734
 21
799.4505555523
 31
0.0
  0
LINE
  5
53
330
1F
100
AcDbEntity
  8
0
  6
Continuous
 62
     7
370
    15
100
AcDbLine
 10
420.9518022132
 20
799.4505555523
 30
0.0
 11
423.1682810139
 21
799.6868150128
 31
0.0
  0
LINE
  5
54
330
1F
100
AcDbEntity
  8
0
  6
Continuous
 62
     7
370
    15
100
AcDbLine
 10
228.2205552481
 20
799.282880534
 30
0.0
 11
228.308263094
 21
799.2105672253
 31
0.0
  0
LINE
  5
55
330
1F
100
AcDbEntity
  8
0
  6
Continuous
 62
     7
370
    15
100
AcDbLine
 10
411.4487179726
 20
799.2105672253
 30
0.0
 11
411.5364258185
 21
799.282880534
 31
0.0
  0
LINE
  5
56
330
1F
100
AcDbEntity
  8
0
  6
Continuous
 62
     7
370
    15
100
AcDbLine
 10
228.308263094
 20
799.2105672253
 30
0.0
 11
228.4140688624
 21
799.1469151867
 31
0.0
  0
LINE
  5
57
330
1F
100
AcDbEntity
  8
0
  6
Continuous
 62
     7
370
    15
100
AcDbLine
 10
411.3429122042
 20
799.1469151867
 30
0.0
 11
411.4487179726
 21
799.2105672253
 31
0.0
  0
LINE
  5
58
330
1F
100
AcDbEntity
  8
0
  6
Continuous
 62
     7
370
    15
100
AcDbLine
 10
228.4140688624
 20
799.1469151867
 30
0.0
 11
228.5440253643
 21
799.0948064221
 31
0.0
  0
LINE
  5
59
330
1F
100
AcDbEntity
  8
0
  6
Continuous
 62
     7
370
    15
100
AcDbLine
 10
411.2129557023
 20
799.0948064221
 30
0.0
 11
411.3429122042
 21
799.1469151867
 31
0.0
  0
LINE
  5
5A
330
1F
100
AcDbEntity
  8
0
  6
Continuous
 62
     7
370
    15
100
AcDbLine
 10
228.5440253643
 20
799.0948064221
 30
0.0
 11
228.7041551116
 21
799.0571286572
 31
0.0
  0
LINE
  5
5B
330
1F
100
AcDbEntity
  8
0
  6
Continuous
 62
     7
370
    15
100
AcDbLine
 10
411.052825955
 20
799.0571286572
 30
0.0
 11
411.2129557023
 21
799.0948064221
 31
0.0
  0
LINE
  5
5C
330
1F
100
AcDbEntity
  8
0
  6
Continuous
 62
     7
370
    15
100
AcDbLine
 10
228.7041551116
 20
799.0571286572
 30
0.0
 11
228.9004958974
 21
799.0367715252
 31
0.0
  0
LINE
  5
5D
330
1F
100
AcDbEntity
  8
0
  6
Continuous
 62
     7
370
    15
100
AcDbLine
 10
410.8564851692
 20
799.0367715252
 30
0.0
 11
411.052825955
 21
799.0571286572
 31
0.0
  0
LINE
  5
5E
330
1F
100
AcDbEntity
  8
0
  6
Continuous
 62
     7
370
    15
100
AcDbLine
 10
407.7152745396
 20
799.2828809693
 30
0.0
 11
406.7178061832
 21
799.361031215
 31
0.0
  0
LINE
  5
5F
330
1F
100
AcDbEntity
  8
0
  6
Continuous
 62
     7
370
    15
100
AcDbLine
 10
234.1818161224
 20
799.4505555523
 30
0.0
 11
234.030419417
 21
799.4386938329
 31
0.0
  0
LINE
  5
60
330
1F
100
AcDbEntity
  8
0
  6
Continuous
 62
     7
370
    15
100
AcDbLine
 10
234.019070705
 20
799.4378046773
 30
0.0
 11
232.0416965629
 21
799.2828801886
 31
0.0
  0
LINE
  5
61
330
1F
100
AcDbEntity
  8
0
  6
Continuous
 62
     7
370
    15
100
AcDbLine
 10
215.8792930442
 20
859.0392625649
 30
0.0
 11
215.8792930442
 21
803.339085444
 31
0.0
  0
LINE
  5
62
330
1F
100
AcDbEntity
  8
0
  6
Continuous
 62
     7
370
    15
100
AcDbLine
 10
423.8802469127
 20
803.3390871922
 30
0.0
 11
423.8802872676
 21
859.0391872162
 31
0.0
  0
LINE
  5
63
330
1F
100
AcDbEntity
  8
0
  6
Continuous
 62
     7
370
    15
100
AcDbLine
 10
228.1449102014
 20
799.3609654999
 30
0.0
 11
228.220548072
 21
799.282880496
 31
0.0
  0
LINE
  5
64
330
1F
100
AcDbEntity
  8
0
  6
Continuous
 62
     7
370
    15
100
AcDbLine
 10
411.5386022299
 20
799.2828805344
 30
0.0
 11
411.6142400695
 21
799.360965503
 31
0.0
  0
LINE
  5
65
330
1F
100
AcDbEntity
  8
0
  6
Continuous
 62
     7
370
    15
100
AcDbLine
 10
225.3056160265
 20
906.3329264186
 30
0.0
 11
224.9044548331
 21
906.3329187894
 31
0.0
  0
LINE
  5
66
330
1F
100
AcDbEntity
  8
0
  6
Continuous
 62
     7
370
    15
100
AcDbLine
 10
232.2484945052
 20
906.3334040125
 30
0.0
 11
225.3056160265
 21
906.3329264186
 31
0.0
  0
LINE
  5
67
330
1F
100
AcDbEntity
  8
0
  6
Continuous
 62
     7
370
    15
100
AcDbLine
 10
281.6482366307
 20
906.3367822064
 30
0.0
 11
281.2470716227
 21
906.336774577
 31
0.0
  0
LINE
  5
68
330
1F
100
AcDbEntity
  8
0
  6
Continuous
 62
     7
370
    15
100
AcDbLine
 10
283.1779073432
 20
906.3368277874
 30
0.0
 11
281.6482366307
 21
906.3367822064
 31
0.0
  0
LINE
  5
69
330
1F
100
AcDbEntity
  8
0
  6
Continuous
 62
     7
370
    15
100
AcDbLine
 10
283.7921727836
 20
906.3368504158
 30
0.0
 11
283.1779073432
 21
906.3368277874
 31
0.0
  0
LINE
  5
6A
330
1F
100
AcDbEntity
  8
0
  6
Continuous
 62
     7
370
    15
100
AcDbLine
 10
282.6347540474
 20
906.3367669476
 30
0.0
 11
283.7921727836
 21
906.3368504158
 31
0.0
  0
LINE
  5
6B
330
1F
100
AcDbEntity
  8
0
  6
Continuous
 62
     7
370
    15
100
AcDbLine
 10
232.8627601774
 20
906.3331559307
 30
0.0
 11
232.2484947369
 21
906.3331333023
 31
0.0
  0
LINE
  5
6C
330
1F
100
AcDbEntity
  8
0
  6
Continuous
 62
     7
370
    15
100
AcDbLine
 10
284.4064382241
 20
906.3368730441
 30
0.0
 11
282.9352413807
 21
906.3367669476
 31
0.0
  0
LINE
  5
6D
330
1F
100
AcDbEntity
  8
0
  6
Continuous
 62
     7
370
    15
100
AcDbLine
 10
242.5767644637
 20
906.3338564638
 30
0.0
 11
232.8627601774
 21
906.3331559307
 31
0.0
  0
LINE
  5
6E
330
1F
100
AcDbEntity
  8
0
  6
Continuous
 62
     7
370
    15
100
AcDbLine
 10
285.0207036645
 20
906.3368956725
 30
0.0
 11
284.4064382241
 21
906.3368730441
 31
0.0
  0
LINE
  5
6F
330
1F
100
AcDbEntity
  8
0
  6
Continuous
 62
     7
370
    15
100
AcDbLine
 10
287.1609052269
 20
906.3369852824
 30
0.0
 11
285.0207036645
 21
906.3368956725
 31
0.0
  0
LINE
  5
70
330
1F
100
AcDbEntity
  8
0
  6
Continuous
 62
     7
370
    15
100
AcDbLine
 10
287.9673513
 20
906.337022139
 30
0.0
 11
287.1609052269
 21
906.3369852824
 31
0.0
  0
LINE
  5
71
330
1F
100
AcDbEntity
  8
0
  6
Continuous
 62
     7
370
    15
100
AcDbLine
 10
284.5673685394
 20
906.3367630063
 30
0.0
 11
287.9673513
 21
906.337022139
 31
0.0
  0
LINE
  5
72
330
1F
100
AcDbEntity
  8
0
  6
Continuous
 62
     7
370
    15
100
AcDbLine
 10
243.3832145558
 20
906.3335995117
 30
0.0
 11
242.576764668
 21
906.3335626549
 31
0.0
  0
LINE
  5
73
330
1F
100
AcDbEntity
  8
0
  6
Continuous
 62
     7
370
    15
100
AcDbLine
 10
288.7738011878
 20
906.3370589958
 30
0.0
 11
284.8913632558
 21
906.3367630924
 31
0.0
  0
LINE
  5
74
330
1F
100
AcDbEntity
  8
0
  6
Continuous
 62
     7
370
    15
100
AcDbLine
 10
255.5373815292
 20
906.3345258524
 30
0.0
 11
243.3832145558
 21
906.3335995117
 31
0.0
  0
LINE
  5
75
330
1F
100
AcDbEntity
  8
0
  6
Continuous
 62
     7
370
    15
100
AcDbLine
 10
289.5802510756
 20
906.3370958527
 30
0.0
 11
288.7738011878
 21
906.3370589958
 31
0.0
  0
LINE
  5
76
330
1F
100
AcDbEntity
  8
0
  6
Continuous
 62
     7
370
    15
100
AcDbLine
 10
292.2580998832
 20
906.3372264398
 30
0.0
 11
289.5802510756
 21
906.3370958527
 31
0.0
  0
LINE
  5
77
330
1F
100
AcDbEntity
  8
0
  6
Continuous
 62
     7
370
    15
100
AcDbLine
 10
293.2292683981
 20
906.3372762699
 30
0.0
 11
292.2580998832
 21
906.3372264398
 31
0.0
  0
LINE
  5
78
330
1F
100
AcDbEntity
  8
0
  6
Continuous
 62
     7
370
    15
100
AcDbLine
 10
286.9641760436
 20
906.3367636432
 30
0.0
 11
293.2292683981
 21
906.3372762699
 31
0.0
  0
LINE
  5
79
330
1F
100
AcDbEntity
  8
0
  6
Continuous
 62
     7
370
    15
100
AcDbLine
 10
256.508546393
 20
906.3342420484
 30
0.0
 11
255.5373816928
 21
906.3341922185
 31
0.0
  0
LINE
  5
7A
330
1F
100
AcDbEntity
  8
0
  6
Continuous
 62
     7
370
    15
100
AcDbLine
 10
294.2004330982
 20
906.3373260997
 30
0.0
 11
287.5159658187
 21
906.3367791586
 31
0.0
  0
LINE
  5
7B
330
1F
100
AcDbEntity
  8
0
  6
Continuous
 62
     7
370
    15
100
AcDbLine
 10
270.6891034835
 20
906.3354023396
 30
0.0
 11
256.508546393
 21
906.3342420484
 31
0.0
  0
LINE
  5
7C
330
1F
100
AcDbEntity
  8
0
  6
Continuous
 62
     7
370
    15
100
AcDbLine
 10
295.1715977984
 20
906.3373759295
 30
0.0
 11
294.2004330982
 21
906.3373260997
 31
0.0
  0
LINE
  5
7D
330
1F
100
AcDbEntity
  8
0
  6
Continuous
 62
     7
370
    15
100
AcDbLine
 10
298.2958958835
 20
906.3375430465
 30
0.0
 11
295.1715977984
 21
906.3373759295
 31
0.0
  0
LINE
  5
7E
330
1F
100
AcDbEntity
  8
0
  6
Continuous
 62
     7
370
    15
100
AcDbLine
 10
299.3987096008
 20
906.3376041527
 30
0.0
 11
298.2958958835
 21
906.3375430465
 31
0.0
  0
LINE
  5
7F
330
1F
100
AcDbEntity
  8
0
  6
Continuous
 62
     7
370
    15
100
AcDbLine
 10
290.1397884415
 20
906.3367644871
 30
0.0
 11
299.3987096008
 21
906.3376041527
 31
0.0
  0
LINE
  5
80
330
1F
100
AcDbEntity
  8
0
  6
Continuous
 62
     7
370
    15
100
AcDbLine
 10
271.7919173125
 20
906.3350616651
 30
0.0
 11
270.6891035957
 21
906.3350005589
 31
0.0
  0
LINE
  5
81
330
1F
100
AcDbEntity
  8
0
  6
Continuous
 62
     7
370
    15
100
AcDbLine
 10
300.5015233176
 20
906.3376652589
 30
0.0
 11
290.5668091647
 21
906.3367643075
 31
0.0
  0
LINE
  5
82
330
1F
100
AcDbEntity
  8
0
  6
Continuous
 62
     7
370
    15
100
AcDbLine
 10
287.5159658187
 20
906.3364876351
 30
0.0
 11
271.7919173125
 21
906.3350616651
 31
0.0
  0
LINE
  5
83
330
1F
100
AcDbEntity
  8
0
  6
Continuous
 62
     7
370
    15
100
AcDbLine
 10
301.6043370344
 20
906.3377263652
 30
0.0
 11
300.5015233176
 21
906.3376652589
 31
0.0
  0
LINE
  5
84
330
1F
100
AcDbEntity
  8
0
  6
Continuous
 62
     7
370
    15
100
AcDbLine
 10
305.0687001199
 20
906.3379243217
 30
0.0
 11
301.6043370344
 21
906.3377263652
 31
0.0
  0
LINE
  5
85
330
1F
100
AcDbEntity
  8
0
  6
Continuous
 62
     7
370
    15
100
AcDbLine
 10
306.2656071589
 20
906.3379946234
 30
0.0
 11
305.0687001199
 21
906.3379243217
 31
0.0
  0
LINE
  5
86
330
1F
100
AcDbEntity
  8
0
  6
Continuous
 62
     7
370
    15
100
AcDbLine
 10
294.9087983785
 20
906.3367623264
 30
0.0
 11
306.2656071589
 21
906.3379946234
 31
0.0
  0
LINE
  5
87
330
1F
100
AcDbEntity
  8
0
  6
Continuous
 62
     7
370
    15
100
AcDbLine
 10
288.7128729086
 20
906.3360304515
 30
0.0
 11
287.5159658697
 21
906.3359601499
 31
0.0
  0
LINE
  5
88
330
1F
100
AcDbEntity
  8
0
  6
Continuous
 62
     7
370
    15
100
AcDbLine
 10
307.4625065685
 20
906.3380649245
 30
0.0
 11
288.7128729086
 21
906.3360304515
 31
0.0
  0
LINE
  5
89
330
1F
100
AcDbEntity
  8
0
  6
Continuous
 62
     7
370
    15
100
AcDbLine
 10
308.6594136074
 20
906.3381352262
 30
0.0
 11
307.4625065685
 21
906.3380649245
 31
0.0
  0
LINE
  5
8A
330
1F
100
AcDbEntity
  8
0
  6
Continuous
 62
     7
370
    15
100
AcDbLine
 10
312.3458607368
 20
906.3383572806
 30
0.0
 11
308.6594136074
 21
906.3381352262
 31
0.0
  0
LINE
  5
8B
330
1F
100
AcDbEntity
  8
0
  6
Continuous
 62
     7
370
    15
100
AcDbLine
 10
313.5960972432
 20
906.3384343834
 30
0.0
 11
312.3458607368
 21
906.3383572806
 31
0.0
  0
LINE
  5
8C
330
1F
100
AcDbEntity
  8
0
  6
Continuous
 62
     7
370
    15
100
AcDbLine
 10
305.4447377736
 20
906.3370383007
 30
0.0
 11
313.5960972432
 21
906.3384343834
 31
0.0
  0
LINE
  5
8D
330
1F
100
AcDbEntity
  8
0
  6
Continuous
 62
     7
370
    15
100
AcDbLine
 10
306.6949742799
 20
906.3371154034
 30
0.0
 11
305.4447377736
 21
906.3370383007
 31
0.0
  0
LINE
  5
8E
330
1F
100
AcDbEntity
  8
0
  6
Continuous
 62
     7
370
    15
100
AcDbLine
 10
314.8463413789
 20
906.3385114866
 30
0.0
 11
306.6949742799
 21
906.3371154034
 31
0.0
  0
LINE
  5
8F
330
1F
100
AcDbEntity
  8
0
  6
Continuous
 62
     7
370
    15
100
AcDbLine
 10
316.0965778852
 20
906.3385885894
 30
0.0
 11
314.8463413789
 21
906.3385114866
 31
0.0
  0
LINE
  5
90
330
1F
100
AcDbEntity
  8
0
  6
Continuous
 62
     7
370
    15
100
AcDbLine
 10
319.8795750013
 20
906.3388271801
 30
0.0
 11
316.0965778852
 21
906.3385885894
 31
0.0
  0
LINE
  5
91
330
1F
100
AcDbEntity
  8
0
  6
Continuous
 62
     7
370
    15
100
AcDbLine
 10
321.140576583
 20
906.3389084591
 30
0.0
 11
319.8795750013
 21
906.3388271801
 31
0.0
  0
LINE
  5
92
330
1F
100
AcDbEntity
  8
0
  6
Continuous
 62
     7
370
    15
100
AcDbLine
 10
323.865247038
 20
906.3381983186
 30
0.0
 11
321.140576583
 21
906.3389084591
 31
0.0
  0
LINE
  5
93
330
1F
100
AcDbEntity
  8
0
  6
Continuous
 62
     7
370
    15
100
AcDbLine
 10
325.1262409903
 20
906.3382795971
 30
0.0
 11
323.865247038
 21
906.3381983186
 31
0.0
  0
LINE
  5
94
330
1F
100
AcDbEntity
  8
0
  6
Continuous
 62
     7
370
    15
100
AcDbLine
 10
322.4015705354
 20
906.3389897376
 30
0.0
 11
325.1262409903
 21
906.3382795971
 31
0.0
  0
LINE
  5
95
330
1F
100
AcDbEntity
  8
0
  6
Continuous
 62
     7
370
    15
100
AcDbLine
 10
323.6625721171
 20
906.3390710166
 30
0.0
 11
322.4015705354
 21
906.3389897376
 31
0.0
  0
LINE
  5
96
330
1F
100
AcDbEntity
  8
0
  6
Continuous
 62
     7
370
    15
100
AcDbLine
 10
327.4132892645
 20
906.3393180183
 30
0.0
 11
323.6625721171
 21
906.3390710166
 31
0.0
  0
LINE
  5
97
330
1F
100
AcDbEntity
  8
0
  6
Continuous
 62
     7
370
    15
100
AcDbLine
 10
328.6421024306
 20
906.3394007049
 30
0.0
 11
327.4132892645
 21
906.3393180183
 31
0.0
  0
LINE
  5
98
330
1F
100
AcDbEntity
  8
0
  6
Continuous
 62
     7
370
    15
100
AcDbLine
 10
342.150281141
 20
906.3394007071
 30
0.0
 11
328.6421024306
 21
906.3394007049
 31
0.0
  0
LINE
  5
99
330
1F
100
AcDbEntity
  8
0
  6
Continuous
 62
     7
370
    15
100
AcDbLine
 10
343.3791019365
 20
906.3394833942
 30
0.0
 11
342.150281141
 21
906.3394007071
 31
0.0
  0
LINE
  5
9A
330
1F
100
AcDbEntity
  8
0
  6
Continuous
 62
     7
370
    15
100
AcDbLine
 10
329.8709232261
 20
906.339483392
 30
0.0
 11
343.3791019365
 21
906.3394833942
 31
0.0
  0
LINE
  5
9B
330
1F
100
AcDbEntity
  8
0
  6
Continuous
 62
     7
370
    15
100
AcDbLine
 10
331.0997363922
 20
906.3395660786
 30
0.0
 11
329.8709232261
 21
906.339483392
 31
0.0
  0
LINE
  5
9C
330
1F
100
AcDbEntity
  8
0
  6
Continuous
 62
     7
370
    15
100
AcDbLine
 10
334.6904575068
 20
906.3398130806
 30
0.0
 11
331.0997363922
 21
906.3395660786
 31
0.0
  0
LINE
  5
9D
330
1F
100
AcDbEntity
  8
0
  6
Continuous
 62
     7
370
    15
100
AcDbLine
 10
335.8452426579
 20
906.3398943594
 30
0.0
 11
334.6904575068
 21
906.3398130806
 31
0.0
  0
LINE
  5
9E
330
1F
100
AcDbEntity
  8
0
  6
Continuous
 62
     7
370
    15
100
AcDbLine
 10
359.6764346287
 20
906.3406044715
 30
0.0
 11
335.8452426579
 21
906.3398943594
 31
0.0
  0
LINE
  5
9F
330
1F
100
AcDbEntity
  8
0
  6
Continuous
 62
     7
370
    15
100
AcDbLine
 10
360.8312197798
 20
906.3406857502
 30
0.0
 11
359.6764346287
 21
906.3406044715
 31
0.0
  0
LINE
  5
A0
330
1F
100
AcDbEntity
  8
0
  6
Continuous
 62
     7
370
    15
100
AcDbLine
 10
337.0000278089
 20
906.3399756381
 30
0.0
 11
360.8312197798
 21
906.3406857502
 31
0.0
  0
LINE
  5
A1
330
1F
100
AcDbEntity
  8
0
  6
Continuous
 62
     7
370
    15
100
AcDbLine
 10
338.15481296
 20
906.3400569169
 30
0.0
 11
337.0000278089
 21
906.3399756381
 31
0.0
  0
LINE
  5
A2
330
1F
100
AcDbEntity
  8
0
  6
Continuous
 62
     7
370
    15
100
AcDbLine
 10
341.4632541064
 20
906.3402955077
 30
0.0
 11
338.15481296
 21
906.3400569169
 31
0.0
  0
LINE
  5
A3
330
1F
100
AcDbEntity
  8
0
  6
Continuous
 62
     7
370
    15
100
AcDbLine
 10
342.5046817138
 20
906.3403726105
 30
0.0
 11
341.4632541064
 21
906.3402955077
 31
0.0
  0
LINE
  5
A4
330
1F
100
AcDbEntity
  8
0
  6
Continuous
 62
     7
370
    15
100
AcDbLine
 10
375.8477602381
 20
906.3417686793
 30
0.0
 11
342.5046817138
 21
906.3403726105
 31
0.0
  0
LINE
  5
A5
330
1F
100
AcDbEntity
  8
0
  6
Continuous
 62
     7
370
    15
100
AcDbLine
 10
376.8891878455
 20
906.3418457821
 30
0.0
 11
375.8477602381
 21
906.3417686793
 31
0.0
  0
LINE
  5
A6
330
1F
100
AcDbEntity
  8
0
  6
Continuous
 62
     7
370
    15
100
AcDbLine
 10
343.5461169506
 20
906.3404497138
 30
0.0
 11
376.8891878455
 21
906.3418457821
 31
0.0
  0
LINE
  5
A7
330
1F
100
AcDbEntity
  8
0
  6
Continuous
 62
     7
370
    15
100
AcDbLine
 10
344.5875521874
 20
906.3405268171
 30
0.0
 11
343.5461169506
 21
906.3404497138
 31
0.0
  0
LINE
  5
A8
330
1F
100
AcDbEntity
  8
0
  6
Continuous
 62
     7
370
    15
100
AcDbLine
 10
347.501050098
 20
906.3407488715
 30
0.0
 11
344.5875521874
 21
906.3405268171
 31
0.0
  0
LINE
  5
A9
330
1F
100
AcDbEntity
  8
0
  6
Continuous
 62
     7
370
    15
100
AcDbLine
 10
348.3936587361
 20
906.340819173
 30
0.0
 11
347.501050098
 21
906.3407488715
 31
0.0
  0
LINE
  5
AA
330
1F
100
AcDbEntity
  8
0
  6
Continuous
 62
     7
370
    15
100
AcDbLine
 10
390.1128663701
 20
906.3428536352
 30
0.0
 11
348.3936587361
 21
906.340819173
 31
0.0
  0
LINE
  5
AB
330
1F
100
AcDbEntity
  8
0
  6
Continuous
 62
     7
370
    15
100
AcDbLine
 10
391.0054902674
 20
906.3429239375
 30
0.0
 11
390.1128663701
 21
906.3428536352
 31
0.0
  0
LINE
  5
AC
330
1F
100
AcDbEntity
  8
0
  6
Continuous
 62
     7
370
    15
100
AcDbLine
 10
349.2862750036
 20
906.3408894748
 30
0.0
 11
391.0054902674
 21
906.3429239375
 31
0.0
  0
LINE
  5
AD
330
1F
100
AcDbEntity
  8
0
  6
Continuous
 62
     7
370
    15
100
AcDbLine
 10
350.1788912711
 20
906.3409597767
 30
0.0
 11
349.2862750036
 21
906.3408894748
 31
0.0
  0
LINE
  5
AE
330
1F
100
AcDbEntity
  8
0
  6
Continuous
 62
     7
370
    15
100
AcDbLine
 10
352.5982332995
 20
906.3411577335
 30
0.0
 11
350.1788912711
 21
906.3409597767
 31
0.0
  0
LINE
  5
AF
330
1F
100
AcDbEntity
  8
0
  6
Continuous
 62
     7
370
    15
100
AcDbLine
 10
353.3116274606
 20
906.3412188395
 30
0.0
 11
352.5982332995
 21
906.3411577335
 31
0.0
  0
LINE
  5
B0
330
1F
100
AcDbEntity
  8
0
  6
Continuous
 62
     7
370
    15
100
AcDbLine
 10
401.9864625002
 20
906.343822429
 30
0.0
 11
353.3116274606
 21
906.3412188395
 31
0.0
  0
LINE
  5
B1
330
1F
100
AcDbEntity
  8
0
  6
Continuous
 62
     7
370
    15
100
AcDbLine
 10
402.6998719201
 20
906.3438835361
 30
0.0
 11
401.9864625002
 21
906.343822429
 31
0.0
  0
LINE
  5
B2
330
1F
100
AcDbEntity
  8
0
  6
Continuous
 62
     7
370
    15
100
AcDbLine
 10
354.0250292517
 20
906.3412799461
 30
0.0
 11
402.6998719201
 21
906.3438835361
 31
0.0
  0
LINE
  5
B3
330
1F
100
AcDbEntity
  8
0
  6
Continuous
 62
     7
370
    15
100
AcDbLine
 10
354.7384310422
 20
906.3413410526
 30
0.0
 11
354.0250292517
 21
906.3412799461
 31
0.0
  0
LINE
  5
B4
330
1F
100
AcDbEntity
  8
0
  6
Continuous
 62
     7
370
    15
100
AcDbLine
 10
356.5812197278
 20
906.3415081698
 30
0.0
 11
354.7384310422
 21
906.3413410526
 31
0.0
  0
LINE
  5
B5
330
1F
100
AcDbEntity
  8
0
  6
Continuous
 62
     7
370
    15
100
AcDbLine
 10
357.0911150494
 20
906.3415580002
 30
0.0
 11
356.5812197278
 21
906.3415081698
 31
0.0
  0
LINE
  5
B6
330
1F
100
AcDbEntity
  8
0
  6
Continuous
 62
     7
370
    15
100
AcDbLine
 10
411.06393132
 20
906.3446420484
 30
0.0
 11
357.0911150494
 21
906.3415580002
 31
0.0
  0
LINE
  5
B7
330
1F
100
AcDbEntity
  8
0
  6
Continuous
 62
     7
370
    15
100
AcDbLine
 10
411.5738190121
 20
906.3446918782
 30
0.0
 11
411.06393132
 21
906.3446420484
 31
0.0
  0
LINE
  5
B8
330
1F
100
AcDbEntity
  8
0
  6
Continuous
 62
     7
370
    15
100
AcDbLine
 10
357.6010027415
 20
906.3416078301
 30
0.0
 11
411.5738190121
 21
906.3446918782
 31
0.0
  0
LINE
  5
B9
330
1F
100
AcDbEntity
  8
0
  6
Continuous
 62
     7
370
    15
100
AcDbLine
 10
358.110898063
 20
906.3416576605
 30
0.0
 11
357.6010027415
 21
906.3416078301
 31
0.0
  0
LINE
  5
BA
330
1F
100
AcDbEntity
  8
0
  6
Continuous
 62
     7
370
    15
100
AcDbLine
 10
359.3143892651
 20
906.3417882477
 30
0.0
 11
358.110898063
 21
906.3416576605
 31
0.0
  0
LINE
  5
BB
330
1F
100
AcDbEntity
  8
0
  6
Continuous
 62
     7
370
    15
100
AcDbLine
 10
359.6034059864
 20
906.3418251046
 30
0.0
 11
359.3143892651
 21
906.3417882477
 31
0.0
  0
LINE
  5
BC
330
1F
100
AcDbEntity
  8
0
  6
Continuous
 62
     7
370
    15
100
AcDbLine
 10
417.0361908
 20
906.3452845825
 30
0.0
 11
359.6034059864
 21
906.3418251046
 31
0.0
  0
LINE
  5
BD
330
1F
100
AcDbEntity
  8
0
  6
Continuous
 62
     7
370
    15
100
AcDbLine
 10
417.3252075218
 20
906.3453214393
 30
0.0
 11
417.0361908
 21
906.3452845825
 31
0.0
  0
LINE
  5
BE
330
1F
100
AcDbEntity
  8
0
  6
Continuous
 62
     7
370
    15
100
AcDbLine
 10
417.0361907989
 20
906.3453040303
 30
0.0
 11
417.3252075218
 21
906.3453214393
 31
0.0
  0
LINE
  5
BF
330
1F
100
AcDbEntity
  8
0
  6
Continuous
 62
     7
370
    15
100
AcDbLine
 10
360.1814470584
 20
906.3418988187
 30
0.0
 11
359.8924303371
 21
906.3418619619
 31
0.0
  0
LINE
  5
C0
330
1F
100
AcDbEntity
  8
0
  6
Continuous
 62
     7
370
    15
100
AcDbLine
 10
360.7046633002
 20
906.3419884294
 30
0.0
 11
360.1814470584
 21
906.3418988187
 31
0.0
  0
LINE
  5
C1
330
1F
100
AcDbEntity
  8
0
  6
Continuous
 62
     7
370
    15
100
AcDbLine
 10
360.7629671318
 20
906.3420110587
 30
0.0
 11
360.7046633002
 21
906.3419884294
 31
0.0
  0
LINE
  5
C2
330
1F
100
AcDbEntity
  8
0
  6
Continuous
 62
     7
370
    15
100
AcDbLine
 10
419.7000243899
 20
906.3457281733
 30
0.0
 11
360.7629671318
 21
906.3420110587
 31
0.0
  0
LINE
  5
C3
330
1F
100
AcDbEntity
  8
0
  6
Continuous
 62
     7
370
    15
100
AcDbLine
 10
419.7583129627
 20
906.3457508016
 30
0.0
 11
419.7000243899
 21
906.3457281733
 31
0.0
  0
LINE
  5
C4
330
1F
100
AcDbEntity
  8
0
  6
Continuous
 62
     7
370
    15
100
AcDbLine
 10
419.7000243887
 20
906.3457471254
 30
0.0
 11
419.7583129627
 21
906.3457508016
 31
0.0
  0
LINE
  5
C5
330
1F
100
AcDbEntity
  8
0
  6
Continuous
 62
     7
370
    15
100
AcDbLine
 10
360.8795747949
 20
906.3420563173
 30
0.0
 11
360.8212709634
 21
906.342033688
 31
0.0
  0
LINE
  5
C6
330
1F
100
AcDbEntity
  8
0
  6
Continuous
 62
     7
370
    15
100
AcDbLine
 10
360.7046709224
 20
906.3421018983
 30
0.0
 11
360.8795747949
 21
906.3420563173
 31
0.0
  0
LINE
  5
C7
330
1F
100
AcDbEntity
  8
0
  6
Continuous
 62
     7
370
    15
100
AcDbLine
 10
360.5302705923
 20
906.3421095278
 30
0.0
 11
360.7046709224
 21
906.3421018983
 31
0.0
  0
LINE
  5
C8
330
1F
100
AcDbEntity
  8
0
  6
Continuous
 62
     7
370
    15
100
AcDbLine
 10
418.9644897073
 20
906.3459576853
 30
0.0
 11
360.5302705923
 21
906.3421095278
 31
0.0
  0
LINE
  5
C9
330
1F
100
AcDbEntity
  8
0
  6
Continuous
 62
     7
370
    15
100
AcDbLine
 10
418.7900970066
 20
906.3459653153
 30
0.0
 11
418.9644897073
 21
906.3459576853
 31
0.0
  0
LINE
  5
CA
330
1F
100
AcDbEntity
  8
0
  6
Continuous
 62
     7
370
    15
100
AcDbLine
 10
360.3558702622
 20
906.3421171573
 30
0.0
 11
360.5302705911
 21
906.3421286424
 31
0.0
  0
LINE
  5
CB
330
1F
100
AcDbEntity
  8
0
  6
Continuous
 62
     7
370
    15
100
AcDbLine
 10
360.1814699322
 20
906.3421247869
 30
0.0
 11
360.3558702622
 21
906.3421171573
 31
0.0
  0
LINE
  5
CC
330
1F
100
AcDbEntity
  8
0
  6
Continuous
 62
     7
370
    15
100
AcDbLine
 10
359.3144197613
 20
906.3421247869
 30
0.0
 11
360.1814699322
 21
906.3421247869
 31
0.0
  0
LINE
  5
CD
330
1F
100
AcDbEntity
  8
0
  6
Continuous
 62
     7
370
    15
100
AcDbLine
 10
358.9132585679
 20
906.3421171577
 30
0.0
 11
359.3144197613
 21
906.3421247869
 31
0.0
  0
LINE
  5
CE
330
1F
100
AcDbEntity
  8
0
  6
Continuous
 62
     7
370
    15
100
AcDbLine
 10
414.8547637552
 20
906.3459653169
 30
0.0
 11
358.9132585679
 21
906.3421171577
 31
0.0
  0
LINE
  5
CF
330
1F
100
AcDbEntity
  8
0
  6
Continuous
 62
     7
370
    15
100
AcDbLine
 10
414.4535949324
 20
906.3459576872
 30
0.0
 11
414.8547637552
 21
906.3459653169
 31
0.0
  0
LINE
  5
D0
330
1F
100
AcDbEntity
  8
0
  6
Continuous
 62
     7
370
    15
100
AcDbLine
 10
358.5120973745
 20
906.3421095285
 30
0.0
 11
358.9132585665
 21
906.342137124
 31
0.0
  0
LINE
  5
D1
330
1F
100
AcDbEntity
  8
0
  6
Continuous
 62
     7
370
    15
100
AcDbLine
 10
358.1109285518
 20
906.3421018989
 30
0.0
 11
358.5120973745
 21
906.3421095285
 31
0.0
  0
LINE
  5
D2
330
1F
100
AcDbEntity
  8
0
  6
Continuous
 62
     7
370
    15
100
AcDbLine
 10
356.5812654688
 20
906.3420563183
 30
0.0
 11
358.1109285518
 21
906.3421018989
 31
0.0
  0
LINE
  5
D3
330
1F
100
AcDbEntity
  8
0
  6
Continuous
 62
     7
370
    15
100
AcDbLine
 10
355.9670000283
 20
906.34203369
 30
0.0
 11
356.5812654688
 21
906.3420563183
 31
0.0
  0
LINE
  5
D4
330
1F
100
AcDbEntity
  8
0
  6
Continuous
 62
     7
370
    15
100
AcDbLine
 10
407.5107696282
 20
906.3457508068
 30
0.0
 11
355.9670000283
 21
906.34203369
 31
0.0
  0
LINE
  5
D5
330
1F
100
AcDbEntity
  8
0
  6
Continuous
 62
     7
370
    15
100
AcDbLine
 10
406.8965118171
 20
906.345728179
 30
0.0
 11
407.5107696282
 21
906.3457508068
 31
0.0
  0
LINE
  5
D6
330
1F
100
AcDbEntity
  8
0
  6
Continuous
 62
     7
370
    15
100
AcDbLine
 10
355.3527345879
 20
906.3420110617
 30
0.0
 11
406.8965118171
 21
906.345728179
 31
0.0
  0
LINE
  5
D7
330
1F
100
AcDbEntity
  8
0
  6
Continuous
 62
     7
370
    15
100
AcDbLine
 10
354.7384767768
 20
906.3419884338
 30
0.0
 11
355.3527345879
 21
906.3420110617
 31
0.0
  0
LINE
  5
D8
330
1F
100
AcDbEntity
  8
0
  6
Continuous
 62
     7
370
    15
100
AcDbLine
 10
352.5982790291
 20
906.3418988242
 30
0.0
 11
354.7384767768
 21
906.3419884338
 31
0.0
  0
LINE
  5
D9
330
1F
100
AcDbEntity
  8
0
  6
Continuous
 62
     7
370
    15
100
AcDbLine
 10
351.7918291413
 20
906.3418619673
 30
0.0
 11
352.5982790291
 21
906.3418988242
 31
0.0
  0
LINE
  5
DA
330
1F
100
AcDbEntity
  8
0
  6
Continuous
 62
     7
370
    15
100
AcDbLine
 10
397.182507326
 20
906.3453214557
 30
0.0
 11
351.7918291413
 21
906.3418619673
 31
0.0
  0
LINE
  5
DB
330
1F
100
AcDbEntity
  8
0
  6
Continuous
 62
     7
370
    15
100
AcDbLine
 10
396.3760650676
 20
906.3452845994
 30
0.0
 11
397.182507326
 21
906.3453214557
 31
0.0
  0
LINE
  5
DC
330
1F
100
AcDbEntity
  8
0
  6
Continuous
 62
     7
370
    15
100
AcDbLine
 10
350.9853792535
 20
906.3418251105
 30
0.0
 11
396.3760650676
 21
906.3452845994
 31
0.0
  0
LINE
  5
DD
330
1F
100
AcDbEntity
  8
0
  6
Continuous
 62
     7
370
    15
100
AcDbLine
 10
350.1789369951
 20
906.3417882541
 30
0.0
 11
350.9853792535
 21
906.3418251105
 31
0.0
  0
LINE
  5
DE
330
1F
100
AcDbEntity
  8
0
  6
Continuous
 62
     7
370
    15
100
AcDbLine
 10
347.5010958169
 20
906.3416576675
 30
0.0
 11
350.1789369951
 21
906.3417882541
 31
0.0
  0
LINE
  5
DF
330
1F
100
AcDbEntity
  8
0
  6
Continuous
 62
     7
370
    15
100
AcDbLine
 10
346.529927302
 20
906.3416078375
 30
0.0
 11
347.5010958169
 21
906.3416576675
 31
0.0
  0
LINE
  5
E0
330
1F
100
AcDbEntity
  8
0
  6
Continuous
 62
     7
370
    15
100
AcDbLine
 10
384.2219208188
 20
906.3446918944
 30
0.0
 11
346.529927302
 21
906.3416078375
 31
0.0
  0
LINE
  5
E1
330
1F
100
AcDbEntity
  8
0
  6
Continuous
 62
     7
370
    15
100
AcDbLine
 10
383.2507446745
 20
906.3446420639
 30
0.0
 11
384.2219208188
 21
906.3446918944
 31
0.0
  0
LINE
  5
E2
330
1F
100
AcDbEntity
  8
0
  6
Continuous
 62
     7
370
    15
100
AcDbLine
 10
345.5587587872
 20
906.3415580075
 30
0.0
 11
383.2507446745
 21
906.3446420639
 31
0.0
  0
LINE
  5
E3
330
1F
100
AcDbEntity
  8
0
  6
Continuous
 62
     7
370
    15
100
AcDbLine
 10
344.5875979017
 20
906.341508178
 30
0.0
 11
345.5587587872
 21
906.3415580075
 31
0.0
  0
LINE
  5
E4
330
1F
100
AcDbEntity
  8
0
  6
Continuous
 62
     7
370
    15
100
AcDbLine
 10
341.4632921872
 20
906.3413410606
 30
0.0
 11
344.5875979017
 21
906.341508178
 31
0.0
  0
LINE
  5
E5
330
1F
100
AcDbEntity
  8
0
  6
Continuous
 62
     7
370
    15
100
AcDbLine
 10
340.3604784704
 20
906.3412799544
 30
0.0
 11
341.4632921872
 21
906.3413410606
 31
0.0
  0
LINE
  5
E6
330
1F
100
AcDbEntity
  8
0
  6
Continuous
 62
     7
370
    15
100
AcDbLine
 10
369.0700196247
 20
906.3438835448
 30
0.0
 11
340.3604784704
 21
906.3412799544
 31
0.0
  0
LINE
  5
E7
330
1F
100
AcDbEntity
  8
0
  6
Continuous
 62
     7
370
    15
100
AcDbLine
 10
367.9671906491
 20
906.3438224377
 30
0.0
 11
369.0700196247
 21
906.3438835448
 31
0.0
  0
LINE
  5
E8
330
1F
100
AcDbEntity
  8
0
  6
Continuous
 62
     7
370
    15
100
AcDbLine
 10
339.2576571242
 20
906.3412188477
 30
0.0
 11
367.9671906491
 21
906.3438224377
 31
0.0
  0
LINE
  5
E9
330
1F
100
AcDbEntity
  8
0
  6
Continuous
 62
     7
370
    15
100
AcDbLine
 10
338.1548434074
 20
906.3411577416
 30
0.0
 11
339.2576571242
 21
906.3412188477
 31
0.0
  0
LINE
  5
EA
330
1F
100
AcDbEntity
  8
0
  6
Continuous
 62
     7
370
    15
100
AcDbLine
 10
334.6904803219
 20
906.3409597852
 30
0.0
 11
338.1548434074
 21
906.3411577416
 31
0.0
  0
LINE
  5
EB
330
1F
100
AcDbEntity
  8
0
  6
Continuous
 62
     7
370
    15
100
AcDbLine
 10
333.4935732829
 20
906.3408894836
 30
0.0
 11
334.6904803219
 21
906.3409597852
 31
0.0
  0
LINE
  5
EC
330
1F
100
AcDbEntity
  8
0
  6
Continuous
 62
     7
370
    15
100
AcDbLine
 10
352.2431611654
 20
906.3429239539
 30
0.0
 11
333.4935732829
 21
906.3408894836
 31
0.0
  0
LINE
  5
ED
330
1F
100
AcDbEntity
  8
0
  6
Continuous
 62
     7
370
    15
100
AcDbLine
 10
351.0462541264
 20
906.3428536523
 30
0.0
 11
352.2431611654
 21
906.3429239539
 31
0.0
  0
LINE
  5
EE
330
1F
100
AcDbEntity
  8
0
  6
Continuous
 62
     7
370
    15
100
AcDbLine
 10
332.2966586145
 20
906.3408191814
 30
0.0
 11
351.0462541264
 21
906.3428536523
 31
0.0
  0
LINE
  5
EF
330
1F
100
AcDbEntity
  8
0
  6
Continuous
 62
     7
370
    15
100
AcDbLine
 10
331.0997515756
 20
906.3407488798
 30
0.0
 11
332.2966586145
 21
906.3408191814
 31
0.0
  0
LINE
  5
F0
330
1F
100
AcDbEntity
  8
0
  6
Continuous
 62
     7
370
    15
100
AcDbLine
 10
327.4132968168
 20
906.340526825
 30
0.0
 11
331.0997515756
 21
906.3407488798
 31
0.0
  0
LINE
  5
F1
330
1F
100
AcDbEntity
  8
0
  6
Continuous
 62
     7
370
    15
100
AcDbLine
 10
326.1630526811
 20
906.3404497217
 30
0.0
 11
327.4132968168
 21
906.340526825
 31
0.0
  0
LINE
  5
F2
330
1F
100
AcDbEntity
  8
0
  6
Continuous
 62
     7
370
    15
100
AcDbLine
 10
334.3144045203
 20
906.3418458039
 30
0.0
 11
326.1630526811
 21
906.3404497217
 31
0.0
  0
LINE
  5
F3
330
1F
100
AcDbEntity
  8
0
  6
Continuous
 62
     7
370
    15
100
AcDbLine
 10
333.0641603846
 20
906.3417687008
 30
0.0
 11
334.3144045203
 21
906.3418458039
 31
0.0
  0
LINE
  5
F4
330
1F
100
AcDbEntity
  8
0
  6
Continuous
 62
     7
370
    15
100
AcDbLine
 10
324.9128085454
 20
906.3403726185
 30
0.0
 11
333.0641603846
 21
906.3417687008
 31
0.0
  0
LINE
  5
F5
330
1F
100
AcDbEntity
  8
0
  6
Continuous
 62
     7
370
    15
100
AcDbLine
 10
323.6625644096
 20
906.3402955152
 30
0.0
 11
324.9128085454
 21
906.3403726185
 31
0.0
  0
LINE
  5
F6
330
1F
100
AcDbEntity
  8
0
  6
Continuous
 62
     7
370
    15
100
AcDbLine
 10
319.8795596641
 20
906.340056924
 30
0.0
 11
323.6625644096
 21
906.3402955152
 31
0.0
  0
LINE
  5
F7
330
1F
100
AcDbEntity
  8
0
  6
Continuous
 62
     7
370
    15
100
AcDbLine
 10
318.6185580824
 20
906.339975645
 30
0.0
 11
319.8795596641
 21
906.340056924
 31
0.0
  0
LINE
  5
F8
330
1F
100
AcDbEntity
  8
0
  6
Continuous
 62
     7
370
    15
100
AcDbLine
 10
315.8937197798
 20
906.3406857747
 30
0.0
 11
318.6185580824
 21
906.339975645
 31
0.0
  0
LINE
  5
F9
330
1F
100
AcDbEntity
  8
0
  6
Continuous
 62
     7
370
    15
100
AcDbLine
 10
314.632718198
 20
906.3406044957
 30
0.0
 11
315.8937197798
 21
906.3406857747
 31
0.0
  0
LINE
  5
FA
330
1F
100
AcDbEntity
  8
0
  6
Continuous
 62
     7
370
    15
100
AcDbLine
 10
317.3575565007
 20
906.339894366
 30
0.0
 11
314.632718198
 21
906.3406044957
 31
0.0
  0
LINE
  5
FB
330
1F
100
AcDbEntity
  8
0
  6
Continuous
 62
     7
370
    15
100
AcDbLine
 10
316.0965625483
 20
906.3398130875
 30
0.0
 11
317.3575565007
 21
906.339894366
 31
0.0
  0
LINE
  5
FC
330
1F
100
AcDbEntity
  8
0
  6
Continuous
 62
     7
370
    15
100
AcDbLine
 10
312.3458301422
 20
906.3395660847
 30
0.0
 11
316.0965625483
 21
906.3398130875
 31
0.0
  0
LINE
  5
FD
330
1F
100
AcDbEntity
  8
0
  6
Continuous
 62
     7
370
    15
100
AcDbLine
 10
311.1170093467
 20
906.3394833976
 30
0.0
 11
312.3458301422
 21
906.3395660847
 31
0.0
  0
LINE
  5
FE
330
1F
100
AcDbEntity
  8
0
  6
Continuous
 62
     7
370
    15
100
AcDbLine
 10
297.6090328142
 20
906.3394834089
 30
0.0
 11
311.1170093467
 21
906.3394833976
 31
0.0
  0
LINE
  5
FF
330
1F
100
AcDbEntity
  8
0
  6
Continuous
 62
     7
370
    15
100
AcDbLine
 10
296.3802158334
 20
906.3394007221
 30
0.0
 11
297.6090328142
 21
906.3394834089
 31
0.0
  0
LINE
  5
100
330
1F
100
AcDbEntity
  8
0
  6
Continuous
 62
     7
370
    15
100
AcDbLine
 10
309.8881961806
 20
906.3394007111
 30
0.0
 11
296.3802158334
 21
906.3394007221
 31
0.0
  0
LINE
  5
101
330
1F
100
AcDbEntity
  8
0
  6
Continuous
 62
     7
370
    15
100
AcDbLine
 10
308.6593753851
 20
906.339318024
 30
0.0
 11
309.8881961806
 21
906.3394007111
 31
0.0
  0
LINE
  5
102
330
1F
100
AcDbEntity
  8
0
  6
Continuous
 62
     7
370
    15
100
AcDbLine
 10
305.068646641
 20
906.3390710212
 30
0.0
 11
308.6593753851
 21
906.339318024
 31
0.0
  0
LINE
  5
103
330
1F
100
AcDbEntity
  8
0
  6
Continuous
 62
     7
370
    15
100
AcDbLine
 10
303.91386149
 20
906.3389897425
 30
0.0
 11
305.068646641
 21
906.3390710212
 31
0.0
  0
LINE
  5
104
330
1F
100
AcDbEntity
  8
0
  6
Continuous
 62
     7
370
    15
100
AcDbLine
 10
280.08239486
 20
906.3382796111
 30
0.0
 11
303.91386149
 21
906.3389897425
 31
0.0
  0
LINE
  5
105
330
1F
100
AcDbEntity
  8
0
  6
Continuous
 62
     7
370
    15
100
AcDbLine
 10
278.9276058942
 20
906.3381983321
 30
0.0
 11
280.08239486
 21
906.3382796111
 31
0.0
  0
LINE
  5
106
330
1F
100
AcDbEntity
  8
0
  6
Continuous
 62
     7
370
    15
100
AcDbLine
 10
302.7590763389
 20
906.3389084636
 30
0.0
 11
278.9276058942
 21
906.3381983321
 31
0.0
  0
LINE
  5
107
330
1F
100
AcDbEntity
  8
0
  6
Continuous
 62
     7
370
    15
100
AcDbLine
 10
301.6042911878
 20
906.3388271848
 30
0.0
 11
302.7590763389
 21
906.3389084636
 31
0.0
  0
LINE
  5
108
330
1F
100
AcDbEntity
  8
0
  6
Continuous
 62
     7
370
    15
100
AcDbLine
 10
298.2958424115
 20
906.3385885935
 30
0.0
 11
301.6042911878
 21
906.3388271848
 31
0.0
  0
LINE
  5
109
330
1F
100
AcDbEntity
  8
0
  6
Continuous
 62
     7
370
    15
100
AcDbLine
 10
297.2544071748
 20
906.3385114902
 30
0.0
 11
298.2958424115
 21
906.3385885935
 31
0.0
  0
LINE
  5
10A
330
1F
100
AcDbEntity
  8
0
  6
Continuous
 62
     7
370
    15
100
AcDbLine
 10
263.9112981324
 20
906.337115419
 30
0.0
 11
297.2544071748
 21
906.3385114902
 31
0.0
  0
LINE
  5
10B
330
1F
100
AcDbEntity
  8
0
  6
Continuous
 62
     7
370
    15
100
AcDbLine
 10
262.8698628957
 20
906.3370383155
 30
0.0
 11
263.9112981324
 21
906.337115419
 31
0.0
  0
LINE
  5
10C
330
1F
100
AcDbEntity
  8
0
  6
Continuous
 62
     7
370
    15
100
AcDbLine
 10
296.212971938
 20
906.3384343868
 30
0.0
 11
262.8698628957
 21
906.3370383155
 31
0.0
  0
LINE
  5
10D
330
1F
100
AcDbEntity
  8
0
  6
Continuous
 62
     7
370
    15
100
AcDbLine
 10
295.1715405159
 20
906.3383572837
 30
0.0
 11
296.212971938
 21
906.3384343868
 31
0.0
  0
LINE
  5
10E
330
1F
100
AcDbEntity
  8
0
  6
Continuous
 62
     7
370
    15
100
AcDbLine
 10
292.2580387906
 20
906.3381352287
 30
0.0
 11
295.1715405159
 21
906.3383572837
 31
0.0
  0
LINE
  5
10F
330
1F
100
AcDbEntity
  8
0
  6
Continuous
 62
     7
370
    15
100
AcDbLine
 10
291.3654263378
 20
906.338064927
 30
0.0
 11
292.2580387906
 21
906.3381352287
 31
0.0
  0
LINE
  5
110
330
1F
100
AcDbEntity
  8
0
  6
Continuous
 62
     7
370
    15
100
AcDbLine
 10
264.7487431995
 20
906.3367669476
 30
0.0
 11
291.3654263378
 21
906.338064927
 31
0.0
  0
LINE
  5
111
330
1F
100
AcDbEntity
  8
0
  6
Continuous
 62
     7
370
    15
100
AcDbLine
 10
290.4728100703
 20
906.3379946251
 30
0.0
 11
265.2977559228
 21
906.3367669476
 31
0.0
  0
LINE
  5
112
330
1F
100
AcDbEntity
  8
0
  6
Continuous
 62
     7
370
    15
100
AcDbLine
 10
289.5801976175
 20
906.3379243234
 30
0.0
 11
290.4728100703
 21
906.3379946251
 31
0.0
  0
LINE
  5
113
330
1F
100
AcDbEntity
  8
0
  6
Continuous
 62
     7
370
    15
100
AcDbLine
 10
287.1608555891
 20
906.3377263664
 30
0.0
 11
289.5801976175
 21
906.3379243234
 31
0.0
  0
LINE
  5
114
330
1F
100
AcDbEntity
  8
0
  6
Continuous
 62
     7
370
    15
100
AcDbLine
 10
286.4474576132
 20
906.3376652601
 30
0.0
 11
287.1608555891
 21
906.3377263664
 31
0.0
  0
LINE
  5
115
330
1F
100
AcDbEntity
  8
0
  6
Continuous
 62
     7
370
    15
100
AcDbLine
 10
269.6532654158
 20
906.3367669476
 30
0.0
 11
286.4474576132
 21
906.3376652601
 31
0.0
  0
LINE
  5
116
330
1F
100
AcDbEntity
  8
0
  6
Continuous
 62
     7
370
    15
100
AcDbLine
 10
285.7340596369
 20
906.3376041537
 30
0.0
 11
270.0822671136
 21
906.3367669476
 31
0.0
  0
LINE
  5
117
330
1F
100
AcDbEntity
  8
0
  6
Continuous
 62
     7
370
    15
100
AcDbLine
 10
285.0206616611
 20
906.3375430474
 30
0.0
 11
285.7340596369
 21
906.3376041537
 31
0.0
  0
LINE
  5
118
330
1F
100
AcDbEntity
  8
0
  6
Continuous
 62
     7
370
    15
100
AcDbLine
 10
283.1778691607
 20
906.3373759297
 30
0.0
 11
285.0206616611
 21
906.3375430474
 31
0.0
  0
LINE
  5
119
330
1F
100
AcDbEntity
  8
0
  6
Continuous
 62
     7
370
    15
100
AcDbLine
 10
282.6679814686
 20
906.3373260997
 30
0.0
 11
283.1778691607
 21
906.3373759297
 31
0.0
  0
LINE
  5
11A
330
1F
100
AcDbEntity
  8
0
  6
Continuous
 62
     7
370
    15
100
AcDbLine
 10
272.8824667507
 20
906.3367669476
 30
0.0
 11
282.6679814686
 21
906.3373260997
 31
0.0
  0
LINE
  5
11B
330
1F
100
AcDbEntity
  8
0
  6
Continuous
 62
     7
370
    15
100
AcDbLine
 10
282.1580937765
 20
906.3372762698
 30
0.0
 11
273.2446351828
 21
906.3367669476
 31
0.0
  0
LINE
  5
11C
330
1F
100
AcDbEntity
  8
0
  6
Continuous
 62
     7
370
    15
100
AcDbLine
 10
281.6482060843
 20
906.3372264398
 30
0.0
 11
282.1580937765
 21
906.3372762698
 31
0.0
  0
LINE
  5
11D
330
1F
100
AcDbEntity
  8
0
  6
Continuous
 62
     7
370
    15
100
AcDbLine
 10
280.4447148817
 20
906.3370958523
 30
0.0
 11
281.6482060843
 21
906.3372264398
 31
0.0
  0
LINE
  5
11E
330
1F
100
AcDbEntity
  8
0
  6
Continuous
 62
     7
370
    15
100
AcDbLine
 10
280.1557019751
 20
906.3370589957
 30
0.0
 11
280.4447148817
 21
906.3370958523
 31
0.0
  0
LINE
  5
11F
330
1F
100
AcDbEntity
  8
0
  6
Continuous
 62
     7
370
    15
100
AcDbLine
 10
279.8666890674
 20
906.3370415869
 30
0.0
 11
280.1557019751
 21
906.3370589957
 31
0.0
  0
LINE
  5
120
330
1F
100
AcDbEntity
  8
0
  6
Continuous
 62
     7
370
    15
100
AcDbLine
 10
279.8666890686
 20
906.337022139
 30
0.0
 11
275.6301163595
 21
906.3367669476
 31
0.0
  0
LINE
  5
121
330
1F
100
AcDbEntity
  8
0
  6
Continuous
 62
     7
370
    15
100
AcDbLine
 10
279.577676162
 20
906.3369852824
 30
0.0
 11
279.8666890686
 21
906.337022139
 31
0.0
  0
LINE
  5
122
330
1F
100
AcDbEntity
  8
0
  6
Continuous
 62
     7
370
    15
100
AcDbLine
 10
279.0544751789
 20
906.3368956725
 30
0.0
 11
279.577676162
 21
906.3369852824
 31
0.0
  0
LINE
  5
123
330
1F
100
AcDbEntity
  8
0
  6
Continuous
 62
     7
370
    15
100
AcDbLine
 10
278.996175162
 20
906.336873044
 30
0.0
 11
279.0544751789
 21
906.3368956725
 31
0.0
  0
LINE
  5
124
330
1F
100
AcDbEntity
  8
0
  6
Continuous
 62
     7
370
    15
100
AcDbLine
 10
278.9378789587
 20
906.3368693673
 30
0.0
 11
278.996175162
 21
906.336873044
 31
0.0
  0
LINE
  5
125
330
1F
100
AcDbEntity
  8
0
  6
Continuous
 62
     7
370
    15
100
AcDbLine
 10
278.9378789599
 20
906.3368504158
 30
0.0
 11
277.6144416101
 21
906.3367669476
 31
0.0
  0
LINE
  5
126
330
1F
100
AcDbEntity
  8
0
  6
Continuous
 62
     7
370
    15
100
AcDbLine
 10
220.7946599715
 20
906.3331833667
 30
0.0
 11
220.0008293312
 21
906.3331333004
 31
0.0
  0
LINE
  5
127
330
1F
100
AcDbEntity
  8
0
  6
Continuous
 62
     7
370
    15
100
AcDbLine
 10
278.879578943
 20
906.3368277873
 30
0.0
 11
278.9378789599
 21
906.3368504158
 31
0.0
  0
LINE
  5
128
330
1F
100
AcDbEntity
  8
0
  6
Continuous
 62
     7
370
    15
100
AcDbLine
 10
279.0544828155
 20
906.3367822063
 30
0.0
 11
278.879578943
 21
906.3368277873
 31
0.0
  0
LINE
  5
129
330
1F
100
AcDbEntity
  8
0
  6
Continuous
 62
     7
370
    15
100
AcDbLine
 10
279.2288869603
 20
906.336774577
 30
0.0
 11
279.0544828155
 21
906.3367822063
 31
0.0
  0
LINE
  5
12A
330
1F
100
AcDbEntity
  8
0
  6
Continuous
 62
     7
370
    15
100
AcDbLine
 10
220.9690681759
 20
906.3329187901
 30
0.0
 11
220.7946602164
 21
906.3329264191
 31
0.0
  0
LINE
  5
12B
330
1F
100
AcDbEntity
  8
0
  6
Continuous
 62
     7
370
    15
100
AcDbLine
 10
224.9044545882
 20
906.3331779531
 30
0.0
 11
220.9690681759
 21
906.3329187901
 31
0.0
  0
LINE
  5
12C
330
1F
100
AcDbEntity
  8
0
  6
Continuous
 62
     7
370
    15
100
AcDbLine
 10
220.0008291
 20
859.0392774679
 30
0.0
 11
220.7946599715
 21
859.0392774221
 31
0.0
  0
LINE
  5
12D
330
1F
100
AcDbEntity
  8
0
  6
Continuous
 62
     7
370
    15
100
AcDbLine
 10
220.7946599715
 20
859.0392793576
 30
0.0
 11
220.9690679305
 21
859.0392794879
 31
0.0
  0
LINE
  5
12E
330
1F
100
AcDbEntity
  8
0
  6
Continuous
 62
     7
370
    15
100
AcDbLine
 10
220.9690679305
 20
859.0392794879
 30
0.0
 11
224.9044545882
 21
859.0392791782
 31
0.0
  0
LINE
  5
12F
330
1F
100
AcDbEntity
  8
0
  6
Continuous
 62
     7
370
    15
100
AcDbLine
 10
224.9044545882
 20
859.0392811305
 30
0.0
 11
225.3056157821
 21
859.0392812404
 31
0.0
  0
LINE
  5
130
330
1F
100
AcDbEntity
  8
0
  6
Continuous
 62
     7
370
    15
100
AcDbLine
 10
225.3056157821
 20
859.0392812404
 30
0.0
 11
232.2484945052
 21
859.0392805407
 31
0.0
  0
LINE
  5
131
330
1F
100
AcDbEntity
  8
0
  6
Continuous
 62
     7
370
    15
100
AcDbLine
 10
232.2484945052
 20
859.0392825799
 30
0.0
 11
232.8627599471
 21
859.0392826658
 31
0.0
  0
LINE
  5
132
330
1F
100
AcDbEntity
  8
0
  6
Continuous
 62
     7
370
    15
100
AcDbLine
 10
232.8627599471
 20
859.0392826658
 30
0.0
 11
242.5767644637
 21
859.0392814434
 31
0.0
  0
LINE
  5
133
330
1F
100
AcDbEntity
  8
0
  6
Continuous
 62
     7
370
    15
100
AcDbLine
 10
243.0224431747
 20
859.0392836892
 30
0.0
 11
243.3832143539
 21
859.0392837156
 31
0.0
  0
LINE
  5
134
330
1F
100
AcDbEntity
  8
0
  6
Continuous
 62
     7
370
    15
100
AcDbLine
 10
243.3832143539
 20
859.0392837156
 30
0.0
 11
255.5373815292
 21
859.0392818106
 31
0.0
  0
LINE
  5
135
330
1F
100
AcDbEntity
  8
0
  6
Continuous
 62
     7
370
    15
100
AcDbLine
 10
256.5085462325
 20
859.0392843538
 30
0.0
 11
270.6891034835
 21
859.0392815323
 31
0.0
  0
LINE
  5
136
330
1F
100
AcDbEntity
  8
0
  6
Continuous
 62
     7
370
    15
100
AcDbLine
 10
271.7919172042
 20
859.0392845589
 30
0.0
 11
273.5226720565
 21
859.0392850675
 31
0.0
  0
LINE
  5
137
330
1F
100
AcDbEntity
  8
0
  6
Continuous
 62
     7
370
    15
100
AcDbLine
 10
273.5226720565
 20
859.0392850675
 30
0.0
 11
265.1304944747
 21
859.0392850675
 31
0.0
  0
LINE
  5
138
330
1F
100
AcDbEntity
  8
0
  6
Continuous
 62
     7
370
    15
100
AcDbLine
 10
265.1304944747
 20
859.0392850675
 30
0.0
 11
257.2054113143
 21
859.0392849529
 31
0.0
  0
LINE
  5
139
330
1F
100
AcDbEntity
  8
0
  6
Continuous
 62
     7
370
    15
100
AcDbLine
 10
257.2054113143
 20
859.0392849529
 30
0.0
 11
249.8150457137
 21
859.0392847246
 31
0.0
  0
LINE
  5
13A
330
1F
100
AcDbEntity
  8
0
  6
Continuous
 62
     7
370
    15
100
AcDbLine
 10
249.8150457137
 20
859.0392847246
 30
0.0
 11
243.0224431747
 21
859.0392843847
 31
0.0
  0
LINE
  5
13B
330
1F
100
AcDbEntity
  8
0
  6
Continuous
 62
     7
370
    15
100
AcDbLine
 10
243.0224431747
 20
859.0392843847
 30
0.0
 11
236.8855642074
 21
859.0392839359
 31
0.0
  0
LINE
  5
13C
330
1F
100
AcDbEntity
  8
0
  6
Continuous
 62
     7
370
    15
100
AcDbLine
 10
236.8855642074
 20
859.0392839359
 30
0.0
 11
231.4567540878
 21
859.0392833823
 31
0.0
  0
LINE
  5
13D
330
1F
100
AcDbEntity
  8
0
  6
Continuous
 62
     7
370
    15
100
AcDbLine
 10
231.4567540878
 20
859.0392833823
 30
0.0
 11
226.7823384994
 21
859.0392827283
 31
0.0
  0
LINE
  5
13E
330
1F
100
AcDbEntity
  8
0
  6
Continuous
 62
     7
370
    15
100
AcDbLine
 10
226.7823384994
 20
859.0392827283
 30
0.0
 11
222.9021962875
 21
859.0392819797
 31
0.0
  0
LINE
  5
13F
330
1F
100
AcDbEntity
  8
0
  6
Continuous
 62
     7
370
    15
100
AcDbLine
 10
222.9021962875
 20
859.0392819797
 30
0.0
 11
219.8494390243
 21
859.0392811429
 31
0.0
  0
LINE
  5
140
330
1F
100
AcDbEntity
  8
0
  6
Continuous
 62
     7
370
    15
100
AcDbLine
 10
219.8494390243
 20
859.0392811429
 30
0.0
 11
217.650098204
 21
859.0392802249
 31
0.0
  0
LINE
  5
141
330
1F
100
AcDbEntity
  8
0
  6
Continuous
 62
     7
370
    15
100
AcDbLine
 10
217.650098204
 20
859.0392802249
 30
0.0
 11
216.3229421371
 21
859.0392792336
 31
0.0
  0
LINE
  5
142
330
1F
100
AcDbEntity
  8
0
  6
Continuous
 62
     7
370
    15
100
AcDbLine
 10
216.3229421371
 20
859.0392792336
 30
0.0
 11
215.8792928451
 21
859.0392781775
 31
0.0
  0
LINE
  5
143
330
1F
100
AcDbEntity
  8
0
  6
Continuous
 62
     7
370
    15
100
AcDbLine
 10
215.8792928451
 20
859.0392781775
 30
0.0
 11
216.3229421371
 21
859.0392770655
 31
0.0
  0
LINE
  5
144
330
1F
100
AcDbEntity
  8
0
  6
Continuous
 62
     7
370
    15
100
AcDbLine
 10
422.1090520614
 20
859.0392673595
 30
0.0
 11
419.9096959823
 21
859.0392685543
 31
0.0
  0
LINE
  5
145
330
1F
100
AcDbEntity
  8
0
  6
Continuous
 62
     7
370
    15
100
AcDbLine
 10
419.9096959823
 20
859.0392685543
 30
0.0
 11
416.8569616073
 21
859.0392697754
 31
0.0
  0
LINE
  5
146
330
1F
100
AcDbEntity
  8
0
  6
Continuous
 62
     7
370
    15
100
AcDbLine
 10
416.8569616073
 20
859.0392697754
 30
0.0
 11
412.9768193954
 21
859.0392710122
 31
0.0
  0
LINE
  5
147
330
1F
100
AcDbEntity
  8
0
  6
Continuous
 62
     7
370
    15
100
AcDbLine
 10
412.9768193954
 20
859.0392710122
 30
0.0
 11
408.3023961776
 21
859.0392722544
 31
0.0
  0
LINE
  5
148
330
1F
100
AcDbEntity
  8
0
  6
Continuous
 62
     7
370
    15
100
AcDbLine
 10
408.3023961776
 20
859.0392722544
 30
0.0
 11
402.8735936874
 21
859.0392734913
 31
0.0
  0
LINE
  5
149
330
1F
100
AcDbEntity
  8
0
  6
Continuous
 62
     7
370
    15
100
AcDbLine
 10
402.8735936874
 20
859.0392734913
 30
0.0
 11
396.7367223495
 21
859.0392747124
 31
0.0
  0
LINE
  5
14A
330
1F
100
AcDbEntity
  8
0
  6
Continuous
 62
     7
370
    15
100
AcDbLine
 10
396.7367223495
 20
859.0392747124
 30
0.0
 11
389.9441350692
 21
859.0392759071
 31
0.0
  0
LINE
  5
14B
330
1F
100
AcDbEntity
  8
0
  6
Continuous
 62
     7
370
    15
100
AcDbLine
 10
389.9441350692
 20
859.0392759071
 30
0.0
 11
382.5537542098
 21
859.0392770655
 31
0.0
  0
LINE
  5
14C
330
1F
100
AcDbEntity
  8
0
  6
Continuous
 62
     7
370
    15
100
AcDbLine
 10
382.5537542098
 20
859.0392770655
 30
0.0
 11
374.6286748641
 21
859.0392781774
 31
0.0
  0
LINE
  5
14D
330
1F
100
AcDbEntity
  8
0
  6
Continuous
 62
     7
370
    15
100
AcDbLine
 10
374.6286748641
 20
859.0392781774
 30
0.0
 11
366.2365163558
 21
859.0392792336
 31
0.0
  0
LINE
  5
14E
330
1F
100
AcDbEntity
  8
0
  6
Continuous
 62
     7
370
    15
100
AcDbLine
 10
366.2365163558
 20
859.0392792336
 30
0.0
 11
357.4488118881
 21
859.0392802249
 31
0.0
  0
LINE
  5
14F
330
1F
100
AcDbEntity
  8
0
  6
Continuous
 62
     7
370
    15
100
AcDbLine
 10
357.4488118881
 20
859.0392802249
 30
0.0
 11
348.3406194442
 21
859.0392811428
 31
0.0
  0
LINE
  5
150
330
1F
100
AcDbEntity
  8
0
  6
Continuous
 62
     7
370
    15
100
AcDbLine
 10
348.3406194442
 20
859.0392811428
 30
0.0
 11
338.9895833724
 21
859.0392819797
 31
0.0
  0
LINE
  5
151
330
1F
100
AcDbEntity
  8
0
  6
Continuous
 62
     7
370
    15
100
AcDbLine
 10
338.9895833724
 20
859.0392819797
 30
0.0
 11
329.4755300277
 21
859.0392827283
 31
0.0
  0
LINE
  5
152
330
1F
100
AcDbEntity
  8
0
  6
Continuous
 62
     7
370
    15
100
AcDbLine
 10
329.4755300277
 20
859.0392827283
 30
0.0
 11
319.8795827621
 21
859.0392833822
 31
0.0
  0
LINE
  5
153
330
1F
100
AcDbEntity
  8
0
  6
Continuous
 62
     7
370
    15
100
AcDbLine
 10
319.8795827621
 20
859.0392833822
 30
0.0
 11
310.2836507552
 21
859.0392839359
 31
0.0
  0
LINE
  5
154
330
1F
100
AcDbEntity
  8
0
  6
Continuous
 62
     7
370
    15
100
AcDbLine
 10
310.2836507552
 20
859.0392839359
 30
0.0
 11
300.7695897811
 21
859.0392843847
 31
0.0
  0
LINE
  5
155
330
1F
100
AcDbEntity
  8
0
  6
Continuous
 62
     7
370
    15
100
AcDbLine
 10
300.7695897811
 20
859.0392843847
 30
0.0
 11
291.4185537093
 21
859.0392847246
 31
0.0
  0
LINE
  5
156
330
1F
100
AcDbEntity
  8
0
  6
Continuous
 62
     7
370
    15
100
AcDbLine
 10
291.4185537093
 20
859.0392847246
 30
0.0
 11
282.3103536361
 21
859.0392849529
 31
0.0
  0
LINE
  5
157
330
1F
100
AcDbEntity
  8
0
  6
Continuous
 62
     7
370
    15
100
AcDbLine
 10
282.3103536361
 20
859.0392849529
 30
0.0
 11
287.5159658187
 21
859.0392843538
 31
0.0
  0
LINE
  5
158
330
1F
100
AcDbEntity
  8
0
  6
Continuous
 62
     7
370
    15
100
AcDbLine
 10
288.7128728622
 20
859.0392843238
 30
0.0
 11
305.4447377914
 21
859.0392776314
 31
0.0
  0
LINE
  5
159
330
1F
100
AcDbEntity
  8
0
  6
Continuous
 62
     7
370
    15
100
AcDbLine
 10
306.6949743026
 20
859.0392836566
 30
0.0
 11
314.8463414901
 21
859.0392765424
 31
0.0
  0
LINE
  5
15A
330
1F
100
AcDbEntity
  8
0
  6
Continuous
 62
     7
370
    15
100
AcDbLine
 10
321.1405767196
 20
859.0392761792
 30
0.0
 11
323.8652471298
 21
859.0392826658
 31
0.0
  0
LINE
  5
15B
330
1F
100
AcDbEntity
  8
0
  6
Continuous
 62
     7
370
    15
100
AcDbLine
 10
328.6421025985
 20
859.0392756022
 30
0.0
 11
342.1502813094
 21
859.0392812404
 31
0.0
  0
LINE
  5
15C
330
1F
100
AcDbEntity
  8
0
  6
Continuous
 62
     7
370
    15
100
AcDbLine
 10
343.3791021102
 20
859.0392763436
 30
0.0
 11
359.6764348739
 21
859.0392794879
 31
0.0
  0
LINE
  5
15D
330
1F
100
AcDbEntity
  8
0
  6
Continuous
 62
     7
370
    15
100
AcDbLine
 10
229.6384474415
 20
799.4412099356
 30
0.0
 11
229.6365728194
 21
799.4412111009
 31
0.0
  0
LINE
  5
15E
330
1F
100
AcDbEntity
  8
0
  6
Continuous
 62
     7
370
    15
100
AcDbLine
 10
231.5798676019
 20
799.4397597101
 30
0.0
 11
231.5705608602
 21
799.4397666622
 31
0.0
  0
LINE
  5
15F
330
1F
100
AcDbEntity
  8
0
  6
Continuous
 62
     7
370
    15
100
AcDbLine
 10
230.7249680632
 20
799.4403983133
 30
0.0
 11
229.6384474415
 21
799.4412099356
 31
0.0
  0
LINE
  5
160
330
1F
100
AcDbEntity
  8
0
  6
Continuous
 62
     7
370
    15
100
AcDbLine
 10
234.2746364085
 20
799.4375998402
 30
0.0
 11
234.2488562332
 21
799.4376205031
 31
0.0
  0
LINE
  5
161
330
1F
100
AcDbEntity
  8
0
  6
Continuous
 62
     7
370
    15
100
AcDbLine
 10
231.5928928147
 20
799.4397492703
 30
0.0
 11
231.5798676019
 21
799.4397597101
 31
0.0
  0
LINE
  5
162
330
1F
100
AcDbEntity
  8
0
  6
Continuous
 62
     7
370
    15
100
AcDbLine
 10
237.6997512486
 20
799.4347487639
 30
0.0
 11
237.645031053
 21
799.4347943132
 31
0.0
  0
LINE
  5
163
330
1F
100
AcDbEntity
  8
0
  6
Continuous
 62
     7
370
    15
100
AcDbLine
 10
234.5004377334
 20
799.4374118825
 30
0.0
 11
234.3673146213
 21
799.4375226945
 31
0.0
  0
LINE
  5
164
330
1F
100
AcDbEntity
  8
0
  6
Continuous
 62
     7
370
    15
100
AcDbLine
 10
234.3078183057
 20
799.4375722195
 30
0.0
 11
234.2746364085
 21
799.4375998402
 31
0.0
  0
LINE
  5
165
330
1F
100
AcDbEntity
  8
0
  6
Continuous
 62
     7
370
    15
100
AcDbLine
 10
241.8260068261
 20
799.4312307902
 30
0.0
 11
241.2121293361
 21
799.4317541715
 31
0.0
  0
LINE
  5
166
330
1F
100
AcDbEntity
  8
0
  6
Continuous
 62
     7
370
    15
100
AcDbLine
 10
237.7666391432
 20
799.4346917365
 30
0.0
 11
237.6997512486
 21
799.4347487639
 31
0.0
  0
LINE
  5
167
330
1F
100
AcDbEntity
  8
0
  6
Continuous
 62
     7
370
    15
100
AcDbLine
 10
246.6181782578
 20
799.4270759533
 30
0.0
 11
246.4578681071
 21
799.427214943
 31
0.0
  0
LINE
  5
168
330
1F
100
AcDbEntity
  8
0
  6
Continuous
 62
     7
370
    15
100
AcDbLine
 10
241.9424128601
 20
799.4311298656
 30
0.0
 11
241.8260068261
 21
799.4312307902
 31
0.0
  0
LINE
  5
169
330
1F
100
AcDbEntity
  8
0
  6
Continuous
 62
     7
370
    15
100
AcDbLine
 10
252.0353796444
 20
799.422319701
 30
0.0
 11
251.7936086271
 21
799.4225319737
 31
0.0
  0
LINE
  5
16A
330
1F
100
AcDbEntity
  8
0
  6
Continuous
 62
     7
370
    15
100
AcDbLine
 10
246.8033254785
 20
799.4269133958
 30
0.0
 11
246.6181782578
 21
799.4270759533
 31
0.0
  0
LINE
  5
16B
330
1F
100
AcDbEntity
  8
0
  6
Continuous
 62
     7
370
    15
100
AcDbLine
 10
258.0314188615
 20
799.4170025889
 30
0.0
 11
257.6882462156
 21
799.4173069044
 31
0.0
  0
LINE
  5
16C
330
1F
100
AcDbEntity
  8
0
  6
Continuous
 62
     7
370
    15
100
AcDbLine
 10
252.3094431997
 20
799.4220766694
 30
0.0
 11
252.0353796444
 21
799.422319701
 31
0.0
  0
LINE
  5
16D
330
1F
100
AcDbEntity
  8
0
  6
Continuous
 62
     7
370
    15
100
AcDbLine
 10
264.5551141528
 20
799.4111700037
 30
0.0
 11
264.0918405517
 21
799.4115841988
 31
0.0
  0
LINE
  5
16E
330
1F
100
AcDbEntity
  8
0
  6
Continuous
 62
     7
370
    15
100
AcDbLine
 10
258.4174220782
 20
799.4166574783
 30
0.0
 11
258.0314188615
 21
799.4170025889
 31
0.0
  0
LINE
  5
16F
330
1F
100
AcDbEntity
  8
0
  6
Continuous
 62
     7
370
    15
100
AcDbLine
 10
271.5508243918
 20
799.4048716916
 30
0.0
 11
270.9365149969
 21
799.4054247608
 31
0.0
  0
LINE
  5
170
330
1F
100
AcDbEntity
  8
0
  6
Continuous
 62
     7
370
    15
100
AcDbLine
 10
265.0777463882
 20
799.4106994724
 30
0.0
 11
264.5551141528
 21
799.4111700037
 31
0.0
  0
LINE
  5
171
330
1F
100
AcDbEntity
  8
0
  6
Continuous
 62
     7
370
    15
100
AcDbLine
 10
278.9588496165
 20
799.3981614024
 30
0.0
 11
278.1753511492
 21
799.3988711059
 31
0.0
  0
LINE
  5
172
330
1F
100
AcDbEntity
  8
0
  6
Continuous
 62
     7
370
    15
100
AcDbLine
 10
272.2256713415
 20
799.4042604061
 30
0.0
 11
271.5508243918
 21
799.4048716916
 31
0.0
  0
LINE
  5
173
330
1F
100
AcDbEntity
  8
0
  6
Continuous
 62
     7
370
    15
100
AcDbLine
 10
286.7160032345
 20
799.3910963699
 30
0.0
 11
285.7423563962
 21
799.3919831445
 31
0.0
  0
LINE
  5
174
330
1F
100
AcDbEntity
  8
0
  6
Continuous
 62
     7
370
    15
100
AcDbLine
 10
279.81153853
 20
799.3973847935
 30
0.0
 11
278.9588496165
 21
799.3981614024
 31
0.0
  0
LINE
  5
175
330
1F
100
AcDbEntity
  8
0
  6
Continuous
 62
     7
370
    15
100
AcDbLine
 10
294.7560888603
 20
799.3837368852
 30
0.0
 11
293.5576941768
 21
799.3848338346
 31
0.0
  0
LINE
  5
176
330
1F
100
AcDbEntity
  8
0
  6
Continuous
 62
     7
370
    15
100
AcDbLine
 10
287.7666720605
 20
799.3901346412
 30
0.0
 11
286.7160032345
 21
799.3910963699
 31
0.0
  0
LINE
  5
177
330
1F
100
AcDbEntity
  8
0
  6
Continuous
 62
     7
370
    15
100
AcDbLine
 10
303.0105259246
 20
799.3761457226
 30
0.0
 11
301.6084639935
 21
799.3774351236
 31
0.0
  0
LINE
  5
178
330
1F
100
AcDbEntity
  8
0
  6
Continuous
 62
     7
370
    15
100
AcDbLine
 10
296.0127556659
 20
799.3825811962
 30
0.0
 11
294.7560888603
 21
799.3837368852
 31
0.0
  0
LINE
  5
179
330
1F
100
AcDbEntity
  8
0
  6
Continuous
 62
     7
370
    15
100
AcDbLine
 10
311.4088722882
 20
799.3683876645
 30
0.0
 11
309.7536613177
 21
799.3699166825
 31
0.0
  0
LINE
  5
17A
330
1F
100
AcDbEntity
  8
0
  6
Continuous
 62
     7
370
    15
100
AcDbLine
 10
304.5249042943
 20
799.3747468001
 30
0.0
 11
303.0105259246
 21
799.3761457226
 31
0.0
  0
LINE
  5
17B
330
1F
100
AcDbEntity
  8
0
  6
Continuous
 62
     7
370
    15
100
AcDbLine
 10
319.8794994419
 20
799.3605288788
 30
0.0
 11
317.9697988515
 21
799.3623006399
 31
0.0
  0
LINE
  5
17C
330
1F
100
AcDbEntity
  8
0
  6
Continuous
 62
     7
370
    15
100
AcDbLine
 10
313.1730325024
 20
799.3667509313
 30
0.0
 11
311.4088722882
 21
799.3683876645
 31
0.0
  0
LINE
  5
17D
330
1F
100
AcDbEntity
  8
0
  6
Continuous
 62
     7
370
    15
100
AcDbLine
 10
328.3501265643
 20
799.3526364247
 30
0.0
 11
326.1355268919
 21
799.3546998642
 31
0.0
  0
LINE
  5
17E
330
1F
100
AcDbEntity
  8
0
  6
Continuous
 62
     7
370
    15
100
AcDbLine
 10
321.9290489369
 20
799.3586192238
 30
0.0
 11
319.8794994419
 21
799.3605288788
 31
0.0
  0
LINE
  5
17F
330
1F
100
AcDbEntity
  8
0
  6
Continuous
 62
     7
370
    15
100
AcDbLine
 10
336.7484728342
 20
799.34477765
 30
0.0
 11
334.1884167222
 21
799.3471732293
 31
0.0
  0
LINE
  5
180
330
1F
100
AcDbEntity
  8
0
  6
Continuous
 62
     7
370
    15
100
AcDbLine
 10
330.7464402434
 20
799.3503940678
 30
0.0
 11
328.3501265643
 21
799.3526364247
 31
0.0
  0
LINE
  5
181
330
1F
100
AcDbEntity
  8
0
  6
Continuous
 62
     7
370
    15
100
AcDbLine
 10
345.0029135581
 20
799.3370195772
 30
0.0
 11
341.9615763699
 21
799.3398780283
 31
0.0
  0
LINE
  5
182
330
1F
100
AcDbEntity
  8
0
  6
Continuous
 62
     7
370
    15
100
AcDbLine
 10
339.5389760809
 20
799.3421549493
 30
0.0
 11
336.7484728342
 21
799.34477765
 31
0.0
  0
LINE
  5
183
330
1F
100
AcDbEntity
  8
0
  6
Continuous
 62
     7
370
    15
100
AcDbLine
 10
353.042991339
 20
799.3294284273
 30
0.0
 11
349.3217967045
 21
799.3329418443
 31
0.0
  0
LINE
  5
184
330
1F
100
AcDbEntity
  8
0
  6
Continuous
 62
     7
370
    15
100
AcDbLine
 10
348.5289748694
 20
799.333690398
 30
0.0
 11
345.0029135581
 21
799.3370195772
 31
0.0
  0
LINE
  5
185
330
1F
100
AcDbEntity
  8
0
  6
Continuous
 62
     7
370
    15
100
AcDbLine
 10
360.8001561273
 20
799.3220689224
 30
0.0
 11
353.042991339
 21
799.3294284273
 31
0.0
  0
LINE
  5
186
330
1F
100
AcDbEntity
  8
0
  6
Continuous
 62
     7
370
    15
100
AcDbLine
 10
368.2081695781
 20
799.3150039052
 30
0.0
 11
360.8001561273
 21
799.3220689224
 31
0.0
  0
LINE
  5
187
330
1F
100
AcDbEntity
  8
0
  6
Continuous
 62
     7
370
    15
100
AcDbLine
 10
375.2038832488
 20
799.3082936009
 30
0.0
 11
368.2081695781
 21
799.3150039052
 31
0.0
  0
LINE
  5
188
330
1F
100
AcDbEntity
  8
0
  6
Continuous
 62
     7
370
    15
100
AcDbLine
 10
381.7275895511
 20
799.3019952804
 30
0.0
 11
375.2038832488
 21
799.3082936009
 31
0.0
  0
LINE
  5
189
330
1F
100
AcDbEntity
  8
0
  6
Continuous
 62
     7
370
    15
100
AcDbLine
 10
387.7236168413
 20
799.2961626919
 30
0.0
 11
381.7275895511
 21
799.3019952804
 31
0.0
  0
LINE
  5
18A
330
1F
100
AcDbEntity
  8
0
  6
Continuous
 62
     7
370
    15
100
AcDbLine
 10
393.14081771
 20
799.2908455897
 30
0.0
 11
387.7236168413
 21
799.2961626919
 31
0.0
  0
LINE
  5
18B
330
1F
100
AcDbEntity
  8
0
  6
Continuous
 62
     7
370
    15
100
AcDbLine
 10
400.5371810909
 20
799.2842088691
 30
0.0
 11
393.14081771
 21
799.2908455897
 31
0.0
  0
LINE
  5
18C
330
1F
100
AcDbEntity
  8
0
  6
Continuous
 62
     7
370
    15
100
AcDbLine
 10
394.5730752055
 20
799.2900627712
 30
0.0
 11
400.5371810909
 21
799.2842088691
 31
0.0
  0
LINE
  5
18D
330
1F
100
AcDbEntity
  8
0
  6
Continuous
 62
     7
370
    15
100
AcDbLine
 10
387.9716865225
 20
799.2964842198
 30
0.0
 11
394.5730752055
 21
799.2900627712
 31
0.0
  0
LINE
  5
18E
330
1F
100
AcDbEntity
  8
0
  6
Continuous
 62
     7
370
    15
100
AcDbLine
 10
380.7893657009
 20
799.3034184007
 30
0.0
 11
387.9716865225
 21
799.2964842198
 31
0.0
  0
LINE
  5
18F
330
1F
100
AcDbEntity
  8
0
  6
Continuous
 62
     7
370
    15
100
AcDbLine
 10
373.0873614578
 20
799.3108061804
 30
0.0
 11
380.7893657009
 21
799.3034184007
 31
0.0
  0
LINE
  5
190
330
1F
100
AcDbEntity
  8
0
  6
Continuous
 62
     7
370
    15
100
AcDbLine
 10
364.9314543848
 20
799.3185844635
 30
0.0
 11
373.0873614578
 21
799.3108061804
 31
0.0
  0
LINE
  5
191
330
1F
100
AcDbEntity
  8
0
  6
Continuous
 62
     7
370
    15
100
AcDbLine
 10
356.3911329387
 20
799.3266869775
 30
0.0
 11
364.9314543848
 21
799.3185844635
 31
0.0
  0
LINE
  5
192
330
1F
100
AcDbEntity
  8
0
  6
Continuous
 62
     7
370
    15
100
AcDbLine
 10
347.5393340668
 20
799.3350445249
 30
0.0
 11
356.3911329387
 21
799.3266869775
 31
0.0
  0
LINE
  5
193
330
1F
100
AcDbEntity
  8
0
  6
Continuous
 62
     7
370
    15
100
AcDbLine
 10
338.4515353065
 20
799.3435858431
 30
0.0
 11
347.5393340668
 21
799.3350445249
 31
0.0
  0
LINE
  5
194
330
1F
100
AcDbEntity
  8
0
  6
Continuous
 62
     7
370
    15
100
AcDbLine
 10
329.2053046442
 20
799.352238028
 30
0.0
 11
338.4515353065
 21
799.3435858431
 31
0.0
  0
LINE
  5
195
330
1F
100
AcDbEntity
  8
0
  6
Continuous
 62
     7
370
    15
100
AcDbLine
 10
319.8794918002
 20
799.3609272963
 30
0.0
 11
329.2053046442
 21
799.352238028
 31
0.0
  0
LINE
  5
196
330
1F
100
AcDbEntity
  8
0
  6
Continuous
 62
     7
370
    15
100
AcDbLine
 10
310.5536865512
 20
799.3695794896
 30
0.0
 11
319.8794918002
 21
799.3609272963
 31
0.0
  0
LINE
  5
197
330
1F
100
AcDbEntity
  8
0
  6
Continuous
 62
     7
370
    15
100
AcDbLine
 10
301.3074481529
 20
799.3781207964
 30
0.0
 11
310.5536865512
 21
799.3695794896
 31
0.0
  0
LINE
  5
198
330
1F
100
AcDbEntity
  8
0
  6
Continuous
 62
     7
370
    15
100
AcDbLine
 10
292.2196492217
 20
799.386478357
 30
0.0
 11
301.3074481529
 21
799.3781207964
 31
0.0
  0
LINE
  5
199
330
1F
100
AcDbEntity
  8
0
  6
Continuous
 62
     7
370
    15
100
AcDbLine
 10
283.3678501162
 20
799.3945808431
 30
0.0
 11
292.2196492217
 21
799.386478357
 31
0.0
  0
LINE
  5
19A
330
1F
100
AcDbEntity
  8
0
  6
Continuous
 62
     7
370
    15
100
AcDbLine
 10
274.8275436274
 20
799.4023591528
 30
0.0
 11
283.3678501162
 21
799.3945808431
 31
0.0
  0
LINE
  5
19B
330
1F
100
AcDbEntity
  8
0
  6
Continuous
 62
     7
370
    15
100
AcDbLine
 10
266.6716132996
 20
799.4097469046
 30
0.0
 11
274.8275436274
 21
799.4023591528
 31
0.0
  0
LINE
  5
19C
330
1F
100
AcDbEntity
  8
0
  6
Continuous
 62
     7
370
    15
100
AcDbLine
 10
258.9696239007
 20
799.4166810874
 30
0.0
 11
266.6716132996
 21
799.4097469046
 31
0.0
  0
LINE
  5
19D
330
1F
100
AcDbEntity
  8
0
  6
Continuous
 62
     7
370
    15
100
AcDbLine
 10
251.7873025988
 20
799.4231025246
 30
0.0
 11
258.9696239007
 21
799.4166810874
 31
0.0
  0
LINE
  5
19E
330
1F
100
AcDbEntity
  8
0
  6
Continuous
 62
     7
370
    15
100
AcDbLine
 10
245.1859133882
 20
799.4289564435
 30
0.0
 11
251.7873025988
 21
799.4231025246
 31
0.0
  0
LINE
  5
19F
330
1F
100
AcDbEntity
  8
0
  6
Continuous
 62
     7
370
    15
100
AcDbLine
 10
239.2217916699
 20
799.4341928871
 30
0.0
 11
245.1859133882
 21
799.4289564435
 31
0.0
  0
LINE
  5
1A0
330
1F
100
AcDbEntity
  8
0
  6
Continuous
 62
     7
370
    15
100
AcDbLine
 10
233.9458102051
 20
799.4387671896
 30
0.0
 11
239.2217916699
 21
799.4341928871
 31
0.0
  0
LINE
  5
1A1
330
1F
100
AcDbEntity
  8
0
  6
Continuous
 62
     7
370
    15
100
AcDbLine
 10
229.4029747559
 20
799.4426403317
 30
0.0
 11
233.9458102051
 21
799.4387671896
 31
0.0
  0
LINE
  5
1A2
330
1F
100
AcDbEntity
  8
0
  6
Continuous
 62
     7
370
    15
100
AcDbLine
 10
225.6320655039
 20
799.4457792482
 30
0.0
 11
229.4029747559
 21
799.4426403317
 31
0.0
  0
LINE
  5
1A3
330
1F
100
AcDbEntity
  8
0
  6
Continuous
 62
     7
370
    15
100
AcDbLine
 10
222.6652403204
 20
799.4481571721
 30
0.0
 11
225.6320655039
 21
799.4457792482
 31
0.0
  0
LINE
  5
1A4
330
1F
100
AcDbEntity
  8
0
  6
Continuous
 62
     7
370
    15
100
AcDbLine
 10
220.5278135248
 20
799.4497538137
 30
0.0
 11
222.6652403204
 21
799.4481571721
 31
0.0
  0
LINE
  5
1A5
330
1F
100
AcDbEntity
  8
0
  6
Continuous
 62
     7
370
    15
100
AcDbLine
 10
219.2380193465
 20
799.4505555523
 30
0.0
 11
220.5278135248
 21
799.4497538137
 31
0.0
  0
LINE
  5
1A6
330
1F
100
AcDbEntity
  8
0
  6
Continuous
 62
     7
370
    15
100
AcDbLine
 10
219.2380186011
 20
799.4497538006
 30
0.0
 11
218.8068593734
 21
799.4505555501
 31
0.0
  0
LINE
  5
1A7
330
1F
100
AcDbEntity
  8
0
  6
Continuous
 62
     7
370
    15
100
AcDbLine
 10
220.5278120367
 20
799.4481571518
 30
0.0
 11
219.2380186011
 21
799.4497538006
 31
0.0
  0
LINE
  5
1A8
330
1F
100
AcDbEntity
  8
0
  6
Continuous
 62
     7
370
    15
100
AcDbLine
 10
222.6652381131
 20
799.4457792221
 30
0.0
 11
220.5278120367
 21
799.4481571518
 31
0.0
  0
LINE
  5
1A9
330
1F
100
AcDbEntity
  8
0
  6
Continuous
 62
     7
370
    15
100
AcDbLine
 10
225.6320702148
 20
799.4426402889
 30
0.0
 11
222.6652381131
 21
799.4457792221
 31
0.0
  0
LINE
  5
1AA
330
1F
100
AcDbEntity
  8
0
  6
Continuous
 62
     7
370
    15
100
AcDbLine
 10
229.4029787842
 20
799.4387671527
 30
0.0
 11
225.6320702148
 21
799.4426402889
 31
0.0
  0
LINE
  5
1AB
330
1F
100
AcDbEntity
  8
0
  6
Continuous
 62
     7
370
    15
100
AcDbLine
 10
231.5798732231
 20
799.4375998129
 30
0.0
 11
231.6059691796
 21
799.4375722032
 31
0.0
  0
LINE
  5
1AC
330
1F
100
AcDbEntity
  8
0
  6
Continuous
 62
     7
370
    15
100
AcDbLine
 10
402.0593852591
 20
799.4412139026
 30
0.0
 11
402.0528194134
 21
799.441215058
 31
0.0
  0
LINE
  5
1AD
330
1F
100
AcDbEntity
  8
0
  6
Continuous
 62
     7
370
    15
100
AcDbLine
 10
397.9369770056
 20
799.4419393822
 30
0.0
 11
397.9331334823
 21
799.4419400586
 31
0.0
  0
LINE
  5
1AE
330
1F
100
AcDbEntity
  8
0
  6
Continuous
 62
     7
370
    15
100
AcDbLine
 10
405.4845114915
 20
799.4397658834
 30
0.0
 11
405.4681536104
 21
799.4397727989
 31
0.0
  0
LINE
  5
1AF
330
1F
100
AcDbEntity
  8
0
  6
Continuous
 62
     7
370
    15
100
AcDbLine
 10
402.0648620969
 20
799.4412115871
 30
0.0
 11
402.0593852591
 21
799.4412139026
 31
0.0
  0
LINE
  5
1B0
330
1F
100
AcDbEntity
  8
0
  6
Continuous
 62
     7
370
    15
100
AcDbLine
 10
408.1792610744
 20
799.4376083415
 30
0.0
 11
408.1535020608
 21
799.4376289654
 31
0.0
  0
LINE
  5
1B1
330
1F
100
AcDbEntity
  8
0
  6
Continuous
 62
     7
370
    15
100
AcDbLine
 10
405.4974846138
 20
799.4397554965
 30
0.0
 11
405.4845114915
 21
799.4397658834
 31
0.0
  0
LINE
  5
1B2
330
1F
100
AcDbEntity
  8
0
  6
Continuous
 62
     7
370
    15
100
AcDbLine
 10
410.1207000292
 20
799.4347597052
 30
0.0
 11
410.0897811712
 21
799.4348050719
 31
0.0
  0
LINE
  5
1B3
330
1F
100
AcDbEntity
  8
0
  6
Continuous
 62
     7
370
    15
100
AcDbLine
 10
408.1980286576
 20
799.4375808042
 30
0.0
 11
408.1792610744
 21
799.4376083415
 31
0.0
  0
LINE
  5
1B4
330
1F
100
AcDbEntity
  8
0
  6
Continuous
 62
     7
370
    15
100
AcDbLine
 10
411.2922267762
 20
799.4312442631
 30
0.0
 11
411.2642559234
 21
799.4313281962
 31
0.0
  0
LINE
  5
1B5
330
1F
100
AcDbEntity
  8
0
  6
Continuous
 62
     7
370
    15
100
AcDbLine
 10
410.1396295973
 20
799.4347029026
 30
0.0
 11
410.1207000292
 21
799.4347597052
 31
0.0
  0
LINE
  5
1B6
330
1F
100
AcDbEntity
  8
0
  6
Continuous
 62
     7
370
    15
100
AcDbLine
 10
411.6838620445
 20
799.4270920157
 30
0.0
 11
411.6707709476
 21
799.4272308118
 31
0.0
  0
LINE
  5
1B7
330
1F
100
AcDbEntity
  8
0
  6
Continuous
 62
     7
370
    15
100
AcDbLine
 10
411.3017433957
 20
799.4311433647
 30
0.0
 11
411.2922267762
 21
799.4312442631
 31
0.0
  0
LINE
  5
1B8
330
1F
100
AcDbEntity
  8
0
  6
Continuous
 62
     7
370
    15
100
AcDbLine
 10
411.6704913233
 20
799.4269297197
 30
0.0
 11
411.6838620445
 21
799.4270920157
 31
0.0
  0
LINE
  5
1B9
330
1F
100
AcDbEntity
  8
0
  6
Continuous
 62
     7
370
    15
100
AcDbLine
 10
410.120713647
 20
799.4170238953
 30
0.0
 11
410.1879418183
 21
799.4173288685
 31
0.0
  0
LINE
  5
1BA
330
1F
100
AcDbEntity
  8
0
  6
Continuous
 62
     7
370
    15
100
AcDbLine
 10
408.1792966145
 20
799.4111939557
 30
0.0
 11
410.120713647
 21
799.4170238953
 31
0.0
  0
LINE
  5
1BB
330
1F
100
AcDbEntity
  8
0
  6
Continuous
 62
     7
370
    15
100
AcDbLine
 10
407.3818943578
 20
799.4093310035
 30
0.0
 11
407.9786319145
 21
799.4107251474
 31
0.0
  0
LINE
  5
1BC
330
1F
100
AcDbEntity
  8
0
  6
Continuous
 62
     7
370
    15
100
AcDbLine
 10
414.1271192627
 20
799.4097740645
 30
0.0
 11
410.3561898744
 21
799.402389107
 31
0.0
  0
LINE
  5
1BD
330
1F
100
AcDbEntity
  8
0
  6
Continuous
 62
     7
370
    15
100
AcDbLine
 10
417.0939413319
 20
799.4167053728
 30
0.0
 11
414.1271192627
 21
799.4097740645
 31
0.0
  0
LINE
  5
1BE
330
1F
100
AcDbEntity
  8
0
  6
Continuous
 62
     7
370
    15
100
AcDbLine
 10
419.2313418021
 20
799.4231238812
 30
0.0
 11
417.0939413319
 21
799.4167053728
 31
0.0
  0
LINE
  5
1BF
330
1F
100
AcDbEntity
  8
0
  6
Continuous
 62
     7
370
    15
100
AcDbLine
 10
420.5211474888
 20
799.4289749037
 30
0.0
 11
419.2313418021
 21
799.4231238812
 31
0.0
  0
LINE
  5
1C0
330
1F
100
AcDbEntity
  8
0
  6
Continuous
 62
     7
370
    15
100
AcDbLine
 10
420.9522958141
 20
799.434208461
 30
0.0
 11
420.5211474888
 21
799.4289749037
 31
0.0
  0
LINE
  5
1C1
330
1F
100
AcDbEntity
  8
0
  6
Continuous
 62
     7
370
    15
100
AcDbLine
 10
420.5211399603
 20
799.4387799287
 30
0.0
 11
420.9522958141
 21
799.434208461
 31
0.0
  0
LINE
  5
1C2
330
1F
100
AcDbEntity
  8
0
  6
Continuous
 62
     7
370
    15
100
AcDbLine
 10
419.2313420653
 20
799.4426502895
 30
0.0
 11
420.5211399603
 21
799.4387799287
 31
0.0
  0
LINE
  5
1C3
330
1F
100
AcDbEntity
  8
0
  6
Continuous
 62
     7
370
    15
100
AcDbLine
 10
417.0938884883
 20
799.4457865125
 30
0.0
 11
419.2313420653
 21
799.4426502895
 31
0.0
  0
LINE
  5
1C4
330
1F
100
AcDbEntity
  8
0
  6
Continuous
 62
     7
370
    15
100
AcDbLine
 10
414.1270745292
 20
799.4481618735
 30
0.0
 11
417.0938884883
 21
799.4457865125
 31
0.0
  0
LINE
  5
1C5
330
1F
100
AcDbEntity
  8
0
  6
Continuous
 62
     7
370
    15
100
AcDbLine
 10
410.3561535053
 20
799.4497560843
 30
0.0
 11
414.1270745292
 21
799.4481618735
 31
0.0
  0
LINE
  5
1C6
330
1F
100
AcDbEntity
  8
0
  6
Continuous
 62
     7
370
    15
100
AcDbLine
 10
405.8133214706
 20
799.4505555523
 30
0.0
 11
410.3561535053
 21
799.4497560843
 31
0.0
  0
LINE
  5
1C7
330
1F
100
AcDbEntity
  8
0
  6
Continuous
 62
     7
370
    15
100
AcDbLine
 10
400.5373357544
 20
799.4505534542
 30
0.0
 11
405.8133214706
 21
799.4505555523
 31
0.0
  0
LINE
  5
1C8
330
1F
100
AcDbEntity
  8
0
  6
Continuous
 62
     7
370
    15
100
AcDbLine
 10
393.1409581893
 20
799.4419381512
 30
0.0
 11
400.5373357544
 21
799.4505534542
 31
0.0
  0
LINE
  5
1C9
330
1F
100
AcDbEntity
  8
0
  6
Continuous
 62
     7
370
    15
100
AcDbLine
 10
211.7125066512
 20
803.3390862576
 30
0.0
 11
214.5099233382
 21
803.3390868787
 31
0.0
  0
LINE
  5
1CA
330
1F
100
AcDbEntity
  8
0
  6
Continuous
 62
     7
370
    15
100
AcDbLine
 10
208.3074926131
 20
803.3390849904
 30
0.0
 11
211.1929754012
 21
803.3390860642
 31
0.0
  0
LINE
  5
1CB
330
1F
100
AcDbEntity
  8
0
  6
Continuous
 62
     7
370
    15
100
AcDbLine
 10
205.8543828719
 20
803.3390834278
 30
0.0
 11
208.3074926131
 21
803.3390849904
 31
0.0
  0
LINE
  5
1CC
330
1F
100
AcDbEntity
  8
0
  6
Continuous
 62
     7
370
    15
100
AcDbLine
 10
204.3741048568
 20
803.3390815831
 30
0.0
 11
205.8543828719
 21
803.3390834278
 31
0.0
  0
LINE
  5
1CD
330
1F
100
AcDbEntity
  8
0
  6
Continuous
 62
     7
370
    15
100
AcDbLine
 10
203.8792623275
 20
803.339079472
 30
0.0
 11
204.3741048568
 21
803.3390815831
 31
0.0
  0
LINE
  5
1CE
330
1F
100
AcDbEntity
  8
0
  6
Continuous
 62
     7
370
    15
100
AcDbLine
 10
204.3741048568
 20
803.3390771125
 30
0.0
 11
203.8792623275
 21
803.339079472
 31
0.0
  0
LINE
  5
1CF
330
1F
100
AcDbEntity
  8
0
  6
Continuous
 62
     7
370
    15
100
AcDbLine
 10
205.8543828719
 20
803.3390745248
 30
0.0
 11
204.3741048568
 21
803.3390771125
 31
0.0
  0
LINE
  5
1D0
330
1F
100
AcDbEntity
  8
0
  6
Continuous
 62
     7
370
    15
100
AcDbLine
 10
208.3074926131
 20
803.339071731
 30
0.0
 11
208.3073879177
 21
803.3390717311
 31
0.0
  0
LINE
  5
1D1
330
1F
100
AcDbEntity
  8
0
  6
Continuous
 62
     7
370
    15
100
AcDbLine
 10
205.8544520777
 20
803.3390745248
 30
0.0
 11
205.8543828719
 21
803.3390745248
 31
0.0
  0
LINE
  5
1D2
330
1F
100
AcDbEntity
  8
0
  6
Continuous
 62
     7
370
    15
100
AcDbLine
 10
211.7125066512
 20
803.3390687549
 30
0.0
 11
211.7123651201
 21
803.339068755
 31
0.0
  0
LINE
  5
1D3
330
1F
100
AcDbEntity
  8
0
  6
Continuous
 62
     7
370
    15
100
AcDbLine
 10
208.3076379364
 20
803.3390717309
 30
0.0
 11
208.3074926131
 21
803.339071731
 31
0.0
  0
LINE
  5
1D4
330
1F
100
AcDbEntity
  8
0
  6
Continuous
 62
     7
370
    15
100
AcDbLine
 10
216.0403493636
 20
803.3390656218
 30
0.0
 11
216.0400364491
 21
803.339065622
 31
0.0
  0
LINE
  5
1D5
330
1F
100
AcDbEntity
  8
0
  6
Continuous
 62
     7
370
    15
100
AcDbLine
 10
211.7126865457
 20
803.3390687547
 30
0.0
 11
211.7125066512
 21
803.3390687549
 31
0.0
  0
LINE
  5
1D6
330
1F
100
AcDbEntity
  8
0
  6
Continuous
 62
     7
370
    15
100
AcDbLine
 10
221.254117369
 20
803.3390623585
 30
0.0
 11
221.2536566113
 21
803.3390623588
 31
0.0
  0
LINE
  5
1D7
330
1F
100
AcDbEntity
  8
0
  6
Continuous
 62
     7
370
    15
100
AcDbLine
 10
216.0407263509
 20
803.3390656216
 30
0.0
 11
216.0403493636
 21
803.3390656218
 31
0.0
  0
LINE
  5
1D8
330
1F
100
AcDbEntity
  8
0
  6
Continuous
 62
     7
370
    15
100
AcDbLine
 10
227.3093312972
 20
803.3390589929
 30
0.0
 11
227.3086589024
 21
803.3390589933
 31
0.0
  0
LINE
  5
1D9
330
1F
100
AcDbEntity
  8
0
  6
Continuous
 62
     7
370
    15
100
AcDbLine
 10
221.254652507
 20
803.3390623582
 30
0.0
 11
221.254117369
 21
803.3390623585
 31
0.0
  0
LINE
  5
1DA
330
1F
100
AcDbEntity
  8
0
  6
Continuous
 62
     7
370
    15
100
AcDbLine
 10
234.1543096297
 20
803.3390555537
 30
0.0
 11
234.1533308778
 21
803.3390555542
 31
0.0
  0
LINE
  5
1DB
330
1F
100
AcDbEntity
  8
0
  6
Continuous
 62
     7
370
    15
100
AcDbLine
 10
227.3100914346
 20
803.3390589926
 30
0.0
 11
227.3093312972
 21
803.3390589929
 31
0.0
  0
LINE
  5
1DC
330
1F
100
AcDbEntity
  8
0
  6
Continuous
 62
     7
370
    15
100
AcDbLine
 10
241.7306722396
 20
803.3390520701
 30
0.0
 11
241.7292510113
 21
803.3390520708
 31
0.0
  0
LINE
  5
1DD
330
1F
100
AcDbEntity
  8
0
  6
Continuous
 62
     7
370
    15
100
AcDbLine
 10
234.1553930412
 20
803.3390555532
 30
0.0
 11
234.1543096297
 21
803.3390555537
 31
0.0
  0
LINE
  5
1DE
330
1F
100
AcDbEntity
  8
0
  6
Continuous
 62
     7
370
    15
100
AcDbLine
 10
249.9737676376
 20
803.339048572
 30
0.0
 11
249.9719320663
 21
803.3390485728
 31
0.0
  0
LINE
  5
1DF
330
1F
100
AcDbEntity
  8
0
  6
Continuous
 62
     7
370
    15
100
AcDbLine
 10
241.7322186658
 20
803.3390520695
 30
0.0
 11
241.7306722396
 21
803.3390520701
 31
0.0
  0
LINE
  5
1E0
330
1F
100
AcDbEntity
  8
0
  6
Continuous
 62
     7
370
    15
100
AcDbLine
 10
258.8132833236
 20
803.3390450892
 30
0.0
 11
258.8110112148
 21
803.3390450901
 31
0.0
  0
LINE
  5
1E1
330
1F
100
AcDbEntity
  8
0
  6
Continuous
 62
     7
370
    15
100
AcDbLine
 10
249.9757361527
 20
803.3390485713
 30
0.0
 11
249.9737676376
 21
803.339048572
 31
0.0
  0
LINE
  5
1E2
330
1F
100
AcDbEntity
  8
0
  6
Continuous
 62
     7
370
    15
100
AcDbLine
 10
268.173787474
 20
803.3390416513
 30
0.0
 11
268.1709719353
 21
803.3390416524
 31
0.0
  0
LINE
  5
1E3
330
1F
100
AcDbEntity
  8
0
  6
Continuous
 62
     7
370
    15
100
AcDbLine
 10
258.8156895383
 20
803.3390450883
 30
0.0
 11
258.8132833236
 21
803.3390450892
 31
0.0
  0
LINE
  5
1E4
330
1F
100
AcDbEntity
  8
0
  6
Continuous
 62
     7
370
    15
100
AcDbLine
 10
277.9754308456
 20
803.3390382878
 30
0.0
 11
277.972176883
 21
803.3390382889
 31
0.0
  0
LINE
  5
1E5
330
1F
100
AcDbEntity
  8
0
  6
Continuous
 62
     7
370
    15
100
AcDbLine
 10
268.176735923
 20
803.3390416503
 30
0.0
 11
268.173787474
 21
803.3390416513
 31
0.0
  0
LINE
  5
1E6
330
1F
100
AcDbEntity
  8
0
  6
Continuous
 62
     7
370
    15
100
AcDbLine
 10
288.1345800155
 20
803.3390350272
 30
0.0
 11
288.1305598401
 21
803.3390350285
 31
0.0
  0
LINE
  5
1E7
330
1F
100
AcDbEntity
  8
0
  6
Continuous
 62
     7
370
    15
100
AcDbLine
 10
277.9788038137
 20
803.3390382867
 30
0.0
 11
277.9754308456
 21
803.3390382878
 31
0.0
  0
LINE
  5
1E8
330
1F
100
AcDbEntity
  8
0
  6
Continuous
 62
     7
370
    15
100
AcDbLine
 10
298.5645803207
 20
803.3390318975
 30
0.0
 11
298.5600625096
 21
803.3390318989
 31
0.0
  0
LINE
  5
1E9
330
1F
100
AcDbEntity
  8
0
  6
Continuous
 62
     7
370
    15
100
AcDbLine
 10
288.1387077817
 20
803.339035026
 30
0.0
 11
288.1345800155
 21
803.3390350272
 31
0.0
  0
LINE
  5
1EA
330
1F
100
AcDbEntity
  8
0
  6
Continuous
 62
     7
370
    15
100
AcDbLine
 10
309.1764119857
 20
803.3390289254
 30
0.0
 11
309.1713657457
 21
803.3390289268
 31
0.0
  0
LINE
  5
1EB
330
1F
100
AcDbEntity
  8
0
  6
Continuous
 62
     7
370
    15
100
AcDbLine
 10
298.5691772773
 20
803.3390318962
 30
0.0
 11
298.5645803207
 21
803.3390318975
 31
0.0
  0
LINE
  5
1EC
330
1F
100
AcDbEntity
  8
0
  6
Continuous
 62
     7
370
    15
100
AcDbLine
 10
319.8795751327
 20
803.3390261361
 30
0.0
 11
319.8738835483
 21
803.3390261376
 31
0.0
  0
LINE
  5
1ED
330
1F
100
AcDbEntity
  8
0
  6
Continuous
 62
     7
370
    15
100
AcDbLine
 10
309.1815021428
 20
803.339028924
 30
0.0
 11
309.1764119857
 21
803.3390289254
 31
0.0
  0
LINE
  5
1EE
330
1F
100
AcDbEntity
  8
0
  6
Continuous
 62
     7
370
    15
100
AcDbLine
 10
330.582745909
 20
803.3390235535
 30
0.0
 11
330.5766647296
 21
803.3390235549
 31
0.0
  0
LINE
  5
1EF
330
1F
100
AcDbEntity
  8
0
  6
Continuous
 62
     7
370
    15
100
AcDbLine
 10
319.8852672403
 20
803.3390261347
 30
0.0
 11
319.8795751327
 21
803.3390261361
 31
0.0
  0
LINE
  5
1F0
330
1F
100
AcDbEntity
  8
0
  6
Continuous
 62
     7
370
    15
100
AcDbLine
 10
341.1945775741
 20
803.3390211996
 30
0.0
 11
341.188023359
 21
803.3390212011
 31
0.0
  0
LINE
  5
1F1
330
1F
100
AcDbEntity
  8
0
  6
Continuous
 62
     7
370
    15
100
AcDbLine
 10
330.5887757375
 20
803.3390235521
 30
0.0
 11
330.582745909
 21
803.3390235535
 31
0.0
  0
LINE
  5
1F2
330
1F
100
AcDbEntity
  8
0
  6
Continuous
 62
     7
370
    15
100
AcDbLine
 10
351.6245778792
 20
803.3390190945
 30
0.0
 11
351.617739563
 21
803.3390190959
 31
0.0
  0
LINE
  5
1F3
330
1F
100
AcDbEntity
  8
0
  6
Continuous
 62
     7
370
    15
100
AcDbLine
 10
341.201020021
 20
803.3390211983
 30
0.0
 11
341.1945775741
 21
803.3390211996
 31
0.0
  0
LINE
  5
1F4
330
1F
100
AcDbEntity
  8
0
  6
Continuous
 62
     7
370
    15
100
AcDbLine
 10
361.7837194198
 20
803.3390172562
 30
0.0
 11
361.7765727958
 21
803.3390172575
 31
0.0
  0
LINE
  5
1F5
330
1F
100
AcDbEntity
  8
0
  6
Continuous
 62
     7
370
    15
100
AcDbLine
 10
351.6312392117
 20
803.3390190933
 30
0.0
 11
351.6245778792
 21
803.3390190945
 31
0.0
  0
LINE
  5
1F6
330
1F
100
AcDbEntity
  8
0
  6
Continuous
 62
     7
370
    15
100
AcDbLine
 10
371.5853856795
 20
803.3390157003
 30
0.0
 11
371.578051667
 21
803.3390157015
 31
0.0
  0
LINE
  5
1F7
330
1F
100
AcDbEntity
  8
0
  6
Continuous
 62
     7
370
    15
100
AcDbLine
 10
361.7906151596
 20
803.3390172551
 30
0.0
 11
361.7837194198
 21
803.3390172562
 31
0.0
  0
LINE
  5
1F8
330
1F
100
AcDbEntity
  8
0
  6
Continuous
 62
     7
370
    15
100
AcDbLine
 10
380.9458593123
 20
803.3390144402
 30
0.0
 11
380.9386580427
 21
803.3390144412
 31
0.0
  0
LINE
  5
1F9
330
1F
100
AcDbEntity
  8
0
  6
Continuous
 62
     7
370
    15
100
AcDbLine
 10
371.5923901111
 20
803.3390156994
 30
0.0
 11
371.5853856795
 21
803.3390157003
 31
0.0
  0
LINE
  5
1FA
330
1F
100
AcDbEntity
  8
0
  6
Continuous
 62
     7
370
    15
100
AcDbLine
 10
380.9456590553
 20
803.3390144403
 30
0.0
 11
380.9458593123
 21
803.3390144402
 31
0.0
  0
LINE
  5
1FB
330
1F
100
AcDbEntity
  8
0
  6
Continuous
 62
     7
370
    15
100
AcDbLine
 10
206.8792699569
 20
803.3390787191
 30
0.0
 11
207.3613103622
 21
803.3390764207
 31
0.0
  0
LINE
  5
1FC
330
1F
100
AcDbEntity
  8
0
  6
Continuous
 62
     7
370
    15
100
AcDbLine
 10
207.3613103622
 20
803.3390807756
 30
0.0
 11
206.8792699569
 21
803.3390787191
 31
0.0
  0
LINE
  5
1FD
330
1F
100
AcDbEntity
  8
0
  6
Continuous
 62
     7
370
    15
100
AcDbLine
 10
208.8033117049
 20
803.3390825726
 30
0.0
 11
207.3613103622
 21
803.3390807756
 31
0.0
  0
LINE
  5
1FE
330
1F
100
AcDbEntity
  8
0
  6
Continuous
 62
     7
370
    15
100
AcDbLine
 10
211.1929754012
 20
803.3390840948
 30
0.0
 11
208.8033117049
 21
803.3390825726
 31
0.0
  0
LINE
  5
1FF
330
1F
100
AcDbEntity
  8
0
  6
Continuous
 62
     7
370
    15
100
AcDbLine
 10
214.5099233382
 20
803.3390853293
 30
0.0
 11
211.1929754012
 21
803.3390840948
 31
0.0
  0
LINE
  5
200
330
1F
100
AcDbEntity
  8
0
  6
Continuous
 62
     7
370
    15
100
AcDbLine
 10
215.8792930442
 20
803.3390856333
 30
0.0
 11
214.5099233382
 21
803.3390853293
 31
0.0
  0
LINE
  5
201
330
1F
100
AcDbEntity
  8
0
  6
Continuous
 62
     7
370
    15
100
AcDbLine
 10
389.7853826278
 20
803.3390134865
 30
0.0
 11
389.7851387632
 21
803.3390134866
 31
0.0
  0
LINE
  5
202
330
1F
100
AcDbEntity
  8
0
  6
Continuous
 62
     7
370
    15
100
AcDbLine
 10
398.0284856551
 20
803.3390128474
 30
0.0
 11
398.0215519029
 21
803.339012848
 31
0.0
  0
LINE
  5
203
330
1F
100
AcDbEntity
  8
0
  6
Continuous
 62
     7
370
    15
100
AcDbLine
 10
389.7921292751
 20
803.339013486
 30
0.0
 11
389.7853826278
 21
803.3390134865
 31
0.0
  0
LINE
  5
204
330
1F
100
AcDbEntity
  8
0
  6
Continuous
 62
     7
370
    15
100
AcDbLine
 10
405.6048406356
 20
803.3390125284
 30
0.0
 11
405.5983013045
 21
803.3390125287
 31
0.0
  0
LINE
  5
205
330
1F
100
AcDbEntity
  8
0
  6
Continuous
 62
     7
370
    15
100
AcDbLine
 10
398.0348588662
 20
803.3390128472
 30
0.0
 11
398.0284856551
 21
803.3390128474
 31
0.0
  0
LINE
  5
206
330
1F
100
AcDbEntity
  8
0
  6
Continuous
 62
     7
370
    15
100
AcDbLine
 10
412.4498265975
 20
803.3390125322
 30
0.0
 11
412.4435188529
 21
803.3390125322
 31
0.0
  0
LINE
  5
207
330
1F
100
AcDbEntity
  8
0
  6
Continuous
 62
     7
370
    15
100
AcDbLine
 10
405.6107491912
 20
803.3390125284
 30
0.0
 11
405.6048406356
 21
803.3390125284
 31
0.0
  0
LINE
  5
208
330
1F
100
AcDbEntity
  8
0
  6
Continuous
 62
     7
370
    15
100
AcDbLine
 10
418.5050176375
 20
803.3390128587
 30
0.0
 11
418.4995029224
 21
803.3390128584
 31
0.0
  0
LINE
  5
209
330
1F
100
AcDbEntity
  8
0
  6
Continuous
 62
     7
370
    15
100
AcDbLine
 10
412.4554067896
 20
803.3390125325
 30
0.0
 11
412.4498265975
 21
803.3390125322
 31
0.0
  0
LINE
  5
20A
330
1F
100
AcDbEntity
  8
0
  6
Continuous
 62
     7
370
    15
100
AcDbLine
 10
423.7187932723
 20
803.3390135052
 30
0.0
 11
423.7139105733
 21
803.3390135046
 31
0.0
  0
LINE
  5
20B
330
1F
100
AcDbEntity
  8
0
  6
Continuous
 62
     7
370
    15
100
AcDbLine
 10
418.5097661006
 20
803.3390128593
 30
0.0
 11
418.5050176375
 21
803.3390128587
 31
0.0
  0
LINE
  5
20C
330
1F
100
AcDbEntity
  8
0
  6
Continuous
 62
     7
370
    15
100
AcDbLine
 10
428.0466436141
 20
803.3390144661
 30
0.0
 11
428.0425106448
 21
803.3390144652
 31
0.0
  0
LINE
  5
20D
330
1F
100
AcDbEntity
  8
0
  6
Continuous
 62
     7
370
    15
100
AcDbLine
 10
423.7228464866
 20
803.3390135061
 30
0.0
 11
423.7187932723
 21
803.3390135052
 31
0.0
  0
LINE
  5
20E
330
1F
100
AcDbEntity
  8
0
  6
Continuous
 62
     7
370
    15
100
AcDbLine
 10
431.4516423934
 20
803.3390157333
 30
0.0
 11
431.4483390883
 21
803.3390157321
 31
0.0
  0
LINE
  5
20F
330
1F
100
AcDbEntity
  8
0
  6
Continuous
 62
     7
370
    15
100
AcDbLine
 10
428.0498954137
 20
803.3390144673
 30
0.0
 11
428.0466436141
 21
803.3390144661
 31
0.0
  0
LINE
  5
210
330
1F
100
AcDbEntity
  8
0
  6
Continuous
 62
     7
370
    15
100
AcDbLine
 10
433.9047521346
 20
803.3390172959
 30
0.0
 11
433.9023684333
 21
803.3390172944
 31
0.0
  0
LINE
  5
211
330
1F
100
AcDbEntity
  8
0
  6
Continuous
 62
     7
370
    15
100
AcDbLine
 10
431.454022266
 20
803.3390157348
 30
0.0
 11
431.4516423934
 21
803.3390157333
 31
0.0
  0
LINE
  5
212
330
1F
100
AcDbEntity
  8
0
  6
Continuous
 62
     7
370
    15
100
AcDbLine
 10
435.3850530379
 20
803.3390191406
 30
0.0
 11
435.3835733645
 21
803.3390191388
 31
0.0
  0
LINE
  5
213
330
1F
100
AcDbEntity
  8
0
  6
Continuous
 62
     7
370
    15
100
AcDbLine
 10
433.9061905943
 20
803.3390172977
 30
0.0
 11
433.9047521346
 21
803.3390172959
 31
0.0
  0
LINE
  5
214
330
1F
100
AcDbEntity
  8
0
  6
Continuous
 62
     7
370
    15
100
AcDbLine
 10
435.8798955672
 20
803.3390212517
 30
0.0
 11
435.8793948621
 21
803.3390212496
 31
0.0
  0
LINE
  5
215
330
1F
100
AcDbEntity
  8
0
  6
Continuous
 62
     7
370
    15
100
AcDbLine
 10
435.3855476903
 20
803.3390191428
 30
0.0
 11
435.3850530379
 21
803.3390191406
 31
0.0
  0
LINE
  5
216
330
1F
100
AcDbEntity
  8
0
  6
Continuous
 62
     7
370
    15
100
AcDbLine
 10
435.8793953676
 20
803.3390212541
 30
0.0
 11
435.8798955672
 21
803.3390212517
 31
0.0
  0
LINE
  5
217
330
1F
100
AcDbEntity
  8
0
  6
Continuous
 62
     7
370
    15
100
AcDbLine
 10
203.879266219
 20
801.8390777005
 30
0.0
 11
435.8793954116
 21
801.8390777005
 31
0.0
  0
LINE
  5
218
330
1F
100
AcDbEntity
  8
0
  6
Continuous
 62
     7
370
    15
100
AcDbLine
 10
203.879266219
 20
803.3390853299
 30
0.0
 11
435.8793953236
 21
803.3390853299
 31
0.0
  0
LINE
  5
219
330
1F
100
AcDbEntity
  8
0
  6
Continuous
 62
     7
370
    15
100
AcDbLine
 10
214.4150089063
 20
799.96680807
 30
0.0
 11
425.3436526804
 21
799.96680807
 31
0.0
  0
LINE
  5
21A
330
1F
100
AcDbEntity
  8
0
  6
Continuous
 62
     7
370
    15
100
AcDbLine
 10
216.5903805727
 20
799.6868150128
 30
0.0
 11
423.1682810139
 21
799.6868150128
 31
0.0
  0
LINE
  5
21B
330
1F
100
AcDbEntity
  8
0
  6
Continuous
 62
     7
370
    15
100
AcDbLine
 10
218.8068593734
 20
799.4505555523
 30
0.0
 11
420.9518022132
 21
799.4505555523
 31
0.0
  0
LINE
  5
21C
330
1F
100
AcDbEntity
  8
0
  6
Continuous
 62
     7
370
    15
100
AcDbLine
 10
228.2205552481
 20
799.282880534
 30
0.0
 11
411.5364258185
 21
799.282880534
 31
0.0
  0
LINE
  5
21D
330
1F
100
AcDbEntity
  8
0
  6
Continuous
 62
     7
370
    15
100
AcDbLine
 10
228.308263094
 20
799.2105672253
 30
0.0
 11
411.4487179726
 21
799.2105672253
 31
0.0
  0
LINE
  5
21E
330
1F
100
AcDbEntity
  8
0
  6
Continuous
 62
     7
370
    15
100
AcDbLine
 10
228.4140688624
 20
799.1469151867
 30
0.0
 11
411.3429122042
 21
799.1469151867
 31
0.0
  0
LINE
  5
21F
330
1F
100
AcDbEntity
  8
0
  6
Continuous
 62
     7
370
    15
100
AcDbLine
 10
228.5440253643
 20
799.0948064221
 30
0.0
 11
411.2129557023
 21
799.0948064221
 31
0.0
  0
LINE
  5
220
330
1F
100
AcDbEntity
  8
0
  6
Continuous
 62
     7
370
    15
100
AcDbLine
 10
228.7041551116
 20
799.0571286572
 30
0.0
 11
411.052825955
 21
799.0571286572
 31
0.0
  0
LINE
  5
221
330
1F
100
AcDbEntity
  8
0
  6
Continuous
 62
     7
370
    15
100
AcDbLine
 10
228.9004958974
 20
799.0367715252
 30
0.0
 11
410.8564851692
 21
799.0367715252
 31
0.0
  0
LWPOLYLINE
  5
222
330
1F
100
AcDbEntity
  8
0
  6
Continuous
 62
     7
370
    15
100
AcDbPolyline
 90
       58
 70
   128
 43
0.0
 10
206.8792685992
 20
803.3390853339
 10
206.9229367335
 20
803.3390853367
 10
207.2720789455
 20
803.3390853446
 10
207.9692841909
 20
803.3390853553
 10
209.0123974483
 20
803.3390853689
 10
210.3981945143
 20
803.3390853853
 10
212.1223919698
 20
803.3390854045
 10
214.179660419
 20
803.3390854264
 10
216.5636409632
 20
803.339085451
 10
219.2669648551
 20
803.3390854781
 10
222.2812762755
 20
803.3390855077
 10
225.5972581605
 20
803.3390855398
 10
229.2046610001
 20
803.3390855741
 10
233.092334519
 20
803.3390856106
 10
237.248262141
 20
803.3390856492
 10
241.659598132
 20
803.3390856898
 10
246.3127073053
 20
803.3390857322
 10
251.1932071672
 20
803.3390857763
 10
256.2860123721
 20
803.3390858219
 10
261.5753813511
 20
803.339085869
 10
267.0449649678
 20
803.3390859174
 10
272.6778570527
 20
803.3390859669
 10
278.4566466591
 20
803.3390860174
 10
284.3634718796
 20
803.3390860687
 10
290.3800750558
 20
803.3390861207
 10
296.4878592123
 20
803.3390861732
 10
302.6679455381
 20
803.339086226
 10
308.9012317406
 20
803.339086279
 10
315.1684510894
 20
803.339086332
 10
321.4502319686
 20
803.3390863849
 10
327.7271577535
 20
803.3390864374
 10
333.9798268263
 20
803.3390864895
 10
340.1889125451
 20
803.3390865409
 10
346.3352229818
 20
803.3390865916
 10
352.3997602431
 20
803.3390866413
 10
358.3637791919
 20
803.3390866899
 10
364.2088453874
 20
803.3390867372
 10
369.9168920649
 20
803.3390867831
 10
375.4702759793
 20
803.3390868275
 10
380.8518319391
 20
803.3390868702
 10
386.0449258633
 20
803.3390869111
 10
391.0335061961
 20
803.3390869501
 10
395.8021535217
 20
803.339086987
 10
400.3361282245
 20
803.3390870217
 10
404.6214160483
 20
803.3390870541
 10
408.6447714143
 20
803.3390870842
 10
412.3937583614
 20
803.3390871118
 10
415.856788986
 20
803.3390871368
 10
419.0231592587
 20
803.3390871592
 10
421.8830821106
 20
803.3390871789
 10
424.427717684
 20
803.3390871958
 10
426.6492006562
 20
803.3390872099
 10
428.5406645506
 20
803.3390872211
 10
430.0962629607
 20
803.3390872294
 10
431.3111876209
 20
803.3390872348
 10
432.1816832688
 20
803.3390872373
 10
432.7050592523
 20
803.3390872368
 10
432.879697846
 20
803.3390872334
  0
LWPOLYLINE
  5
223
330
1F
100
AcDbEntity
  8
0
  6
Continuous
 62
     7
370
    15
100
AcDbPolyline
 90
       56
 70
   128
 43
0.0
 10
215.8792930442
 20
859.0392625649
 10
215.922486913
 20
859.039262045
 10
216.2678226198
 20
859.0392609129
 10
216.957346863
 20
859.0392596612
 10
217.9887691123
 20
859.039258294
 10
219.3586630867
 20
859.0392568158
 10
221.0624781363
 20
859.0392552316
 10
223.0945543587
 20
859.0392535466
 10
225.4481414012
 20
859.0392517664
 10
228.1154208843
 20
859.0392498969
 10
231.0875323737
 20
859.0392479443
 10
234.354602814
 20
859.0392459152
 10
237.9057793257
 20
859.0392438162
 10
241.7292652577
 20
859.0392416543
 10
245.812359374
 20
859.0392394368
 10
250.1414980468
 20
859.0392371709
 10
254.7023003127
 20
859.0392348643
 10
259.4796156452
 20
859.0392325245
 10
264.4575742832
 20
859.0392301593
 10
269.6196399488
 20
859.0392277767
 10
274.9486647789
 20
859.0392253845
 10
280.426946289
 20
859.0392229906
 10
286.0362861788
 20
859.039220603
 10
291.7580507853
 20
859.0392182297
 10
297.5732329819
 20
859.0392158785
 10
303.4625153182
 20
859.0392135572
 10
309.4063341904
 20
859.0392112736
 10
315.3849448301
 20
859.0392090353
 10
321.378486894
 20
859.0392068496
 10
327.367050438
 20
859.0392047238
 10
333.3307420563
 20
859.039202665
 10
339.2497509651
 20
859.03920068
 10
345.1044148121
 20
859.0391987755
 10
350.8752849926
 20
859.0391969577
 10
356.5431912565
 20
859.0391952327
 10
362.0893053889
 20
859.0391936063
 10
367.4952037566
 20
859.0391920837
 10
372.7429285088
 20
859.0391906702
 10
377.8150472316
 20
859.0391893703
 10
382.6947108567
 20
859.0391881884
 10
387.3657096322
 20
859.0391871284
 10
391.8125269701
 20
859.0391861939
 10
396.0203909902
 20
859.0391853879
 10
399.9753235915
 20
859.0391847132
 10
403.6641868856
 20
859.0391841719
 10
407.0747268396
 20
859.0391837658
 10
410.1956139828
 20
859.0391834964
 10
413.0164810419
 20
859.0391833645
 10
415.5279573803
 20
859.0391833706
 10
417.721700126
 20
859.0391835145
 10
419.5904218864
 20
859.0391837959
 10
421.1279149557
 20
859.0391842138
 10
422.3290719365
 20
859.0391847669
 10
423.1899027061
 20
859.0391854532
 10
423.7075476713
 20
859.0391862706
 10
423.8802872676
 20
859.0391872162
  0
LINE
  5
224
330
1F
100
AcDbEntity
  8
0
  6
Continuous
 62
     7
370
    15
100
AcDbLine
 10
321.1405767196
 20
859.0392832963
 30
0.0
 11
321.1405767196
 21
906.3367669476
 31
0.0
  0
LINE
  5
225
330
1F
100
AcDbEntity
  8
0
  6
Continuous
 62
     7
370
    15
100
AcDbLine
 10
321.1405767196
 20
906.3367669476
 30
0.0
 11
323.8652471298
 21
906.3367593182
 31
0.0
  0
LINE
  5
226
330
1F
100
AcDbEntity
  8
0
  6
Continuous
 62
     7
370
    15
100
AcDbLine
 10
323.8652471298
 20
859.0392826658
 30
0.0
 11
323.8652471298
 21
906.3367593182
 31
0.0
  0
LINE
  5
227
330
1F
100
AcDbEntity
  8
0
  6
Continuous
 62
     7
370
    15
100
AcDbLine
 10
325.1262410873
 20
859.0392825799
 30
0.0
 11
325.1262410873
 21
906.3367593182
 31
0.0
  0
LINE
  5
228
330
1F
100
AcDbEntity
  8
0
  6
Continuous
 62
     7
370
    15
100
AcDbLine
 10
323.8652471298
 20
906.3367593182
 30
0.0
 11
325.1262410873
 21
906.3367593182
 31
0.0
  0
LINE
  5
229
330
1F
100
AcDbEntity
  8
0
  6
Continuous
 62
     7
370
    15
100
AcDbLine
 10
305.4447377914
 20
859.0392837155
 30
0.0
 11
305.4447377914
 21
906.3367593182
 31
0.0
  0
LINE
  5
22A
330
1F
100
AcDbEntity
  8
0
  6
Continuous
 62
     7
370
    15
100
AcDbLine
 10
306.6949743026
 20
859.0392836566
 30
0.0
 11
306.6949743026
 21
906.3367593182
 31
0.0
  0
LINE
  5
22B
330
1F
100
AcDbEntity
  8
0
  6
Continuous
 62
     7
370
    15
100
AcDbLine
 10
305.4447377914
 20
906.3367593182
 30
0.0
 11
306.6949743026
 21
906.3367593182
 31
0.0
  0
LINE
  5
22C
330
1F
100
AcDbEntity
  8
0
  6
Continuous
 62
     7
370
    15
100
AcDbLine
 10
314.8463414901
 20
859.0392836727
 30
0.0
 11
314.8463414901
 21
906.3367669476
 31
0.0
  0
LINE
  5
22D
330
1F
100
AcDbEntity
  8
0
  6
Continuous
 62
     7
370
    15
100
AcDbLine
 10
306.6949743026
 20
906.3367593182
 30
0.0
 11
314.8463414901
 21
906.3367669476
 31
0.0
  0
LINE
  5
22E
330
1F
100
AcDbEntity
  8
0
  6
Continuous
 62
     7
370
    15
100
AcDbLine
 10
342.1502813094
 20
859.0392812404
 30
0.0
 11
342.1502813094
 21
906.3367593182
 31
0.0
  0
LINE
  5
22F
330
1F
100
AcDbEntity
  8
0
  6
Continuous
 62
     7
370
    15
100
AcDbLine
 10
343.3791021102
 20
859.0392811304
 30
0.0
 11
343.3791021102
 21
906.3367593182
 31
0.0
  0
LINE
  5
230
330
1F
100
AcDbEntity
  8
0
  6
Continuous
 62
     7
370
    15
100
AcDbLine
 10
342.1502813094
 20
906.3367593182
 30
0.0
 11
343.3791021102
 21
906.3367593182
 31
0.0
  0
LINE
  5
231
330
1F
100
AcDbEntity
  8
0
  6
Continuous
 62
     7
370
    15
100
AcDbLine
 10
328.6421025985
 20
859.0392827851
 30
0.0
 11
328.6421025985
 21
906.3367669476
 31
0.0
  0
LINE
  5
232
330
1F
100
AcDbEntity
  8
0
  6
Continuous
 62
     7
370
    15
100
AcDbLine
 10
328.6421025985
 20
906.3367669476
 30
0.0
 11
342.1502813094
 21
906.3367593182
 31
0.0
  0
LINE
  5
233
330
1F
100
AcDbEntity
  8
0
  6
Continuous
 62
     7
370
    15
100
AcDbLine
 10
288.7128728622
 20
859.0392843238
 30
0.0
 11
288.7128728622
 21
906.3367593182
 31
0.0
  0
LINE
  5
234
330
1F
100
AcDbEntity
  8
0
  6
Continuous
 62
     7
370
    15
100
AcDbLine
 10
288.7128728622
 20
906.3367593182
 30
0.0
 11
305.4447377914
 21
906.3367661265
 31
0.0
  0
LINE
  5
235
330
1F
100
AcDbEntity
  8
0
  6
Continuous
 62
     7
370
    15
100
AcDbLine
 10
287.5159658187
 20
859.0392843538
 30
0.0
 11
287.5159658187
 21
906.3367593182
 31
0.0
  0
LINE
  5
236
330
1F
100
AcDbEntity
  8
0
  6
Continuous
 62
     7
370
    15
100
AcDbLine
 10
287.5159658187
 20
906.3367593182
 30
0.0
 11
288.7128728622
 21
906.3367593182
 31
0.0
  0
LINE
  5
237
330
1F
100
AcDbEntity
  8
0
  6
Continuous
 62
     7
370
    15
100
AcDbLine
 10
359.6764348739
 20
859.0392794879
 30
0.0
 11
359.6764348739
 21
906.3367593182
 31
0.0
  0
LINE
  5
238
330
1F
100
AcDbEntity
  8
0
  6
Continuous
 62
     7
370
    15
100
AcDbLine
 10
360.8312200301
 20
859.0392793576
 30
0.0
 11
360.8312200301
 21
906.3367593182
 31
0.0
  0
LINE
  5
239
330
1F
100
AcDbEntity
  8
0
  6
Continuous
 62
     7
370
    15
100
AcDbLine
 10
359.6764348739
 20
906.3367593182
 30
0.0
 11
360.8312200301
 21
906.3367593182
 31
0.0
  0
LINE
  5
23A
330
1F
100
AcDbEntity
  8
0
  6
Continuous
 62
     7
370
    15
100
AcDbLine
 10
343.3791021102
 20
906.3367645357
 30
0.0
 11
359.6764348739
 21
906.3367593182
 31
0.0
  0
LINE
  5
23B
330
1F
100
AcDbEntity
  8
0
  6
Continuous
 62
     7
370
    15
100
AcDbLine
 10
270.6891034835
 20
859.0392850675
 30
0.0
 11
270.6891034835
 21
906.3367593182
 31
0.0
  0
LINE
  5
23C
330
1F
100
AcDbEntity
  8
0
  6
Continuous
 62
     7
370
    15
100
AcDbLine
 10
271.7919172042
 20
859.0392845589
 30
0.0
 11
271.7919172042
 21
906.3367593182
 31
0.0
  0
LINE
  5
23D
330
1F
100
AcDbEntity
  8
0
  6
Continuous
 62
     7
370
    15
100
AcDbLine
 10
270.6891034835
 20
906.3367593182
 30
0.0
 11
271.7919172042
 21
906.3367593182
 31
0.0
  0
LINE
  5
23E
330
1F
100
AcDbEntity
  8
0
  6
Continuous
 62
     7
370
    15
100
AcDbLine
 10
271.7919172042
 20
906.3367593182
 30
0.0
 11
287.5159658187
 21
906.3367634968
 31
0.0
  0
LINE
  5
23F
330
1F
100
AcDbEntity
  8
0
  6
Continuous
 62
     7
370
    15
100
AcDbLine
 10
375.8477605575
 20
859.0392774678
 30
0.0
 11
375.8477605575
 21
906.3367593182
 31
0.0
  0
LINE
  5
240
330
1F
100
AcDbEntity
  8
0
  6
Continuous
 62
     7
370
    15
100
AcDbLine
 10
360.8312200301
 20
906.3367593182
 30
0.0
 11
375.8477605575
 21
906.3367593182
 31
0.0
  0
LINE
  5
241
330
1F
100
AcDbEntity
  8
0
  6
Continuous
 62
     7
370
    15
100
AcDbLine
 10
376.8891881698
 20
859.0392723714
 30
0.0
 11
376.8891881698
 21
906.3367593182
 31
0.0
  0
LINE
  5
242
330
1F
100
AcDbEntity
  8
0
  6
Continuous
 62
     7
370
    15
100
AcDbLine
 10
375.8477605575
 20
906.3367593182
 30
0.0
 11
376.8891881698
 21
906.3367593182
 31
0.0
  0
LINE
  5
243
330
1F
100
AcDbEntity
  8
0
  6
Continuous
 62
     7
370
    15
100
AcDbLine
 10
256.5085462325
 20
859.0392849313
 30
0.0
 11
256.5085462325
 21
906.3367593182
 31
0.0
  0
LINE
  5
244
330
1F
100
AcDbEntity
  8
0
  6
Continuous
 62
     7
370
    15
100
AcDbLine
 10
256.5085462325
 20
906.3367593182
 30
0.0
 11
270.6891034835
 21
906.3367593182
 31
0.0
  0
LINE
  5
245
330
1F
100
AcDbEntity
  8
0
  6
Continuous
 62
     7
370
    15
100
AcDbLine
 10
255.5373815292
 20
859.0392849013
 30
0.0
 11
255.5373815292
 21
906.3367593182
 31
0.0
  0
LINE
  5
246
330
1F
100
AcDbEntity
  8
0
  6
Continuous
 62
     7
370
    15
100
AcDbLine
 10
255.5373815292
 20
906.3367593182
 30
0.0
 11
256.5085462325
 21
906.3367593182
 31
0.0
  0
LINE
  5
247
330
1F
100
AcDbEntity
  8
0
  6
Continuous
 62
     7
370
    15
100
AcDbLine
 10
390.1128667587
 20
859.0392752491
 30
0.0
 11
390.1128667587
 21
906.3367593182
 31
0.0
  0
LINE
  5
248
330
1F
100
AcDbEntity
  8
0
  6
Continuous
 62
     7
370
    15
100
AcDbLine
 10
376.8891881698
 20
906.3367593182
 30
0.0
 11
390.1128667587
 21
906.3367593182
 31
0.0
  0
LINE
  5
249
330
1F
100
AcDbEntity
  8
0
  6
Continuous
 62
     7
370
    15
100
AcDbLine
 10
391.00549066
 20
859.0392750921
 30
0.0
 11
391.00549066
 21
906.3367669476
 31
0.0
  0
LINE
  5
24A
330
1F
100
AcDbEntity
  8
0
  6
Continuous
 62
     7
370
    15
100
AcDbLine
 10
390.1128667587
 20
906.3367593182
 30
0.0
 11
391.00549066
 21
906.3367669476
 31
0.0
  0
LINE
  5
24B
330
1F
100
AcDbEntity
  8
0
  6
Continuous
 62
     7
370
    15
100
AcDbLine
 10
242.5767644637
 20
859.0392843521
 30
0.0
 11
242.5767644637
 21
906.3367669476
 31
0.0
  0
LINE
  5
24C
330
1F
100
AcDbEntity
  8
0
  6
Continuous
 62
     7
370
    15
100
AcDbLine
 10
243.3832143539
 20
859.0392844027
 30
0.0
 11
243.3832143539
 21
906.3367669476
 31
0.0
  0
LINE
  5
24D
330
1F
100
AcDbEntity
  8
0
  6
Continuous
 62
     7
370
    15
100
AcDbLine
 10
242.5767644637
 20
906.3367669476
 30
0.0
 11
243.3832143539
 21
906.3367669476
 31
0.0
  0
LINE
  5
24E
330
1F
100
AcDbEntity
  8
0
  6
Continuous
 62
     7
370
    15
100
AcDbLine
 10
243.3832143539
 20
906.3367669476
 30
0.0
 11
255.5373815292
 21
906.3367649047
 31
0.0
  0
LINE
  5
24F
330
1F
100
AcDbEntity
  8
0
  6
Continuous
 62
     7
370
    15
100
AcDbLine
 10
401.9864629501
 20
859.0392729072
 30
0.0
 11
401.9864629501
 21
906.3367669476
 31
0.0
  0
LINE
  5
250
330
1F
100
AcDbEntity
  8
0
  6
Continuous
 62
     7
370
    15
100
AcDbLine
 10
391.00549066
 20
906.3367652264
 30
0.0
 11
401.9864629501
 21
906.3367669476
 31
0.0
  0
LINE
  5
251
330
1F
100
AcDbEntity
  8
0
  6
Continuous
 62
     7
370
    15
100
AcDbLine
 10
402.6998723739
 20
859.0392727447
 30
0.0
 11
402.6998723739
 21
906.3367669476
 31
0.0
  0
LINE
  5
252
330
1F
100
AcDbEntity
  8
0
  6
Continuous
 62
     7
370
    15
100
AcDbLine
 10
401.9864629501
 20
906.3367669476
 30
0.0
 11
402.6998723739
 21
906.3367669476
 31
0.0
  0
LINE
  5
253
330
1F
100
AcDbEntity
  8
0
  6
Continuous
 62
     7
370
    15
100
AcDbLine
 10
232.8627599471
 20
859.0392835257
 30
0.0
 11
232.8627599471
 21
906.3367669476
 31
0.0
  0
LINE
  5
254
330
1F
100
AcDbEntity
  8
0
  6
Continuous
 62
     7
370
    15
100
AcDbLine
 10
232.8627599471
 20
906.3367669476
 30
0.0
 11
242.5767644637
 21
906.3367669476
 31
0.0
  0
LINE
  5
255
330
1F
100
AcDbEntity
  8
0
  6
Continuous
 62
     7
370
    15
100
AcDbLine
 10
232.2484945052
 20
859.039283463
 30
0.0
 11
232.2484945052
 21
906.3367669476
 31
0.0
  0
LINE
  5
256
330
1F
100
AcDbEntity
  8
0
  6
Continuous
 62
     7
370
    15
100
AcDbLine
 10
232.2484945052
 20
906.3367669476
 30
0.0
 11
232.8627599471
 21
906.3367669476
 31
0.0
  0
LINE
  5
257
330
1F
100
AcDbEntity
  8
0
  6
Continuous
 62
     7
370
    15
100
AcDbLine
 10
319.8795751327
 20
859.0392833822
 30
0.0
 11
319.8795751327
 21
906.3367669476
 31
0.0
  0
LINE
  5
258
330
1F
100
AcDbEntity
  8
0
  6
Continuous
 62
     7
370
    15
100
AcDbLine
 10
319.8795751327
 20
906.3367669476
 30
0.0
 11
321.1405767196
 21
906.3367669476
 31
0.0
  0
LINE
  5
259
330
1F
100
AcDbEntity
  8
0
  6
Continuous
 62
     7
370
    15
100
AcDbLine
 10
316.0965780013
 20
859.0392836005
 30
0.0
 11
316.0965780013
 21
906.3367669476
 31
0.0
  0
LINE
  5
25A
330
1F
100
AcDbEntity
  8
0
  6
Continuous
 62
     7
370
    15
100
AcDbLine
 10
316.0965780013
 20
906.3367669476
 30
0.0
 11
319.8795751327
 21
906.3367669476
 31
0.0
  0
LINE
  5
25B
330
1F
100
AcDbEntity
  8
0
  6
Continuous
 62
     7
370
    15
100
AcDbLine
 10
411.0639318221
 20
859.0392715206
 30
0.0
 11
411.0639318221
 21
906.3367669476
 31
0.0
  0
LINE
  5
25C
330
1F
100
AcDbEntity
  8
0
  6
Continuous
 62
     7
370
    15
100
AcDbLine
 10
402.6998723739
 20
906.3367669476
 30
0.0
 11
411.0639318221
 21
906.3367669476
 31
0.0
  0
LINE
  5
25D
330
1F
100
AcDbEntity
  8
0
  6
Continuous
 62
     7
370
    15
100
AcDbLine
 10
411.5738195174
 20
859.0392713851
 30
0.0
 11
411.5738195174
 21
906.3367669476
 31
0.0
  0
LINE
  5
25E
330
1F
100
AcDbEntity
  8
0
  6
Continuous
 62
     7
370
    15
100
AcDbLine
 10
411.0639318221
 20
906.3367669476
 30
0.0
 11
411.5738195174
 21
906.3367669476
 31
0.0
  0
LINE
  5
25F
330
1F
100
AcDbEntity
  8
0
  6
Continuous
 62
     7
370
    15
100
AcDbLine
 10
327.4133046859
 20
859.0392828688
 30
0.0
 11
327.4132894271
 21
906.3367669476
 31
0.0
  0
LINE
  5
260
330
1F
100
AcDbEntity
  8
0
  6
Continuous
 62
     7
370
    15
100
AcDbLine
 10
325.1262410873
 20
906.3367669476
 30
0.0
 11
327.4132894271
 21
906.3367669476
 31
0.0
  0
LINE
  5
261
330
1F
100
AcDbEntity
  8
0
  6
Continuous
 62
     7
370
    15
100
AcDbLine
 10
314.8463414901
 20
906.3367669476
 30
0.0
 11
316.0965780013
 21
906.3367669476
 31
0.0
  0
LINE
  5
262
330
1F
100
AcDbEntity
  8
0
  6
Continuous
 62
     7
370
    15
100
AcDbLine
 10
327.4132894271
 20
906.3367669476
 30
0.0
 11
328.6421025985
 21
906.3367669476
 31
0.0
  0
LINE
  5
263
330
1F
100
AcDbEntity
  8
0
  6
Continuous
 62
     7
370
    15
100
AcDbLine
 10
224.9044545882
 20
859.039282366
 30
0.0
 11
224.9044545882
 21
906.3367593182
 31
0.0
  0
LINE
  5
264
330
1F
100
AcDbEntity
  8
0
  6
Continuous
 62
     7
370
    15
100
AcDbLine
 10
225.3056157821
 20
859.0392824434
 30
0.0
 11
225.3056157821
 21
906.3367593182
 31
0.0
  0
LINE
  5
265
330
1F
100
AcDbEntity
  8
0
  6
Continuous
 62
     7
370
    15
100
AcDbLine
 10
224.9044545882
 20
906.3367593182
 30
0.0
 11
225.3056157821
 21
906.3367593182
 31
0.0
  0
LINE
  5
266
330
1F
100
AcDbEntity
  8
0
  6
Continuous
 62
     7
370
    15
100
AcDbLine
 10
225.3056157821
 20
906.3367593182
 30
0.0
 11
232.2484945052
 21
906.3367602651
 31
0.0
  0
LINE
  5
267
330
1F
100
AcDbEntity
  8
0
  6
Continuous
 62
     7
370
    15
100
AcDbLine
 10
417.0361913436
 20
859.0392587078
 30
0.0
 11
417.0361913436
 21
906.3367593182
 31
0.0
  0
LINE
  5
268
330
1F
100
AcDbEntity
  8
0
  6
Continuous
 62
     7
370
    15
100
AcDbLine
 10
411.5738195174
 20
906.3367593182
 30
0.0
 11
417.0361913436
 21
906.3367593182
 31
0.0
  0
LINE
  5
269
330
1F
100
AcDbEntity
  8
0
  6
Continuous
 62
     7
370
    15
100
AcDbLine
 10
417.3252080673
 20
859.0392587078
 30
0.0
 11
417.3252080673
 21
906.3367669476
 31
0.0
  0
LINE
  5
26A
330
1F
100
AcDbEntity
  8
0
  6
Continuous
 62
     7
370
    15
100
AcDbLine
 10
417.0361913436
 20
906.3367593182
 30
0.0
 11
417.3252080673
 21
906.3367669476
 31
0.0
  0
LINE
  5
26B
330
1F
100
AcDbEntity
  8
0
  6
Continuous
 62
     7
370
    15
100
AcDbLine
 10
220.7946599715
 20
859.039281402
 30
0.0
 11
220.7946599715
 21
906.3367669476
 31
0.0
  0
LINE
  5
26C
330
1F
100
AcDbEntity
  8
0
  6
Continuous
 62
     7
370
    15
100
AcDbLine
 10
220.9690679305
 20
859.0392814498
 30
0.0
 11
220.9690679305
 21
906.3367669476
 31
0.0
  0
LINE
  5
26D
330
1F
100
AcDbEntity
  8
0
  6
Continuous
 62
     7
370
    15
100
AcDbLine
 10
220.7946599715
 20
906.3367669476
 30
0.0
 11
220.9690679305
 21
906.3367669476
 31
0.0
  0
LINE
  5
26E
330
1F
100
AcDbEntity
  8
0
  6
Continuous
 62
     7
370
    15
100
AcDbLine
 10
220.9690679305
 20
906.3367669476
 30
0.0
 11
224.9044545882
 21
906.3367664338
 31
0.0
  0
LINE
  5
26F
330
1F
100
AcDbEntity
  8
0
  6
Continuous
 62
     7
370
    15
100
AcDbLine
 10
419.7000249618
 20
859.0392587078
 30
0.0
 11
419.7000249618
 21
906.3367593182
 31
0.0
  0
LINE
  5
270
330
1F
100
AcDbEntity
  8
0
  6
Continuous
 62
     7
370
    15
100
AcDbLine
 10
417.3252080673
 20
906.3367593182
 30
0.0
 11
419.7000249618
 21
906.3367593182
 31
0.0
  0
LINE
  5
271
330
1F
100
AcDbEntity
  8
0
  6
Continuous
 62
     7
370
    15
100
AcDbLine
 10
419.758313536
 20
859.0392587078
 30
0.0
 11
419.758313536
 21
906.3367593182
 31
0.0
  0
LINE
  5
272
330
1F
100
AcDbEntity
  8
0
  6
Continuous
 62
     7
370
    15
100
AcDbLine
 10
419.7000249618
 20
906.3367593182
 30
0.0
 11
419.758313536
 21
906.3367593182
 31
0.0
  0
LINE
  5
273
330
1F
100
AcDbEntity
  8
0
  6
Continuous
 62
     7
370
    15
100
AcDbLine
 10
220.0008291
 20
859.0392811844
 30
0.0
 11
220.0008291
 21
906.3367593182
 31
0.0
  0
LINE
  5
274
330
1F
100
AcDbEntity
  8
0
  6
Continuous
 62
     7
370
    15
100
AcDbLine
 10
220.0008291
 20
906.3367593182
 30
0.0
 11
220.7946599715
 21
906.3367593182
 31
0.0
  0
SPLINE
  5
275
330
1F
100
AcDbEntity
  8
0
  6
Continuous
 62
     7
370
    15
100
AcDbSpline
210
0.0
220
0.0
230
1.0
 70
     8
 71
     3
 72
    20
 73
    16
 74
     0
 42
0.00000001
 43
0.00000001
 12
1.0
 22
0.0
 32
0.0
 13
1.0
 23
0.0
 33
0.0
 40
0.0
 40
0.0
 40
0.0
 40
0.0
 40
0.0797968776402626
 40
0.1596124655645645
 40
0.2393975769996511
 40
0.3192196455360167
 40
0.3990091387448809
 40
0.4773832291433627
 40
0.5557743201159115
 40
0.6341433108855159
 40
0.7125267972619109
 40
0.7925022819266465
 40
0.8724792169609364
 40
0.9524559976990149
 40
1.0
 40
1.0
 40
1.0
 40
1.0
 10
336.7485631697897
 20
799.4419381512049
 30
0.0
 10
340.0293373814755
 20
799.406133872727
 30
0.0
 10
346.5916550607276
 20
799.3345169206023
 30
0.0
 10
356.0532150398284
 20
799.2706038887035
 30
0.0
 10
365.1062568940808
 20
799.2544028126013
 30
0.0
 10
373.6744893901803
 20
799.3663467532497
 30
0.0
 10
381.4825963343276
 20
799.3545483275515
 30
0.0
 10
388.5393270917135
 20
799.3814800106569
 30
0.0
 10
394.6256944271905
 20
799.2422190749605
 30
0.0
 10
399.9884628532752
 20
799.2975238769865
 30
0.0
 10
404.3824451406944
 20
799.2781272178398
 30
0.0
 10
407.8288765059614
 20
799.2842496646764
 30
0.0
 10
410.1719726305857
 20
799.282513310751
 30
0.0
 10
411.4095280793126
 20
799.2829264813432
 30
0.0
 10
411.4042042905891
 20
799.2828925817922
 30
0.0
 10
411.4022194045393
 20
799.2828799429087
 30
0.0
  0
SPLINE
  5
276
330
1F
100
AcDbEntity
  8
0
  6
Continuous
 62
     7
370
    15
100
AcDbSpline
210
0.0
220
0.0
230
1.0
 70
     8
 71
     3
 72
    19
 73
    15
 74
     0
 42
0.00000001
 43
0.00000001
 12
1.0
 22
0.0
 32
0.0
 13
1.0
 23
0.0
 33
0.0
 40
0.0
 40
0.0
 40
0.0
 40
0.0
 40
0.0816832285629426
 40
0.1686655088924428
 40
0.2556465708674331
 40
0.3426331935573618
 40
0.4296047420388682
 40
0.5183751083299736
 40
0.6071234378497496
 40
0.6958664689363971
 40
0.7846421826240041
 40
0.8733780786766208
 40
0.962150654669468
 40
1.0
 40
1.0
 40
1.0
 40
1.0
 10
411.2848284946851
 20
799.3609319306228
 30
0.0
 10
410.9634360891641
 20
799.3608514231732
 30
0.0
 10
410.2998015269039
 20
799.3606851854994
 30
0.0
 10
407.9604591885607
 20
799.3622368976312
 30
0.0
 10
404.6310507620304
 20
799.3564447390138
 30
0.0
 10
400.3037525952345
 20
799.375449654343
 30
0.0
 10
394.9552843191784
 20
799.3200345212337
 30
0.0
 10
388.802835394986
 20
799.4589386280632
 30
0.0
 10
381.6617375414306
 20
799.4363046513924
 30
0.0
 10
373.789327285493
 20
799.4477665437962
 30
0.0
 10
365.2082610860131
 20
799.3344589464315
 30
0.0
 10
356.1174890126019
 20
799.3370347338512
 30
0.0
 10
348.4789035236574
 20
799.4282744190272
 30
0.0
 10
343.7859351317935
 20
799.4313015849873
 30
0.0
 10
342.3831307877077
 20
799.4322064539753
 30
0.0
  0
SPLINE
  5
277
330
1F
100
AcDbEntity
  8
0
  6
Continuous
 62
     7
370
    15
100
AcDbSpline
210
0.0
220
0.0
230
1.0
 70
     8
 71
     3
 72
    10
 73
     6
 74
     0
 42
0.00000001
 43
0.00000001
 12
1.0
 22
0.0
 32
0.0
 13
1.0
 23
0.0
 33
0.0
 40
0.0
 40
0.0
 40
0.0
 40
0.0
 40
0.2119314945811289
 40
0.6059656869808927
 40
1.0
 40
1.0
 40
1.0
 40
1.0
 10
402.3979224591354
 20
799.4419375277602
 30
0.0
 10
401.6028274583852
 20
799.4419385003451
 30
0.0
 10
399.3294499724342
 20
799.4419412812109
 30
0.0
 10
394.4794553509934
 20
799.4419373767684
 30
0.0
 10
389.9756535992931
 20
799.4419391646252
 30
0.0
 10
387.723752378774
 20
799.4419400585537
 30
0.0
  0
SPLINE
  5
278
330
1F
100
AcDbEntity
  8
0
  6
Continuous
 62
     7
370
    15
100
AcDbSpline
210
0.0
220
0.0
230
1.0
 70
     8
 71
     3
 72
    15
 73
    11
 74
     0
 42
0.00000001
 43
0.00000001
 12
1.0
 22
0.0
 32
0.0
 13
1.0
 23
0.0
 33
0.0
 40
0.0
 40
0.0
 40
0.0
 40
0.0
 40
0.1399822846751146
 40
0.2799555165941618
 40
0.4199359397745939
 40
0.5599118330471554
 40
0.699889426816102
 40
0.8398669235432281
 40
0.9798433551474489
 40
1.0
 40
1.0
 40
1.0
 40
1.0
 10
387.723752378774
 20
799.4419400585537
 30
0.0
 10
389.761832956259
 20
799.4063678808236
 30
0.0
 10
393.8378623070769
 20
799.3352258258421
 30
0.0
 10
399.0606567671412
 20
799.3695094624892
 30
0.0
 10
403.4592709826469
 20
799.3581789655138
 30
0.0
 10
406.9527673228814
 20
799.3618510940724
 30
0.0
 10
409.5430985335045
 20
799.3606562180308
 30
0.0
 10
411.0696575574303
 20
799.3611523140681
 30
0.0
 10
411.7428766048866
 20
799.3608911515995
 30
0.0
 10
411.5684990940043
 20
799.36083902871
 30
0.0
 10
411.5465494404105
 20
799.3608324677757
 30
0.0
  0
SPLINE
  5
279
330
1F
100
AcDbEntity
  8
0
  6
Continuous
 62
     7
370
    15
100
AcDbSpline
210
0.0
220
0.0
230
1.0
 70
     8
 71
     3
 72
    15
 73
    11
 74
     0
 42
0.00000001
 43
0.00000001
 12
1.0
 22
0.0
 32
0.0
 13
1.0
 23
0.0
 33
0.0
 40
0.0
 40
0.0
 40
0.0
 40
0.0
 40
0.1420980955045772
 40
0.2842192868918565
 40
0.4262988007220493
 40
0.5684400624543832
 40
0.7105059250353173
 40
0.852629280224993
 40
0.9866172376823219
 40
1.0
 40
1.0
 40
1.0
 40
1.0
 10
258.0314420455221
 20
799.4419381512049
 30
0.0
 10
260.4503073108477
 20
799.4103412255832
 30
0.0
 10
265.2884309912328
 20
799.3471422387402
 30
0.0
 10
273.2987394907348
 20
799.2627818333868
 30
0.0
 10
281.7097451603627
 20
799.2732483289016
 30
0.0
 10
290.5320549002586
 20
799.3149292095366
 30
0.0
 10
299.6657619212893
 20
799.3851787968699
 30
0.0
 10
308.8597290129348
 20
799.3515437409343
 30
0.0
 10
315.2974300395035
 20
799.362542627168
 30
0.0
 10
318.5755926808813
 20
799.3615523429646
 30
0.0
 10
318.873283236612
 20
799.361462415073
 30
0.0
  0
SPLINE
  5
27A
330
1F
100
AcDbEntity
  8
0
  6
Continuous
 62
     7
370
    15
100
AcDbSpline
210
0.0
220
0.0
230
1.0
 70
     8
 71
     3
 72
    11
 73
     7
 74
     0
 42
0.00000001
 43
0.00000001
 12
1.0
 22
0.0
 32
0.0
 13
1.0
 23
0.0
 33
0.0
 40
0.0
 40
0.0
 40
0.0
 40
0.0
 40
0.2177685338532865
 40
0.4785260222450013
 40
0.7392489456435091
 40
1.0
 40
1.0
 40
1.0
 40
1.0
 10
319.4536102718766
 20
799.3613224160123
 30
0.0
 10
321.9453514448864
 20
799.3583676749232
 30
0.0
 10
327.4207200433074
 20
799.3518749072346
 30
0.0
 10
335.8247561162286
 20
799.3945279897671
 30
0.0
 10
344.55081893866
 20
799.2616289404027
 30
0.0
 10
350.1772575396355
 20
799.275796414724
 30
0.0
 10
352.9906285994772
 20
799.2828805340175
 30
0.0
  0
SPLINE
  5
27B
330
1F
100
AcDbEntity
  8
0
  6
Continuous
 62
     7
370
    15
100
AcDbSpline
210
0.0
220
0.0
230
1.0
 70
     8
 71
     3
 72
    13
 73
     9
 74
     0
 42
0.00000001
 43
0.00000001
 12
1.0
 22
0.0
 32
0.0
 13
1.0
 23
0.0
 33
0.0
 40
0.0
 40
0.0
 40
0.0
 40
0.0
 40
0.1763530454664742
 40
0.3526835379139364
 40
0.5290426981428827
 40
0.7053861732119551
 40
0.8817245579516606
 40
1.0
 40
1.0
 40
1.0
 40
1.0
 10
352.9906285994772
 20
799.2828805340175
 30
0.0
 10
350.0142266155631
 20
799.3123786914529
 30
0.0
 10
344.0618032867558
 20
799.3713712339335
 30
0.0
 10
334.763702473596
 20
799.4710794951318
 30
0.0
 10
325.3103745746661
 20
799.430249266283
 30
0.0
 10
315.8059410751817
 20
799.448494725587
 30
0.0
 10
307.3589272690151
 20
799.4351583995323
 30
0.0
 10
302.1916303342413
 20
799.4434302894173
 30
0.0
 10
300.1171712505709
 20
799.4467511160173
 30
0.0
  0
SPLINE
  5
27C
330
1F
100
AcDbEntity
  8
0
  6
Continuous
 62
     7
370
    15
100
AcDbSpline
210
0.0
220
0.0
230
1.0
 70
     8
 71
     3
 72
    12
 73
     8
 74
     0
 42
0.00000001
 43
0.00000001
 12
1.0
 22
0.0
 32
0.0
 13
1.0
 23
0.0
 33
0.0
 40
0.0
 40
0.0
 40
0.0
 40
0.0
 40
0.168938701630725
 40
0.4097993311830771
 40
0.6505995194708749
 40
0.8914407445743547
 40
1.0
 40
1.0
 40
1.0
 40
1.0
 10
294.505884778791
 20
799.4281075649619
 30
0.0
 10
292.5002645544103
 20
799.4074261490401
 30
0.0
 10
287.6351755095384
 20
799.357258660295
 30
0.0
 10
280.2057252265656
 20
799.3690508892366
 30
0.0
 10
272.3545616720774
 20
799.3253886720524
 30
0.0
 10
266.1484134823131
 20
799.4470023861303
 30
0.0
 10
262.8482660843476
 20
799.4411915667638
 30
0.0
 10
261.8229053184567
 20
799.4393861364367
 30
0.0
  0
SPLINE
  5
27D
330
1F
100
AcDbEntity
  8
0
  6
Continuous
 62
     7
370
    15
100
AcDbSpline
210
0.0
220
0.0
230
1.0
 70
     8
 71
     3
 72
    11
 73
     7
 74
     0
 42
0.00000001
 43
0.00000001
 12
1.0
 22
0.0
 32
0.0
 13
1.0
 23
0.0
 33
0.0
 40
0.0
 40
0.0
 40
0.0
 40
0.0
 40
0.3277344189628386
 40
0.6554632339593035
 40
0.9831968327361984
 40
1.0
 40
1.0
 40
1.0
 40
1.0
 10
344.9632619612935
 20
799.2828805340175
 30
0.0
 10
342.2879340895955
 20
799.3156158030273
 30
0.0
 10
336.9373240919209
 20
799.381085781303
 30
0.0
 10
328.6895597891381
 20
799.3557933794349
 30
0.0
 10
323.0113904095469
 20
799.3607894651431
 30
0.0
 10
320.1041003780996
 20
799.3608473090528
 30
0.0
 10
319.9623109219433
 20
799.3608501301186
 30
0.0
  0
SPLINE
  5
27E
330
1F
100
AcDbEntity
  8
0
  6
Continuous
 62
     7
370
    15
100
AcDbSpline
210
0.0
220
0.0
230
1.0
 70
     8
 71
     3
 72
    11
 73
     7
 74
     0
 42
0.00000001
 43
0.00000001
 12
1.0
 22
0.0
 32
0.0
 13
1.0
 23
0.0
 33
0.0
 40
0.0
 40
0.0
 40
0.0
 40
0.0
 40
0.2216683710766492
 40
0.4811112789463053
 40
0.7405585349086187
 40
1.0
 40
1.0
 40
1.0
 40
1.0
 10
319.5169697578343
 20
799.3608652226405
 30
0.0
 10
317.038384964764
 20
799.3614019612446
 30
0.0
 10
311.6588394121937
 20
799.3625669041505
 30
0.0
 10
303.4500446279663
 20
799.3545091894734
 30
0.0
 10
294.9370503129732
 20
799.3829720096137
 30
0.0
 10
289.4913392036837
 20
799.3162441109854
 30
0.0
 10
286.7685140364889
 20
799.2828805340175
 30
0.0
  0
SPLINE
  5
27F
330
1F
100
AcDbEntity
  8
0
  6
Continuous
 62
     7
370
    15
100
AcDbSpline
210
0.0
220
0.0
230
1.0
 70
     8
 71
     3
 72
    12
 73
     8
 74
     0
 42
0.00000001
 43
0.00000001
 12
1.0
 22
0.0
 32
0.0
 13
1.0
 23
0.0
 33
0.0
 40
0.0
 40
0.0
 40
0.0
 40
0.0
 40
0.3999868587124599
 40
0.4000000019308388
 40
0.5999998121275122
 40
0.6000130776288064
 40
1.0
 40
1.0
 40
1.0
 40
1.0
 10
237.8297704451803
 20
799.2828805340175
 30
0.0
 10
240.263158692719
 20
799.381801403328
 30
0.0
 10
243.2649069982195
 20
799.3661727861046
 30
0.0
 10
248.3784820209917
 20
799.3583613156194
 30
0.0
 10
250.1850762193069
 20
799.3583629021822
 30
0.0
 10
255.8896020150657
 20
799.3661753277672
 30
0.0
 10
260.0731995543258
 20
799.3817931644745
 30
0.0
 10
264.6426671736959
 20
799.2828805340175
 30
0.0
  0
SPLINE
  5
280
330
1F
100
AcDbEntity
  8
0
  6
Continuous
 62
     7
370
    15
100
AcDbSpline
210
0.0
220
0.0
230
1.0
 70
     8
 71
     3
 72
    12
 73
     8
 74
     0
 42
0.00000001
 43
0.00000001
 12
1.0
 22
0.0
 32
0.0
 13
1.0
 23
0.0
 33
0.0
 40
0.0
 40
0.0
 40
0.0
 40
0.0
 40
0.3999868587124599
 40
0.4000000019308388
 40
0.5999998121275122
 40
0.6000130776288064
 40
1.0
 40
1.0
 40
1.0
 40
1.0
 10
237.8297704451803
 20
799.2828805340175
 30
0.0
 10
240.3457294035075
 20
799.2828858744172
 30
0.0
 10
243.3314699816981
 20
799.2828802798871
 30
0.0
 10
248.4352309986246
 20
799.2828806610701
 30
0.0
 10
250.2409201629613
 20
799.282882250735
 30
0.0
 10
255.9467281479227
 20
799.2828828226667
 30
0.0
 10
260.1365088557255
 20
799.2828776095196
 30
0.0
 10
264.6426671736959
 20
799.2828805340175
 30
0.0
  0
SPLINE
  5
281
330
1F
100
AcDbEntity
  8
0
  6
Continuous
 62
     7
370
    15
100
AcDbSpline
210
0.0
220
0.0
230
1.0
 70
     8
 71
     3
 72
    10
 73
     6
 74
     0
 42
0.00000001
 43
0.00000001
 12
1.0
 22
0.0
 32
0.0
 13
1.0
 23
0.0
 33
0.0
 40
0.0
 40
0.0
 40
0.0
 40
0.0
 40
0.500000079684071
 40
0.5000001077475786
 40
1.0
 40
1.0
 40
1.0
 40
1.0
 10
237.8297704451803
 20
799.2828805340175
 30
0.0
 10
235.2185727289188
 20
799.3869981570402
 30
0.0
 10
233.1933258000982
 20
799.3609646264885
 30
0.0
 10
230.1003096478701
 20
799.3609663329038
 30
0.0
 10
229.0325399881709
 20
799.3870015415856
 30
0.0
 10
228.6115545027974
 20
799.2828805340175
 30
0.0
  0
SPLINE
  5
282
330
1F
100
AcDbEntity
  8
0
  6
Continuous
 62
     7
370
    15
100
AcDbSpline
210
0.0
220
0.0
230
1.0
 70
     8
 71
     3
 72
    10
 73
     6
 74
     0
 42
0.00000001
 43
0.00000001
 12
1.0
 22
0.0
 32
0.0
 13
1.0
 23
0.0
 33
0.0
 40
0.0
 40
0.0
 40
0.0
 40
0.0
 40
0.4999999829647485
 40
0.5000000141043458
 40
1.0
 40
1.0
 40
1.0
 40
1.0
 10
264.5551427596334
 20
799.4419381512049
 30
0.0
 10
269.1159951411634
 20
799.3339869674887
 30
0.0
 10
273.9312336825116
 20
799.3609654842736
 30
0.0
 10
284.0485977944704
 20
799.3609654751189
 30
0.0
 10
289.3507236742573
 20
799.3339869589464
 30
0.0
 10
294.7561429732564
 20
799.4419381512049
 30
0.0
  0
SPLINE
  5
283
330
1F
100
AcDbEntity
  8
0
  6
Continuous
 62
     7
370
    15
100
AcDbSpline
210
0.0
220
0.0
230
1.0
 70
     8
 71
     3
 72
    10
 73
     6
 74
     0
 42
0.00000001
 43
0.00000001
 12
1.0
 22
0.0
 32
0.0
 13
1.0
 23
0.0
 33
0.0
 40
0.0
 40
0.0
 40
0.0
 40
0.0
 40
0.5000001901526333
 40
0.500000234778132
 40
1.0
 40
1.0
 40
1.0
 40
1.0
 10
345.0030111068014
 20
799.4419381512049
 30
0.0
 10
350.4084376451859
 20
799.3339869117673
 30
0.0
 10
355.7105635410118
 20
799.3609654540592
 30
0.0
 10
365.8279237220616
 20
799.3609655053333
 30
0.0
 10
370.6431588600558
 20
799.333987045721
 30
0.0
 10
375.2040075057272
 20
799.4419381512049
 30
0.0
  0
SPLINE
  5
284
330
1F
100
AcDbEntity
  8
0
  6
Continuous
 62
     7
370
    15
100
AcDbSpline
210
0.0
220
0.0
230
1.0
 70
     8
 71
     3
 72
    10
 73
     6
 74
     0
 42
0.00000001
 43
0.00000001
 12
1.0
 22
0.0
 32
0.0
 13
1.0
 23
0.0
 33
0.0
 40
0.0
 40
0.0
 40
0.0
 40
0.0
 40
0.5000006121778203
 40
0.5000006957890609
 40
1.0
 40
1.0
 40
1.0
 40
1.0
 10
368.131825804067
 20
799.2828805340175
 30
0.0
 10
372.9930101786677
 20
799.3870032783814
 30
0.0
 10
377.504587645253
 20
799.3609645992871
 30
0.0
 10
385.8570623353514
 20
799.3609663601036
 30
0.0
 10
389.6979619817998
 20
799.3870066376583
 30
0.0
 10
393.0250524276021
 20
799.2828805340175
 30
0.0
  0
SPLINE
  5
285
330
1F
100
AcDbEntity
  8
0
  6
Continuous
 62
     7
370
    15
100
AcDbSpline
210
0.0
220
0.0
230
1.0
 70
     8
 71
     3
 72
    10
 73
     6
 74
     0
 42
0.00000001
 43
0.00000001
 12
1.0
 22
0.0
 32
0.0
 13
1.0
 23
0.0
 33
0.0
 40
0.0
 40
0.0
 40
0.0
 40
0.0
 40
0.5000006121778203
 40
0.5000006957890609
 40
1.0
 40
1.0
 40
1.0
 40
1.0
 10
368.131825804067
 20
799.2828805340175
 30
0.0
 10
372.9327434719373
 20
799.2828813817308
 30
0.0
 10
377.4573055117972
 20
799.2828796863046
 30
0.0
 10
385.802442096722
 20
799.282881381728
 30
0.0
 10
389.6230191684362
 20
799.2828847725652
 30
0.0
 10
393.0250524276021
 20
799.2828805340175
 30
0.0
  0
LINE
  5
286
330
1F
100
AcDbEntity
  8
0
  6
Continuous
 62
     7
370
    15
100
AcDbLine
 10
282.3103536361
 20
859.0392849529
 30
0.0
 11
273.5226720565
 21
859.0392850675
 31
0.0
  0
LINE
  5
287
330
1F
100
AcDbEntity
  8
0
  6
Continuous
 62
     7
370
    15
100
AcDbLine
 10
271.7919172042
 20
859.0392845589
 30
0.0
 11
287.5159658187
 21
859.0392803803
 31
0.0
  0
LINE
  5
288
330
1F
100
AcDbEntity
  8
0
  6
Continuous
 62
     7
370
    15
100
AcDbLine
 10
234.4683553675
 20
799.4374385879
 30
0.0
 11
237.7620671981
 21
799.3609654797
 31
0.0
  0
SPLINE
  5
289
330
1F
100
AcDbEntity
  8
0
  6
Continuous
 62
     7
370
    15
100
AcDbSpline
210
0.0
220
0.0
230
1.0
 70
     8
 71
     3
 72
     8
 73
     4
 74
     0
 42
0.00000001
 43
0.00000001
 12
1.0
 22
0.0
 32
0.0
 13
1.0
 23
0.0
 33
0.0
 40
0.0
 40
0.0
 40
0.0
 40
0.0
 40
1.0
 40
1.0
 40
1.0
 40
1.0
 10
234.2746404402975
 20
799.4419362438564
 30
0.0
 10
236.3243389716734
 20
799.4419375154224
 30
0.0
 10
238.8414644192646
 20
799.4419387869882
 30
0.0
 10
241.8260167830709
 20
799.4419400585537
 30
0.0
  0
LINE
  5
28A
330
1F
100
AcDbEntity
  8
0
  6
Continuous
 62
     7
370
    15
100
AcDbLine
 10
237.7620671981
 20
799.3609654797
 30
0.0
 11
241.3105945412
 21
799.4316702218
 31
0.0
  0
LINE
  5
28B
330
1F
100
AcDbEntity
  8
0
  6
Continuous
 62
     7
370
    15
100
AcDbLine
 10
241.3437009654
 20
799.4323298704
 30
0.0
 11
241.8260167831
 21
799.4419400586
 31
0.0
  0
LINE
  5
28C
330
1F
100
AcDbEntity
  8
0
  6
Continuous
 62
     7
370
    15
100
AcDbLine
 10
389.7853826278
 20
803.3390134865
 30
0.0
 11
389.778148355
 21
803.3390134873
 31
0.0
  0
LINE
  5
28D
330
1F
100
AcDbEntity
  8
0
  6
Continuous
 62
     7
370
    15
100
AcDbLine
 10
380.9526602225
 20
803.3390144395
 30
0.0
 11
380.9458593123
 21
803.3390144402
 31
0.0
  0
LINE
  5
28E
330
1F
100
AcDbEntity
  8
0
  6
Continuous
 62
     8
370
    15
100
AcDbLine
 10
205.9671675217
 20
801.419142474
 30
0.0
 11
433.7914940649
 21
801.419142474
 31
0.0
  0
LINE
  5
28F
330
1F
100
AcDbEntity
  8
0
  6
Continuous
 62
     8
370
    15
100
AcDbLine
 10
208.0568235938
 20
801.0166985882
 30
0.0
 11
431.7018379928
 21
801.0166985882
 31
0.0
  0
LINE
  5
290
330
1F
100
AcDbEntity
  8
0
  6
Continuous
 62
     8
370
    15
100
AcDbLine
 10
210.1561108273
 20
800.6369988812
 30
0.0
 11
429.6025507593
 21
800.6369988812
 31
0.0
  0
LINE
  5
291
330
1F
100
AcDbEntity
  8
0
  6
Continuous
 62
     8
370
    15
100
AcDbLine
 10
212.2728752709
 20
800.2852857006
 30
0.0
 11
427.4857863158
 21
800.2852857006
 31
0.0
  0
LINE
  5
292
330
1F
100
AcDbEntity
  8
0
  6
Continuous
 62
     7
370
    15
100
AcDbLine
 10
349.6052668799
 20
522.5889396895
 30
0.0
 11
349.6214047789
 21
522.5407904457
 31
0.0
  0
LINE
  5
293
330
1F
100
AcDbEntity
  8
0
  6
Continuous
 62
     7
370
    15
100
AcDbLine
 10
348.4244970782
 20
522.1396280297
 30
0.0
 11
348.4168933049
 21
522.1623147368
 31
0.0
  0
LINE
  5
294
330
1F
100
AcDbEntity
  8
0
  6
Continuous
 62
     7
370
    15
100
AcDbLine
 10
333.1676120961
 20
518.6029836305
 30
0.0
 11
333.1746033137
 21
518.5528660314
 31
0.0
  0
LINE
  5
295
330
1F
100
AcDbEntity
  8
0
  6
Continuous
 62
     7
370
    15
100
AcDbLine
 10
331.9243585281
 20
518.3784632298
 30
0.0
 11
331.9209639425
 21
518.4027978305
 31
0.0
  0
LINE
  5
296
330
1F
100
AcDbEntity
  8
0
  6
Continuous
 62
     7
370
    15
100
AcDbLine
 10
316.2770071783
 20
517.7041111992
 30
0.0
 11
316.2747326366
 21
517.6549138702
 31
0.0
  0
LINE
  5
297
330
1F
100
AcDbEntity
  8
0
  6
Continuous
 62
     7
370
    15
100
AcDbLine
 10
315.0137312011
 20
517.7132138839
 30
0.0
 11
315.013742517
 21
517.7134586407
 31
0.0
  0
LINE
  5
298
330
1F
100
AcDbEntity
  8
0
  6
Continuous
 62
     7
370
    15
100
AcDbLine
 10
315.0138292329
 20
517.715334267
 30
0.0
 11
315.0160590705
 21
517.7635646688
 31
0.0
  0
LINE
  5
299
330
1F
100
AcDbEntity
  8
0
  6
Continuous
 62
     7
370
    15
100
AcDbLine
 10
299.5093441384
 20
519.9264727255
 30
0.0
 11
299.497842331
 21
519.8775696382
 31
0.0
  0
LINE
  5
29A
330
1F
100
AcDbEntity
  8
0
  6
Continuous
 62
     7
370
    15
100
AcDbLine
 10
298.2690273507
 20
520.1665855262
 30
0.0
 11
298.2805253834
 21
520.2154725534
 31
0.0
  0
LINE
  5
29B
330
1F
100
AcDbEntity
  8
0
  6
Continuous
 62
     7
370
    15
100
AcDbLine
 10
283.4349452719
 20
525.1910358862
 30
0.0
 11
283.414727292
 21
525.1452468267
 31
0.0
  0
LINE
  5
29C
330
1F
100
AcDbEntity
  8
0
  6
Continuous
 62
     7
370
    15
100
AcDbLine
 10
282.2599419526
 20
525.6551346406
 30
0.0
 11
282.269882818
 21
525.6776484086
 31
0.0
  0
LINE
  5
29D
330
1F
100
AcDbEntity
  8
0
  6
Continuous
 62
     7
370
    15
100
AcDbLine
 10
268.5761125802
 20
533.2819927819
 30
0.0
 11
268.5736340121
 21
533.2783745283
 31
0.0
  0
LINE
  5
29E
330
1F
100
AcDbEntity
  8
0
  6
Continuous
 62
     7
370
    15
100
AcDbLine
 10
267.5334048105
 20
533.9935434819
 30
0.0
 11
267.5603850626
 21
534.0329296828
 31
0.0
  0
LINE
  5
29F
330
1F
100
AcDbEntity
  8
0
  6
Continuous
 62
     7
370
    15
100
AcDbLine
 10
255.5149115561
 20
544.0351980427
 30
0.0
 11
255.4797379035
 21
544.0000243145
 31
0.0
  0
LINE
  5
2A0
330
1F
100
AcDbEntity
  8
0
  6
Continuous
 62
     7
370
    15
100
AcDbLine
 10
254.58712215
 20
544.8926408382
 30
0.0
 11
254.6222882529
 21
544.9278070151
 31
0.0
  0
LINE
  5
2A1
330
1F
100
AcDbEntity
  8
0
  6
Continuous
 62
     7
370
    15
100
AcDbLine
 10
244.6196783034
 20
556.9733331208
 30
0.0
 11
244.5787426771
 21
556.9452916321
 31
0.0
  0
LINE
  5
2A2
330
1F
100
AcDbEntity
  8
0
  6
Continuous
 62
     7
370
    15
100
AcDbLine
 10
243.8653448712
 20
557.9867247452
 30
0.0
 11
243.8864493824
 21
558.0011816379
 31
0.0
  0
LINE
  5
2A3
330
1F
100
AcDbEntity
  8
0
  6
Continuous
 62
     7
370
    15
100
AcDbLine
 10
236.287416303
 20
571.6931064206
 30
0.0
 11
236.2732735872
 21
571.6868618194
 31
0.0
  0
LINE
  5
2A4
330
1F
100
AcDbEntity
  8
0
  6
Continuous
 62
     7
370
    15
100
AcDbLine
 10
236.2461074258
 20
571.6748668219
 30
0.0
 11
236.2421055045
 21
571.6730998061
 31
0.0
  0
LINE
  5
2A5
330
1F
100
AcDbEntity
  8
0
  6
Continuous
 62
     7
370
    15
100
AcDbLine
 10
235.7322154128
 20
572.8278877189
 30
0.0
 11
235.7775239494
 21
572.8478933347
 31
0.0
  0
LINE
  5
2A6
330
1F
100
AcDbEntity
  8
0
  6
Continuous
 62
     7
370
    15
100
AcDbLine
 10
230.7953981693
 20
587.691856591
 30
0.0
 11
230.7536381148
 21
587.6820348028
 31
0.0
  0
LINE
  5
2A7
330
1F
100
AcDbEntity
  8
0
  6
Continuous
 62
     7
370
    15
100
AcDbLine
 10
230.4646222819
 20
588.9108522367
 30
0.0
 11
230.4916106776
 21
588.9171997937
 31
0.0
  0
LINE
  5
2A8
330
1F
100
AcDbEntity
  8
0
  6
Continuous
 62
     7
370
    15
100
AcDbLine
 10
228.3496659002
 20
604.4291670707
 30
0.0
 11
228.3002604987
 21
604.4268830549
 31
0.0
  0
LINE
  5
2A9
330
1F
100
AcDbEntity
  8
0
  6
Continuous
 62
     7
370
    15
100
AcDbLine
 10
228.241960533
 20
605.6878840411
 30
0.0
 11
228.2913692536
 21
605.6901682106
 31
0.0
  0
LINE
  5
2AA
330
1F
100
AcDbEntity
  8
0
  6
Continuous
 62
     7
370
    15
100
AcDbLine
 10
229.0144980067
 20
621.3303721534
 30
0.0
 11
229.0004003503
 21
621.3323386797
 31
0.0
  0
LINE
  5
2AB
330
1F
100
AcDbEntity
  8
0
  6
Continuous
 62
     7
370
    15
100
AcDbLine
 10
228.9922505746
 20
621.3334755175
 30
0.0
 11
228.9819425138
 21
621.3349134212
 31
0.0
  0
LINE
  5
2AC
330
1F
100
AcDbEntity
  8
0
  6
Continuous
 62
     7
370
    15
100
AcDbLine
 10
229.1520796983
 20
622.5857522029
 30
0.0
 11
229.1597163661
 21
622.58468694
 31
0.0
  0
LINE
  5
2AD
330
1F
100
AcDbEntity
  8
0
  6
Continuous
 62
     7
370
    15
100
AcDbLine
 10
232.7520283391
 20
637.829175283
 30
0.0
 11
232.7267108753
 21
637.8376608802
 31
0.0
  0
LINE
  5
2AE
330
1F
100
AcDbEntity
  8
0
  6
Continuous
 62
     7
370
    15
100
AcDbLine
 10
233.1278730485
 20
639.0345662669
 30
0.0
 11
233.1291138128
 21
639.0341504028
 31
0.0
  0
LINE
  5
2AF
330
1F
100
AcDbEntity
  8
0
  6
Continuous
 62
     7
370
    15
100
AcDbLine
 10
239.4991843468
 20
653.3417723473
 30
0.0
 11
239.490726148
 21
653.3464835494
 31
0.0
  0
LINE
  5
2B0
330
1F
100
AcDbEntity
  8
0
  6
Continuous
 62
     7
370
    15
100
AcDbLine
 10
239.479384464
 20
653.3528008478
 30
0.0
 11
239.4558139539
 21
653.3659295812
 31
0.0
  0
LINE
  5
2B1
330
1F
100
AcDbEntity
  8
0
  6
Continuous
 62
     7
370
    15
100
AcDbLine
 10
240.0700787212
 20
654.4687436776
 30
0.0
 11
240.0875426682
 21
654.4590162893
 31
0.0
  0
LINE
  5
2B2
330
1F
100
AcDbEntity
  8
0
  6
Continuous
 62
     7
370
    15
100
AcDbLine
 10
240.0959450173
 20
654.4543361954
 30
0.0
 11
240.1134568908
 21
654.4445821121
 31
0.0
  0
LINE
  5
2B3
330
1F
100
AcDbEntity
  8
0
  6
Continuous
 62
     7
370
    15
100
AcDbLine
 10
248.9521305579
 20
667.3697793132
 30
0.0
 11
248.9237000339
 21
667.3933878671
 31
0.0
  0
LINE
  5
2B4
330
1F
100
AcDbEntity
  8
0
  6
Continuous
 62
     7
370
    15
100
AcDbLine
 10
249.761366774
 20
668.3386335453
 30
0.0
 11
249.7684492965
 21
668.3327522562
 31
0.0
  0
LINE
  5
2B5
330
1F
100
AcDbEntity
  8
0
  6
Continuous
 62
     7
370
    15
100
AcDbLine
 10
260.8147734898
 20
679.4337889084
 30
0.0
 11
260.8078047424
 21
679.4421810794
 31
0.0
  0
LINE
  5
2B6
330
1F
100
AcDbEntity
  8
0
  6
Continuous
 62
     7
370
    15
100
AcDbLine
 10
261.7789677018
 20
680.2486254403
 30
0.0
 11
261.7883705925
 21
680.2373019325
 31
0.0
  0
LINE
  5
2B7
330
1F
100
AcDbEntity
  8
0
  6
Continuous
 62
     7
370
    15
100
AcDbLine
 10
274.7279250566
 20
689.0583633531
 30
0.0
 11
274.7035427422
 21
689.1021381067
 31
0.0
  0
LINE
  5
2B8
330
1F
100
AcDbEntity
  8
0
  6
Continuous
 62
     7
370
    15
100
AcDbLine
 10
272.2357739445
 20
698.3255024555
 30
0.0
 11
272.2761197452
 21
698.452921901
 31
0.0
  0
LINE
  5
2B9
330
1F
100
AcDbEntity
  8
0
  6
Continuous
 62
     7
370
    15
100
AcDbLine
 10
286.0596551322
 20
704.5388973818
 30
0.0
 11
286.1809672251
 21
704.4828892824
 31
0.0
  0
LINE
  5
2BA
330
1F
100
AcDbEntity
  8
0
  6
Continuous
 62
     7
370
    15
100
AcDbLine
 10
291.33853295
 20
696.4337757939
 30
0.0
 11
291.3409831791
 21
696.4264652783
 31
0.0
  0
LINE
  5
2BB
330
1F
100
AcDbEntity
  8
0
  6
Continuous
 62
     7
370
    15
100
AcDbLine
 10
291.3497378841
 20
696.4003446982
 30
0.0
 11
291.3506060456
 21
696.3977544476
 31
0.0
  0
LINE
  5
2BC
330
1F
100
AcDbEntity
  8
0
  6
Continuous
 62
     7
370
    15
100
AcDbLine
 10
306.591511539
 20
699.9821976477
 30
0.0
 11
306.5845363066
 21
700.032200607
 31
0.0
  0
LINE
  5
2BD
330
1F
100
AcDbEntity
  8
0
  6
Continuous
 62
     7
370
    15
100
AcDbLine
 10
307.8388849494
 20
700.1771372978
 30
0.0
 11
307.8417519023
 21
700.1565851504
 31
0.0
  0
LINE
  5
2BE
330
1F
100
AcDbEntity
  8
0
  6
Continuous
 62
     7
370
    15
100
AcDbLine
 10
323.4819177838
 20
700.8795092493
 30
0.0
 11
323.4842580171
 21
700.9301305818
 31
0.0
  0
LINE
  5
2BF
330
1F
100
AcDbEntity
  8
0
  6
Continuous
 62
     7
370
    15
100
AcDbLine
 10
324.74525181
 20
700.8718308164
 30
0.0
 11
324.742910999
 21
700.8211969887
 31
0.0
  0
LINE
  5
2C0
330
1F
100
AcDbEntity
  8
0
  6
Continuous
 62
     7
370
    15
100
AcDbLine
 10
340.2528621804
 20
698.6709564561
 30
0.0
 11
340.2614355034
 21
698.7074077192
 31
0.0
  0
LINE
  5
2C1
330
1F
100
AcDbEntity
  8
0
  6
Continuous
 62
     7
370
    15
100
AcDbLine
 10
341.4902563937
 20
698.4183913761
 30
0.0
 11
341.4804103477
 21
698.376528867
 31
0.0
  0
LINE
  5
2C2
330
1F
100
AcDbEntity
  8
0
  6
Continuous
 62
     7
370
    15
100
AcDbLine
 10
356.3235095673
 20
693.3931928146
 30
0.0
 11
356.3441182824
 21
693.4398674472
 31
0.0
  0
LINE
  5
2C3
330
1F
100
AcDbEntity
  8
0
  6
Continuous
 62
     7
370
    15
100
AcDbLine
 10
357.4989007973
 20
692.9299808656
 30
0.0
 11
357.4782877838
 21
692.8832964949
 31
0.0
  0
LINE
  5
2C4
330
1F
100
AcDbEntity
  8
0
  6
Continuous
 62
     7
370
    15
100
AcDbLine
 10
371.1701482793
 20
685.2844136529
 30
0.0
 11
371.1760307034
 21
685.2930009224
 31
0.0
  0
LINE
  5
2C5
330
1F
100
AcDbEntity
  8
0
  6
Continuous
 62
     7
370
    15
100
AcDbLine
 10
372.2268105427
 20
684.5932572173
 30
0.0
 11
372.2232727853
 21
684.5880927332
 31
0.0
  0
LINE
  5
2C6
330
1F
100
AcDbEntity
  8
0
  6
Continuous
 62
     7
370
    15
100
AcDbLine
 10
372.2198921839
 20
684.5831576684
 30
0.0
 11
372.2155342074
 21
684.5767958132
 31
0.0
  0
LINE
  5
2C7
330
1F
100
AcDbEntity
  8
0
  6
Continuous
 62
     7
370
    15
100
AcDbLine
 10
384.2515714122
 20
674.5573804389
 30
0.0
 11
384.2792338256
 21
674.5850429724
 31
0.0
  0
LINE
  5
2C8
330
1F
100
AcDbEntity
  8
0
  6
Continuous
 62
     7
370
    15
100
AcDbLine
 10
385.1718484605
 20
673.6924258635
 30
0.0
 11
385.1379083035
 21
673.6584855637
 31
0.0
  0
LINE
  5
2C9
330
1F
100
AcDbEntity
  8
0
  6
Continuous
 62
     7
370
    15
100
AcDbLine
 10
395.171948246
 20
661.6341862682
 30
0.0
 11
395.1802880547
 21
661.6398991761
 31
0.0
  0
LINE
  5
2CA
330
1F
100
AcDbEntity
  8
0
  6
Continuous
 62
     7
370
    15
100
AcDbLine
 10
395.8936885923
 20
660.5984623926
 30
0.0
 11
395.8741673368
 21
660.5850900096
 31
0.0
  0
LINE
  5
2CB
330
1F
100
AcDbEntity
  8
0
  6
Continuous
 62
     7
370
    15
100
AcDbLine
 10
403.5114587292
 20
646.9097152401
 30
0.0
 11
403.5156412648
 21
646.9115620139
 31
0.0
  0
LINE
  5
2CC
330
1F
100
AcDbEntity
  8
0
  6
Continuous
 62
     7
370
    15
100
AcDbLine
 10
404.0268339571
 20
645.7573566193
 30
0.0
 11
404.0040003485
 21
645.7472745741
 31
0.0
  0
LINE
  5
2CD
330
1F
100
AcDbEntity
  8
0
  6
Continuous
 62
     7
370
    15
100
AcDbLine
 10
403.9808204632
 20
645.7370396324
 30
0.0
 11
403.9796522117
 21
645.7365237978
 31
0.0
  0
LINE
  5
2CE
330
1F
100
AcDbEntity
  8
0
  6
Continuous
 62
     7
370
    15
100
AcDbLine
 10
408.9592329521
 20
630.8926181478
 30
0.0
 11
408.968239958
 21
630.8947366207
 31
0.0
  0
LINE
  5
2CF
330
1F
100
AcDbEntity
  8
0
  6
Continuous
 62
     7
370
    15
100
AcDbLine
 10
409.2944104773
 20
629.6746617415
 30
0.0
 11
409.2441634947
 21
629.6628435085
 31
0.0
  0
LINE
  5
2D0
330
1F
100
AcDbEntity
  8
0
  6
Continuous
 62
     7
370
    15
100
AcDbLine
 10
411.4094901585
 20
614.1560741245
 30
0.0
 11
411.4588926444
 21
614.1583580825
 31
0.0
  0
LINE
  5
2D1
330
1F
100
AcDbEntity
  8
0
  6
Continuous
 62
     7
370
    15
100
AcDbLine
 10
411.5171961904
 20
612.8973177334
 30
0.0
 11
411.4656026349
 21
612.8949324779
 31
0.0
  0
LINE
  5
2D2
330
1F
100
AcDbEntity
  8
0
  6
Continuous
 62
     7
370
    15
100
AcDbLine
 10
410.7448359668
 20
597.2546823755
 30
0.0
 11
410.7936796435
 21
597.2478690129
 31
0.0
  0
LINE
  5
2D3
330
1F
100
AcDbEntity
  8
0
  6
Continuous
 62
     7
370
    15
100
AcDbLine
 10
410.6192787072
 20
595.9976277797
 30
0.0
 11
410.568152658
 21
596.0047595168
 31
0.0
  0
LINE
  5
2D4
330
1F
100
AcDbEntity
  8
0
  6
Continuous
 62
     7
370
    15
100
AcDbLine
 10
406.9836162217
 20
580.763953524
 30
0.0
 11
406.9889925755
 21
580.7621515611
 31
0.0
  0
LINE
  5
2D5
330
1F
100
AcDbEntity
  8
0
  6
Continuous
 62
     7
370
    15
100
AcDbLine
 10
407.0242326187
 20
580.7503403494
 30
0.0
 11
407.0325161598
 21
580.7475640004
 31
0.0
  0
LINE
  5
2D6
330
1F
100
AcDbEntity
  8
0
  6
Continuous
 62
     7
370
    15
100
AcDbLine
 10
406.6313533581
 20
579.5506517483
 30
0.0
 11
406.6201777992
 21
579.5543973999
 31
0.0
  0
LINE
  5
2D7
330
1F
100
AcDbEntity
  8
0
  6
Continuous
 62
     7
370
    15
100
AcDbLine
 10
406.5988187471
 20
579.5615561978
 30
0.0
 11
406.5824584237
 21
579.5670395988
 31
0.0
  0
LINE
  5
2D8
330
1F
100
AcDbEntity
  8
0
  6
Continuous
 62
     7
370
    15
100
AcDbLine
 10
400.2840498647
 20
565.2301043548
 30
0.0
 11
400.3034504902
 21
565.219298323
 31
0.0
  0
LINE
  5
2D9
330
1F
100
AcDbEntity
  8
0
  6
Continuous
 62
     7
370
    15
100
AcDbLine
 10
399.6891886101
 20
564.1164827258
 30
0.0
 11
399.6551482909
 21
564.1354429773
 31
0.0
  0
LINE
  5
2DA
330
1F
100
AcDbEntity
  8
0
  6
Continuous
 62
     7
370
    15
100
AcDbLine
 10
390.8044783264
 20
551.21759694
 30
0.0
 11
390.8099155669
 21
551.2130819064
 31
0.0
  0
LINE
  5
2DB
330
1F
100
AcDbEntity
  8
0
  6
Continuous
 62
     7
370
    15
100
AcDbLine
 10
390.0291269787
 20
550.2206104668
 30
0.0
 11
389.9896246139
 21
550.253412858
 31
0.0
  0
LINE
  5
2DC
330
1F
100
AcDbEntity
  8
0
  6
Continuous
 62
     7
370
    15
100
AcDbLine
 10
378.9187713995
 20
539.1823606726
 30
0.0
 11
378.9514064805
 21
539.1430597891
 31
0.0
  0
LINE
  5
2DD
330
1F
100
AcDbEntity
  8
0
  6
Continuous
 62
     7
370
    15
100
AcDbLine
 10
377.9802366109
 20
538.3366107195
 30
0.0
 11
377.955570143
 21
538.3663153829
 31
0.0
  0
LINE
  5
2DE
330
1F
100
AcDbEntity
  8
0
  6
Continuous
 62
     7
370
    15
100
AcDbLine
 10
365.0366858073
 20
529.5168223003
 30
0.0
 11
365.0555463172
 21
529.482961004
 31
0.0
  0
LINE
  5
2DF
330
1F
100
AcDbEntity
  8
0
  6
Continuous
 62
     7
370
    15
100
AcDbLine
 10
363.9527212354
 20
528.8686910131
 30
0.0
 11
363.9525775536
 21
528.868948973
 31
0.0
  0
LINE
  5
2E0
330
1F
100
AcDbEntity
  8
0
  6
Continuous
 62
     7
370
    15
100
AcDbLine
 10
363.9283400772
 20
528.9124638435
 30
0.0
 11
363.9279374066
 21
528.9131867802
 31
0.0
  0
LINE
  5
2E1
330
1F
100
AcDbEntity
  8
0
  6
Continuous
 62
     7
370
    15
100
AcDbLine
 10
229.6384474415
 20
626.1615048475
 30
0.0
 11
228.4669317001
 21
617.7631464711
 31
0.0
  0
LINE
  5
2E2
330
1F
100
AcDbEntity
  8
0
  6
Continuous
 62
     7
370
    15
100
AcDbLine
 10
231.5798676019
 20
634.4159452174
 30
0.0
 11
229.6384474415
 21
626.1615048475
 31
0.0
  0
LINE
  5
2E3
330
1F
100
AcDbEntity
  8
0
  6
Continuous
 62
     7
370
    15
100
AcDbLine
 10
234.2746364085
 20
642.4560435005
 30
0.0
 11
231.5798676019
 21
634.4159452174
 31
0.0
  0
LINE
  5
2E4
330
1F
100
AcDbEntity
  8
0
  6
Continuous
 62
     7
370
    15
100
AcDbLine
 10
237.6997512486
 20
650.2131999952
 30
0.0
 11
234.2746364085
 21
642.4560435005
 31
0.0
  0
LINE
  5
2E5
330
1F
100
AcDbEntity
  8
0
  6
Continuous
 62
     7
370
    15
100
AcDbLine
 10
241.8260068261
 20
657.6212316101
 30
0.0
 11
237.6997512486
 21
650.2131999952
 31
0.0
  0
LINE
  5
2E6
330
1F
100
AcDbEntity
  8
0
  6
Continuous
 62
     7
370
    15
100
AcDbLine
 10
246.6181782578
 20
664.6169478836
 30
0.0
 11
241.8260068261
 21
657.6212316101
 31
0.0
  0
LINE
  5
2E7
330
1F
100
AcDbEntity
  8
0
  6
Continuous
 62
     7
370
    15
100
AcDbLine
 10
252.0353796444
 20
671.1406488023
 30
0.0
 11
246.6181782578
 21
664.6169478836
 31
0.0
  0
LINE
  5
2E8
330
1F
100
AcDbEntity
  8
0
  6
Continuous
 62
     7
370
    15
100
AcDbLine
 10
258.0314188615
 20
677.1366970044
 30
0.0
 11
252.0353796444
 21
671.1406488023
 31
0.0
  0
LINE
  5
2E9
330
1F
100
AcDbEntity
  8
0
  6
Continuous
 62
     7
370
    15
100
AcDbLine
 10
264.5551141528
 20
682.553910695
 30
0.0
 11
258.0314188615
 21
677.1366970044
 31
0.0
  0
LINE
  5
2EA
330
1F
100
AcDbEntity
  8
0
  6
Continuous
 62
     7
370
    15
100
AcDbLine
 10
271.5508243918
 20
687.3460786293
 30
0.0
 11
264.5551141528
 21
682.553910695
 31
0.0
  0
LINE
  5
2EB
330
1F
100
AcDbEntity
  8
0
  6
Continuous
 62
     7
370
    15
100
AcDbLine
 10
278.9588496165
 20
691.4723377679
 30
0.0
 11
271.5508243918
 21
687.3460786293
 31
0.0
  0
LINE
  5
2EC
330
1F
100
AcDbEntity
  8
0
  6
Continuous
 62
     7
370
    15
100
AcDbLine
 10
286.7160032345
 20
694.8974555643
 30
0.0
 11
278.9588496165
 21
691.4723377679
 31
0.0
  0
LINE
  5
2ED
330
1F
100
AcDbEntity
  8
0
  6
Continuous
 62
     7
370
    15
100
AcDbLine
 10
294.7560888603
 20
697.5922266936
 30
0.0
 11
286.7160032345
 21
694.8974555643
 31
0.0
  0
LINE
  5
2EE
330
1F
100
AcDbEntity
  8
0
  6
Continuous
 62
     7
370
    15
100
AcDbLine
 10
303.0105259246
 20
699.5336485287
 30
0.0
 11
294.7560888603
 21
697.5922266936
 31
0.0
  0
LINE
  5
2EF
330
1F
100
AcDbEntity
  8
0
  6
Continuous
 62
     7
370
    15
100
AcDbLine
 10
311.4088722882
 20
700.7051652806
 30
0.0
 11
309.7536613177
 21
700.4742737103
 31
0.0
  0
LINE
  5
2F0
330
1F
100
AcDbEntity
  8
0
  6
Continuous
 62
     7
370
    15
100
AcDbLine
 10
308.5285564533
 20
700.3033792497
 30
0.0
 11
303.0105259246
 21
699.5336485287
 31
0.0
  0
LINE
  5
2F1
330
1F
100
AcDbEntity
  8
0
  6
Continuous
 62
     7
370
    15
100
AcDbLine
 10
319.8794994419
 20
701.0967900691
 30
0.0
 11
317.9697988515
 21
701.008498367
 31
0.0
  0
LINE
  5
2F2
330
1F
100
AcDbEntity
  8
0
  6
Continuous
 62
     7
370
    15
100
AcDbLine
 10
313.1730325024
 20
700.7867281754
 30
0.0
 11
311.4088722882
 21
700.7051652806
 31
0.0
  0
LINE
  5
2F3
330
1F
100
AcDbEntity
  8
0
  6
Continuous
 62
     7
370
    15
100
AcDbLine
 10
328.3501265643
 20
700.7051659577
 30
0.0
 11
326.1355268919
 21
700.8075539647
 31
0.0
  0
LINE
  5
2F4
330
1F
100
AcDbEntity
  8
0
  6
Continuous
 62
     7
370
    15
100
AcDbLine
 10
321.9290489369
 20
701.0020328583
 30
0.0
 11
319.8794994419
 21
701.0967900691
 31
0.0
  0
LINE
  5
2F5
330
1F
100
AcDbEntity
  8
0
  6
Continuous
 62
     7
370
    15
100
AcDbLine
 10
336.7484728342
 20
699.5336498771
 30
0.0
 11
334.1884167222
 21
699.8907614805
 31
0.0
  0
LINE
  5
2F6
330
1F
100
AcDbEntity
  8
0
  6
Continuous
 62
     7
370
    15
100
AcDbLine
 10
332.0670874528
 20
700.1866734698
 30
0.0
 11
328.3501265643
 21
700.7051659577
 31
0.0
  0
LINE
  5
2F7
330
1F
100
AcDbEntity
  8
0
  6
Continuous
 62
     7
370
    15
100
AcDbLine
 10
345.0029135581
 20
697.5922210724
 30
0.0
 11
336.7484728342
 21
699.5336498771
 31
0.0
  0
LINE
  5
2F8
330
1F
100
AcDbEntity
  8
0
  6
Continuous
 62
     7
370
    15
100
AcDbLine
 10
353.042991339
 20
694.8974582151
 30
0.0
 11
345.0029135581
 21
697.5922210724
 31
0.0
  0
LINE
  5
2F9
330
1F
100
AcDbEntity
  8
0
  6
Continuous
 62
     7
370
    15
100
AcDbLine
 10
360.8001561273
 20
691.4723334094
 30
0.0
 11
353.042991339
 21
694.8974582151
 31
0.0
  0
LINE
  5
2FA
330
1F
100
AcDbEntity
  8
0
  6
Continuous
 62
     7
370
    15
100
AcDbLine
 10
368.2081695781
 20
687.3460901218
 30
0.0
 11
360.8001561273
 21
691.4723334094
 31
0.0
  0
LINE
  5
2FB
330
1F
100
AcDbEntity
  8
0
  6
Continuous
 62
     7
370
    15
100
AcDbLine
 10
375.2038832488
 20
682.5539151172
 30
0.0
 11
368.2081695781
 21
687.3460901218
 31
0.0
  0
LINE
  5
2FC
330
1F
100
AcDbEntity
  8
0
  6
Continuous
 62
     7
370
    15
100
AcDbLine
 10
381.7275895511
 20
677.1366943186
 30
0.0
 11
375.2038832488
 21
682.5539151172
 31
0.0
  0
LINE
  5
2FD
330
1F
100
AcDbEntity
  8
0
  6
Continuous
 62
     7
370
    15
100
AcDbLine
 10
387.7236168413
 20
671.1406504105
 30
0.0
 11
381.7275895511
 21
677.1366943186
 31
0.0
  0
LINE
  5
2FE
330
1F
100
AcDbEntity
  8
0
  6
Continuous
 62
     7
370
    15
100
AcDbLine
 10
393.14081771
 20
664.616961369
 30
0.0
 11
387.7236168413
 21
671.1406504105
 31
0.0
  0
LINE
  5
2FF
330
1F
100
AcDbEntity
  8
0
  6
Continuous
 62
     7
370
    15
100
AcDbLine
 10
400.5371810909
 20
670.2024493904
 30
0.0
 11
393.14081771
 21
664.616961369
 31
0.0
  0
LINE
  5
300
330
1F
100
AcDbEntity
  8
0
  6
Continuous
 62
     7
370
    15
100
AcDbLine
 10
394.5730752055
 20
677.3847649652
 30
0.0
 11
400.5371810909
 21
670.2024493904
 31
0.0
  0
LINE
  5
301
330
1F
100
AcDbEntity
  8
0
  6
Continuous
 62
     7
370
    15
100
AcDbLine
 10
387.9716865225
 20
683.9861593425
 30
0.0
 11
394.5730752055
 21
677.3847649652
 31
0.0
  0
LINE
  5
302
330
1F
100
AcDbEntity
  8
0
  6
Continuous
 62
     7
370
    15
100
AcDbLine
 10
380.7893657009
 20
689.9502932606
 30
0.0
 11
387.9716865225
 21
683.9861593425
 31
0.0
  0
LINE
  5
303
330
1F
100
AcDbEntity
  8
0
  6
Continuous
 62
     7
370
    15
100
AcDbLine
 10
373.0873614578
 20
695.2262862904
 30
0.0
 11
380.7893657009
 21
689.9502932606
 31
0.0
  0
LINE
  5
304
330
1F
100
AcDbEntity
  8
0
  6
Continuous
 62
     7
370
    15
100
AcDbLine
 10
364.9314543848
 20
699.7691097474
 30
0.0
 11
373.0873614578
 21
695.2262862904
 31
0.0
  0
LINE
  5
305
330
1F
100
AcDbEntity
  8
0
  6
Continuous
 62
     7
370
    15
100
AcDbLine
 10
356.3911329387
 20
703.540029199
 30
0.0
 11
364.9314543848
 21
699.7691097474
 31
0.0
  0
LINE
  5
306
330
1F
100
AcDbEntity
  8
0
  6
Continuous
 62
     7
370
    15
100
AcDbLine
 10
347.5393340668
 20
706.506848603
 30
0.0
 11
356.3911329387
 21
703.540029199
 31
0.0
  0
LINE
  5
307
330
1F
100
AcDbEntity
  8
0
  6
Continuous
 62
     7
370
    15
100
AcDbLine
 10
338.4515353065
 20
708.6442841489
 30
0.0
 11
347.5393340668
 21
706.506848603
 31
0.0
  0
LINE
  5
308
330
1F
100
AcDbEntity
  8
0
  6
Continuous
 62
     7
370
    15
100
AcDbLine
 10
329.2053046442
 20
709.9340786988
 30
0.0
 11
338.4515353065
 21
708.6442841489
 31
0.0
  0
LINE
  5
309
330
1F
100
AcDbEntity
  8
0
  6
Continuous
 62
     7
370
    15
100
AcDbLine
 10
319.8794918002
 20
710.3652459278
 30
0.0
 11
329.2053046442
 21
709.9340786988
 31
0.0
  0
LINE
  5
30A
330
1F
100
AcDbEntity
  8
0
  6
Continuous
 62
     7
370
    15
100
AcDbLine
 10
310.5536865512
 20
709.9340779533
 30
0.0
 11
319.8794918002
 21
710.3652459278
 31
0.0
  0
LINE
  5
30B
330
1F
100
AcDbEntity
  8
0
  6
Continuous
 62
     7
370
    15
100
AcDbLine
 10
301.3074481529
 20
708.6442826644
 30
0.0
 11
310.5536865512
 21
709.9340779533
 31
0.0
  0
LINE
  5
30C
330
1F
100
AcDbEntity
  8
0
  6
Continuous
 62
     7
370
    15
100
AcDbLine
 10
292.2196492217
 20
706.5068540214
 30
0.0
 11
301.3074481529
 21
708.6442826644
 31
0.0
  0
LINE
  5
30D
330
1F
100
AcDbEntity
  8
0
  6
Continuous
 62
     7
370
    15
100
AcDbLine
 10
283.3678501162
 20
703.5400262805
 30
0.0
 11
292.2196492217
 21
706.5068540214
 31
0.0
  0
LINE
  5
30E
330
1F
100
AcDbEntity
  8
0
  6
Continuous
 62
     7
370
    15
100
AcDbLine
 10
274.8275436274
 20
699.7691137757
 30
0.0
 11
283.3678501162
 21
703.5400262805
 31
0.0
  0
LINE
  5
30F
330
1F
100
AcDbEntity
  8
0
  6
Continuous
 62
     7
370
    15
100
AcDbLine
 10
266.6716132996
 20
695.226274408
 30
0.0
 11
274.8275436274
 21
699.7691137757
 31
0.0
  0
LINE
  5
310
330
1F
100
AcDbEntity
  8
0
  6
Continuous
 62
     7
370
    15
100
AcDbLine
 10
258.9696239007
 20
689.9502960213
 30
0.0
 11
266.6716132996
 21
695.226274408
 31
0.0
  0
LINE
  5
311
330
1F
100
AcDbEntity
  8
0
  6
Continuous
 62
     7
370
    15
100
AcDbLine
 10
251.7873025988
 20
683.9861615291
 30
0.0
 11
258.9696239007
 21
689.9502960213
 31
0.0
  0
LINE
  5
312
330
1F
100
AcDbEntity
  8
0
  6
Continuous
 62
     7
370
    15
100
AcDbLine
 10
245.1859133882
 20
677.3847666241
 30
0.0
 11
251.7873025988
 21
683.9861615291
 31
0.0
  0
LINE
  5
313
330
1F
100
AcDbEntity
  8
0
  6
Continuous
 62
     7
370
    15
100
AcDbLine
 10
239.2217916699
 20
670.2024391285
 30
0.0
 11
245.1859133882
 21
677.3847666241
 31
0.0
  0
LINE
  5
314
330
1F
100
AcDbEntity
  8
0
  6
Continuous
 62
     7
370
    15
100
AcDbLine
 10
233.9458102051
 20
662.5004430823
 30
0.0
 11
239.2217916699
 21
670.2024391285
 31
0.0
  0
LINE
  5
315
330
1F
100
AcDbEntity
  8
0
  6
Continuous
 62
     7
370
    15
100
AcDbLine
 10
229.4029747559
 20
654.3445019063
 30
0.0
 11
233.9458102051
 21
662.5004430823
 31
0.0
  0
LINE
  5
316
330
1F
100
AcDbEntity
  8
0
  6
Continuous
 62
     7
370
    15
100
AcDbLine
 10
225.6320655039
 20
645.8041918653
 30
0.0
 11
229.4029747559
 21
654.3445019063
 31
0.0
  0
LINE
  5
317
330
1F
100
AcDbEntity
  8
0
  6
Continuous
 62
     7
370
    15
100
AcDbLine
 10
222.6652403204
 20
636.9523774932
 30
0.0
 11
225.6320655039
 21
645.8041918653
 31
0.0
  0
LINE
  5
318
330
1F
100
AcDbEntity
  8
0
  6
Continuous
 62
     7
370
    15
100
AcDbLine
 10
220.5278135248
 20
627.8645783521
 30
0.0
 11
222.6652403204
 21
636.9523774932
 31
0.0
  0
LINE
  5
319
330
1F
100
AcDbEntity
  8
0
  6
Continuous
 62
     7
370
    15
100
AcDbLine
 10
219.2380193465
 20
618.6183310262
 30
0.0
 11
220.5278135248
 21
627.8645783521
 31
0.0
  0
LINE
  5
31A
330
1F
100
AcDbEntity
  8
0
  6
Continuous
 62
     7
370
    15
100
AcDbLine
 10
218.8068593734
 20
609.2925166073
 30
0.0
 11
219.2380193465
 21
618.6183310262
 31
0.0
  0
LINE
  5
31B
330
1F
100
AcDbEntity
  8
0
  6
Continuous
 62
     7
370
    15
100
AcDbLine
 10
219.2380186011
 20
599.966692076
 30
0.0
 11
218.8068593734
 21
609.2925166073
 31
0.0
  0
LINE
  5
31C
330
1F
100
AcDbEntity
  8
0
  6
Continuous
 62
     7
370
    15
100
AcDbLine
 10
220.5278120367
 20
590.7204591582
 30
0.0
 11
219.2380186011
 21
599.966692076
 31
0.0
  0
LINE
  5
31D
330
1F
100
AcDbEntity
  8
0
  6
Continuous
 62
     7
370
    15
100
AcDbLine
 10
222.6652381131
 20
581.6326773542
 30
0.0
 11
220.5278120367
 21
590.7204591582
 31
0.0
  0
LINE
  5
31E
330
1F
100
AcDbEntity
  8
0
  6
Continuous
 62
     7
370
    15
100
AcDbLine
 10
225.6320702148
 20
572.7808346089
 30
0.0
 11
222.6652381131
 21
581.6326773542
 31
0.0
  0
LINE
  5
31F
330
1F
100
AcDbEntity
  8
0
  6
Continuous
 62
     7
370
    15
100
AcDbLine
 10
229.4029787842
 20
564.2405439429
 30
0.0
 11
225.6320702148
 21
572.7808346089
 31
0.0
  0
LINE
  5
320
330
1F
100
AcDbEntity
  8
0
  6
Continuous
 62
     7
370
    15
100
AcDbLine
 10
233.9458135814
 20
556.0845764271
 30
0.0
 11
229.4029787842
 21
564.2405439429
 31
0.0
  0
LINE
  5
321
330
1F
100
AcDbEntity
  8
0
  6
Continuous
 62
     7
370
    15
100
AcDbLine
 10
239.2217868012
 20
548.3825998761
 30
0.0
 11
233.9458135814
 21
556.0845764271
 31
0.0
  0
LINE
  5
322
330
1F
100
AcDbEntity
  8
0
  6
Continuous
 62
     7
370
    15
100
AcDbLine
 10
245.185900316
 20
541.2002957454
 30
0.0
 11
239.2217868012
 21
548.3825998761
 31
0.0
  0
LINE
  5
323
330
1F
100
AcDbEntity
  8
0
  6
Continuous
 62
     7
370
    15
100
AcDbLine
 10
251.7873042577
 20
534.5988784799
 30
0.0
 11
245.185900316
 21
541.2002957454
 31
0.0
  0
LINE
  5
324
330
1F
100
AcDbEntity
  8
0
  6
Continuous
 62
     7
370
    15
100
AcDbLine
 10
258.9696098206
 20
528.6347598206
 30
0.0
 11
251.7873042577
 21
534.5988784799
 31
0.0
  0
LINE
  5
325
330
1F
100
AcDbEntity
  8
0
  6
Continuous
 62
     7
370
    15
100
AcDbLine
 10
266.6715759168
 20
523.3587820496
 30
0.0
 11
258.9696098206
 21
528.6347598206
 31
0.0
  0
LINE
  5
326
330
1F
100
AcDbEntity
  8
0
  6
Continuous
 62
     7
370
    15
100
AcDbLine
 10
274.8275363954
 20
518.8159357043
 30
0.0
 11
266.6715759168
 21
523.3587820496
 31
0.0
  0
LINE
  5
327
330
1F
100
AcDbEntity
  8
0
  6
Continuous
 62
     7
370
    15
100
AcDbLine
 10
283.3678196946
 20
515.0450238822
 30
0.0
 11
274.8275363954
 21
518.8159357043
 31
0.0
  0
LINE
  5
328
330
1F
100
AcDbEntity
  8
0
  6
Continuous
 62
     7
370
    15
100
AcDbLine
 10
292.2196567135
 20
512.0781892194
 30
0.0
 11
283.3678196946
 21
515.0450238822
 31
0.0
  0
LINE
  5
329
330
1F
100
AcDbEntity
  8
0
  6
Continuous
 62
     7
370
    15
100
AcDbLine
 10
301.3074287709
 20
509.9407613029
 30
0.0
 11
292.2196567135
 21
512.0781892194
 31
0.0
  0
LINE
  5
32A
330
1F
100
AcDbEntity
  8
0
  6
Continuous
 62
     7
370
    15
100
AcDbLine
 10
310.5536479892
 20
508.6509743824
 30
0.0
 11
301.3074287709
 21
509.9407613029
 31
0.0
  0
LINE
  5
32B
330
1F
100
AcDbEntity
  8
0
  6
Continuous
 62
     7
370
    15
100
AcDbLine
 10
319.8794837213
 20
508.2198147828
 30
0.0
 11
310.5536479892
 21
508.6509743824
 31
0.0
  0
LINE
  5
32C
330
1F
100
AcDbEntity
  8
0
  6
Continuous
 62
     7
370
    15
100
AcDbLine
 10
329.2052737115
 20
508.6509674984
 30
0.0
 11
319.8794837213
 21
508.2198147828
 31
0.0
  0
LINE
  5
32D
330
1F
100
AcDbEntity
  8
0
  6
Continuous
 62
     7
370
    15
100
AcDbLine
 10
338.4515426274
 20
509.9407627874
 30
0.0
 11
329.2052737115
 21
508.6509674984
 31
0.0
  0
LINE
  5
32E
330
1F
100
AcDbEntity
  8
0
  6
Continuous
 62
     7
370
    15
100
AcDbLine
 10
347.5393186704
 20
512.0781990597
 30
0.0
 11
338.4515426274
 21
509.9407627874
 31
0.0
  0
LINE
  5
32F
330
1F
100
AcDbEntity
  8
0
  6
Continuous
 62
     7
370
    15
100
AcDbLine
 10
356.3911101465
 20
515.0450115419
 30
0.0
 11
347.5393186704
 21
512.0781990597
 31
0.0
  0
LINE
  5
330
330
1F
100
AcDbEntity
  8
0
  6
Continuous
 62
     7
370
    15
100
AcDbLine
 10
364.9314318941
 20
518.8159393054
 30
0.0
 11
356.3911101465
 21
515.0450115419
 31
0.0
  0
LINE
  5
331
330
1F
100
AcDbEntity
  8
0
  6
Continuous
 62
     7
370
    15
100
AcDbLine
 10
373.0873545925
 20
523.3587634144
 30
0.0
 11
364.9314318941
 21
518.8159393054
 31
0.0
  0
LINE
  5
332
330
1F
100
AcDbEntity
  8
0
  6
Continuous
 62
     7
370
    15
100
AcDbLine
 10
380.7893287327
 20
528.634741801
 30
0.0
 11
373.0873545925
 21
523.3587634144
 31
0.0
  0
LINE
  5
333
330
1F
100
AcDbEntity
  8
0
  6
Continuous
 62
     7
370
    15
100
AcDbLine
 10
387.9716652933
 20
534.5988915521
 30
0.0
 11
380.7893287327
 21
528.634741801
 31
0.0
  0
LINE
  5
334
330
1F
100
AcDbEntity
  8
0
  6
Continuous
 62
     7
370
    15
100
AcDbLine
 10
394.5730697627
 20
541.2002788276
 30
0.0
 11
387.9716652933
 21
534.5988915521
 31
0.0
  0
LINE
  5
335
330
1F
100
AcDbEntity
  8
0
  6
Continuous
 62
     7
370
    15
100
AcDbLine
 10
387.7236119012
 20
547.4443844646
 30
0.0
 11
394.5730697627
 21
541.2002788276
 31
0.0
  0
LINE
  5
336
330
1F
100
AcDbEntity
  8
0
  6
Continuous
 62
     7
370
    15
100
AcDbLine
 10
381.7275688694
 20
541.448355336
 30
0.0
 11
387.7236119012
 21
547.4443844646
 31
0.0
  0
LINE
  5
337
330
1F
100
AcDbEntity
  8
0
  6
Continuous
 62
     7
370
    15
100
AcDbLine
 10
375.2038468753
 20
536.0311263865
 30
0.0
 11
381.7275688694
 21
541.448355336
 31
0.0
  0
LINE
  5
338
330
1F
100
AcDbEntity
  8
0
  6
Continuous
 62
     7
370
    15
100
AcDbLine
 10
368.2081633391
 20
531.2389584522
 30
0.0
 11
375.2038468753
 21
536.0311263865
 31
0.0
  0
LINE
  5
339
330
1F
100
AcDbEntity
  8
0
  6
Continuous
 62
     7
370
    15
100
AcDbLine
 10
360.8001419291
 20
527.1127145724
 30
0.0
 11
368.2081633391
 21
531.2389584522
 31
0.0
  0
LINE
  5
33A
330
1F
100
AcDbEntity
  8
0
  6
Continuous
 62
     7
370
    15
100
AcDbLine
 10
353.0429692377
 20
523.6875815173
 30
0.0
 11
360.8001419291
 21
527.1127145724
 31
0.0
  0
LINE
  5
33B
330
1F
100
AcDbEntity
  8
0
  6
Continuous
 62
     7
370
    15
100
AcDbLine
 10
345.0028988707
 20
520.9928256467
 30
0.0
 11
353.0429692377
 21
523.6875815173
 31
0.0
  0
LINE
  5
33C
330
1F
100
AcDbEntity
  8
0
  6
Continuous
 62
     7
370
    15
100
AcDbLine
 10
336.7484808798
 20
519.0514038116
 30
0.0
 11
345.0028988707
 21
520.9928256467
 31
0.0
  0
LINE
  5
33D
330
1F
100
AcDbEntity
  8
0
  6
Continuous
 62
     7
370
    15
100
AcDbLine
 10
328.3500963693
 20
517.8798718009
 30
0.0
 11
336.7484808798
 21
519.0514038116
 31
0.0
  0
LINE
  5
33E
330
1F
100
AcDbEntity
  8
0
  6
Continuous
 62
     7
370
    15
100
AcDbLine
 10
319.8794921038
 20
517.4882546418
 30
0.0
 11
322.3015442753
 21
517.6002321538
 31
0.0
  0
LINE
  5
33F
330
1F
100
AcDbEntity
  8
0
  6
Continuous
 62
     7
370
    15
100
AcDbLine
 10
325.7596573997
 20
517.7601093473
 30
0.0
 11
328.3500963693
 21
517.8798718009
 31
0.0
  0
LINE
  5
340
330
1F
100
AcDbEntity
  8
0
  6
Continuous
 62
     7
370
    15
100
AcDbLine
 10
311.4088497226
 20
517.8798787532
 30
0.0
 11
313.4582731775
 21
517.7851275403
 31
0.0
  0
LINE
  5
341
330
1F
100
AcDbEntity
  8
0
  6
Continuous
 62
     7
370
    15
100
AcDbLine
 10
317.6663749163
 20
517.5905739244
 30
0.0
 11
319.8794921038
 21
517.4882546418
 31
0.0
  0
LINE
  5
342
330
1F
100
AcDbEntity
  8
0
  6
Continuous
 62
     7
370
    15
100
AcDbLine
 10
303.0105072674
 20
519.0513948339
 30
0.0
 11
304.7675356695
 21
518.8063003955
 31
0.0
  0
LINE
  5
343
330
1F
100
AcDbEntity
  8
0
  6
Continuous
 62
     7
370
    15
100
AcDbLine
 10
308.6174760702
 20
518.2692578644
 30
0.0
 11
311.4088497226
 21
517.8798787532
 31
0.0
  0
LINE
  5
344
330
1F
100
AcDbEntity
  8
0
  6
Continuous
 62
     7
370
    15
100
AcDbLine
 10
294.7560932463
 20
520.9928236386
 30
0.0
 11
303.0105072674
 21
519.0513948339
 31
0.0
  0
LINE
  5
345
330
1F
100
AcDbEntity
  8
0
  6
Continuous
 62
     7
370
    15
100
AcDbLine
 10
286.7159773185
 20
523.6876017546
 30
0.0
 11
294.7560932463
 21
520.9928236386
 31
0.0
  0
LINE
  5
346
330
1F
100
AcDbEntity
  8
0
  6
Continuous
 62
     7
370
    15
100
AcDbLine
 10
278.9588468624
 20
527.1127113016
 30
0.0
 11
286.7159773185
 21
523.6876017546
 31
0.0
  0
LINE
  5
347
330
1F
100
AcDbEntity
  8
0
  6
Continuous
 62
     7
370
    15
100
AcDbLine
 10
271.55079145
 20
531.238969848
 30
0.0
 11
278.9588468624
 21
527.1127113016
 31
0.0
  0
LINE
  5
348
330
1F
100
AcDbEntity
  8
0
  6
Continuous
 62
     7
370
    15
100
AcDbLine
 10
264.5551044821
 20
536.0311372231
 30
0.0
 11
271.55079145
 21
531.238969848
 31
0.0
  0
LINE
  5
349
330
1F
100
AcDbEntity
  8
0
  6
Continuous
 62
     7
370
    15
100
AcDbLine
 10
258.0314172533
 20
541.4483427629
 30
0.0
 11
264.5551044821
 21
536.0311372231
 31
0.0
  0
LINE
  5
34A
330
1F
100
AcDbEntity
  8
0
  6
Continuous
 62
     7
370
    15
100
AcDbLine
 10
252.0353670749
 20
547.4443981151
 30
0.0
 11
258.0314172533
 21
541.4483427629
 31
0.0
  0
LINE
  5
34B
330
1F
100
AcDbEntity
  8
0
  6
Continuous
 62
     7
370
    15
100
AcDbLine
 10
246.6181738356
 20
553.9680871567
 30
0.0
 11
252.0353670749
 21
547.4443981151
 31
0.0
  0
LINE
  5
34C
330
1F
100
AcDbEntity
  8
0
  6
Continuous
 62
     7
370
    15
100
AcDbLine
 10
241.826010596
 20
560.9637877883
 30
0.0
 11
246.6181738356
 21
553.9680871567
 31
0.0
  0
LINE
  5
34D
330
1F
100
AcDbEntity
  8
0
  6
Continuous
 62
     7
370
    15
100
AcDbLine
 10
237.6997556071
 20
568.3718457763
 30
0.0
 11
241.826010596
 21
560.9637877883
 31
0.0
  0
LINE
  5
34E
330
1F
100
AcDbEntity
  8
0
  6
Continuous
 62
     7
370
    15
100
AcDbLine
 10
234.2746337541
 20
576.1289867384
 30
0.0
 11
237.6997556071
 21
568.3718457763
 31
0.0
  0
LINE
  5
34F
330
1F
100
AcDbEntity
  8
0
  6
Continuous
 62
     7
370
    15
100
AcDbLine
 10
231.5798732231
 20
584.169105787
 30
0.0
 11
234.2746337541
 21
576.1289867384
 31
0.0
  0
LINE
  5
350
330
1F
100
AcDbEntity
  8
0
  6
Continuous
 62
     7
370
    15
100
AcDbLine
 10
229.6384460931
 20
592.4235307429
 30
0.0
 11
231.5798732231
 21
584.169105787
 31
0.0
  0
LINE
  5
351
330
1F
100
AcDbEntity
  8
0
  6
Continuous
 62
     7
370
    15
100
AcDbLine
 10
228.466931023
 20
600.8218775815
 30
0.0
 11
229.6384460931
 21
592.4235307429
 31
0.0
  0
LINE
  5
352
330
1F
100
AcDbEntity
  8
0
  6
Continuous
 62
     7
370
    15
100
AcDbLine
 10
228.0753072494
 20
609.2925166059
 30
0.0
 11
228.466931023
 21
600.8218775815
 31
0.0
  0
LINE
  5
353
330
1F
100
AcDbEntity
  8
0
  6
Continuous
 62
     7
370
    15
100
AcDbLine
 10
228.4669317001
 20
617.7631464711
 30
0.0
 11
228.0753072494
 21
609.2925166059
 31
0.0
  0
LINE
  5
354
330
1F
100
AcDbEntity
  8
0
  6
Continuous
 62
     7
370
    15
100
AcDbLine
 10
402.0593852591
 20
650.2131962522
 30
0.0
 11
397.9331334823
 21
657.6212387792
 31
0.0
  0
LINE
  5
355
330
1F
100
AcDbEntity
  8
0
  6
Continuous
 62
     7
370
    15
100
AcDbLine
 10
405.4845114915
 20
642.4560368256
 30
0.0
 11
402.0593852591
 21
650.2131962522
 31
0.0
  0
LINE
  5
356
330
1F
100
AcDbEntity
  8
0
  6
Continuous
 62
     7
370
    15
100
AcDbLine
 10
408.1792610744
 20
634.415958844
 30
0.0
 11
405.4845114915
 21
642.4560368256
 31
0.0
  0
LINE
  5
357
330
1F
100
AcDbEntity
  8
0
  6
Continuous
 62
     7
370
    15
100
AcDbLine
 10
410.1207000292
 20
626.1615143119
 30
0.0
 11
408.1792610744
 21
634.415958844
 31
0.0
  0
LINE
  5
358
330
1F
100
AcDbEntity
  8
0
  6
Continuous
 62
     7
370
    15
100
AcDbLine
 10
411.2922267762
 20
617.7631540002
 30
0.0
 11
410.1207000292
 21
626.1615143119
 31
0.0
  0
LINE
  5
359
330
1F
100
AcDbEntity
  8
0
  6
Continuous
 62
     7
370
    15
100
AcDbLine
 10
411.6838620445
 20
609.2925221198
 30
0.0
 11
411.2922267762
 21
617.7631540002
 31
0.0
  0
LINE
  5
35A
330
1F
100
AcDbEntity
  8
0
  6
Continuous
 62
     7
370
    15
100
AcDbLine
 10
411.2922336143
 20
600.8218907147
 30
0.0
 11
411.6838620445
 21
609.2925221198
 31
0.0
  0
LINE
  5
35B
330
1F
100
AcDbEntity
  8
0
  6
Continuous
 62
     7
370
    15
100
AcDbLine
 10
410.120713647
 20
592.4235265804
 30
0.0
 11
411.2922336143
 21
600.8218907147
 31
0.0
  0
LINE
  5
35C
330
1F
100
AcDbEntity
  8
0
  6
Continuous
 62
     7
370
    15
100
AcDbLine
 10
408.1792966145
 20
584.1691065037
 30
0.0
 11
410.120713647
 21
592.4235265804
 31
0.0
  0
LINE
  5
35D
330
1F
100
AcDbEntity
  8
0
  6
Continuous
 62
     7
370
    15
100
AcDbLine
 10
405.4845382663
 20
576.1290059019
 30
0.0
 11
408.1792966145
 21
584.1691065037
 31
0.0
  0
LINE
  5
35E
330
1F
100
AcDbEntity
  8
0
  6
Continuous
 62
     7
370
    15
100
AcDbLine
 10
402.0594030343
 20
568.3718492404
 30
0.0
 11
405.4845382663
 21
576.1290059019
 31
0.0
  0
LINE
  5
35F
330
1F
100
AcDbEntity
  8
0
  6
Continuous
 62
     7
370
    15
100
AcDbLine
 10
397.9331724937
 20
560.9638176738
 30
0.0
 11
402.0594030343
 21
568.3718492404
 31
0.0
  0
LINE
  5
360
330
1F
100
AcDbEntity
  8
0
  6
Continuous
 62
     7
370
    15
100
AcDbLine
 10
393.1410181098
 20
553.9681207062
 30
0.0
 11
397.9331724937
 21
560.9638176738
 31
0.0
  0
LINE
  5
361
330
1F
100
AcDbEntity
  8
0
  6
Continuous
 62
     7
370
    15
100
AcDbLine
 10
387.7238028659
 20
547.4444125364
 30
0.0
 11
393.1410181098
 21
553.9681207062
 31
0.0
  0
LINE
  5
362
330
1F
100
AcDbEntity
  8
0
  6
Continuous
 62
     7
370
    15
100
AcDbLine
 10
394.5732800121
 20
541.2003097357
 30
0.0
 11
387.7238028659
 21
547.4444125364
 31
0.0
  0
LINE
  5
363
330
1F
100
AcDbEntity
  8
0
  6
Continuous
 62
     7
370
    15
100
AcDbLine
 10
400.5374001839
 20
548.3826364287
 30
0.0
 11
394.5732800121
 21
541.2003097357
 31
0.0
  0
LINE
  5
364
330
1F
100
AcDbEntity
  8
0
  6
Continuous
 62
     7
370
    15
100
AcDbLine
 10
405.8133644237
 20
556.0846089468
 30
0.0
 11
400.5374001839
 21
548.3826364287
 31
0.0
  0
LINE
  5
365
330
1F
100
AcDbEntity
  8
0
  6
Continuous
 62
     7
370
    15
100
AcDbLine
 10
410.3561898744
 20
564.2405496834
 30
0.0
 11
405.8133644237
 21
556.0846089468
 31
0.0
  0
LINE
  5
366
330
1F
100
AcDbEntity
  8
0
  6
Continuous
 62
     7
370
    15
100
AcDbLine
 10
414.1271192627
 20
572.7808595219
 30
0.0
 11
410.3561898744
 21
564.2405496834
 31
0.0
  0
LINE
  5
367
330
1F
100
AcDbEntity
  8
0
  6
Continuous
 62
     7
370
    15
100
AcDbLine
 10
417.0939413319
 20
581.6326758692
 30
0.0
 11
414.1271192627
 21
572.7808595219
 31
0.0
  0
LINE
  5
368
330
1F
100
AcDbEntity
  8
0
  6
Continuous
 62
     7
370
    15
100
AcDbLine
 10
419.2313418021
 20
590.7204524959
 30
0.0
 11
417.0939413319
 21
581.6326758692
 31
0.0
  0
LINE
  5
369
330
1F
100
AcDbEntity
  8
0
  6
Continuous
 62
     7
370
    15
100
AcDbLine
 10
420.5211474888
 20
599.9667062473
 30
0.0
 11
419.2313418021
 21
590.7204524959
 31
0.0
  0
LINE
  5
36A
330
1F
100
AcDbEntity
  8
0
  6
Continuous
 62
     7
370
    15
100
AcDbLine
 10
420.9522958141
 20
609.2925220972
 30
0.0
 11
420.5211474888
 21
599.9667062473
 31
0.0
  0
LINE
  5
36B
330
1F
100
AcDbEntity
  8
0
  6
Continuous
 62
     7
370
    15
100
AcDbLine
 10
420.5211399603
 20
618.6183391239
 30
0.0
 11
420.9522958141
 21
609.2925220972
 31
0.0
  0
LINE
  5
36C
330
1F
100
AcDbEntity
  8
0
  6
Continuous
 62
     7
370
    15
100
AcDbLine
 10
419.2313420653
 20
627.8645881945
 30
0.0
 11
420.5211399603
 21
618.6183391239
 31
0.0
  0
LINE
  5
36D
330
1F
100
AcDbEntity
  8
0
  6
Continuous
 62
     7
370
    15
100
AcDbLine
 10
417.0938884883
 20
636.9523894348
 30
0.0
 11
419.2313420653
 21
627.8645881945
 31
0.0
  0
LINE
  5
36E
330
1F
100
AcDbEntity
  8
0
  6
Continuous
 62
     7
370
    15
100
AcDbLine
 10
414.1270745292
 20
645.804185289
 30
0.0
 11
417.0938884883
 21
636.9523894348
 31
0.0
  0
LINE
  5
36F
330
1F
100
AcDbEntity
  8
0
  6
Continuous
 62
     7
370
    15
100
AcDbLine
 10
410.3561535053
 20
654.3444981716
 30
0.0
 11
414.1270745292
 21
645.804185289
 31
0.0
  0
LINE
  5
370
330
1F
100
AcDbEntity
  8
0
  6
Continuous
 62
     7
370
    15
100
AcDbLine
 10
405.8133214706
 20
662.5004463903
 30
0.0
 11
410.3561535053
 21
654.3444981716
 31
0.0
  0
LINE
  5
371
330
1F
100
AcDbEntity
  8
0
  6
Continuous
 62
     7
370
    15
100
AcDbLine
 10
400.5373357544
 20
670.202442241
 30
0.0
 11
405.8133214706
 21
662.5004463903
 31
0.0
  0
LINE
  5
372
330
1F
100
AcDbEntity
  8
0
  6
Continuous
 62
     7
370
    15
100
AcDbLine
 10
393.1409581893
 20
664.6169548741
 30
0.0
 11
400.5373357544
 21
670.202442241
 31
0.0
  0
LINE
  5
373
330
1F
100
AcDbEntity
  8
0
  6
Continuous
 62
     7
370
    15
100
AcDbLine
 10
397.9331334823
 20
657.6212387792
 30
0.0
 11
393.1409581893
 21
664.6169548741
 31
0.0
  0
LINE
  5
374
330
1F
100
AcDbEntity
  8
0
  6
Continuous
 62
     7
370
    15
100
AcDbLine
 10
258.8111801314
 20
510.6684984023
 30
0.0
 11
258.8132451766
 21
510.6670838109
 31
0.0
  0
LINE
  5
375
330
1F
100
AcDbEntity
  8
0
  6
Continuous
 62
     7
370
    15
100
AcDbLine
 10
258.8132451766
 20
510.6670838109
 30
0.0
 11
258.8154321199
 21
510.6658656908
 31
0.0
  0
LINE
  5
376
330
1F
100
AcDbEntity
  8
0
  6
Continuous
 62
     7
370
    15
100
AcDbLine
 10
268.1712151328
 20
505.4547257028
 30
0.0
 11
268.173787474
 21
505.4532929174
 31
0.0
  0
LINE
  5
377
330
1F
100
AcDbEntity
  8
0
  6
Continuous
 62
     7
370
    15
100
AcDbLine
 10
268.173787474
 20
505.4532929174
 30
0.0
 11
268.176481296
 21
505.4521034775
 31
0.0
  0
LINE
  5
378
330
1F
100
AcDbEntity
  8
0
  6
Continuous
 62
     7
370
    15
100
AcDbLine
 10
277.9722554192
 20
501.126842188
 30
0.0
 11
277.9754079574
 21
501.125450205
 31
0.0
  0
LINE
  5
379
330
1F
100
AcDbEntity
  8
0
  6
Continuous
 62
     7
370
    15
100
AcDbLine
 10
277.9754079574
 20
501.125450205
 30
0.0
 11
277.978675743
 21
501.1243549544
 31
0.0
  0
LINE
  5
37A
330
1F
100
AcDbEntity
  8
0
  6
Continuous
 62
     7
370
    15
100
AcDbLine
 10
288.1309443795
 20
497.7216598226
 30
0.0
 11
288.1345952743
 21
497.7204361669
 31
0.0
  0
LINE
  5
37B
330
1F
100
AcDbEntity
  8
0
  6
Continuous
 62
     7
370
    15
100
AcDbLine
 10
288.1345952743
 20
497.7204361669
 30
0.0
 11
288.1383438576
 21
497.7195545066
 31
0.0
  0
LINE
  5
37C
330
1F
100
AcDbEntity
  8
0
  6
Continuous
 62
     7
370
    15
100
AcDbLine
 10
298.5602671083
 20
495.2683363996
 30
0.0
 11
298.5645612472
 21
495.2673264257
 31
0.0
  0
LINE
  5
37D
330
1F
100
AcDbEntity
  8
0
  6
Continuous
 62
     7
370
    15
100
AcDbLine
 10
298.5645612472
 20
495.2673264257
 30
0.0
 11
298.5689305298
 21
495.2667169431
 31
0.0
  0
LINE
  5
37E
330
1F
100
AcDbEntity
  8
0
  6
Continuous
 62
     7
370
    15
100
AcDbLine
 10
309.1719074226
 20
493.7876801362
 30
0.0
 11
309.1763814681
 21
493.7870560399
 31
0.0
  0
LINE
  5
37F
330
1F
100
AcDbEntity
  8
0
  6
Continuous
 62
     7
370
    15
100
AcDbLine
 10
309.1763814681
 20
493.7870560399
 30
0.0
 11
309.1808942581
 21
493.7868473993
 31
0.0
  0
LINE
  5
380
330
1F
100
AcDbEntity
  8
0
  6
Continuous
 62
     7
370
    15
100
AcDbLine
 10
319.8745245484
 20
493.2924470151
 30
0.0
 11
319.8795751327
 21
493.2922135106
 31
0.0
  0
LINE
  5
381
330
1F
100
AcDbEntity
  8
0
  6
Continuous
 62
     7
370
    15
100
AcDbLine
 10
319.8795751327
 20
493.2922135106
 30
0.0
 11
319.8846263082
 21
493.2924470364
 31
0.0
  0
LINE
  5
382
330
1F
100
AcDbEntity
  8
0
  6
Continuous
 62
     7
370
    15
100
AcDbLine
 10
330.5770046863
 20
493.786776764
 30
0.0
 11
330.5827153915
 21
493.7870407811
 31
0.0
  0
LINE
  5
383
330
1F
100
AcDbEntity
  8
0
  6
Continuous
 62
     7
370
    15
100
AcDbLine
 10
330.5827153915
 20
493.7870407811
 30
0.0
 11
330.5883779564
 21
493.787830675
 31
0.0
  0
LINE
  5
384
330
1F
100
AcDbEntity
  8
0
  6
Continuous
 62
     7
370
    15
100
AcDbLine
 10
341.1884422811
 20
495.26647609
 30
0.0
 11
341.1945928329
 21
495.2673340551
 31
0.0
  0
LINE
  5
385
330
1F
100
AcDbEntity
  8
0
  6
Continuous
 62
     7
370
    15
100
AcDbLine
 10
341.1945928329
 20
495.2673340551
 30
0.0
 11
341.200638512
 21
495.2687559887
 31
0.0
  0
LINE
  5
386
330
1F
100
AcDbEntity
  8
0
  6
Continuous
 62
     7
370
    15
100
AcDbLine
 10
351.6181401154
 20
497.7189350282
 30
0.0
 11
351.6245549911
 21
497.7204437963
 31
0.0
  0
LINE
  5
387
330
1F
100
AcDbEntity
  8
0
  6
Continuous
 62
     7
370
    15
100
AcDbLine
 10
351.6245549911
 20
497.7204437963
 30
0.0
 11
351.6308038763
 21
497.7225382054
 31
0.0
  0
LINE
  5
388
330
1F
100
AcDbEntity
  8
0
  6
Continuous
 62
     7
370
    15
100
AcDbLine
 10
361.7768488303
 20
501.1231398347
 30
0.0
 11
361.7836965316
 21
501.1254349462
 31
0.0
  0
LINE
  5
389
330
1F
100
AcDbEntity
  8
0
  6
Continuous
 62
     7
370
    15
100
AcDbLine
 10
361.7836965316
 20
501.1254349462
 30
0.0
 11
361.7903038377
 21
501.1283523594
 31
0.0
  0
LINE
  5
38A
330
1F
100
AcDbEntity
  8
0
  6
Continuous
 62
     7
370
    15
100
AcDbLine
 10
371.578426134
 20
505.4502343419
 30
0.0
 11
371.5853704208
 21
505.4533005467
 31
0.0
  0
LINE
  5
38B
330
1F
100
AcDbEntity
  8
0
  6
Continuous
 62
     7
370
    15
100
AcDbLine
 10
371.5853704208
 20
505.4533005467
 30
0.0
 11
371.5920026731
 21
505.4569946887
 31
0.0
  0
LINE
  5
38C
330
1F
100
AcDbEntity
  8
0
  6
Continuous
 62
     7
370
    15
100
AcDbLine
 10
380.9388894005
 20
510.6631787056
 30
0.0
 11
380.9458593124
 21
510.6670609227
 31
0.0
  0
LINE
  5
38D
330
1F
100
AcDbEntity
  8
0
  6
Continuous
 62
     7
370
    15
100
AcDbLine
 10
380.9458593124
 20
510.6670609227
 30
0.0
 11
380.952441778
 21
510.6715700148
 31
0.0
  0
LINE
  5
38E
330
1F
100
AcDbEntity
  8
0
  6
Continuous
 62
     7
370
    15
100
AcDbLine
 10
389.7784339497
 20
516.7175129144
 30
0.0
 11
389.7853521102
 21
516.7222519628
 31
0.0
  0
LINE
  5
38F
330
1F
100
AcDbEntity
  8
0
  6
Continuous
 62
     7
370
    15
100
AcDbLine
 10
389.7853521102
 20
516.7222519628
 30
0.0
 11
389.7918038863
 21
516.7276094517
 31
0.0
  0
LINE
  5
390
330
1F
100
AcDbEntity
  8
0
  6
Continuous
 62
     7
370
    15
100
AcDbLine
 10
398.0217912571
 20
523.5617068945
 30
0.0
 11
398.0284703963
 21
523.5672531835
 31
0.0
  0
LINE
  5
391
330
1F
100
AcDbEntity
  8
0
  6
Continuous
 62
     7
370
    15
100
AcDbLine
 10
398.0284703963
 20
523.5672531835
 30
0.0
 11
398.0346098188
 21
523.5733925936
 31
0.0
  0
LINE
  5
392
330
1F
100
AcDbEntity
  8
0
  6
Continuous
 62
     7
370
    15
100
AcDbLine
 10
405.5982923287
 20
531.1370598702
 30
0.0
 11
405.6048406356
 21
531.1436081639
 31
0.0
  0
LINE
  5
393
330
1F
100
AcDbEntity
  8
0
  6
Continuous
 62
     7
370
    15
100
AcDbLine
 10
405.6048406356
 20
531.1436081639
 30
0.0
 11
405.6107572381
 21
531.1507332639
 31
0.0
  0
LINE
  5
394
330
1F
100
AcDbEntity
  8
0
  6
Continuous
 62
     7
370
    15
100
AcDbLine
 10
412.4437661433
 20
539.3794204865
 30
0.0
 11
412.4498265975
 21
539.3867188207
 31
0.0
  0
LINE
  5
395
330
1F
100
AcDbEntity
  8
0
  6
Continuous
 62
     7
370
    15
100
AcDbLine
 10
412.4498265975
 20
539.3867188207
 30
0.0
 11
412.4551880696
 21
539.3945456048
 31
0.0
  0
LINE
  5
396
330
1F
100
AcDbEntity
  8
0
  6
Continuous
 62
     7
370
    15
100
AcDbLine
 10
418.4994974856
 20
548.2181493756
 30
0.0
 11
418.5050176376
 21
548.2262078038
 31
0.0
  0
LINE
  5
397
330
1F
100
AcDbEntity
  8
0
  6
Continuous
 62
     7
370
    15
100
AcDbLine
 10
418.5050176376
 20
548.2262078038
 30
0.0
 11
418.5097708157
 21
548.2347414105
 31
0.0
  0
LINE
  5
398
330
1F
100
AcDbEntity
  8
0
  6
Continuous
 62
     7
370
    15
100
AcDbLine
 10
423.714017412
 20
557.5781726494
 30
0.0
 11
423.7187780135
 21
557.5867195836
 31
0.0
  0
LINE
  5
399
330
1F
100
AcDbEntity
  8
0
  6
Continuous
 62
     7
370
    15
100
AcDbLine
 10
423.7187780135
 20
557.5867195836
 30
0.0
 11
423.7227298954
 21
557.5956697118
 31
0.0
  0
LINE
  5
39A
330
1F
100
AcDbEntity
  8
0
  6
Continuous
 62
     7
370
    15
100
AcDbLine
 10
428.0424960378
 20
567.3789734375
 30
0.0
 11
428.0466436141
 21
567.3883667699
 31
0.0
  0
LINE
  5
39B
330
1F
100
AcDbEntity
  8
0
  6
Continuous
 62
     7
370
    15
100
AcDbLine
 10
428.0466436141
 20
567.3883667699
 30
0.0
 11
428.0499070193
 21
567.3981034298
 31
0.0
  0
LINE
  5
39C
330
1F
100
AcDbEntity
  8
0
  6
Continuous
 62
     7
370
    15
100
AcDbLine
 10
431.4483020938
 20
577.5375176841
 30
0.0
 11
431.4516576522
 21
577.5475292912
 31
0.0
  0
LINE
  5
39D
330
1F
100
AcDbEntity
  8
0
  6
Continuous
 62
     7
370
    15
100
AcDbLine
 10
431.4516576522
 20
577.5475292912
 30
0.0
 11
431.4540751685
 21
577.5578079892
 31
0.0
  0
LINE
  5
39E
330
1F
100
AcDbEntity
  8
0
  6
Continuous
 62
     7
370
    15
100
AcDbLine
 10
433.9023660071
 20
587.9673519312
 30
0.0
 11
433.9047521346
 21
587.9774971715
 31
0.0
  0
LINE
  5
39F
330
1F
100
AcDbEntity
  8
0
  6
Continuous
 62
     7
370
    15
100
AcDbLine
 10
433.9047521346
 20
587.9774971715
 30
0.0
 11
433.9061920349
 21
587.9878194016
 31
0.0
  0
LINE
  5
3A0
330
1F
100
AcDbEntity
  8
0
  6
Continuous
 62
     7
370
    15
100
AcDbLine
 10
435.383574023
 20
598.5787452783
 30
0.0
 11
435.3850530379
 21
598.58934791
 31
0.0
  0
LINE
  5
3A1
330
1F
100
AcDbEntity
  8
0
  6
Continuous
 62
     7
370
    15
100
AcDbLine
 10
435.3850530379
 20
598.58934791
 30
0.0
 11
435.3855474703
 21
598.6000422013
 31
0.0
  0
LINE
  5
3A2
330
1F
100
AcDbEntity
  8
0
  6
Continuous
 62
     7
370
    15
100
AcDbLine
 10
435.8793949062
 20
609.2816825496
 30
0.0
 11
435.8798955672
 21
609.2925115651
 31
0.0
  0
LINE
  5
3A3
330
1F
100
AcDbEntity
  8
0
  6
Continuous
 62
     7
370
    15
100
AcDbLine
 10
435.8798955672
 20
609.2925115651
 30
0.0
 11
435.8793949062
 21
609.3033405826
 31
0.0
  0
LINE
  5
3A4
330
1F
100
AcDbEntity
  8
0
  6
Continuous
 62
     7
370
    15
100
AcDbLine
 10
435.3855476463
 20
619.9849789652
 30
0.0
 11
435.3850530379
 21
619.995677065
 31
0.0
  0
LINE
  5
3A5
330
1F
100
AcDbEntity
  8
0
  6
Continuous
 62
     7
370
    15
100
AcDbLine
 10
435.3850530379
 20
619.995677065
 30
0.0
 11
435.3835734963
 21
620.0062834677
 31
0.0
  0
LINE
  5
3A6
330
1F
100
AcDbEntity
  8
0
  6
Continuous
 62
     7
370
    15
100
AcDbLine
 10
433.9061904624
 20
630.5972120823
 30
0.0
 11
433.9047521346
 21
630.6075230351
 31
0.0
  0
LINE
  5
3A7
330
1F
100
AcDbEntity
  8
0
  6
Continuous
 62
     7
370
    15
100
AcDbLine
 10
433.9047521346
 20
630.6075230351
 30
0.0
 11
433.9023686519
 21
630.6176569954
 31
0.0
  0
LINE
  5
3A8
330
1F
100
AcDbEntity
  8
0
  6
Continuous
 62
     7
370
    15
100
AcDbLine
 10
431.4540220475
 20
641.0274018438
 30
0.0
 11
431.4516423934
 21
641.0375195256
 31
0.0
  0
LINE
  5
3A9
330
1F
100
AcDbEntity
  8
0
  6
Continuous
 62
     7
370
    15
100
AcDbLine
 10
431.4516423934
 20
641.0375195256
 30
0.0
 11
431.4483393916
 21
641.04737434
 31
0.0
  0
LINE
  5
3AA
330
1F
100
AcDbEntity
  8
0
  6
Continuous
 62
     7
370
    15
100
AcDbLine
 10
428.0498951103
 20
651.1869503866
 30
0.0
 11
428.0466436141
 21
651.1966515294
 31
0.0
  0
LINE
  5
3AB
330
1F
100
AcDbEntity
  8
0
  6
Continuous
 62
     7
370
    15
100
AcDbLine
 10
428.0466436141
 20
651.1966515294
 30
0.0
 11
428.0425110303
 21
651.20601094
 31
0.0
  0
LINE
  5
3AC
330
1F
100
AcDbEntity
  8
0
  6
Continuous
 62
     7
370
    15
100
AcDbLine
 10
423.7228461011
 20
660.9891199329
 30
0.0
 11
423.7187932723
 21
660.9982987157
 31
0.0
  0
LINE
  5
3AD
330
1F
100
AcDbEntity
  8
0
  6
Continuous
 62
     7
370
    15
100
AcDbLine
 10
423.7187932723
 20
660.9982987157
 30
0.0
 11
423.7139110378
 21
661.0070640013
 31
0.0
  0
LINE
  5
3AE
330
1F
100
AcDbEntity
  8
0
  6
Continuous
 62
     7
370
    15
100
AcDbLine
 10
418.5097656362
 20
670.350290024
 30
0.0
 11
418.5050176375
 21
670.3588143102
 31
0.0
  0
LINE
  5
3AF
330
1F
100
AcDbEntity
  8
0
  6
Continuous
 62
     7
370
    15
100
AcDbLine
 10
418.5050176375
 20
670.3588143102
 30
0.0
 11
418.4995034618
 21
670.366864042
 31
0.0
  0
LINE
  5
3B0
330
1F
100
AcDbEntity
  8
0
  6
Continuous
 62
     7
370
    15
100
AcDbLine
 10
412.4554062502
 20
679.1901884942
 30
0.0
 11
412.4498265975
 21
679.1983338109
 31
0.0
  0
LINE
  5
3B1
330
1F
100
AcDbEntity
  8
0
  6
Continuous
 62
     7
370
    15
100
AcDbLine
 10
412.4498265975
 20
679.1983338109
 30
0.0
 11
412.4435194626
 21
679.2059291835
 31
0.0
  0
LINE
  5
3B2
330
1F
100
AcDbEntity
  8
0
  6
Continuous
 62
     7
370
    15
100
AcDbLine
 10
405.6107485815
 20
687.4342993012
 30
0.0
 11
405.6048406356
 21
687.4414139501
 31
0.0
  0
LINE
  5
3B3
330
1F
100
AcDbEntity
  8
0
  6
Continuous
 62
     7
370
    15
100
AcDbLine
 10
405.6048406356
 20
687.4414139501
 30
0.0
 11
405.5983019793
 21
687.447952613
 31
0.0
  0
LINE
  5
3B4
330
1F
100
AcDbEntity
  8
0
  6
Continuous
 62
     7
370
    15
100
AcDbLine
 10
398.0348581914
 20
695.0114040172
 30
0.0
 11
398.0284856551
 21
695.0177765599
 31
0.0
  0
LINE
  5
3B5
330
1F
100
AcDbEntity
  8
0
  6
Continuous
 62
     7
370
    15
100
AcDbLine
 10
398.0284856551
 20
695.0177765599
 30
0.0
 11
398.021552637
 21
695.0235336716
 31
0.0
  0
LINE
  5
3B6
330
1F
100
AcDbEntity
  8
0
  6
Continuous
 62
     7
370
    15
100
AcDbLine
 10
389.7921285409
 20
701.8571684097
 30
0.0
 11
389.7853826278
 21
701.8627701512
 31
0.0
  0
LINE
  5
3B7
330
1F
100
AcDbEntity
  8
0
  6
Continuous
 62
     7
370
    15
100
AcDbLine
 10
389.7853826278
 20
701.8627701512
 30
0.0
 11
389.7851387897
 21
701.8624472572
 31
0.0
  0
LINE
  5
3B8
330
1F
100
AcDbEntity
  8
0
  6
Continuous
 62
     7
370
    15
100
AcDbLine
 10
380.9456590784
 20
707.9176530609
 30
0.0
 11
380.9458593123
 21
707.9179764501
 31
0.0
  0
LINE
  5
3B9
330
1F
100
AcDbEntity
  8
0
  6
Continuous
 62
     7
370
    15
100
AcDbLine
 10
380.9458593123
 20
707.9179764501
 30
0.0
 11
380.9386588762
 21
707.921987075
 31
0.0
  0
LINE
  5
3BA
330
1F
100
AcDbEntity
  8
0
  6
Continuous
 62
     7
370
    15
100
AcDbLine
 10
371.5923892776
 20
713.1278358395
 30
0.0
 11
371.5853856795
 21
713.131736826
 31
0.0
  0
LINE
  5
3BB
330
1F
100
AcDbEntity
  8
0
  6
Continuous
 62
     7
370
    15
100
AcDbLine
 10
371.5853856795
 20
713.131736826
 30
0.0
 11
371.5780525397
 21
713.1349747232
 31
0.0
  0
LINE
  5
3BC
330
1F
100
AcDbEntity
  8
0
  6
Continuous
 62
     7
370
    15
100
AcDbLine
 10
361.7906142868
 20
717.4565504164
 30
0.0
 11
361.7837194198
 21
717.4595947972
 31
0.0
  0
LINE
  5
3BD
330
1F
100
AcDbEntity
  8
0
  6
Continuous
 62
     7
370
    15
100
AcDbLine
 10
361.7837194198
 20
717.4595947972
 30
0.0
 11
361.7765737003
 21
717.4619897994
 31
0.0
  0
LINE
  5
3BE
330
1F
100
AcDbEntity
  8
0
  6
Continuous
 62
     7
370
    15
100
AcDbLine
 10
351.6312383072
 20
720.8623612276
 30
0.0
 11
351.6245778792
 21
720.8645935765
 31
0.0
  0
LINE
  5
3BF
330
1F
100
AcDbEntity
  8
0
  6
Continuous
 62
     7
370
    15
100
AcDbLine
 10
351.6245778792
 20
720.8645935765
 30
0.0
 11
351.6177404915
 21
720.8662017179
 31
0.0
  0
LINE
  5
3C0
330
1F
100
AcDbEntity
  8
0
  6
Continuous
 62
     7
370
    15
100
AcDbLine
 10
341.2010190925
 20
723.3161959135
 30
0.0
 11
341.1945775741
 21
723.3177109471
 31
0.0
  0
LINE
  5
3C1
330
1F
100
AcDbEntity
  8
0
  6
Continuous
 62
     7
370
    15
100
AcDbLine
 10
341.1945775741
 20
723.3177109471
 30
0.0
 11
341.1880243037
 21
723.3186250883
 31
0.0
  0
LINE
  5
3C2
330
1F
100
AcDbEntity
  8
0
  6
Continuous
 62
     7
370
    15
100
AcDbLine
 10
330.5887747929
 20
724.7971555992
 30
0.0
 11
330.582745909
 21
724.7979965917
 31
0.0
  0
LINE
  5
3C3
330
1F
100
AcDbEntity
  8
0
  6
Continuous
 62
     7
370
    15
100
AcDbLine
 10
330.582745909
 20
724.7979965917
 30
0.0
 11
330.5766656823
 21
724.7982777004
 31
0.0
  0
LINE
  5
3C4
330
1F
100
AcDbEntity
  8
0
  6
Continuous
 62
     7
370
    15
100
AcDbLine
 10
319.8852662876
 20
725.2925760003
 30
0.0
 11
319.8795751327
 21
725.292839121
 31
0.0
  0
LINE
  5
3C5
330
1F
100
AcDbEntity
  8
0
  6
Continuous
 62
     7
370
    15
100
AcDbLine
 10
319.8795751327
 20
725.292839121
 30
0.0
 11
319.8738845009
 21
725.2925760243
 31
0.0
  0
LINE
  5
3C6
330
1F
100
AcDbEntity
  8
0
  6
Continuous
 62
     7
370
    15
100
AcDbLine
 10
309.1815011903
 20
724.7982318824
 30
0.0
 11
309.1764119857
 21
724.7979965917
 31
0.0
  0
LINE
  5
3C7
330
1F
100
AcDbEntity
  8
0
  6
Continuous
 62
     7
370
    15
100
AcDbLine
 10
309.1764119857
 20
724.7979965917
 30
0.0
 11
309.17136669
 21
724.7972928038
 31
0.0
  0
LINE
  5
3C8
330
1F
100
AcDbEntity
  8
0
  6
Continuous
 62
     7
370
    15
100
AcDbLine
 10
298.5691763329
 20
723.3183520627
 30
0.0
 11
298.5645803207
 21
723.3177109471
 31
0.0
  0
LINE
  5
3C9
330
1F
100
AcDbEntity
  8
0
  6
Continuous
 62
     7
370
    15
100
AcDbLine
 10
298.5645803207
 20
723.3177109471
 30
0.0
 11
298.5600634377
 21
723.3166485877
 31
0.0
  0
LINE
  5
3CA
330
1F
100
AcDbEntity
  8
0
  6
Continuous
 62
     7
370
    15
100
AcDbLine
 10
288.1387068535
 20
720.8655718278
 30
0.0
 11
288.1345800155
 21
720.8646012059
 31
0.0
  0
LINE
  5
3CB
330
1F
100
AcDbEntity
  8
0
  6
Continuous
 62
     7
370
    15
100
AcDbLine
 10
288.1345800155
 20
720.8646012059
 30
0.0
 11
288.130560744
 21
720.8632540778
 31
0.0
  0
LINE
  5
3CC
330
1F
100
AcDbEntity
  8
0
  6
Continuous
 62
     7
370
    15
100
AcDbLine
 10
277.9788029098
 20
717.4607173733
 30
0.0
 11
277.9754308456
 21
717.4595871678
 31
0.0
  0
LINE
  5
3CD
330
1F
100
AcDbEntity
  8
0
  6
Continuous
 62
     7
370
    15
100
AcDbLine
 10
277.9754308456
 20
717.4595871678
 30
0.0
 11
277.972177755
 21
717.4581507899
 31
0.0
  0
LINE
  5
3CE
330
1F
100
AcDbEntity
  8
0
  6
Continuous
 62
     7
370
    15
100
AcDbLine
 10
268.176735051
 20
713.1330459361
 30
0.0
 11
268.173787474
 21
713.1317444554
 31
0.0
  0
LINE
  5
3CF
330
1F
100
AcDbEntity
  8
0
  6
Continuous
 62
     7
370
    15
100
AcDbLine
 10
268.173787474
 20
713.1317444554
 30
0.0
 11
268.170972768
 21
713.1301766741
 31
0.0
  0
LINE
  5
3D0
330
1F
100
AcDbEntity
  8
0
  6
Continuous
 62
     7
370
    15
100
AcDbLine
 10
258.8156887056
 20
707.9193162394
 30
0.0
 11
258.8132833236
 21
707.9179764501
 31
0.0
  0
LINE
  5
3D1
330
1F
100
AcDbEntity
  8
0
  6
Continuous
 62
     7
370
    15
100
AcDbLine
 10
258.8132833236
 20
707.9179764501
 30
0.0
 11
258.8110120011
 21
707.9164205587
 31
0.0
  0
LINE
  5
3D2
330
1F
100
AcDbEntity
  8
0
  6
Continuous
 62
     7
370
    15
100
AcDbLine
 10
249.9757353664
 20
701.8641180762
 30
0.0
 11
249.9737676376
 21
701.8627701512
 31
0.0
  0
LINE
  5
3D3
330
1F
100
AcDbEntity
  8
0
  6
Continuous
 62
     7
370
    15
100
AcDbLine
 10
249.9737676376
 20
701.8627701512
 30
0.0
 11
249.9719327995
 21
701.8612465213
 31
0.0
  0
CIRCLE
  5
3D4
330
1F
100
AcDbEntity
  8
0
  6
Continuous
 62
     7
370
    15
100
AcDbCircle
 10
319.8793307933
 20
609.2925115338
 30
0.0
 40
103.2889502205879
  0
CIRCLE
  5
3D5
330
1F
100
AcDbEntity
  8
0
  6
Continuous
 62
     7
370
    15
100
AcDbCircle
 10
319.8793307933
 20
609.2925115338
 30
0.0
 40
101.07247141992
  0
CIRCLE
  5
3D6
330
1F
100
AcDbEntity
  8
0
  6
Continuous
 62
     7
370
    15
100
AcDbCircle
 10
319.8793307933
 20
609.2925115338
 30
0.0
 40
105.4643218870275
  0
CIRCLE
  5
3D7
330
1F
100
AcDbEntity
  8
0
  6
Continuous
 62
     7
370
    15
100
AcDbCircle
 10
319.8793307933
 20
609.2925115338
 30
0.0
 40
107.6064555224328
  0
CIRCLE
  5
3D8
330
1F
100
AcDbEntity
  8
0
  6
Continuous
 62
     7
370
    15
100
AcDbCircle
 10
319.8793307933
 20
609.2925115338
 30
0.0
 40
109.7232199660159
  0
CIRCLE
  5
3D9
330
1F
100
AcDbEntity
  8
0
  6
Continuous
 62
     7
370
    15
100
AcDbCircle
 10
319.8793307933
 20
609.2925115338
 30
0.0
 40
111.8225071995112
  0
CIRCLE
  5
3DA
330
1F
100
AcDbEntity
  8
0
  6
Continuous
 62
     7
370
    15
100
AcDbCircle
 10
319.8793307933
 20
609.2925115338
 30
0.0
 40
113.9121632715845
  0
CIRCLE
  5
3DB
330
1F
100
AcDbEntity
  8
0
  6
Continuous
 62
     7
370
    15
100
AcDbCircle
 10
319.8793307933
 20
609.2925115338
 30
0.0
 40
116.0000646182962
  0
CIRCLE
  5
3DC
330
1F
100
AcDbEntity
  8
0
  6
Continuous
 62
     7
370
    15
100
AcDbCircle
 10
319.8784905333
 20
609.292433672
 30
0.0
 40
91.17433542174484
  0
CIRCLE
  5
3DD
330
1F
100
AcDbEntity
  8
0
  6
Continuous
 62
     7
370
    15
100
AcDbCircle
 10
319.8784905333
 20
609.292433672
 30
0.0
 40
90.97799463586301
  0
CIRCLE
  5
3DE
330
1F
100
AcDbEntity
  8
0
  6
Continuous
 62
     7
370
    15
100
AcDbCircle
 10
319.8784905333
 20
609.292433672
 30
0.0
 40
83.17871001397629
  0
CIRCLE
  5
3DF
330
1F
100
AcDbEntity
  8
0
  6
Continuous
 62
     7
370
    15
100
AcDbCircle
 10
319.8784905333
 20
609.292433672
 30
0.0
 40
91.33446516897135
  0
CIRCLE
  5
3E0
330
1F
100
AcDbEntity
  8
0
  6
Continuous
 62
     7
370
    15
100
AcDbCircle
 10
319.8784905333
 20
609.292433672
 30
0.0
 40
91.46442167092874
  0
CIRCLE
  5
3E1
330
1F
100
AcDbEntity
  8
0
  6
Continuous
 62
     7
370
    15
100
AcDbCircle
 10
319.8784905333
 20
609.292433672
 30
0.0
 40
91.57022743931202
  0
CIRCLE
  5
3E2
330
1F
100
AcDbEntity
  8
0
  6
Continuous
 62
     7
370
    15
100
AcDbCircle
 10
319.8784905333
 20
609.292433672
 30
0.0
 40
91.65793528521624
  0
CIRCLE
  5
3E3
330
1F
100
AcDbEntity
  8
0
  6
Continuous
 62
     7
370
    15
100
AcDbCircle
 10
319.8784905333
 20
609.292433672
 30
0.0
 40
75.31820533729496
  0
CIRCLE
  5
3E4
330
1F
100
AcDbEntity
  8
0
  6
Continuous
 62
     7
370
    15
100
AcDbCircle
 10
319.8784905333
 20
609.292433672
 30
0.0
 40
67.58014081419981
  0
CIRCLE
  5
3E5
330
1F
100
AcDbEntity
  8
0
  6
Continuous
 62
     7
370
    15
100
AcDbCircle
 10
319.8784905333
 20
609.292433672
 30
0.0
 40
60.14820690847466
  0
CIRCLE
  5
3E6
330
1F
100
AcDbEntity
  8
0
  6
Continuous
 62
     7
370
    15
100
AcDbCircle
 10
319.8784905333
 20
609.292433672
 30
0.0
 40
53.20606387249723
  0
CIRCLE
  5
3E7
330
1F
100
AcDbEntity
  8
0
  6
Continuous
 62
     7
370
    15
100
AcDbCircle
 10
319.8784905333
 20
609.292433672
 30
0.0
 40
46.9373946171998
  0
CIRCLE
  5
3E8
330
1F
100
AcDbEntity
  8
0
  6
Continuous
 62
     7
370
    15
100
AcDbCircle
 10
319.8784905333
 20
609.292433672
 30
0.0
 40
41.52586685981754
  0
CIRCLE
  5
3E9
330
1F
100
AcDbEntity
  8
0
  6
Continuous
 62
     7
370
    15
100
AcDbCircle
 10
319.8784905333
 20
609.292433672
 30
0.0
 40
41.52443403991452
  0
LINE
  5
3EA
330
1F
100
AcDbEntity
  8
0
  6
Continuous
 62
     7
370
    15
100
AcDbLine
 10
275.8063561613
 20
689.7164035568
 30
0.0
 11
275.8307467827
 21
689.672613886
 31
0.0
  0
LINE
  5
3EB
330
1F
100
AcDbEntity
  8
0
  6
Continuous
 62
     7
370
    15
100
AcDbLine
 10
290.1536935205
 20
695.996606255
 30
0.0
 11
290.1500556199
 21
696.0074603069
 31
0.0
  0
LINE
  5
3EC
330
1F
100
AcDbEntity
  8
0
  6
Continuous
 62
     7
370
    15
100
AcDbLine
 10
290.1463010086
 20
696.0186625771
 30
0.0
 11
290.1429936451
 21
696.0285304374
 31
0.0
  0
LINE
  5
3ED
330
1F
100
AcDbEntity
  8
0
  6
Continuous
 62
     7
370
    15
100
AcDbLine
 10
290.1428276045
 20
696.0290258368
 30
0.0
 11
290.1377088214
 21
696.0442982545
 31
0.0
  0
SPLINE
  5
3EE
330
1F
100
AcDbEntity
  8
0
  6
Continuous
 62
     7
370
    15
100
AcDbSpline
210
0.0
220
0.0
230
1.0
 70
     8
 71
     3
 72
    40
 73
    36
 74
     0
 42
0.00000001
 43
0.00000001
 12
1.0
 22
0.0
 32
0.0
 13
1.0
 23
0.0
 33
0.0
 40
0.0
 40
0.0
 40
0.0
 40
0.0
 40
0.105285691390558
 40
0.1053073948856396
 40
0.1579287964135637
 40
0.1579492918815269
 40
0.2105716753792417
 40
0.2105909583014473
 40
0.2632147536819958
 40
0.2632328315553463
 40
0.3158576178706034
 40
0.3158744692883866
 40
0.3684846976249831
 40
0.3684987443003974
 40
0.421087802274988
 40
0.4210971468013118
 40
0.4736908500602464
 40
0.4736954866050868
 40
0.5263180002546844
 40
0.5263198318615463
 40
0.5789609458116084
 40
0.5789615727268753
 40
0.6316033223902875
 40
0.6316039156666491
 40
0.6842276924007904
 40
0.6842310840393427
 40
0.7368520406514394
 40
0.7368582504017348
 40
0.7894938148537465
 40
0.789501227239595
 40
0.8421355054383527
 40
0.8421441316273717
 40
0.8947773109014052
 40
0.8947871630585676
 40
1.0
 40
1.0
 40
1.0
 40
1.0
 10
252.035390257192
 20
547.444397043336
 30
0.0
 10
248.2250948086855
 20
551.6231200320615
 30
0.0
 10
244.8022336068557
 20
556.1566587455507
 30
0.0
 10
240.3369919954535
 20
563.3688498887583
 30
0.0
 10
238.9593506131274
 20
565.8427451584492
 30
0.0
 10
236.4386846041313
 20
570.9039489930963
 30
0.0
 10
235.2941895407117
 20
573.4942089773217
 30
0.0
 10
233.2539427214724
 20
578.7667321084988
 30
0.0
 10
232.3570687481794
 20
581.4518889216014
 30
0.0
 10
230.8018698552626
 20
586.8891747572529
 30
0.0
 10
230.1427551703727
 20
589.6441010395014
 30
0.0
 10
229.1337959696974
 20
595.204862040978
 30
0.0
 10
228.7833684611435
 20
598.013261336265
 30
0.0
 10
228.2890072349096
 20
603.6444601811628
 30
0.0
 10
228.1447978667975
 20
606.4694025896322
 30
0.0
 10
228.145022625294
 20
612.1173851972752
 30
0.0
 10
228.2894490493771
 20
614.9419287223512
 30
0.0
 10
228.7832256639897
 20
620.5738066960098
 30
0.0
 10
229.1327524051733
 20
623.3819774563649
 30
0.0
 10
230.1443753906197
 20
628.9423049274576
 30
0.0
 10
230.806636802792
 20
631.6948185175542
 30
0.0
 10
232.353139415906
 20
637.1372018124736
 30
0.0
 10
233.237426013476
 20
639.8272288961539
 30
0.0
 10
235.3114656819887
 20
645.0838713445052
 30
0.0
 10
236.5012137138933
 20
647.6507552468605
 30
0.0
 10
239.0226093637769
 20
652.7129692259821
 30
0.0
 10
240.3544959075451
 20
655.2087913094113
 30
0.0
 10
243.2974252243362
 20
660.0334866719419
 30
0.0
 10
244.909039904552
 20
662.3630813687053
 30
0.0
 10
248.326580619894
 20
666.8698061300527
 30
0.0
 10
250.1332226605826
 20
669.047889926442
 30
0.0
 10
253.9365984745154
 20
673.2323337124602
 30
0.0
 10
255.9342677284572
 20
675.2397208254645
 30
0.0
 10
262.2216968270687
 20
680.9269431199449
 30
0.0
 10
266.8100204469498
 20
684.2766607983971
 30
0.0
 10
271.627316831899
 20
687.2225952855237
 30
0.0
  0
SPLINE
  5
3EF
330
1F
100
AcDbEntity
  8
0
  6
Continuous
 62
     7
370
    15
100
AcDbSpline
210
0.0
220
0.0
230
1.0
 70
     8
 71
     3
 72
    40
 73
    36
 74
     0
 42
0.00000001
 43
0.00000001
 12
1.0
 22
0.0
 32
0.0
 13
1.0
 23
0.0
 33
0.0
 40
0.0
 40
0.0
 40
0.0
 40
0.0
 40
0.105285691390558
 40
0.1053073948856396
 40
0.1579287964135637
 40
0.1579492918815269
 40
0.2105716753792417
 40
0.2105909583014473
 40
0.2632147536819958
 40
0.2632328315553463
 40
0.3158576178706034
 40
0.3158744692883866
 40
0.3684846976249831
 40
0.3684987443003974
 40
0.421087802274988
 40
0.4210971468013118
 40
0.4736908500602464
 40
0.4736954866050868
 40
0.5263180002546844
 40
0.5263198318615463
 40
0.5789609458116084
 40
0.5789615727268753
 40
0.6316033223902875
 40
0.6316039156666491
 40
0.6842276924007904
 40
0.6842310840393427
 40
0.7368520406514394
 40
0.7368582504017348
 40
0.7894938148537465
 40
0.789501227239595
 40
0.8421355054383527
 40
0.8421441316273717
 40
0.8947773109014052
 40
0.8947871630585676
 40
1.0
 40
1.0
 40
1.0
 40
1.0
 10
252.035390257192
 20
547.444397043336
 30
0.0
 10
248.2969963366561
 20
551.6762898992645
 30
0.0
 10
244.8640178375776
 20
556.1962403875319
 30
0.0
 10
240.3976221071917
 20
563.3995571043225
 30
0.0
 10
239.0219382775685
 20
565.872414921419
 30
0.0
 10
236.5036435640938
 20
570.930410664411
 30
0.0
 10
235.3595616254371
 20
573.5184971987666
 30
0.0
 10
233.3206188964626
 20
578.7869363725378
 30
0.0
 10
232.4246414419687
 20
581.470181353554
 30
0.0
 10
230.8697800900986
 20
586.903375358017
 30
0.0
 10
230.2100924040876
 20
589.6561177718056
 30
0.0
 10
229.2042668576481
 20
595.213083346434
 30
0.0
 10
228.8575747487652
 20
598.0198726352972
 30
0.0
 10
228.3658301417017
 20
603.6472964100954
 30
0.0
 10
228.2204793929215
 20
606.4700700086998
 30
0.0
 10
228.2206166335287
 20
612.1137083613357
 30
0.0
 10
228.366112305936
 20
614.9360752576029
 30
0.0
 10
228.8570662241014
 20
620.5642126453967
 30
0.0
 10
229.2026894906929
 20
623.3708201533694
 30
0.0
 10
230.2111578611301
 20
628.9273037123793
 30
0.0
 10
230.8741730029326
 20
631.6775355616645
 30
0.0
 10
232.4194438520404
 20
637.1161968039911
 30
0.0
 10
233.3017438364165
 20
639.8047837988363
 30
0.0
 10
235.3770243220402
 20
645.056209662511
 30
0.0
 10
236.5699967262032
 20
647.6193182386459
 30
0.0
 10
239.0897202431884
 20
652.6779638095333
 30
0.0
 10
240.4167202228694
 20
655.17398752362
 30
0.0
 10
243.3545881497924
 20
659.9967172383084
 30
0.0
 10
244.9660152715212
 20
662.3241503185369
 30
0.0
 10
248.3821326921602
 20
666.8267550306789
 30
0.0
 10
250.1875443233494
 20
669.0028772179213
 30
0.0
 10
253.9870205125573
 20
673.1856227117618
 30
0.0
 10
255.9820211738671
 20
675.1932693241619
 30
0.0
 10
262.2703923476287
 20
680.8687296174194
 30
0.0
 10
266.8712321795244
 20
684.1939332934063
 30
0.0
 10
271.627316831899
 20
687.2225952855237
 30
0.0
  0
SPLINE
  5
3F0
330
1F
100
AcDbEntity
  8
0
  6
Continuous
 62
     7
370
    15
100
AcDbSpline
210
0.0
220
0.0
230
1.0
 70
     8
 71
     3
 72
    40
 73
    36
 74
     0
 42
0.00000001
 43
0.00000001
 12
1.0
 22
0.0
 32
0.0
 13
1.0
 23
0.0
 33
0.0
 40
0.0
 40
0.0
 40
0.0
 40
0.0
 40
0.1052273062698183
 40
0.105238609039001
 40
0.1578497408561256
 40
0.1578579927780887
 40
0.2104721419847287
 40
0.2104773560665721
 40
0.2630945498116584
 40
0.2630967258483657
 40
0.3157160861057883
 40
0.3157169492024844
 40
0.3683354616235413
 40
0.3683393497726159
 40
0.4209546897160762
 40
0.4209615898213519
 40
0.4735740065324419
 40
0.4735839987393193
 40
0.5261934325420747
 40
0.526206472589781
 40
0.5788127906142289
 40
0.5788288103239725
 40
0.6314580524705097
 40
0.6314752319117451
 40
0.6841208109408958
 40
0.6841375436560141
 40
0.7367836550925879
 40
0.7367999105357852
 40
0.7894290891368159
 40
0.7894464918223544
 40
0.8420482802230065
 40
0.8420687309295103
 40
0.8946677437900163
 40
0.8946912048641873
 40
1.0
 40
1.0
 40
1.0
 40
1.0
 10
405.3490728133444
 20
576.1814537755138
 30
0.0
 10
407.3892588948729
 20
581.4455731779169
 30
0.0
 10
408.9402223813051
 20
586.8995918238128
 30
0.0
 10
410.4965410105992
 20
595.2241806185916
 30
0.0
 10
410.8870759252436
 20
598.0237902261952
 30
0.0
 10
411.4080385071991
 20
603.6456113438741
 30
0.0
 10
411.5385886719054
 20
606.469144172038
 30
0.0
 10
411.5386157919905
 20
612.1152086437747
 30
0.0
 10
411.4080926625068
 20
614.9385783077961
 30
0.0
 10
410.8871509709646
 20
620.5606852864842
 30
0.0
 10
410.4966916217368
 20
623.3598630141285
 30
0.0
 10
409.4591577835402
 20
628.9098784725704
 30
0.0
 10
408.8120150072155
 20
631.6610813320876
 30
0.0
 10
407.2669873929391
 20
637.0917755478005
 30
0.0
 10
406.368932475906
 20
639.7718674924479
 30
0.0
 10
404.3288685309955
 20
645.036166103188
 30
0.0
 10
403.1864569569693
 20
647.6214108340157
 30
0.0
 10
400.6716576039784
 20
652.6767992493617
 30
0.0
 10
399.2985538429988
 20
655.148377555191
 30
0.0
 10
396.3197151570581
 20
659.9428244928224
 30
0.0
 10
394.7128837167043
 20
662.2674758674193
 30
0.0
 10
391.3349430196758
 20
666.7944381155567
 30
0.0
 10
389.5622603166654
 20
668.9986659619668
 30
0.0
 10
385.7799314781361
 20
673.1915447198414
 30
0.0
 10
383.768429551718
 20
675.1821230890982
 30
0.0
 10
379.59121697278
 20
678.990213261598
 30
0.0
 10
377.4235104995098
 20
680.8095252129019
 30
0.0
 10
372.8992438562798
 20
684.1882310787936
 30
0.0
 10
370.5405922349524
 20
685.7493363002461
 30
0.0
 10
365.7219231291579
 20
688.6965645130197
 30
0.0
 10
363.2594747854058
 20
690.0842718171073
 30
0.0
 10
358.2087778432788
 20
692.6017611947868
 30
0.0
 10
355.6175952602842
 20
693.7330196505403
 30
0.0
 10
347.7264716634336
 20
696.8240374311639
 30
0.0
 10
342.3066902293571
 20
698.4812920653148
 30
0.0
 10
336.7485631697897
 20
699.5336457005626
 30
0.0
  0
SPLINE
  5
3F1
330
1F
100
AcDbEntity
  8
0
  6
Continuous
 62
     7
370
    15
100
AcDbSpline
210
0.0
220
0.0
230
1.0
 70
     8
 71
     3
 72
    40
 73
    36
 74
     0
 42
0.00000001
 43
0.00000001
 12
1.0
 22
0.0
 32
0.0
 13
1.0
 23
0.0
 33
0.0
 40
0.0
 40
0.0
 40
0.0
 40
0.0
 40
0.1052273062698183
 40
0.105238609039001
 40
0.1578497408561256
 40
0.1578579927780887
 40
0.2104721419847287
 40
0.2104773560665721
 40
0.2630945498116584
 40
0.2630967258483657
 40
0.3157160861057883
 40
0.3157169492024844
 40
0.3683354616235413
 40
0.3683393497726159
 40
0.4209546897160762
 40
0.4209615898213519
 40
0.4735740065324419
 40
0.4735839987393193
 40
0.5261934325420747
 40
0.526206472589781
 40
0.5788127906142289
 40
0.5788288103239725
 40
0.6314580524705097
 40
0.6314752319117451
 40
0.6841208109408958
 40
0.6841375436560141
 40
0.7367836550925879
 40
0.7367999105357852
 40
0.7894290891368159
 40
0.7894464918223544
 40
0.8420482802230065
 40
0.8420687309295103
 40
0.8946677437900163
 40
0.8946912048641873
 40
1.0
 40
1.0
 40
1.0
 40
1.0
 10
405.3490728133444
 20
576.1814537755138
 30
0.0
 10
407.4823897748539
 20
581.4179891676505
 30
0.0
 10
409.017899661627
 20
586.881927490556
 30
0.0
 10
410.5697143445249
 20
595.2148482247075
 30
0.0
 10
410.961860523094
 20
598.0161446366889
 30
0.0
 10
411.4841341297346
 20
603.641945027946
 30
0.0
 10
411.614384702337
 20
606.4677711881116
 30
0.0
 10
411.6140953481877
 20
612.1182608291936
 30
0.0
 10
411.4835553701043
 20
614.9437629978395
 30
0.0
 10
410.9622583701097
 20
620.5701564226734
 30
0.0
 10
410.5714605817604
 20
623.3714884293992
 30
0.0
 10
409.5331215453304
 20
628.9257736973603
 30
0.0
 10
408.8855119375202
 20
631.6790923620377
 30
0.0
 10
407.3393409350057
 20
637.1139571590218
 30
0.0
 10
406.4406093038016
 20
639.7961043596124
 30
0.0
 10
404.399077383012
 20
645.0644989991717
 30
0.0
 10
403.2558737974892
 20
647.6517849908131
 30
0.0
 10
400.7390806268653
 20
652.710972309002
 30
0.0
 10
399.3647760513791
 20
655.1843106821107
 30
0.0
 10
396.3843095186359
 20
659.9829605056756
 30
0.0
 10
394.7770416907874
 20
662.3100490916253
 30
0.0
 10
391.3945984764143
 20
666.8388863195975
 30
0.0
 10
389.6178668716317
 20
669.0425687618592
 30
0.0
 10
385.8309039762286
 20
673.2373171519454
 30
0.0
 10
383.8187916258946
 20
675.2302911869988
 30
0.0
 10
379.6386191779555
 20
679.0412880878249
 30
0.0
 10
377.4685797079915
 20
680.8611323264414
 30
0.0
 10
372.942259626591
 20
684.2445752629126
 30
0.0
 10
370.5838675637016
 20
685.8098607877228
 30
0.0
 10
365.7630655991241
 20
688.761728926959
 30
0.0
 10
363.2982423995306
 20
690.1499266849039
 30
0.0
 10
358.2433312793847
 20
692.668591581841
 30
0.0
 10
355.6502931402773
 20
693.8005096133237
 30
0.0
 10
347.7536118175189
 20
696.8965259515605
 30
0.0
 10
342.3301763449053
 20
698.5612409883735
 30
0.0
 10
336.7485631697897
 20
699.5336457005626
 30
0.0
  0
SPLINE
  5
3F2
330
1F
100
AcDbEntity
  8
0
  6
Continuous
 62
     7
370
    15
100
AcDbSpline
210
0.0
220
0.0
230
1.0
 70
     8
 71
     3
 72
    34
 73
    30
 74
     0
 42
0.00000001
 43
0.00000001
 12
1.0
 22
0.0
 32
0.0
 13
1.0
 23
0.0
 33
0.0
 40
0.0
 40
0.0
 40
0.0
 40
0.0
 40
0.1250402883527002
 40
0.1250661964041593
 40
0.1875606001208492
 40
0.187585053258857
 40
0.2500808464326503
 40
0.2501039201260375
 40
0.3126012806884983
 40
0.3126229355209036
 40
0.3751213475005665
 40
0.3751415324553513
 40
0.4376415094499475
 40
0.4376603729068318
 40
0.5001619342524856
 40
0.5001793174212796
 40
0.5626820045619628
 40
0.5626980465295774
 40
0.6251833616104693
 40
0.6251961002098134
 40
0.6876564037653297
 40
0.6876635803105063
 40
0.7501291486792303
 40
0.7501307564631602
 40
0.8125982163780534
 40
0.8126021771466031
 40
0.8750653820615392
 40
0.8750748772596992
 40
1.0
 40
1.0
 40
1.0
 40
1.0
 10
402.0593694442038
 20
568.3718262425548
 30
0.0
 10
399.5393571549449
 20
563.3091410810412
 30
0.0
 10
396.5482724153227
 20
558.4800078196283
 30
0.0
 10
391.4362602277629
 20
551.7107226347821
 30
0.0
 10
389.6271851172391
 20
549.5322464560436
 30
0.0
 10
385.8180421036741
 20
545.3540112025569
 30
0.0
 10
383.8157400968206
 20
543.3518010377446
 30
0.0
 10
379.6373027631528
 20
539.5427402547075
 30
0.0
 10
377.458858109157
 20
537.7337852000878
 30
0.0
 10
372.9467132312762
 20
534.3266563698302
 30
0.0
 10
370.610674629007
 20
532.7267143363737
 30
0.0
 10
365.8035119694497
 20
529.7497118268603
 30
0.0
 10
363.3300566468093
 20
528.3712090826308
 30
0.0
 10
358.2681078228671
 20
525.8530373676572
 30
0.0
 10
355.6773330258491
 20
524.712231370339
 30
0.0
 10
350.4065823370076
 20
522.6620476990556
 30
0.0
 10
347.7244036547662
 20
521.7518213447371
 30
0.0
 10
342.2802639230771
 20
520.2334467015278
 30
0.0
 10
339.5163243036486
 20
519.6246307831121
 30
0.0
 10
333.9546711281059
 20
518.6148866740359
 30
0.0
 10
331.1553755581265
 20
518.2135770665159
 30
0.0
 10
325.530958939285
 20
517.6846555804634
 30
0.0
 10
322.7048706613937
 20
517.5569503282255
 30
0.0
 10
317.0539758836932
 20
517.5587573075449
 30
0.0
 10
314.2285932223587
 20
517.6882709629974
 30
0.0
 10
308.6028169050413
 20
518.2100229907393
 30
0.0
 10
305.8017455653576
 20
518.60232313788
 30
0.0
 10
297.4687761969105
 20
520.1543860980348
 30
0.0
 10
292.0050792882517
 20
521.6895673063766
 30
0.0
 10
286.7684987776998
 20
523.8230286351329
 30
0.0
  0
SPLINE
  5
3F3
330
1F
100
AcDbEntity
  8
0
  6
Continuous
 62
     7
370
    15
100
AcDbSpline
210
0.0
220
0.0
230
1.0
 70
     8
 71
     3
 72
    34
 73
    30
 74
     0
 42
0.00000001
 43
0.00000001
 12
1.0
 22
0.0
 32
0.0
 13
1.0
 23
0.0
 33
0.0
 40
0.0
 40
0.0
 40
0.0
 40
0.0
 40
0.1250402883527002
 40
0.1250661964041593
 40
0.1875606001208492
 40
0.187585053258857
 40
0.2500808464326503
 40
0.2501039201260375
 40
0.3126012806884983
 40
0.3126229355209036
 40
0.3751213475005665
 40
0.3751415324553513
 40
0.4376415094499475
 40
0.4376603729068318
 40
0.5001619342524856
 40
0.5001793174212796
 40
0.5626820045619628
 40
0.5626980465295774
 40
0.6251833616104693
 40
0.6251961002098134
 40
0.6876564037653297
 40
0.6876635803105063
 40
0.7501291486792303
 40
0.7501307564631602
 40
0.8125982163780534
 40
0.8126021771466031
 40
0.8750653820615392
 40
0.8750748772596992
 40
1.0
 40
1.0
 40
1.0
 40
1.0
 10
402.0593694442038
 20
568.3718262425548
 30
0.0
 10
399.4638301548271
 20
563.3569577161694
 30
0.0
 10
396.4890294509204
 20
558.5233480269789
 30
0.0
 10
391.3857198232514
 20
551.7561790081787
 30
0.0
 10
389.5769206979148
 20
549.579883694348
 30
0.0
 10
385.7699010045699
 20
545.4050561517137
 30
0.0
 10
383.7694486107166
 20
543.4040743734955
 30
0.0
 10
379.5944390511758
 20
539.5975431763407
 30
0.0
 10
377.4175738490189
 20
537.7898911417228
 30
0.0
 10
372.9087923634251
 20
534.385174164475
 30
0.0
 10
370.5745392393974
 20
532.7863427423578
 30
0.0
 10
365.7710297915633
 20
529.8113288325436
 30
0.0
 10
363.2994439729009
 20
528.4337044189925
 30
0.0
 10
358.2412439253047
 20
525.9174241668204
 30
0.0
 10
355.6523492066694
 20
524.7776357407198
 30
0.0
 10
350.3856838906945
 20
522.7281599195248
 30
0.0
 10
347.7057146412297
 20
521.8176131203152
 30
0.0
 10
342.2650418544362
 20
520.3027028582752
 30
0.0
 10
339.5023564009394
 20
519.6976935462421
 30
0.0
 10
333.9442375502988
 20
518.6911368143177
 30
0.0
 10
331.1472265410616
 20
518.2891937858942
 30
0.0
 10
325.5270841124366
 20
517.7598559783287
 30
0.0
 10
322.7029850962638
 20
517.6323728107657
 30
0.0
 10
317.056297678306
 20
517.6346103101433
 30
0.0
 10
314.2331336018365
 20
517.7643321520376
 30
0.0
 10
308.611168435466
 20
518.2846957283441
 30
0.0
 10
305.811690136656
 20
518.6753987611736
 30
0.0
 10
297.4867794744391
 20
520.2319888554678
 30
0.0
 10
292.032829317813
 20
521.7826130210746
 30
0.0
 10
286.7684987776998
 20
523.8230286351329
 30
0.0
  0
SPLINE
  5
3F4
330
1F
100
AcDbEntity
  8
0
  6
Continuous
 62
     7
370
    15
100
AcDbSpline
210
0.0
220
0.0
230
1.0
 70
     8
 71
     3
 72
    30
 73
    26
 74
     0
 42
0.00000001
 43
0.00000001
 12
1.0
 22
0.0
 32
0.0
 13
1.0
 23
0.0
 33
0.0
 40
0.0
 40
0.0
 40
0.0
 40
0.0
 40
0.1428789341937698
 40
0.1429052513725211
 40
0.2143185179090333
 40
0.2143417145918148
 40
0.285758085432846
 40
0.2857780896634519
 40
0.3571974156612955
 40
0.3572142354904382
 40
0.4286370029136246
 40
0.4286505992296574
 40
0.5000765402817287
 40
0.5000869613679366
 40
0.5715161082293081
 40
0.57152333495846
 40
0.6429556748380122
 40
0.6429596994558197
 40
0.7143952519934194
 40
0.714396109372938
 40
0.7858322714721316
 40
0.7858346221073222
 40
0.857245087081029
 40
0.8572527258973741
 40
1.0
 40
1.0
 40
1.0
 40
1.0
 10
387.723752378774
 20
671.1406441441661
 30
0.0
 10
391.5342256028823
 20
666.9619425296828
 30
0.0
 10
394.9566810115246
 20
662.428452820407
 30
0.0
 10
399.4221846804407
 20
655.2162994268336
 30
0.0
 10
400.7999466365811
 20
652.7425978736865
 30
0.0
 10
403.3201052418505
 20
647.6812182678309
 30
0.0
 10
404.463726882655
 20
645.091080805719
 30
0.0
 10
406.5061930635836
 20
639.8186665995621
 30
0.0
 10
407.4058954668118
 20
637.1341781714043
 30
0.0
 10
408.9532038489676
 20
631.6956830147635
 30
0.0
 10
409.6013544506715
 20
628.9397593584584
 30
0.0
 10
410.6403543217569
 20
623.3815513094594
 30
0.0
 10
411.031500335146
 20
620.5776804058642
 30
0.0
 10
411.5530626379895
 20
614.9472579032525
 30
0.0
 10
411.6835929170643
 20
612.1194766745576
 30
0.0
 10
411.6841084661091
 20
606.4645674457902
 30
0.0
 10
411.5540936658289
 20
603.636582925238
 30
0.0
 10
411.0302874212084
 20
598.0065755172815
 30
0.0
 10
410.6364520397944
 20
595.2040759926202
 30
0.0
 10
409.604914023301
 20
589.6428271274758
 30
0.0
 10
408.9671596073588
 20
586.8837963939178
 30
0.0
 10
407.3917475834443
 20
581.455628731085
 30
0.0
 10
406.4540631566893
 20
578.7860526632395
 30
0.0
 10
403.3523361821972
 20
570.894414896968
 30
0.0
 10
400.8985607464942
 20
565.7853585875315
 30
0.0
 10
397.8096441024068
 20
561.0402489415294
 30
0.0
  0
SPLINE
  5
3F5
330
1F
100
AcDbEntity
  8
0
  6
Continuous
 62
     7
370
    15
100
AcDbSpline
210
0.0
220
0.0
230
1.0
 70
     8
 71
     3
 72
    30
 73
    26
 74
     0
 42
0.00000001
 43
0.00000001
 12
1.0
 22
0.0
 32
0.0
 13
1.0
 23
0.0
 33
0.0
 40
0.0
 40
0.0
 40
0.0
 40
0.0
 40
0.1428789341937698
 40
0.1429052513725211
 40
0.2143185179090333
 40
0.2143417145918148
 40
0.285758085432846
 40
0.2857780896634519
 40
0.3571974156612955
 40
0.3572142354904382
 40
0.4286370029136246
 40
0.4286505992296574
 40
0.5000765402817287
 40
0.5000869613679366
 40
0.5715161082293081
 40
0.57152333495846
 40
0.6429556748380122
 40
0.6429596994558197
 40
0.7143952519934194
 40
0.714396109372938
 40
0.7858322714721316
 40
0.7858346221073222
 40
0.857245087081029
 40
0.8572527258973741
 40
1.0
 40
1.0
 40
1.0
 40
1.0
 10
387.723752378774
 20
671.1406441441661
 30
0.0
 10
391.4624311808538
 20
666.9086905653013
 30
0.0
 10
394.8950180990049
 20
662.3886652186037
 30
0.0
 10
399.3617648848617
 20
655.1852150399325
 30
0.0
 10
400.7376111488077
 20
652.7124965835393
 30
0.0
 10
403.2553832032361
 20
647.6541995093372
 30
0.0
 10
404.398533514117
 20
645.0661636425316
 30
0.0
 10
406.4398795679286
 20
639.7977266443597
 30
0.0
 10
407.338932177363
 20
637.1151151921665
 30
0.0
 10
408.8851938117921
 20
631.6804892228471
 30
0.0
 10
409.5329468841903
 20
628.9265591195186
 30
0.0
 10
410.5713279363253
 20
623.3723468249111
 30
0.0
 10
410.9622523010434
 20
620.5704792010539
 30
0.0
 10
411.4835021442355
 20
614.9440803501665
 30
0.0
 10
411.6139412721676
 20
612.1183203981539
 30
0.0
 10
411.6145387525268
 20
606.4674394878631
 30
0.0
 10
411.4846972231954
 20
603.6414625180121
 30
0.0
 10
410.9611920547845
 20
598.0154913238357
 30
0.0
 10
410.5674838420613
 20
595.2150210200429
 30
0.0
 10
409.5370785267723
 20
589.657659830426
 30
0.0
 10
408.9003301606685
 20
586.9004875840952
 30
0.0
 10
407.3245409200528
 20
581.4764946273093
 30
0.0
 10
406.385476635006
 20
578.8092340172916
 30
0.0
 10
403.2768907733302
 20
570.927479486258
 30
0.0
 10
400.8148868393314
 20
565.8289391610084
 30
0.0
 10
397.8096441024068
 20
561.0402489415294
 30
0.0
  0
SPLINE
  5
3F6
330
1F
100
AcDbEntity
  8
0
  6
Continuous
 62
     7
370
    15
100
AcDbSpline
210
0.0
220
0.0
230
1.0
 70
     8
 71
     3
 72
    28
 73
    24
 74
     0
 42
0.00000001
 43
0.00000001
 12
1.0
 22
0.0
 32
0.0
 13
1.0
 23
0.0
 33
0.0
 40
0.0
 40
0.0
 40
0.0
 40
0.0
 40
0.1539076107931775
 40
0.1539385920659005
 40
0.2308611828589693
 40
0.2308900833780421
 40
0.307815103939748
 40
0.3078419239602947
 40
0.3847687323524915
 40
0.3847933600885522
 40
0.4617223006008941
 40
0.4617447968738534
 40
0.538653203668911
 40
0.5386712553285847
 40
0.61554842917717
 40
0.6155592518200538
 40
0.6924440813738127
 40
0.6924476522477183
 40
0.7693356071416999
 40
0.7693393240363439
 40
0.8462236186749096
 40
0.8462345469793807
 40
1.0
 40
1.0
 40
1.0
 40
1.0
 10
345.0030034774068
 20
520.9928208104259
 30
0.0
 10
339.56395065165
 20
519.4445958659797
 30
0.0
 10
333.9800079210573
 20
518.4013509891118
 30
0.0
 10
325.5335843878916
 20
517.6189692091563
 30
0.0
 10
322.7050270074114
 20
517.4884613887199
 30
0.0
 10
317.0508481352773
 20
517.4880399366194
 30
0.0
 10
314.2220456063505
 20
517.6181278690265
 30
0.0
 10
308.5927963927436
 20
518.1419025632393
 30
0.0
 10
305.7894134447336
 20
518.535858189861
 30
0.0
 10
300.228991062115
 20
519.5674347178502
 30
0.0
 10
297.4692868083943
 20
520.2055601142024
 30
0.0
 10
292.0413655202937
 20
521.7805621417448
 30
0.0
 10
289.3708203732182
 20
522.7179980280852
 30
0.0
 10
284.1107438925127
 20
524.7873001237276
 30
0.0
 10
281.5194233008233
 20
525.9197692436693
 30
0.0
 10
276.4590868155482
 20
528.4309074813488
 30
0.0
 10
273.9890049279376
 20
529.8101057672235
 30
0.0
 10
269.1854998244983
 20
532.7864451662266
 30
0.0
 10
266.8515106766743
 20
534.3839354100569
 30
0.0
 10
262.3430866347682
 20
537.7891071228673
 30
0.0
 10
260.1681182771013
 20
539.5971918236348
 30
0.0
 10
253.9003418017328
 20
545.303523432964
 30
0.0
 10
250.0632065246666
 20
549.485010855877
 30
0.0
 10
246.7340902083639
 20
554.0556107274181
 30
0.0
  0
SPLINE
  5
3F7
330
1F
100
AcDbEntity
  8
0
  6
Continuous
 62
     7
370
    15
100
AcDbSpline
210
0.0
220
0.0
230
1.0
 70
     8
 71
     3
 72
    28
 73
    24
 74
     0
 42
0.00000001
 43
0.00000001
 12
1.0
 22
0.0
 32
0.0
 13
1.0
 23
0.0
 33
0.0
 40
0.0
 40
0.0
 40
0.0
 40
0.0
 40
0.1539076107931775
 40
0.1539385920659005
 40
0.2308611828589693
 40
0.2308900833780421
 40
0.307815103939748
 40
0.3078419239602947
 40
0.3847687323524915
 40
0.3847933600885522
 40
0.4617223006008941
 40
0.4617447968738534
 40
0.538653203668911
 40
0.5386712553285847
 40
0.61554842917717
 40
0.6155592518200538
 40
0.6924440813738127
 40
0.6924476522477183
 40
0.7693356071416999
 40
0.7693393240363439
 40
0.8462236186749096
 40
0.8462345469793807
 40
1.0
 40
1.0
 40
1.0
 40
1.0
 10
345.0030034774068
 20
520.9928208104259
 30
0.0
 10
339.5483804139677
 20
519.5326449283963
 30
0.0
 10
333.9720639084579
 20
518.4742922273003
 30
0.0
 10
325.533029676887
 20
517.6869312046955
 30
0.0
 10
322.7062603112626
 20
517.5577164663166
 30
0.0
 10
317.0559843760646
 20
517.5579908857403
 30
0.0
 10
314.2292989322651
 20
517.6874798771913
 30
0.0
 10
308.6042603988674
 20
518.210613979779
 30
0.0
 10
305.8029744680028
 20
518.6045320517754
 30
0.0
 10
300.2463491244889
 20
519.634611784289
 30
0.0
 10
297.4883424369478
 20
520.271264865727
 30
0.0
 10
292.0651625342301
 20
521.8473556698281
 30
0.0
 10
289.3976710924964
 20
522.787375949394
 30
0.0
 10
284.1422441401519
 20
524.8575320115276
 30
0.0
 10
281.552514994222
 20
525.9882538902832
 30
0.0
 10
276.4955600662609
 20
528.4967845940203
 30
0.0
 10
274.027271116277
 20
529.8751280261406
 30
0.0
 10
269.2275383295173
 20
532.849624645926
 30
0.0
 10
266.8955288132794
 20
534.4461262458852
 30
0.0
 10
262.3895860492371
 20
537.8481222478384
 30
0.0
 10
260.2151195121268
 20
539.654019294839
 30
0.0
 10
253.9565385195606
 20
545.359980463502
 30
0.0
 10
250.1357880481508
 20
549.5494769824813
 30
0.0
 10
246.7340902083639
 20
554.0556107274181
 30
0.0
  0
SPLINE
  5
3F8
330
1F
100
AcDbEntity
  8
0
  6
Continuous
 62
     7
370
    15
100
AcDbSpline
210
0.0
220
0.0
230
1.0
 70
     8
 71
     3
 72
    28
 73
    24
 74
     0
 42
0.00000001
 43
0.00000001
 12
1.0
 22
0.0
 32
0.0
 13
1.0
 23
0.0
 33
0.0
 40
0.0
 40
0.0
 40
0.0
 40
0.0
 40
0.1539075305807249
 40
0.1539385756457537
 40
0.2308615162564147
 40
0.2308904386488772
 40
0.3078150738162982
 40
0.3078418918185193
 40
0.3847686826920844
 40
0.3847933252542523
 40
0.4617226529427421
 40
0.4617451466740447
 40
0.5386531121696769
 40
0.5386711809904514
 40
0.6155483742546831
 40
0.6155591825708951
 40
0.6924439976381602
 40
0.6924475865487271
 40
0.7693356111271946
 40
0.7693392842122951
 40
0.8462239937855056
 40
0.8462348729151264
 40
1.0
 40
1.0
 40
1.0
 40
1.0
 10
294.7561544173482
 20
520.9928208104259
 30
0.0
 10
289.3167417364656
 20
522.5397753718269
 30
0.0
 10
284.0199868286141
 20
524.5923690740234
 30
0.0
 10
276.4268088851552
 20
528.3736454480048
 30
0.0
 10
273.953201247839
 20
529.7517327414624
 30
0.0
 10
269.1456992616377
 20
532.7279141302179
 30
0.0
 10
266.8090971866277
 20
534.3276835574701
 30
0.0
 10
262.2987593036695
 20
537.7364176592675
 30
0.0
 10
260.1226683161572
 20
539.547158438519
 30
0.0
 10
255.9381440658996
 20
543.3514147866094
 30
0.0
 10
253.9277113095506
 20
545.346763359756
 30
0.0
 10
250.1419344098892
 20
549.5432886047387
 30
0.0
 10
248.3649020451531
 20
551.7461649193091
 30
0.0
 10
244.9820506537721
 20
556.2745828658191
 30
0.0
 10
243.3750287678718
 20
558.6015797827332
 30
0.0
 10
240.3945910309001
 20
563.4005169962952
 30
0.0
 10
239.0205469173719
 20
565.8734689641057
 30
0.0
 10
236.5033586992389
 20
570.9327237233803
 30
0.0
 10
235.359918089967
 20
573.5196200582997
 30
0.0
 10
233.3193595191919
 20
578.7881470339894
 30
0.0
 10
232.422002260005
 20
581.4703991653258
 30
0.0
 10
230.0970397129263
 20
589.6215848879166
 30
0.0
 10
229.0359030364334
 20
595.1967304945657
 30
0.0
 10
228.6115545027974
 20
600.8352776280528
 30
0.0
  0
SPLINE
  5
3F9
330
1F
100
AcDbEntity
  8
0
  6
Continuous
 62
     7
370
    15
100
AcDbSpline
210
0.0
220
0.0
230
1.0
 70
     8
 71
     3
 72
    28
 73
    24
 74
     0
 42
0.00000001
 43
0.00000001
 12
1.0
 22
0.0
 32
0.0
 13
1.0
 23
0.0
 33
0.0
 40
0.0
 40
0.0
 40
0.0
 40
0.0
 40
0.1539075305807249
 40
0.1539385756457537
 40
0.2308615162564147
 40
0.2308904386488772
 40
0.3078150738162982
 40
0.3078418918185193
 40
0.3847686826920844
 40
0.3847933252542523
 40
0.4617226529427421
 40
0.4617451466740447
 40
0.5386531121696769
 40
0.5386711809904514
 40
0.6155483742546831
 40
0.6155591825708951
 40
0.6924439976381602
 40
0.6924475865487271
 40
0.7693356111271946
 40
0.7693392842122951
 40
0.8462239937855056
 40
0.8462348729151264
 40
1.0
 40
1.0
 40
1.0
 40
1.0
 10
294.7561544173482
 20
520.9928208104259
 30
0.0
 10
289.3498545050304
 20
522.6228313498615
 30
0.0
 10
284.0516311058458
 20
524.6585657044754
 30
0.0
 10
276.4621118622156
 20
528.4317146673541
 30
0.0
 10
273.9907036728706
 20
529.8099580513212
 30
0.0
 10
269.1868891676621
 20
532.784680404074
 30
0.0
 10
266.8517760663315
 20
534.3828321176577
 30
0.0
 10
262.3446803551095
 20
537.7888052884266
 30
0.0
 10
260.1703476316588
 20
539.5984045301664
 30
0.0
 10
255.9882648095393
 20
543.3993896724851
 30
0.0
 10
253.9785062348803
 20
545.392598744239
 30
0.0
 10
250.1973323816113
 20
549.5875535456854
 30
0.0
 10
248.4242495220408
 20
551.7910134982694
 30
0.0
 10
245.045797533224
 20
556.3177068807709
 30
0.0
 10
243.4392129276469
 20
558.6423835686286
 30
0.0
 10
240.4602798876098
 20
563.4373256413603
 30
0.0
 10
239.0873084530505
 20
565.9086058294068
 30
0.0
 10
236.5723560321477
 20
570.9643071691942
 30
0.0
 10
235.4300783733241
 20
573.5493211189672
 30
0.0
 10
233.3899590606939
 20
578.8138425567547
 30
0.0
 10
232.4918779416165
 20
581.4939709464087
 30
0.0
 10
230.1745415636585
 20
589.6400018747415
 30
0.0
 10
229.1315531331253
 20
595.2133316885804
 30
0.0
 10
228.6115545027974
 20
600.8352776280528
 30
0.0
  0
SPLINE
  5
3FA
330
1F
100
AcDbEntity
  8
0
  6
Continuous
 62
     7
370
    15
100
AcDbSpline
210
0.0
220
0.0
230
1.0
 70
     8
 71
     3
 72
    26
 73
    22
 74
     0
 42
0.00000001
 43
0.00000001
 12
1.0
 22
0.0
 32
0.0
 13
1.0
 23
0.0
 33
0.0
 40
0.0
 40
0.0
 40
0.0
 40
0.0
 40
0.166599626098959
 40
0.1666121184687959
 40
0.2499572312252525
 40
0.2499662929613364
 40
0.3333149663966424
 40
0.3333205458099746
 40
0.4166727015680323
 40
0.4166747986586128
 40
0.5000289359845411
 40
0.5000303066943258
 40
0.5833832092529327
 40
0.5833880113595326
 40
0.6667098922832868
 40
0.6667206791991579
 40
0.7499953780968833
 40
0.7500151859142372
 40
0.8332808715523278
 40
0.8333096544315681
 40
1.0
 40
1.0
 40
1.0
 40
1.0
 10
352.9906285994772
 20
694.762023996461
 30
0.0
 10
347.7075428446896
 20
696.7315206909709
 30
0.0
 10
342.2811070255898
 20
698.4007627464321
 30
0.0
 10
333.9624348551624
 20
699.9975977923953
 30
0.0
 10
331.1583011074526
 20
700.3787578859464
 30
0.0
 10
325.5300677916926
 20
700.8928826552636
 30
0.0
 10
322.705054196794
 20
701.0259336775825
 30
0.0
 10
317.054545377497
 20
701.0284485891996
 30
0.0
 10
314.2284834744295
 20
700.8979122118127
 30
0.0
 10
308.6023912147459
 20
700.3738147353872
 30
0.0
 10
305.8020558313866
 20
699.9802255875833
 30
0.0
 10
300.2446037988227
 20
698.9502224743859
 30
0.0
 10
297.4872119083968
 20
698.3137565661593
 30
0.0
 10
292.0637082421378
 20
696.7369531267058
 30
0.0
 10
289.3970157686934
 20
695.7965544956778
 30
0.0
 10
284.1404799208985
 20
693.7276775463008
 30
0.0
 10
281.549487595895
 20
692.5988452007417
 30
0.0
 10
276.4962421004465
 20
690.085040747349
 30
0.0
 10
274.0321858724394
 20
688.6991811829688
 30
0.0
 10
266.8096593034076
 20
684.2645610076438
 30
0.0
 10
262.2209716081072
 20
680.9381349693681
 30
0.0
 10
258.0314420455221
 20
677.1366959324962
 30
0.0
  0
SPLINE
  5
3FB
330
1F
100
AcDbEntity
  8
0
  6
Continuous
 62
     7
370
    15
100
AcDbSpline
210
0.0
220
0.0
230
1.0
 70
     8
 71
     3
 72
    26
 73
    22
 74
     0
 42
0.00000001
 43
0.00000001
 12
1.0
 22
0.0
 32
0.0
 13
1.0
 23
0.0
 33
0.0
 40
0.0
 40
0.0
 40
0.0
 40
0.0
 40
0.166599626098959
 40
0.1666121184687959
 40
0.2499572312252525
 40
0.2499662929613364
 40
0.3333149663966424
 40
0.3333205458099746
 40
0.4166727015680323
 40
0.4166747986586128
 40
0.5000289359845411
 40
0.5000303066943258
 40
0.5833832092529327
 40
0.5833880113595326
 40
0.6667098922832868
 40
0.6667206791991579
 40
0.7499953780968833
 40
0.7500151859142372
 40
0.8332808715523278
 40
0.8333096544315681
 40
1.0
 40
1.0
 40
1.0
 40
1.0
 10
352.9906285994772
 20
694.762023996461
 30
0.0
 10
347.7367651937365
 20
696.8302676929253
 30
0.0
 10
342.2984271630084
 20
698.4745762594121
 30
0.0
 10
333.9710815498743
 20
700.0636669657681
 30
0.0
 10
331.1655893878032
 20
700.447202504439
 30
0.0
 10
325.5337910963966
 20
700.963216907829
 30
0.0
 10
322.7065694131328
 20
701.0957787870478
 30
0.0
 10
317.0518949715851
 20
701.0977945980442
 30
0.0
 10
314.2238753373467
 20
700.9672487303048
 30
0.0
 10
308.5937266131387
 20
700.443049494716
 30
0.0
 10
305.7912921643236
 20
700.04936830581
 30
0.0
 10
300.2300603941219
 20
699.0179561762201
 30
0.0
 10
297.4709874050992
 20
698.380173882174
 30
0.0
 10
292.0427779811521
 20
696.804703891362
 30
0.0
 10
289.3730625369852
 20
695.8669490438933
 30
0.0
 10
284.1118356602713
 20
693.7991384259649
 30
0.0
 10
281.5191694207921
 20
692.668742193661
 30
0.0
 10
276.4627386744077
 20
690.152345007005
 30
0.0
 10
273.9971776673885
 20
688.7654394833339
 30
0.0
 10
266.7677061838269
 20
684.3295641906539
 30
0.0
 10
262.1711034180654
 20
681.0048843577105
 30
0.0
 10
258.0314420455221
 20
677.1366959324962
 30
0.0
  0
SPLINE
  5
3FC
330
1F
100
AcDbEntity
  8
0
  6
Continuous
 62
     7
370
    15
100
AcDbSpline
210
0.0
220
0.0
230
1.0
 70
     8
 71
     3
 72
    26
 73
    22
 74
     0
 42
0.00000001
 43
0.00000001
 12
1.0
 22
0.0
 32
0.0
 13
1.0
 23
0.0
 33
0.0
 40
0.0
 40
0.0
 40
0.0
 40
0.0
 40
0.1667704323237727
 40
0.1668064187159337
 40
0.2501304834187996
 40
0.2501628945258008
 40
0.3334522985826563
 40
0.3334779787711443
 40
0.416774251568559
 40
0.4167932968214251
 40
0.5000962178985895
 40
0.5001085573952696
 40
0.5834183821787658
 40
0.5834241446587545
 40
0.6667391474531623
 40
0.6667399887561776
 40
0.7500543728158671
 40
0.7500619198807065
 40
0.8333698631655071
 40
0.833383989695066
 40
1.0
 40
1.0
 40
1.0
 40
1.0
 10
408.1792730086568
 20
584.1690903416759
 30
0.0
 10
406.605056668515
 20
578.7451400916794
 30
0.0
 10
404.6069881314239
 20
573.417361353831
 30
0.0
 10
400.7851198676099
 20
565.848186713888
 30
0.0
 10
399.3733721615894
 20
563.3946207304201
 30
0.0
 10
396.3734212318489
 20
558.6044428856762
 30
0.0
 10
394.7836018136915
 20
556.2650828362381
 30
0.0
 10
391.3855192490582
 20
551.7527176958282
 30
0.0
 10
389.5756870334534
 20
549.5776254413981
 30
0.0
 10
385.7674851395892
 20
545.4033130154316
 30
0.0
 10
383.7678127434665
 20
543.4026653444255
 30
0.0
 10
379.5927150017645
 20
539.5958888255408
 30
0.0
 10
377.416359757083
 20
537.7889130172896
 30
0.0
 10
372.907093449901
 20
534.3839526448453
 30
0.0
 10
370.5736715148782
 20
532.7855800189419
 30
0.0
 10
365.7697215746046
 20
529.8107439279573
 30
0.0
 10
363.2987852487424
 20
528.4340286233877
 30
0.0
 10
358.2405599651677
 20
525.916432275302
 30
0.0
 10
355.6525881973803
 20
524.7752122556178
 30
0.0
 10
347.7508782209574
 20
521.7078796617097
 30
0.0
 10
342.2971112124761
 20
520.1370833580818
 30
0.0
 10
336.7218908065084
 20
519.1941605321056
 30
0.0
  0
SPLINE
  5
3FD
330
1F
100
AcDbEntity
  8
0
  6
Continuous
 62
     7
370
    15
100
AcDbSpline
210
0.0
220
0.0
230
1.0
 70
     8
 71
     3
 72
    26
 73
    22
 74
     0
 42
0.00000001
 43
0.00000001
 12
1.0
 22
0.0
 32
0.0
 13
1.0
 23
0.0
 33
0.0
 40
0.0
 40
0.0
 40
0.0
 40
0.0
 40
0.1667704323237727
 40
0.1668064187159337
 40
0.2501304834187996
 40
0.2501628945258008
 40
0.3334522985826563
 40
0.3334779787711443
 40
0.416774251568559
 40
0.4167932968214251
 40
0.5000962178985895
 40
0.5001085573952696
 40
0.5834183821787658
 40
0.5834241446587545
 40
0.6667391474531623
 40
0.6667399887561776
 40
0.7500543728158671
 40
0.7500619198807065
 40
0.8333698631655071
 40
0.833383989695066
 40
1.0
 40
1.0
 40
1.0
 40
1.0
 10
408.1792730086568
 20
584.1690903416759
 30
0.0
 10
406.5196243066982
 20
578.7796737583915
 30
0.0
 10
404.5432146312546
 20
573.4478321982857
 30
0.0
 10
400.7260260178389
 20
565.8843860550569
 30
0.0
 10
399.3111725712059
 20
563.43471759202
 30
0.0
 10
396.3104905871239
 20
558.649567541277
 30
0.0
 10
394.7230724316512
 20
556.3113254052914
 30
0.0
 10
391.3284926597636
 20
551.8018029421111
 30
0.0
 10
389.5197515189353
 20
549.6284436194667
 30
0.0
 10
385.7142457213959
 20
545.4572702003021
 30
0.0
 10
383.7161814231284
 20
543.4580285347716
 30
0.0
 10
379.5443026795645
 20
539.6540177582197
 30
0.0
 10
377.3695585365116
 20
537.8484026424474
 30
0.0
 10
372.8636740654231
 20
534.4458816321952
 30
0.0
 10
370.5320232482098
 20
532.8485880074367
 30
0.0
 10
365.73158873274
 20
529.8762469239168
 30
0.0
 10
363.2623970195338
 20
528.5009478306462
 30
0.0
 10
358.2081453972429
 20
525.9842507407225
 30
0.0
 10
355.6224032763825
 20
524.8425137033838
 30
0.0
 10
347.7252441703384
 20
521.7832966798533
 30
0.0
 10
342.2716620659592
 20
520.2308005310572
 30
0.0
 10
336.7218908065084
 20
519.1941605321056
 30
0.0
  0
SPLINE
  5
3FE
330
1F
100
AcDbEntity
  8
0
  6
Continuous
 62
     7
370
    15
100
AcDbSpline
210
0.0
220
0.0
230
1.0
 70
     8
 71
     3
 72
    16
 73
    12
 74
     0
 42
0.00000001
 43
0.00000001
 12
1.0
 22
0.0
 32
0.0
 13
1.0
 23
0.0
 33
0.0
 40
0.0
 40
0.0
 40
0.0
 40
0.0
 40
0.2856941236061989
 40
0.2857143110054546
 40
0.42856459748085
 40
0.4285713753552777
 40
0.5714285355377478
 40
0.5714352693634807
 40
0.714285824318936
 40
0.7143059412461114
 40
1.0
 40
1.0
 40
1.0
 40
1.0
 10
286.7685140364889
 20
694.762023996461
 30
0.0
 10
292.0050417837213
 20
696.8952341383381
 30
0.0
 10
297.4688146311616
 20
698.4308914532735
 30
0.0
 10
305.8017033417931
 20
699.9825980640271
 30
0.0
 10
308.6026658826383
 20
700.3745921736812
 30
0.0
 10
314.2285990954555
 20
700.8971709880237
 30
0.0
 10
317.0542327521188
 20
701.0278170312763
 30
0.0
 10
322.7043873964608
 20
701.0265655523035
 30
0.0
 10
325.5295728096194
 20
700.894667736737
 30
0.0
 10
333.9700914392995
 20
700.1184295867668
 30
0.0
 10
339.5522495040819
 20
699.0934965841237
 30
0.0
 10
344.9632619612935
 20
697.4525223485119
 30
0.0
  0
SPLINE
  5
3FF
330
1F
100
AcDbEntity
  8
0
  6
Continuous
 62
     7
370
    15
100
AcDbSpline
210
0.0
220
0.0
230
1.0
 70
     8
 71
     3
 72
    16
 73
    12
 74
     0
 42
0.00000001
 43
0.00000001
 12
1.0
 22
0.0
 32
0.0
 13
1.0
 23
0.0
 33
0.0
 40
0.0
 40
0.0
 40
0.0
 40
0.0
 40
0.2856941236061989
 40
0.2857143110054546
 40
0.42856459748085
 40
0.4285713753552777
 40
0.5714285355377478
 40
0.5714352693634807
 40
0.714285824318936
 40
0.7143059412461114
 40
1.0
 40
1.0
 40
1.0
 40
1.0
 10
286.7685140364889
 20
694.762023996461
 30
0.0
 10
292.0328303610964
 20
696.802286507162
 30
0.0
 10
297.4868597128469
 20
698.3532391932051
 30
0.0
 10
305.811760575209
 20
699.909572201641
 30
0.0
 10
308.611164719272
 20
700.3000555422647
 30
0.0
 10
314.2332614621333
 20
700.8210138074837
 30
0.0
 10
317.0566166270294
 20
700.95154983349
 30
0.0
 10
322.7028023225142
 20
700.9515569982435
 30
0.0
 10
325.5262968415558
 20
700.8210280448073
 30
0.0
 10
333.959288085168
 20
700.039450864763
 30
0.0
 10
339.5331535368528
 20
698.998364756493
 30
0.0
 10
344.9632619612935
 20
697.4525223485119
 30
0.0
  0
SPLINE
  5
400
330
1F
100
AcDbEntity
  8
0
  6
Continuous
 62
     7
370
    15
100
AcDbSpline
210
0.0
220
0.0
230
1.0
 70
     8
 71
     3
 72
    12
 73
     8
 74
     0
 42
0.00000001
 43
0.00000001
 12
1.0
 22
0.0
 32
0.0
 13
1.0
 23
0.0
 33
0.0
 40
0.0
 40
0.0
 40
0.0
 40
0.0
 40
0.3999868587124599
 40
0.4000000019308388
 40
0.5999998121275122
 40
0.6000130776288064
 40
1.0
 40
1.0
 40
1.0
 40
1.0
 10
237.8297704451803
 20
650.1484642735606
 30
0.0
 10
240.263158692719
 20
655.2519529764578
 30
0.0
 10
243.2649069982195
 20
660.0691439201205
 30
0.0
 10
248.3784820209917
 20
666.8283770543584
 30
0.0
 10
250.1850762193069
 20
669.0039765570721
 30
0.0
 10
255.8896020150657
 20
675.2724943656528
 30
0.0
 10
260.0731995543258
 20
679.1082946449358
 30
0.0
 10
264.6426671736959
 20
682.4380036107189
 30
0.0
  0
SPLINE
  5
401
330
1F
100
AcDbEntity
  8
0
  6
Continuous
 62
     7
370
    15
100
AcDbSpline
210
0.0
220
0.0
230
1.0
 70
     8
 71
     3
 72
    12
 73
     8
 74
     0
 42
0.00000001
 43
0.00000001
 12
1.0
 22
0.0
 32
0.0
 13
1.0
 23
0.0
 33
0.0
 40
0.0
 40
0.0
 40
0.0
 40
0.0
 40
0.3999868587124599
 40
0.4000000019308388
 40
0.5999998121275122
 40
0.6000130776288064
 40
1.0
 40
1.0
 40
1.0
 40
1.0
 10
237.8297704451803
 20
650.1484642735606
 30
0.0
 10
240.3457294035075
 20
655.2029775276887
 30
0.0
 10
243.3314699816981
 20
660.0234710165812
 30
0.0
 10
248.4352309986246
 20
666.7821745114776
 30
0.0
 10
250.2409201629613
 20
668.956683223305
 30
0.0
 10
255.9467281479227
 20
675.2154575249853
 30
0.0
 10
260.1365088557255
 20
679.0361338514725
 30
0.0
 10
264.6426671736959
 20
682.4380036107189
 30
0.0
  0
SPLINE
  5
402
330
1F
100
AcDbEntity
  8
0
  6
Continuous
 62
     7
370
    15
100
AcDbSpline
210
0.0
220
0.0
230
1.0
 70
     8
 71
     3
 72
     9
 73
     5
 74
     0
 42
0.00000001
 43
0.00000001
 12
1.0
 22
0.0
 32
0.0
 13
1.0
 23
0.0
 33
0.0
 40
0.0
 40
0.0
 40
0.0
 40
0.0
 40
0.5000000317490343
 40
1.0
 40
1.0
 40
1.0
 40
1.0
 10
229.6384481185201
 20
626.1615048161633
 30
0.0
 10
228.6910694036471
 20
620.594771856264
 30
0.0
 10
227.5987518736145
 20
609.2925174009612
 30
0.0
 10
228.6910677118765
 20
597.9902626396646
 30
0.0
 10
229.6384481185201
 20
592.4235306492931
 30
0.0
  0
SPLINE
  5
403
330
1F
100
AcDbEntity
  8
0
  6
Continuous
 62
     7
370
    15
100
AcDbSpline
210
0.0
220
0.0
230
1.0
 70
     8
 71
     3
 72
     9
 73
     5
 74
     0
 42
0.00000001
 43
0.00000001
 12
1.0
 22
0.0
 32
0.0
 13
1.0
 23
0.0
 33
0.0
 40
0.0
 40
0.0
 40
0.0
 40
0.0
 40
0.5000000317490343
 40
1.0
 40
1.0
 40
1.0
 40
1.0
 10
229.6384481185201
 20
626.1615048161633
 30
0.0
 10
228.5985912812221
 20
620.6027466021633
 30
0.0
 10
227.5520240809719
 20
609.2925174076099
 30
0.0
 10
228.5985895543522
 20
597.982287878823
 30
0.0
 10
229.6384481185201
 20
592.4235306492931
 30
0.0
  0
SPLINE
  5
404
330
1F
100
AcDbEntity
  8
0
  6
Continuous
 62
     7
370
    15
100
AcDbSpline
210
0.0
220
0.0
230
1.0
 70
     8
 71
     3
 72
    10
 73
     6
 74
     0
 42
0.00000001
 43
0.00000001
 12
1.0
 22
0.0
 32
0.0
 13
1.0
 23
0.0
 33
0.0
 40
0.0
 40
0.0
 40
0.0
 40
0.0
 40
0.500000079684071
 40
0.5000001077475786
 40
1.0
 40
1.0
 40
1.0
 40
1.0
 10
237.8297704451803
 20
650.1484642735606
 30
0.0
 10
235.3123674110592
 20
645.0944871661814
 30
0.0
 10
233.2647092183648
 20
639.8068321251217
 30
0.0
 10
230.1744193033791
 20
628.9455704109774
 30
0.0
 10
229.1317871194553
 20
623.3719635453721
 30
0.0
 10
228.6115545027974
 20
617.7497454396373
 30
0.0
  0
SPLINE
  5
405
330
1F
100
AcDbEntity
  8
0
  6
Continuous
 62
     7
370
    15
100
AcDbSpline
210
0.0
220
0.0
230
1.0
 70
     8
 71
     3
 72
    10
 73
     6
 74
     0
 42
0.00000001
 43
0.00000001
 12
1.0
 22
0.0
 32
0.0
 13
1.0
 23
0.0
 33
0.0
 40
0.0
 40
0.0
 40
0.0
 40
0.0
 40
0.500000079684071
 40
0.5000001077475786
 40
1.0
 40
1.0
 40
1.0
 40
1.0
 10
237.8297704451803
 20
650.1484642735606
 30
0.0
 10
235.2185727289188
 20
645.1314996572344
 30
0.0
 10
233.1933258000982
 20
639.8323053801068
 30
0.0
 10
230.1003096478701
 20
628.9614924228744
 30
0.0
 10
229.0325399881709
 20
623.3898735436192
 30
0.0
 10
228.6115545027974
 20
617.7497454396373
 30
0.0
  0
SPLINE
  5
406
330
1F
100
AcDbEntity
  8
0
  6
Continuous
 62
     7
370
    15
100
AcDbSpline
210
0.0
220
0.0
230
1.0
 70
     8
 71
     3
 72
    10
 73
     6
 74
     0
 42
0.00000001
 43
0.00000001
 12
1.0
 22
0.0
 32
0.0
 13
1.0
 23
0.0
 33
0.0
 40
0.0
 40
0.0
 40
0.0
 40
0.0
 40
0.4999999829647485
 40
0.5000000141043458
 40
1.0
 40
1.0
 40
1.0
 40
1.0
 10
264.5551427596334
 20
682.5539093724377
 30
0.0
 10
269.0676411074895
 20
685.9624935102422
 30
0.0
 10
273.8966394137622
 20
688.9516309132446
 30
0.0
 10
284.0211403065474
 20
693.9930404027879
 30
0.0
 10
289.3166432058829
 20
696.0453126377738
 30
0.0
 10
294.7561429732564
 20
697.5922241917735
 30
0.0
  0
SPLINE
  5
407
330
1F
100
AcDbEntity
  8
0
  6
Continuous
 62
     7
370
    15
100
AcDbSpline
210
0.0
220
0.0
230
1.0
 70
     8
 71
     3
 72
    10
 73
     6
 74
     0
 42
0.00000001
 43
0.00000001
 12
1.0
 22
0.0
 32
0.0
 13
1.0
 23
0.0
 33
0.0
 40
0.0
 40
0.0
 40
0.0
 40
0.0
 40
0.4999999829647485
 40
0.5000000141043458
 40
1.0
 40
1.0
 40
1.0
 40
1.0
 10
264.5551427596334
 20
682.5539093724377
 30
0.0
 10
269.1159951411634
 20
685.8832747209269
 30
0.0
 10
273.9312336825116
 20
688.8911009931534
 30
0.0
 10
284.0485977944704
 20
693.9289527341876
 30
0.0
 10
289.3507236742573
 20
695.9589783598778
 30
0.0
 10
294.7561429732564
 20
697.5922241917735
 30
0.0
  0
SPLINE
  5
408
330
1F
100
AcDbEntity
  8
0
  6
Continuous
 62
     7
370
    15
100
AcDbSpline
210
0.0
220
0.0
230
1.0
 70
     8
 71
     3
 72
    10
 73
     6
 74
     0
 42
0.00000001
 43
0.00000001
 12
1.0
 22
0.0
 32
0.0
 13
1.0
 23
0.0
 33
0.0
 40
0.0
 40
0.0
 40
0.0
 40
0.0
 40
0.5000001901526333
 40
0.500000234778132
 40
1.0
 40
1.0
 40
1.0
 40
1.0
 10
345.0030111068014
 20
697.5922165623791
 30
0.0
 10
350.4425164168511
 20
696.0453149316809
 30
0.0
 10
355.7380156227591
 20
693.9930319560652
 30
0.0
 10
365.8625165835176
 20
688.9516260246875
 30
0.0
 10
370.6915191792011
 20
685.9625036445043
 30
0.0
 10
375.2040075057272
 20
682.5539093724377
 30
0.0
  0
SPLINE
  5
409
330
1F
100
AcDbEntity
  8
0
  6
Continuous
 62
     7
370
    15
100
AcDbSpline
210
0.0
220
0.0
230
1.0
 70
     8
 71
     3
 72
    10
 73
     6
 74
     0
 42
0.00000001
 43
0.00000001
 12
1.0
 22
0.0
 32
0.0
 13
1.0
 23
0.0
 33
0.0
 40
0.0
 40
0.0
 40
0.0
 40
0.0
 40
0.5000001901526333
 40
0.500000234778132
 40
1.0
 40
1.0
 40
1.0
 40
1.0
 10
345.0030111068014
 20
697.5922165623791
 30
0.0
 10
350.4084376451859
 20
695.9589870831868
 30
0.0
 10
355.7105635410118
 20
693.9289562770986
 30
0.0
 10
365.8279237220616
 20
688.891099780038
 30
0.0
 10
370.6431588600558
 20
685.8832746870204
 30
0.0
 10
375.2040075057272
 20
682.5539093724377
 30
0.0
  0
SPLINE
  5
40A
330
1F
100
AcDbEntity
  8
0
  6
Continuous
 62
     7
370
    15
100
AcDbSpline
210
0.0
220
0.0
230
1.0
 70
     8
 71
     3
 72
    10
 73
     6
 74
     0
 42
0.00000001
 43
0.00000001
 12
1.0
 22
0.0
 32
0.0
 13
1.0
 23
0.0
 33
0.0
 40
0.0
 40
0.0
 40
0.0
 40
0.0
 40
0.5000006121778203
 40
0.5000006957890609
 40
1.0
 40
1.0
 40
1.0
 40
1.0
 10
368.131825804067
 20
687.2226029149181
 30
0.0
 10
372.9930101786677
 20
684.3317133917093
 30
0.0
 10
377.504587645253
 20
680.8924032284898
 30
0.0
 10
385.8570623353514
 20
673.2781066711796
 30
0.0
 10
389.6979619817998
 20
669.1031215597898
 30
0.0
 10
393.0250524276021
 20
664.5294304600841
 30
0.0
  0
SPLINE
  5
40B
330
1F
100
AcDbEntity
  8
0
  6
Continuous
 62
     7
370
    15
100
AcDbSpline
210
0.0
220
0.0
230
1.0
 70
     8
 71
     3
 72
    10
 73
     6
 74
     0
 42
0.00000001
 43
0.00000001
 12
1.0
 22
0.0
 32
0.0
 13
1.0
 23
0.0
 33
0.0
 40
0.0
 40
0.0
 40
0.0
 40
0.0
 40
0.5000006121778203
 40
0.5000006957890609
 40
1.0
 40
1.0
 40
1.0
 40
1.0
 10
368.131825804067
 20
687.2226029149181
 30
0.0
 10
372.9327434719373
 20
684.2508601316368
 30
0.0
 10
377.4573055117972
 20
680.8331653601289
 30
0.0
 10
385.802442096722
 20
673.2255624602792
 30
0.0
 10
389.6230191684362
 20
669.0356557259444
 30
0.0
 10
393.0250524276021
 20
664.5294304600841
 30
0.0
  0
LINE
  5
40C
330
1F
100
AcDbEntity
  8
0
  6
Continuous
 62
     7
370
    15
100
AcDbLine
 10
234.2746404403
 20
642.4560433141
 30
0.0
 11
237.7620671981
 21
650.1821747533
 31
0.0
  0
SPLINE
  5
40D
330
1F
100
AcDbEntity
  8
0
  6
Continuous
 62
     7
370
    15
100
AcDbSpline
210
0.0
220
0.0
230
1.0
 70
     8
 71
     3
 72
     8
 73
     4
 74
     0
 42
0.00000001
 43
0.00000001
 12
1.0
 22
0.0
 32
0.0
 13
1.0
 23
0.0
 33
0.0
 40
0.0
 40
0.0
 40
0.0
 40
0.0
 40
1.0
 40
1.0
 40
1.0
 40
1.0
 10
234.2746404402975
 20
642.456043314088
 30
0.0
 10
236.3243389716734
 20
647.7438571811683
 30
0.0
 10
238.8414644192646
 20
652.7989197930661
 30
0.0
 10
241.8260167830709
 20
657.6212311497815
 30
0.0
  0
LINE
  5
40E
330
1F
100
AcDbEntity
  8
0
  6
Continuous
 62
     7
370
    15
100
AcDbLine
 10
237.7620671981
 20
650.1821747533
 30
0.0
 11
241.8260167831
 21
657.6212311498
 31
0.0
  0
LINE
  5
40F
330
1F
100
AcDbEntity
  8
0
  6
Continuous
 62
     7
370
    15
100
AcDbLine
 10
380.9458593123
 20
707.9179764501
 30
0.0
 11
380.9456590321
 21
707.9176529861
 31
0.0
  0
LINE
  5
410
330
1F
100
AcDbEntity
  8
0
  6
Continuous
 62
     7
370
    15
100
AcDbLine
 10
389.7853826278
 20
701.8627701512
 30
0.0
 11
389.7781475678
 21
701.8677262761
 31
0.0
  0
LINE
  5
411
330
1F
100
AcDbEntity
  8
0
  6
Continuous
 62
     7
370
    15
100
AcDbLine
 10
380.9526610097
 20
707.9133171851
 30
0.0
 11
380.9458593123
 21
707.9179764501
 31
0.0
  0
LINE
  5
412
330
1F
100
AcDbEntity
  8
0
  6
Continuous
 62
     7
370
    15
100
AcDbLine
 10
389.7851387367
 20
701.8624471869
 30
0.0
 11
389.7853826278
 21
701.8627701512
 31
0.0
  0
ENDSEC
  0
SECTION
  2
OBJECTS
  0
DICTIONARY
  5
C
330
0
100
AcDbDictionary
281
     1
  3
ACAD_GROUP
350
D
  3
ACAD_LAYOUT
350
1A
  3
ACAD_MLINESTYLE
350
17
  3
ACAD_PLOTSETTINGS
350
19
  3
ACAD_PLOTSTYLENAME
350
E
  0
DICTIONARY
  5
D
102
{ACAD_REACTORS
330
C
102
}
330
C
100
AcDbDictionary
281
     1
  0
DICTIONARY
  5
1A
102
{ACAD_REACTORS
330
C
102
}
330
C
100
AcDbDictionary
281
     1
  3
Layout1
350
1E
  3
Layout2
350
26
  3
Model
350
22
  0
DICTIONARY
  5
17
102
{ACAD_REACTORS
330
C
102
}
330
C
100
AcDbDictionary
281
     1
  3
Standard
350
18
  0
DICTIONARY
  5
19
102
{ACAD_REACTORS
330
C
102
}
330
C
100
AcDbDictionary
281
     1
  0
ACDBDICTIONARYWDFLT
  5
E
102
{ACAD_REACTORS
330
C
102
}
330
C
100
AcDbDictionary
281
     1
  3
Normal
350
F
100
AcDbDictionaryWithDefault
340
F
  0
LAYOUT
  5
1E
102
{ACAD_REACTORS
330
1A
102
}
330
1A
100
AcDbPlotSettings
  1

  2
none_device
  4

  6

 40
0.0
 41
0.0
 42
0.0
 43
0.0
 44
0.0
 45
0.0
 46
0.0
 47
0.0
 48
0.0
 49
0.0
140
0.0
141
0.0
142
1.0
143
1.0
 70
   688
 72
     0
 73
     0
 74
     5
  7

 75
    16
147
1.0
148
0.0
149
0.0
100
AcDbLayout
  1
Layout1
 70
     1
 71
     1
 10
0.0
 20
0.0
 11
420.0
 21
297.0
 12
0.0
 22
0.0
 32
0.0
 14
1.0000000000E+20
 24
1.0000000000E+20
 34
1.0000000000E+20
 15
-1.0000000000E+20
 25
-1.0000000000E+20
 35
-1.0000000000E+20
146
0.0
 13
0.0
 23
0.0
 33
0.0
 16
1.0
 26
0.0
 36
0.0
 17
0.0
 27
1.0
 37
0.0
 76
     0
330
1B
  0
LAYOUT
  5
26
102
{ACAD_REACTORS
330
1A
102
}
330
1A
100
AcDbPlotSettings
  1

  2
none_device
  4

  6

 40
0.0
 41
0.0
 42
0.0
 43
0.0
 44
0.0
 45
0.0
 46
0.0
 47
0.0
 48
0.0
 49
0.0
140
0.0
141
0.0
142
1.0
143
1.0
 70
   688
 72
     0
 73
     0
 74
     5
  7

 75
    16
147
1.0
148
0.0
149
0.0
100
AcDbLayout
  1
Layout2
 70
     1
 71
     2
 10
0.0
 20
0.0
 11
0.0
 21
0.0
 12
0.0
 22
0.0
 32
0.0
 14
0.0
 24
0.0
 34
0.0
 15
0.0
 25
0.0
 35
0.0
146
0.0
 13
0.0
 23
0.0
 33
0.0
 16
1.0
 26
0.0
 36
0.0
 17
0.0
 27
1.0
 37
0.0
 76
     0
330
23
  0
LAYOUT
  5
22
102
{ACAD_REACTORS
330
1A
102
}
330
1A
100
AcDbPlotSettings
  1

  2
none_device
  4

  6

 40
0.0
 41
0.0
 42
0.0
 43
0.0
 44
0.0
 45
0.0
 46
0.0
 47
0.0
 48
0.0
 49
0.0
140
0.0
141
0.0
142
1.0
143
1.0
 70
  1712
 72
     0
 73
     0
 74
     0
  7

 75
     0
147
1.0
148
0.0
149
0.0
100
AcDbLayout
  1
Model
 70
     1
 71
     0
 10
0.0
 20
0.0
 11
1397.0
 21
1079.5
 12
0.0
 22
0.0
 32
0.0
 14
0.0
 24
0.0
 34
0.0
 15
1397.0
 25
1079.5
 35
0.0
146
0.0
 13
0.0
 23
0.0
 33
0.0
 16
1.0
 26
0.0
 36
0.0
 17
0.0
 27
1.0
 37
0.0
 76
     0
330
1F
331
29
  0
MLINESTYLE
  5
18
102
{ACAD_REACTORS
330
17
102
}
330
17
100
AcDbMlineStyle
  2
Standard
 70
     0
  3

 62
   256
 51
90.0
 52
90.0
 71
     2
 49
0.5
 62
   256
  6
BYLAYER
 49
-0.5
 62
   256
  6
BYLAYER
  0
ACDBPLACEHOLDER
  5
F
102
{ACAD_REACTORS
330
E
102
}
330
E
  0
ENDSEC
  0
EOF
