  0
SECTION
  2
HEADER
  9
$ACADVER
  1
AC1015
  9
$ACADMAINTVER
 70
     6
  9
$DWGCODEPAGE
  3
ANSI_1251
  9
$INSBASE
 10
0.0
 20
0.0
 30
0.0
  9
$EXTMIN
 10
0.0
 20
0.0
 30
0.0
  9
$EXTMAX
 10
558.8
 20
431.8
 30
0.0
  9
$LIMMIN
 10
0.0
 20
0.0
  9
$LIMMAX
 10
558.8
 20
431.8
  9
$ORTHOMODE
 70
     0
  9
$REGENMODE
 70
     1
  9
$FILLMODE
 70
     1
  9
$QTEXTMODE
 70
     0
  9
$MIRRTEXT
 70
     1
  9
$LTSCALE
 40
2.0
  9
$ATTMODE
 70
     1
  9
$TEXTSIZE
 40
7.0
  9
$TRACEWID
 40
1.0
  9
$TEXTSTYLE
  7
Standard
  9
$CLAYER
  8
0
  9
$CELTYPE
  6
ByLayer
  9
$CECOLOR
 62
   256
  9
$CELTSCALE
 40
1.0
  9
$DISPSILH
 70
     0
  9
$DIMSCALE
 40
1.0
  9
$DIMASZ
 40
7.0
  9
$DIMEXO
 40
0.02
  9
$DIMDLI
 40
3.75
  9
$DIMRND
 40
0.0
  9
$DIMDLE
 40
0.0
  9
$DIMEXE
 40
2.0
  9
$DIMTP
 40
0.0
  9
$DIMTM
 40
0.0
  9
$DIMTXT
 40
7.0
  9
$DIMCEN
 40
2.5
  9
$DIMTSZ
 40
0.0
  9
$DIMTOL
 70
     0
  9
$DIMLIM
 70
     0
  9
$DIMTIH
 70
     1
  9
$DIMTOH
 70
     1
  9
$DIMSE1
 70
     0
  9
$DIMSE2
 70
     0
  9
$DIMTAD
 70
     1
  9
$DIMZIN
 70
     0
  9
$DIMBLK
  1

  9
$DIMASO
 70
     1
  9
$DIMSHO
 70
     1
  9
$DIMPOST
  1

  9
$DIMAPOST
  1

  9
$DIMALT
 70
     0
  9
$DIMALTD
 70
     3
  9
$DIMALTF
 40
0.0393700787
  9
$DIMLFAC
 40
1.0
  9
$DIMTOFL
 70
     1
  9
$DIMTVP
 40
0.0
  9
$DIMTIX
 70
     0
  9
$DIMSOXD
 70
     0
  9
$DIMSAH
 70
     0
  9
$DIMBLK1
  1

  9
$DIMBLK2
  1

  9
$DIMSTYLE
  2
ISO-25
  9
$DIMCLRD
 70
     0
  9
$DIMCLRE
 70
     0
  9
$DIMCLRT
 70
     0
  9
$DIMTFAC
 40
1.0
  9
$DIMGAP
 40
6.0
  9
$DIMJUST
 70
     0
  9
$DIMSD1
 70
     0
  9
$DIMSD2
 70
     0
  9
$DIMTOLJ
 70
     0
  9
$DIMTZIN
 70
     0
  9
$DIMALTZ
 70
     0
  9
$DIMALTTZ
 70
     0
  9
$DIMUPT
 70
     0
  9
$DIMDEC
 70
     2
  9
$DIMTDEC
 70
     3
  9
$DIMALTU
 70
     2
  9
$DIMALTTD
 70
     3
  9
$DIMTXSTY
  7
Standard
  9
$DIMAUNIT
 70
     0
  9
$DIMADEC
 70
     2
  9
$DIMALTRND
 40
0.0
  9
$DIMAZIN
 70
     0
  9
$DIMDSEP
 70
    44
  9
$DIMATFIT
 70
     3
  9
$DIMFRAC
 70
     0
  9
$DIMLDRBLK
  1

  9
$DIMLUNIT
 70
     2
  9
$DIMLWD
 70
    -2
  9
$DIMLWE
 70
    -2
  9
$DIMTMOVE
 70
     0
  9
$LUNITS
 70
     2
  9
$LUPREC
 70
     2
  9
$SKETCHINC
 40
1.0
  9
$FILLETRAD
 40
10.0
  9
$AUNITS
 70
     0
  9
$AUPREC
 70
     2
  9
$MENU
  1
.
  9
$ELEVATION
 40
0.0
  9
$PELEVATION
 40
0.0
  9
$THICKNESS
 40
0.0
  9
$LIMCHECK
 70
     0
  9
$CHAMFERA
 40
10.0
  9
$CHAMFERB
 40
10.0
  9
$CHAMFERC
 40
20.0
  9
$CHAMFERD
 40
0.0
  9
$SKPOLY
 70
     0
  9
$TDCREATE
 40
2458092.331360208
  9
$TDUCREATE
 40
2458092.248026875
  9
$TDUPDATE
 40
2458092.331360625
  9
$TDUUPDATE
 40
2458092.248027292
  9
$TDINDWG
 40
0.0000000116
  9
$TDUSRTIMER
 40
0.0000000116
  9
$USRTIMER
 70
     1
  9
$ANGBASE
 50
0.0
  9
$ANGDIR
 70
     0
  9
$PDMODE
 70
     0
  9
$PDSIZE
 40
-1.0
  9
$PLINEWID
 40
0.0
  9
$SPLFRAME
 70
     0
  9
$SPLINETYPE
 70
     6
  9
$SPLINESEGS
 70
     8
  9
$HANDSEED
  5
71
  9
$SURFTAB1
 70
     6
  9
$SURFTAB2
 70
     6
  9
$SURFTYPE
 70
     6
  9
$SURFU
 70
     6
  9
$SURFV
 70
     6
  9
$UCSBASE
  2

  9
$UCSNAME
  2

  9
$UCSORG
 10
0.0
 20
0.0
 30
0.0
  9
$UCSXDIR
 10
1.0
 20
0.0
 30
0.0
  9
$UCSYDIR
 10
0.0
 20
1.0
 30
0.0
  9
$UCSORTHOREF
  2

  9
$UCSORTHOVIEW
 70
     0
  9
$UCSORGTOP
 10
0.0
 20
0.0
 30
0.0
  9
$UCSORGBOTTOM
 10
0.0
 20
0.0
 30
0.0
  9
$UCSORGLEFT
 10
0.0
 20
0.0
 30
0.0
  9
$UCSORGRIGHT
 10
0.0
 20
0.0
 30
0.0
  9
$UCSORGFRONT
 10
0.0
 20
0.0
 30
0.0
  9
$UCSORGBACK
 10
0.0
 20
0.0
 30
0.0
  9
$PUCSBASE
  2

  9
$PUCSNAME
  2

  9
$PUCSORG
 10
0.0
 20
0.0
 30
0.0
  9
$PUCSXDIR
 10
1.0
 20
0.0
 30
0.0
  9
$PUCSYDIR
 10
0.0
 20
1.0
 30
0.0
  9
$PUCSORTHOREF
  2

  9
$PUCSORTHOVIEW
 70
     0
  9
$PUCSORGTOP
 10
0.0
 20
0.0
 30
0.0
  9
$PUCSORGBOTTOM
 10
0.0
 20
0.0
 30
0.0
  9
$PUCSORGLEFT
 10
0.0
 20
0.0
 30
0.0
  9
$PUCSORGRIGHT
 10
0.0
 20
0.0
 30
0.0
  9
$PUCSORGFRONT
 10
0.0
 20
0.0
 30
0.0
  9
$PUCSORGBACK
 10
0.0
 20
0.0
 30
0.0
  9
$USERI1
 70
     0
  9
$USERI2
 70
     0
  9
$USERI3
 70
     0
  9
$USERI4
 70
     0
  9
$USERI5
 70
     0
  9
$USERR1
 40
0.0
  9
$USERR2
 40
0.0
  9
$USERR3
 40
0.0
  9
$USERR4
 40
0.0
  9
$USERR5
 40
0.0
  9
$WORLDVIEW
 70
     1
  9
$SHADEDGE
 70
     3
  9
$SHADEDIF
 70
    70
  9
$TILEMODE
 70
     1
  9
$MAXACTVP
 70
    64
  9
$PINSBASE
 10
0.0
 20
0.0
 30
0.0
  9
$PLIMCHECK
 70
     0
  9
$PEXTMIN
 10
1.0000000000E+20
 20
1.0000000000E+20
 30
1.0000000000E+20
  9
$PEXTMAX
 10
-1.0000000000E+20
 20
-1.0000000000E+20
 30
-1.0000000000E+20
  9
$PLIMMIN
 10
0.0
 20
0.0
  9
$PLIMMAX
 10
420.0
 20
297.0
  9
$UNITMODE
 70
     0
  9
$VISRETAIN
 70
     1
  9
$PLINEGEN
 70
     0
  9
$PSLTSCALE
 70
     1
  9
$TREEDEPTH
 70
  3020
  9
$CMLSTYLE
  2
Standard
  9
$CMLJUST
 70
     0
  9
$CMLSCALE
 40
20.0
  9
$PROXYGRAPHICS
 70
     1
  9
$MEASUREMENT
 70
     1
  9
$CELWEIGHT
370
    -1
  9
$ENDCAPS
280
     0
  9
$JOINSTYLE
280
     0
  9
$LWDISPLAY
290
     1
  9
$INSUNITS
 70
     4
  9
$HYPERLINKBASE
  1

  9
$STYLESHEET
  1

  9
$XEDIT
290
     1
  9
$CEPSNTYPE
380
     0
  9
$PSTYLEMODE
290
     1
  9
$FINGERPRINTGUID
  2
{7C7398AF-28CE-4A44-B81A-15053294289F}
  9
$VERSIONGUID
  2
{FAEB1C32-E019-11D5-929B-00C0DF256EC4}
  9
$EXTNAMES
290
     1
  9
$PSVPSCALE
 40
0.0
  9
$OLESTARTUP
290
     0
  0
ENDSEC
  0
SECTION
  2
CLASSES
  0
CLASS
  1
ACDBDICTIONARYWDFLT
  2
AcDbDictionaryWithDefault
  3
ObjectDBX Classes
 90
        0
280
     0
281
     0
  0
CLASS
  1
VISUALSTYLE
  2
AcDbVisualStyle
  3
ObjectDBX Classes
 90
     4095
280
     0
281
     0
  0
CLASS
  1
MATERIAL
  2
AcDbMaterial
  3
ObjectDBX Classes
 90
     1153
280
     0
281
     0
  0
CLASS
  1
ACDBPLACEHOLDER
  2
AcDbPlaceHolder
  3
ObjectDBX Classes
 90
        0
280
     0
281
     0
  0
CLASS
  1
LAYOUT
  2
AcDbLayout
  3
ObjectDBX Classes
 90
        0
280
     0
281
     0
  0
ENDSEC
  0
SECTION
  2
TABLES
  0
TABLE
  2
VPORT
  5
8
330
0
100
AcDbSymbolTable
 70
     1
  0
VPORT
  5
29
330
8
100
AcDbSymbolTableRecord
100
AcDbViewportTableRecord
  2
*Active
 70
     0
 10
0.0
 20
0.0
 11
1.0
 21
1.0
 12
279.4
 22
215.9
 13
0.0
 23
0.0
 14
10.0
 24
10.0
 15
10.0
 25
10.0
 16
0.0
 26
0.0
 36
1.0
 17
0.0
 27
0.0
 37
0.0
 40
431.8
 41
1.2941176471
 42
50.0
 43
0.0
 44
0.0
 50
0.0
 51
0.0
 71
     0
 72
  2000
 73
     1
 74
     3
 75
     0
 76
     0
 77
     0
 78
     0
281
     0
 65
     1
110
0.0
120
0.0
130
0.0
111
1.0
121
0.0
131
0.0
112
0.0
122
1.0
132
0.0
 79
     0
146
0.0
  0
ENDTAB
  0
TABLE
  2
LTYPE
  5
5
330
0
100
AcDbSymbolTable
 70
     6
  0
LTYPE
  5
14
330
5
100
AcDbSymbolTableRecord
100
AcDbLinetypeTableRecord
  2
ByBlock
 70
     0
  3

 72
    65
 73
     0
 40
0.0
  0
LTYPE
  5
15
330
5
100
AcDbSymbolTableRecord
100
AcDbLinetypeTableRecord
  2
ByLayer
 70
     0
  3

 72
    65
 73
     0
 40
0.0
  0
LTYPE
  5
16
330
5
100
AcDbSymbolTableRecord
100
AcDbLinetypeTableRecord
  2
Continuous
 70
     0
  3
Solid line
 72
    65
 73
     0
 40
0.0
  0
LTYPE
  5
3F
330
5
100
AcDbSymbolTableRecord
100
AcDbLinetypeTableRecord
  2
HIDDEN
 70
     0
  3
Hidden __ __ __ __ __ __ __ __ __ __ __ __ __ __
 72
    65
 73
     2
 40
1.905
 49
1.27
 74
     0
 49
-0.635
 74
     0
  0
LTYPE
  5
40
330
5
100
AcDbSymbolTableRecord
100
AcDbLinetypeTableRecord
  2
PHANTOM
 70
     0
  3
Phantom ______  __  __  ______  __  __  ______
 72
    65
 73
     6
 40
12.7
 49
6.35
 74
     0
 49
-1.27
 74
     0
 49
1.27
 74
     0
 49
-1.27
 74
     0
 49
1.27
 74
     0
 49
-1.27
 74
     0
  0
LTYPE
  5
41
330
5
100
AcDbSymbolTableRecord
100
AcDbLinetypeTableRecord
  2
CENTER
 70
     0
  3
Center ____ _ ____ _ ____ _ ____ _ ____ _ ____
 72
    65
 73
     4
 40
10.16
 49
6.35
 74
     0
 49
-1.27
 74
     0
 49
1.27
 74
     0
 49
-1.27
 74
     0
  0
LTYPE
  5
42
330
5
100
AcDbSymbolTableRecord
100
AcDbLinetypeTableRecord
  2
CENTERX2
 70
     0
  3
Center (2x) ________  __  ________  __  _____
 72
    65
 73
     4
 40
20.32
 49
12.7
 74
     0
 49
-2.54
 74
     0
 49
2.54
 74
     0
 49
-2.54
 74
     0
  0
LTYPE
  5
43
330
5
100
AcDbSymbolTableRecord
100
AcDbLinetypeTableRecord
  2
DOT2
 70
     0
  3
Dot (.5x) ........................................
 72
    65
 73
     2
 40
0.635
 49
0.0
 74
     0
 49
-0.635
 74
     0
  0
ENDTAB
  0
TABLE
  2
LAYER
  5
2
330
0
100
AcDbSymbolTable
 70
     1
  0
LAYER
  5
10
330
2
100
AcDbSymbolTableRecord
100
AcDbLayerTableRecord
  2
0
 70
     0
 62
     7
  6
Continuous
370
    -3
390
F
  0
ENDTAB
  0
TABLE
  2
STYLE
  5
3
330
0
100
AcDbSymbolTable
 70
     1
  0
STYLE
  5
11
330
3
100
AcDbSymbolTableRecord
100
AcDbTextStyleTableRecord
  2
Standard
 70
     0
 40
0.0
 41
1.0
 50
0.0
 71
     0
 42
7.0
  3
txt
  4

  0
ENDTAB
  0
TABLE
  2
VIEW
  5
6
330
0
100
AcDbSymbolTable
 70
     0
  0
ENDTAB
  0
TABLE
  2
UCS
  5
7
330
0
100
AcDbSymbolTable
 70
     0
  0
ENDTAB
  0
TABLE
  2
APPID
  5
9
330
0
100
AcDbSymbolTable
 70
     1
  0
APPID
  5
12
330
9
100
AcDbSymbolTableRecord
100
AcDbRegAppTableRecord
  2
ACAD
 70
     0
  0
ENDTAB
  0
TABLE
  2
DIMSTYLE
  5
A
330
0
100
AcDbSymbolTable
 70
     1
100
AcDbDimStyleTable
  0
DIMSTYLE
105
27
330
A
100
AcDbSymbolTableRecord
100
AcDbDimStyleTableRecord
  2
ISO-25
 70
     0
 41
2.5
 42
0.625
 43
3.75
 44
1.25
 73
     0
 74
     0
 77
     1
 78
     8
140
2.5
141
2.5
143
0.0393700787
147
0.625
171
     3
172
     1
178
     0
271
     2
272
     2
274
     3
278
    44
283
     0
284
     8
340
11
  0
ENDTAB
  0
TABLE
  2
BLOCK_RECORD
  5
1
330
0
100
AcDbSymbolTable
 70
     1
  0
BLOCK_RECORD
  5
1F
330
1
100
AcDbSymbolTableRecord
100
AcDbBlockTableRecord
  2
*Model_Space
340
22
  0
BLOCK_RECORD
  5
1B
330
1
100
AcDbSymbolTableRecord
100
AcDbBlockTableRecord
  2
*Paper_Space
340
1E
  0
BLOCK_RECORD
  5
23
330
1
100
AcDbSymbolTableRecord
100
AcDbBlockTableRecord
  2
*Paper_Space0
340
26
  0
ENDTAB
  0
ENDSEC
  0
SECTION
  2
BLOCKS
  0
BLOCK
  5
20
330
1F
100
AcDbEntity
  8
0
100
AcDbBlockBegin
  2
*Model_Space
 70
     0
 10
0.0
 20
0.0
 30
0.0
  3
*Model_Space
  1

  0
ENDBLK
  5
21
330
1F
100
AcDbEntity
  8
0
100
AcDbBlockEnd
  0
BLOCK
  5
1C
330
1B
100
AcDbEntity
 67
     1
  8
0
100
AcDbBlockBegin
  2
*Paper_Space
 70
     0
 10
0.0
 20
0.0
 30
0.0
  3
*Paper_Space
  1

  0
ENDBLK
  5
1D
330
1B
100
AcDbEntity
 67
     1
  8
0
100
AcDbBlockEnd
  0
BLOCK
  5
24
330
23
100
AcDbEntity
  8
0
100
AcDbBlockBegin
  2
*Paper_Space0
 70
     0
 10
0.0
 20
0.0
 30
0.0
  3
*Paper_Space0
  1

  0
ENDBLK
  5
25
330
23
100
AcDbEntity
  8
0
100
AcDbBlockEnd
  0
ENDSEC
  0
SECTION
  2
ENTITIES
  0
LINE
  5
44
330
1F
100
AcDbEntity
  8
0
  6
Continuous
 62
     7
370
    15
100
AcDbLine
 10
64.8484517784
 20
315.8879282582
 30
0.0
 11
64.8484512158
 21
313.2917959797
 31
0.0
  0
LINE
  5
45
330
1F
100
AcDbEntity
  8
0
  6
Continuous
 62
     7
370
    15
100
AcDbLine
 10
224.8484507745
 20
313.2917613014
 30
0.0
 11
224.8484513372
 21
315.8878935798
 31
0.0
  0
LINE
  5
46
330
1F
100
AcDbEntity
  8
0
  6
Continuous
 62
     7
370
    15
100
AcDbLine
 10
64.8484514364
 20
313.2917959797
 30
0.0
 11
68.3099599845
 21
309.8302863613
 31
0.0
  0
LINE
  5
47
330
1F
100
AcDbEntity
  8
0
  6
Continuous
 62
     7
370
    15
100
AcDbLine
 10
221.3869405052
 20
309.8302531835
 30
0.0
 11
224.8484505539
 21
313.2917613014
 31
0.0
  0
LINE
  5
48
330
1F
100
AcDbEntity
  8
0
  6
Continuous
 62
     7
370
    15
100
AcDbLine
 10
212.1274291256
 20
372.1476707578
 30
0.0
 11
211.8185819107
 21
374.8245431528
 31
0.0
  0
LINE
  5
49
330
1F
100
AcDbEntity
  8
0
  6
Continuous
 62
     7
370
    15
100
AcDbLine
 10
77.8783467528
 20
374.8245721829
 30
0.0
 11
77.5694983775
 21
372.1476999218
 31
0.0
  0
LINE
  5
4A
330
1F
100
AcDbEntity
  8
0
  6
Continuous
 62
     7
370
    15
100
AcDbLine
 10
77.5694983775
 20
372.1476999218
 30
0.0
 11
77.5694986164
 21
315.8879304821
 31
0.0
  0
LINE
  5
4B
330
1F
100
AcDbEntity
  8
0
  6
Continuous
 62
     7
370
    15
100
AcDbLine
 10
212.1274044992
 20
315.8879013181
 30
0.0
 11
212.1274291256
 21
372.1476707578
 31
0.0
  0
LINE
  5
4C
330
1F
100
AcDbEntity
  8
0
  6
Continuous
 62
     7
370
    15
100
AcDbLine
 10
211.8185819107
 20
374.8245431528
 30
0.0
 11
210.9389765078
 21
377.2828183973
 31
0.0
  0
LINE
  5
4D
330
1F
100
AcDbEntity
  8
0
  6
Continuous
 62
     7
370
    15
100
AcDbLine
 10
78.7579532212
 20
377.2828470461
 30
0.0
 11
77.8783467528
 21
374.8245721829
 31
0.0
  0
LINE
  5
4E
330
1F
100
AcDbEntity
  8
0
  6
Continuous
 62
     7
370
    15
100
AcDbLine
 10
210.9389765078
 20
377.2828183973
 30
0.0
 11
209.5590614898
 21
379.4520847769
 31
0.0
  0
LINE
  5
4F
330
1F
100
AcDbEntity
  8
0
  6
Continuous
 62
     7
370
    15
100
AcDbLine
 10
80.1378691796
 20
379.4521128276
 30
0.0
 11
78.7579532212
 21
377.2828470461
 31
0.0
  0
LINE
  5
50
330
1F
100
AcDbEntity
  8
0
  6
Continuous
 62
     7
370
    15
100
AcDbLine
 10
209.5590614898
 20
379.4520847769
 30
0.0
 11
207.7492592394
 21
381.2618924301
 31
0.0
  0
LINE
  5
51
330
1F
100
AcDbEntity
  8
0
  6
Continuous
 62
     7
370
    15
100
AcDbLine
 10
81.9476722145
 20
381.2619196963
 30
0.0
 11
80.1378691796
 21
379.4521128276
 31
0.0
  0
LINE
  5
52
330
1F
100
AcDbEntity
  8
0
  6
Continuous
 62
     7
370
    15
100
AcDbLine
 10
207.7492592394
 20
381.2618924302
 30
0.0
 11
205.5799994366
 21
382.6418143839
 31
0.0
  0
LINE
  5
53
330
1F
100
AcDbEntity
  8
0
  6
Continuous
 62
     7
370
    15
100
AcDbLine
 10
84.1169326155
 20
382.6418407098
 30
0.0
 11
81.9476722145
 21
381.2619196963
 31
0.0
  0
LINE
  5
54
330
1F
100
AcDbEntity
  8
0
  6
Continuous
 62
     7
370
    15
100
AcDbLine
 10
205.5799994366
 20
382.6418143839
 30
0.0
 11
203.1217158745
 21
383.5214084062
 31
0.0
  0
LINE
  5
55
330
1F
100
AcDbEntity
  8
0
  6
Continuous
 62
     7
370
    15
100
AcDbLine
 10
86.5752165589
 20
383.5214336665
 30
0.0
 11
84.1169326155
 21
382.6418407098
 31
0.0
  0
LINE
  5
56
330
1F
100
AcDbEntity
  8
0
  6
Continuous
 62
     7
370
    15
100
AcDbLine
 10
203.1217158745
 20
383.5214084063
 30
0.0
 11
200.4448417881
 21
383.8302627827
 31
0.0
  0
LINE
  5
57
330
1F
100
AcDbEntity
  8
0
  6
Continuous
 62
     7
370
    15
100
AcDbLine
 10
89.2520907791
 20
383.8302868825
 30
0.0
 11
86.5752165589
 21
383.5214336665
 31
0.0
  0
LINE
  5
58
330
1F
100
AcDbEntity
  8
0
  6
Continuous
 62
     7
370
    15
100
AcDbLine
 10
188.6298100551
 20
383.8302704464
 30
0.0
 11
144.8484662836
 21
383.8302882663
 31
0.0
  0
LINE
  5
59
330
1F
100
AcDbEntity
  8
0
  6
Continuous
 62
     7
370
    15
100
AcDbLine
 10
144.8484662836
 20
383.8302882663
 30
0.0
 11
101.0671225253
 21
383.8302894247
 31
0.0
  0
LWPOLYLINE
  5
5A
330
1F
100
AcDbEntity
  8
0
  6
Continuous
 62
     7
370
    15
100
AcDbPolyline
 90
       60
 70
   128
 43
0.0
 10
64.8484517784
 20
315.8879282582
 10
64.8783010569
 20
315.8879279263
 10
65.116963417
 20
315.8879272247
 10
65.5935758749
 20
315.8879264744
 10
66.3067160318
 20
315.8879256777
 10
67.2542555971
 20
315.887924837
 10
68.4333667403
 20
315.8879239547
 10
69.8405305303
 20
315.8879230335
 10
71.4715474374
 20
315.8879220762
 10
73.321549866
 20
315.8879210856
 10
75.3850166818
 20
315.8879200646
 10
77.6557896888
 20
315.8879190163
 10
80.1270920078
 20
315.8879179439
 10
82.7915483015
 20
315.8879168505
 10
85.6412067849
 20
315.8879157394
 10
88.6675629573
 20
315.8879146139
 10
91.8615849822
 20
315.8879134774
 10
95.2137406427
 20
315.8879123332
 10
98.7140257886
 20
315.8879111849
 10
102.3519941935
 20
315.8879100357
 10
106.1167887297
 20
315.8879088892
 10
109.9971737707
 20
315.8879077487
 10
113.9815687224
 20
315.8879066177
 10
118.0580825841
 20
315.8879054995
 10
122.2145494365
 20
315.8879043976
 10
126.4385647486
 20
315.887903315
 10
130.7175223987
 20
315.8879022552
 10
135.0386522954
 20
315.8879012212
 10
139.3890584887
 20
315.8879002162
 10
143.7557576565
 20
315.8878992431
 10
148.1257178525
 20
315.8878983048
 10
152.4858973978
 20
315.8878974042
 10
156.8232838029
 20
315.8878965439
 10
161.124932602
 20
315.8878957265
 10
165.3780059845
 20
315.8878949545
 10
169.5698111078
 20
315.8878942301
 10
173.6878379779
 20
315.8878935555
 10
177.7197967839
 20
315.8878929328
 10
181.6536545763
 20
315.8878923637
 10
185.4776711772
 20
315.88789185
 10
189.180434218
 20
315.8878913932
 10
192.7508931986
 20
315.8878909947
 10
196.178392466
 20
315.8878906556
 10
199.4527030153
 20
315.887890377
 10
202.5640530169
 20
315.8878901597
 10
205.5031569796
 20
315.8878900044
 10
208.2612434619
 20
315.8878899115
 10
210.8300812497
 20
315.8878898813
 10
213.2020039215
 20
315.8878899138
 10
215.3699327278
 20
315.8878900091
 10
217.3273977169
 20
315.8878901667
 10
219.0685570439
 20
315.8878903863
 10
220.5882144051
 20
315.8878906672
 10
221.8818345456
 20
315.8878910085
 10
222.9455567946
 20
315.8878914092
 10
223.7762065867
 20
315.8878918682
 10
224.3713049364
 20
315.887892384
 10
224.7290758364
 20
315.8878929551
 10
224.8484515578
 20
315.8878935798
 10
224.8484515578
 20
315.8878935798
  0
LWPOLYLINE
  5
5B
330
1F
100
AcDbEntity
  8
0
  6
Continuous
 62
     7
370
    15
100
AcDbPolyline
 90
       55
 70
   128
 43
0.0
 10
77.5694986164
 20
315.8879304821
 10
77.5996105038
 20
315.8879301759
 10
77.8403439013
 20
315.8879295253
 10
78.3209489332
 20
315.887928826
 10
79.0397051583
 20
315.8879280803
 10
79.9940396158
 20
315.8879272911
 10
81.180536036
 20
315.8879264611
 10
82.5949470698
 20
315.8879255933
 10
84.2322094925
 20
315.8879246908
 10
86.0864623299
 20
315.8879237568
 10
88.1510678378
 20
315.8879227947
 10
90.4186352645
 20
315.887921808
 10
92.881047307
 20
315.8879208
 10
95.5294891694
 20
315.8879197746
 10
98.3544801171
 20
315.8879187352
 10
101.3459074157
 20
315.8879176857
 10
104.4930625319
 20
315.8879166299
 10
107.7846794671
 20
315.8879155714
 10
111.2089750871
 20
315.8879145141
 10
114.7536913022
 20
315.8879134617
 10
118.4061389484
 20
315.8879124181
 10
122.153243211
 20
315.8879113869
 10
125.9815904292
 20
315.8879103719
 10
129.8774761137
 20
315.8879093767
 10
133.8269540048
 20
315.8879084048
 10
137.8158859966
 20
315.8879074598
 10
141.8299927479
 20
315.887906545
 10
145.8549047984
 20
315.8879056637
 10
149.8762140075
 20
315.887904819
 10
153.8795251319
 20
315.887904014
 10
157.8505073568
 20
315.8879032515
 10
161.7749455965
 20
315.8879025343
 10
165.6387913805
 20
315.887901865
 10
169.4282131437
 20
315.8879012459
 10
173.1296457398
 20
315.8879006793
 10
176.7298390008
 20
315.8879001671
 10
180.215905169
 20
315.8878997113
 10
183.5753650324
 20
315.8878993134
 10
186.7961925965
 20
315.8878989749
 10
189.8668581347
 20
315.887898697
 10
192.7763694612
 20
315.8878984806
 10
195.5143112806
 20
315.8878983267
 10
198.0708824718
 20
315.8878982356
 10
200.4369311734
 20
315.8878982078
 10
202.6039875452
 20
315.8878982433
 10
204.5642940877
 20
315.887898342
 10
206.3108334124
 20
315.8878985035
 10
207.8373533617
 20
315.8878987274
 10
209.1383893904
 20
315.8878990127
 10
210.2092841272
 20
315.8878993584
 10
211.0462040468
 20
315.8878997634
 10
211.6461531932
 20
315.8879002262
 10
212.0069839041
 20
315.887900745
 10
212.1274044992
 20
315.8879013181
 10
212.1274044992
 20
315.8879013181
  0
LWPOLYLINE
  5
5C
330
1F
100
AcDbEntity
  8
0
  6
Continuous
 62
     7
370
    15
100
AcDbPolyline
 90
       59
 70
   128
 43
0.0
 10
64.8484512158
 20
313.2917959797
 10
64.8783009353
 20
313.2917956478
 10
65.1169632941
 20
313.2917949462
 10
65.5935757494
 20
313.291794196
 10
66.3067159023
 20
313.2917933993
 10
67.2542554623
 20
313.2917925585
 10
68.433366599
 20
313.2917916763
 10
69.8405303813
 20
313.2917907551
 10
71.4715472794
 20
313.2917897977
 10
73.3215496978
 20
313.2917888071
 10
75.3850165023
 20
313.2917877861
 10
77.6557894967
 20
313.2917867379
 10
80.1270918021
 20
313.2917856654
 10
82.7915480811
 20
313.291784572
 10
85.6412065488
 20
313.2917834609
 10
88.6675627044
 20
313.2917823355
 10
91.8615847118
 20
313.2917811989
 10
95.2137403537
 20
313.2917800548
 10
98.7140254804
 20
313.2917789064
 10
102.3519938652
 20
313.2917777573
 10
106.1167883807
 20
313.2917766107
 10
109.9971734003
 20
313.2917754703
 10
113.9815683299
 20
313.2917743393
 10
118.0580821692
 20
313.2917732211
 10
122.2145489986
 20
313.2917721191
 10
126.4385642875
 20
313.2917710366
 10
130.717521914
 20
313.2917699767
 10
135.0386517868
 20
313.2917689428
 10
139.3890579561
 20
313.2917679377
 10
143.7557570999
 20
313.2917669646
 10
148.1257172718
 20
313.2917660264
 10
152.485896793
 20
313.2917651258
 10
156.8232831741
 20
313.2917642655
 10
161.1249319496
 20
313.2917634481
 10
165.3780053086
 20
313.2917626761
 10
169.5698104088
 20
313.2917619517
 10
173.6878372561
 20
313.2917612771
 10
177.71979604
 20
313.2917606543
 10
181.6536538106
 20
313.2917600852
 10
185.4776703904
 20
313.2917595715
 10
189.1804334108
 20
313.2917591147
 10
192.7508923717
 20
313.2917587162
 10
196.1783916202
 20
313.2917583771
 10
199.4527021515
 20
313.2917580986
 10
202.5640521359
 20
313.2917578813
 10
205.5031560824
 20
313.2917577259
 10
208.2612425494
 20
313.291757633
 10
210.8300803231
 20
313.2917576028
 10
213.2020029818
 20
313.2917576354
 10
215.3699317761
 20
313.2917577306
 10
217.3273967544
 20
313.2917578883
 10
219.0685560718
 20
313.2917581079
 10
220.5882134247
 20
313.2917583887
 10
221.8818335581
 20
313.29175873
 10
222.9455558011
 20
313.2917591308
 10
223.7762055886
 20
313.2917595897
 10
224.3713039351
 20
313.2917601055
 10
224.7290748332
 20
313.2917606767
 10
224.8484505539
 20
313.2917613014
  0
LWPOLYLINE
  5
5D
330
1F
100
AcDbEntity
  8
0
  6
Continuous
 62
     7
370
    15
100
AcDbPolyline
 90
       12
 70
   128
 43
0.0
 10
221.3869405052
 20
309.8302531835
 10
221.2665313018
 20
309.8302538487
 10
220.9056825434
 20
309.830254564
 10
220.3055295937
 20
309.8302553271
 10
219.467960756
 20
309.8302561358
 10
218.3956113316
 20
309.8302569873
 10
217.0918553286
 20
309.830257879
 10
215.5607948457
 20
309.8302588082
 10
213.8072471657
 20
309.8302597719
 10
211.8367295983
 20
309.830260767
 10
209.6554421207
 20
309.8302617904
 10
209.2716499924
 20
309.8302619637
  0
LWPOLYLINE
  5
5E
330
1F
100
AcDbEntity
  8
0
  6
Continuous
 62
     7
370
    15
100
AcDbPolyline
 90
       69
 70
   128
 43
0.0
 10
80.4252504973
 20
309.8302898898
 10
80.0414583691
 20
309.8302898829
 10
77.8601708915
 20
309.830289805
 10
75.8896533241
 20
309.8302896641
 10
74.136105644
 20
309.8302894605
 10
72.6050451612
 20
309.830289195
 10
71.3012891582
 20
309.8302888684
 10
70.2289397338
 20
309.8302884818
 10
69.3913708961
 20
309.8302880362
 10
68.7912179464
 20
309.8302875332
 10
68.430369188
 20
309.8302869743
 10
68.3099599845
 20
309.8302863613
 10
68.430369188
 20
309.8302856961
 10
68.7912179464
 20
309.8302849808
 10
69.3913708961
 20
309.8302842176
 10
70.2289397338
 20
309.830283409
 10
71.3012891582
 20
309.8302825575
 10
72.6050451612
 20
309.8302816657
 10
74.136105644
 20
309.8302807366
 10
75.8896533241
 20
309.8302797729
 10
77.8601708915
 20
309.8302787778
 10
80.0414583691
 20
309.8302777543
 10
82.4266526193
 20
309.8302767057
 10
85.0082489388
 20
309.8302756353
 10
87.7781246703
 20
309.8302745465
 10
90.72756476
 20
309.8302734426
 10
93.8472891783
 20
309.8302723272
 10
97.1274821179
 20
309.8302712038
 10
100.5578228783
 20
309.8302700758
 10
104.1275183383
 20
309.8302689469
 10
107.8253369154
 20
309.8302678206
 10
111.6396439043
 20
309.8302667004
 10
115.558438084
 20
309.8302655899
 10
119.5693894782
 20
309.8302644926
 10
123.65987815
 20
309.8302634119
 10
127.8170339086
 20
309.8302623511
 10
132.0277768039
 20
309.8302613138
 10
136.2788582812
 20
309.830260303
 10
140.5569028651
 20
309.8302593221
 10
144.8484502449
 20
309.830258374
 10
149.1399976247
 20
309.8302574618
 10
153.4180422086
 20
309.8302565883
 10
157.6691236859
 20
309.8302557563
 10
161.8798665812
 20
309.8302549684
 10
166.0370223398
 20
309.8302542271
 10
170.1275110115
 20
309.8302535346
 10
174.1384624058
 20
309.8302528933
 10
178.0572565855
 20
309.8302523051
 10
181.8715635743
 20
309.8302517719
 10
185.5693821515
 20
309.8302512952
 10
189.1390776115
 20
309.8302508768
 10
192.5694183719
 20
309.8302505177
 10
195.8496113115
 20
309.8302502193
 10
198.9693357298
 20
309.8302499824
 10
201.9187758195
 20
309.8302498077
 10
204.688651551
 20
309.8302496959
 10
207.2702478705
 20
309.8302496472
 10
209.6554421207
 20
309.8302496618
 10
211.8367295983
 20
309.8302497397
 10
213.8072471657
 20
309.8302498807
 10
215.5607948457
 20
309.8302500842
 10
217.0918553286
 20
309.8302503497
 10
218.3956113316
 20
309.8302506763
 10
219.467960756
 20
309.830251063
 10
220.3055295937
 20
309.8302515085
 10
220.9056825434
 20
309.8302520115
 10
221.2665313018
 20
309.8302525704
 10
221.3869405052
 20
309.8302531835
 10
221.3869405052
 20
309.8302531835
  0
LWPOLYLINE
  5
5F
330
1F
100
AcDbEntity
  8
0
  6
Continuous
 62
     7
370
    15
100
AcDbPolyline
 90
       54
 70
   128
 43
0.0
 10
80.4252472704
 20
309.8302866628
 10
80.4552115571
 20
309.8302863638
 10
80.6947586344
 20
309.8302857278
 10
81.1729616581
 20
309.8302850433
 10
81.8880416816
 20
309.8302843129
 10
82.8373385602
 20
309.8302835393
 10
84.0173208471
 20
309.8302827254
 10
85.4235989308
 20
309.8302818742
 10
87.0509413644
 20
309.8302809889
 10
88.8932943272
 20
309.8302800727
 10
90.9438041452
 20
309.8302791291
 10
93.1948427871
 20
309.8302781616
 10
95.6380362414
 20
309.8302771738
 10
98.264295668
 20
309.8302761693
 10
101.0638512092
 20
309.8302751519
 10
104.0262883346
 20
309.8302741254
 10
107.1405865836
 20
309.8302730936
 10
110.395160562
 20
309.8302720603
 10
113.7779030409
 20
309.8302710294
 10
117.2762299962
 20
309.8302700047
 10
120.8771274217
 20
309.8302689901
 10
124.5671997426
 20
309.8302679892
 10
128.3327196474
 20
309.8302670059
 10
132.1596791548
 20
309.8302660437
 10
136.033841724
 20
309.8302651063
 10
139.9407952159
 20
309.8302641972
 10
143.8660055069
 20
309.8302633197
 10
147.7948705567
 20
309.8302624771
 10
151.7127747296
 20
309.8302616725
 10
155.6051431644
 20
309.8302609089
 10
159.4574959951
 20
309.8302601892
 10
163.2555022161
 20
309.830259516
 10
166.9850329948
 20
309.8302588919
 10
170.6322142317
 20
309.8302583192
 10
174.1834781732
 20
309.8302577999
 10
177.6256138839
 20
309.8302573361
 10
180.9458163932
 20
309.8302569294
 10
184.1317343294
 20
309.8302565814
 10
187.1715158688
 20
309.8302562934
 10
190.0538528242
 20
309.8302560664
 10
192.768022713
 20
309.8302559012
 10
195.3039286448
 20
309.8302557986
 10
197.652136883
 20
309.8302557588
 10
199.8039119388
 20
309.8302557821
 10
201.7512490676
 20
309.8302558683
 10
203.4869040473
 20
309.8302560171
 10
205.0044201276
 20
309.8302562279
 10
206.2981520488
 20
309.8302565001
 10
207.3632870433
 20
309.8302568325
 10
208.1958627389
 20
309.8302572239
 10
208.7927818994
 20
309.8302576729
 10
209.1518239462
 20
309.8302581778
 10
209.2716532194
 20
309.8302587367
 10
209.2716532194
 20
309.8302587367
  0
LWPOLYLINE
  5
60
330
1F
100
AcDbEntity
  8
0
  6
Continuous
 62
     7
370
    15
100
AcDbPolyline
 90
       55
 70
   128
 43
0.0
 10
77.5694983775
 20
372.1476999218
 10
77.5996102704
 20
372.1476996156
 10
77.8403437124
 20
372.147698965
 10
78.3209488332
 20
372.1476982657
 10
79.0397051911
 20
372.14769752
 10
79.994039825
 20
372.1476967308
 10
81.1805364644
 20
372.1476959008
 10
82.5949477595
 20
372.147695033
 10
84.2322104849
 20
372.1476941305
 10
86.0864636648
 20
372.1476931965
 10
88.1510695543
 20
372.1476922344
 10
90.4186374
 20
372.1476912477
 10
92.8810498976
 20
372.1476902397
 10
95.5294922493
 20
372.1476892143
 10
98.3544837191
 20
372.1476881749
 10
101.3459115705
 20
372.1476871254
 10
104.4930672683
 20
372.1476860696
 10
107.7846848118
 20
372.1476850111
 10
111.2089810645
 20
372.1476839538
 10
114.7536979347
 20
372.1476829014
 10
118.4061462558
 20
372.1476818578
 10
122.1532512108
 20
372.1476808266
 10
125.9815991365
 20
372.1476798116
 10
129.8774855409
 20
372.1476788164
 10
133.8269641618
 20
372.1476778445
 10
137.8158968908
 20
372.1476768995
 10
141.8300043839
 20
372.1476759847
 10
145.8549171781
 20
372.1476751034
 10
149.8762271303
 20
372.1476742587
 10
153.8795389945
 20
372.1476734537
 10
157.8505219532
 20
372.1476726912
 10
161.7749609181
 20
372.147671974
 10
165.6388074161
 20
372.1476713047
 10
169.4282298796
 20
372.1476706856
 10
173.1296631597
 20
372.147670119
 10
176.7298570859
 20
372.1476696068
 10
180.2159238983
 20
372.147669151
 10
183.5753843825
 20
372.1476687531
 10
186.7962125419
 20
372.1476684146
 10
189.8668786475
 20
372.1476681367
 10
192.7763905116
 20
372.1476679203
 10
195.514332837
 20
372.1476677664
 10
198.0709045006
 20
372.1476676753
 10
200.4369536394
 20
372.1476676475
 10
202.6040104117
 20
372.147667683
 10
204.5643173165
 20
372.1476677817
 10
206.3108569639
 20
372.1476679432
 10
207.8373771953
 20
372.1476681671
 10
209.1384134644
 20
372.1476684524
 10
210.2093083991
 20
372.1476687981
 10
211.0462284733
 20
372.1476692031
 10
211.6461777306
 20
372.1476696659
 10
212.0070085082
 20
372.1476701847
 10
212.1274291256
 20
372.1476707578
 10
212.1274291256
 20
372.1476707578
  0
LWPOLYLINE
  5
61
330
1F
100
AcDbEntity
  8
0
  6
Continuous
 62
     7
370
    15
100
AcDbPolyline
 90
       55
 70
   128
 43
0.0
 10
77.8783467528
 20
374.8245721829
 10
77.9083204154
 20
374.8245718781
 10
78.1479487572
 20
374.8245712305
 10
78.6263476337
 20
374.8245705344
 10
79.341804501
 20
374.8245697922
 10
80.2917582092
 20
374.8245690066
 10
81.4728081705
 20
374.8245681804
 10
82.8807265327
 20
374.8245673166
 10
84.5104733133
 20
374.8245664182
 10
86.356214442
 20
374.8245654885
 10
88.4113426444
 20
374.8245645308
 10
90.6685010951
 20
374.8245635486
 10
93.1196097525
 20
374.8245625453
 10
95.7558942838
 20
374.8245615245
 10
98.5679174746
 20
374.8245604899
 10
101.5456130118
 20
374.8245594453
 10
104.678321518
 20
374.8245583943
 10
107.95482871
 20
374.8245573406
 10
111.3634055422
 20
374.8245562882
 10
114.8918501944
 20
374.8245552406
 10
118.5275317504
 20
374.8245542018
 10
122.2574354138
 20
374.8245531754
 10
126.0682090975
 20
374.824552165
 10
129.9462112209
 20
374.8245511744
 10
133.8775595427
 20
374.824550207
 10
137.8481808563
 20
374.8245492663
 10
141.843861368
 20
374.8245483557
 10
145.8502975785
 20
374.8245474784
 10
149.8531474859
 20
374.8245466376
 10
153.8380819265
 20
374.8245458363
 10
157.7908358693
 20
374.8245450773
 10
161.697259481
 20
374.8245443634
 10
165.5433687789
 20
374.8245436972
 10
169.31539569
 20
374.8245430809
 10
172.9998373368
 20
374.8245425169
 10
176.5835043745
 20
374.8245420071
 10
180.0535682053
 20
374.8245415533
 10
183.3976069012
 20
374.8245411573
 10
186.6036496715
 20
374.8245408203
 10
189.6602197153
 20
374.8245405437
 10
192.556375305
 20
374.8245403283
 10
195.2817489554
 20
374.8245401751
 10
197.826584536
 20
374.8245400844
 10
200.181772196
 20
374.8245400567
 10
202.3388809748
 20
374.8245400921
 10
204.2901889828
 20
374.8245401903
 10
206.0287110438
 20
374.8245403511
 10
207.5482237
 20
374.8245405739
 10
208.8432874905
 20
374.8245408579
 10
209.909266423
 20
374.8245412021
 10
210.7423445696
 20
374.8245416052
 10
211.3395397268
 20
374.8245420658
 10
211.6987140908
 20
374.8245425823
 10
211.8185819107
 20
374.8245431528
 10
211.8185819107
 20
374.8245431528
  0
LWPOLYLINE
  5
62
330
1F
100
AcDbEntity
  8
0
  6
Continuous
 62
     7
370
    15
100
AcDbPolyline
 90
       53
 70
   128
 43
0.0
 10
78.7579532212
 20
377.2828470461
 10
78.8785317761
 20
377.2828464257
 10
79.2398274626
 20
377.2828457553
 10
79.8405219519
 20
377.2828450374
 10
80.678423375
 20
377.2828442745
 10
81.7504743205
 20
377.2828434694
 10
83.0527629907
 20
377.2828426251
 10
84.5805374755
 20
377.2828417447
 10
86.3282230915
 20
377.2828408314
 10
88.2894427234
 20
377.2828398884
 10
90.4570400934
 20
377.2828389193
 10
92.8231058739
 20
377.2828379277
 10
95.3790065474
 20
377.282836917
 10
98.1154159095
 20
377.282835891
 10
101.0223490991
 20
377.2828348534
 10
104.0891990324
 20
377.2828338081
 10
107.3047751066
 20
377.2828327588
 10
110.6573440331
 20
377.2828317093
 10
114.1346726517
 20
377.2828306636
 10
117.7240725672
 20
377.2828296253
 10
121.4124464487
 20
377.2828285984
 10
125.1863358198
 20
377.2828275865
 10
129.0319701675
 20
377.2828265933
 10
132.9353171891
 20
377.2828256225
 10
136.8821339947
 20
377.2828246777
 10
140.8580190776
 20
377.2828237621
 10
144.8484648645
 20
377.2828228793
 10
148.8389106514
 20
377.2828220323
 10
152.8147957344
 20
377.2828212244
 10
156.7616125399
 20
377.2828204584
 10
160.6649595616
 20
377.2828197372
 10
164.5105939093
 20
377.2828190634
 10
168.2844832804
 20
377.2828184394
 10
171.9728571619
 20
377.2828178675
 10
175.5622570774
 20
377.2828173498
 10
179.039585696
 20
377.2828168882
 10
182.3921546225
 20
377.2828164843
 10
185.6077306966
 20
377.2828161398
 10
188.6745806299
 20
377.2828158557
 10
191.5815138196
 20
377.2828156332
 10
194.3179231817
 20
377.282815473
 10
196.8738238551
 20
377.2828153757
 10
199.2398896356
 20
377.2828153418
 10
201.4074870057
 20
377.2828153713
 10
203.3687066376
 20
377.2828154641
 10
205.1163922536
 20
377.2828156198
 10
206.6441667384
 20
377.282815838
 10
207.9464554086
 20
377.2828161177
 10
209.0185063541
 20
377.2828164581
 10
209.8564077772
 20
377.2828168578
 10
210.4571022665
 20
377.2828173153
 10
210.818397953
 20
377.2828178291
 10
210.9389765078
 20
377.2828183973
  0
LWPOLYLINE
  5
63
330
1F
100
AcDbEntity
  8
0
  6
Continuous
 62
     7
370
    15
100
AcDbPolyline
 90
       54
 70
   128
 43
0.0
 10
80.1378691796
 20
379.4521128276
 10
80.1679671377
 20
379.4521125272
 10
80.4085828392
 20
379.4521118883
 10
80.888919136
 20
379.4521112008
 10
81.6071891456
 20
379.4521104672
 10
82.5607208563
 20
379.4521096901
 10
83.7459670675
 20
379.4521088726
 10
85.1585185855
 20
379.4521080176
 10
86.7931206258
 20
379.4521071283
 10
88.6436923616
 20
379.452106208
 10
90.7033495444
 20
379.4521052602
 10
92.9644301141
 20
379.4521042884
 10
95.4185227027
 20
379.4521032962
 10
98.0564979244
 20
379.4521022872
 10
100.8685423381
 20
379.4521012653
 10
103.8441949541
 20
379.4521002342
 10
106.972386149
 20
379.4520991978
 10
110.2414788462
 20
379.4520981599
 10
113.6393118061
 20
379.4520971244
 10
117.153244867
 20
379.4520960951
 10
120.770205967
 20
379.452095076
 10
124.4767397734
 20
379.4520940706
 10
128.2590577369
 20
379.4520930829
 10
132.1030893862
 20
379.4520921165
 10
135.9945346712
 20
379.4520911749
 10
139.9189171597
 20
379.4520902617
 10
143.8616378913
 20
379.4520893803
 10
147.8080296857
 20
379.4520885339
 10
151.7434117064
 20
379.4520877257
 10
155.6531440738
 20
379.4520869588
 10
159.5226823265
 20
379.4520862358
 10
163.3376315283
 20
379.4520855597
 10
167.0837998174
 20
379.4520849328
 10
170.7472512018
 20
379.4520843575
 10
174.3143574018
 20
379.4520838359
 10
177.771848548
 20
379.45208337
 10
181.1068625461
 20
379.4520829615
 10
184.3069929252
 20
379.4520826119
 10
187.3603349901
 20
379.4520823226
 10
190.2555301076
 20
379.4520820946
 10
192.9818079618
 20
379.4520819287
 10
195.52902662
 20
379.4520818256
 10
197.8877102616
 20
379.4520817857
 10
200.0490844284
 20
379.452081809
 10
202.0051086665
 20
379.4520818956
 10
203.7485064374
 20
379.4520820451
 10
205.2727921869
 20
379.4520822569
 10
206.5722954718
 20
379.4520825302
 10
207.6421820545
 20
379.4520828641
 10
208.4784718867
 20
379.4520832573
 10
209.0780539153
 20
379.4520837083
 10
209.4386976558
 20
379.4520842154
 10
209.5590614898
 20
379.4520847769
 10
209.5590614898
 20
379.4520847769
  0
LWPOLYLINE
  5
64
330
1F
100
AcDbEntity
  8
0
  6
Continuous
 62
     7
370
    15
100
AcDbPolyline
 90
       52
 70
   128
 43
0.0
 10
81.9476722145
 20
381.2619196963
 10
82.0669743419
 20
381.2619190938
 10
82.4244281705
 20
381.2619184419
 10
83.0186777554
 20
381.2619177429
 10
83.8474689044
 20
381.2619169997
 10
84.9076577287
 20
381.261916215
 10
86.1952225691
 20
381.2619153918
 10
87.705279251
 20
381.2619145332
 10
89.4320996122
 20
381.2619136425
 10
91.3691332317
 20
381.261912723
 10
93.5090322773
 20
381.2619117783
 10
95.8436793791
 20
381.2619108119
 10
98.364218421
 20
381.2619098274
 10
101.0610881349
 20
381.2619088287
 10
103.9240583704
 20
381.2619078195
 10
106.9422689006
 20
381.2619068037
 10
110.1042706192
 20
381.261905785
 10
113.3980689707
 20
381.2619047674
 10
116.8111694497
 20
381.2619037547
 10
120.3306249969
 20
381.2619027507
 10
123.943085112
 20
381.2619017593
 10
127.6348464964
 20
381.2619007843
 10
131.3919050347
 20
381.2618998293
 10
135.2000089169
 20
381.2618988979
 10
139.0447127006
 20
381.2618979937
 10
142.9114321075
 20
381.2618971201
 10
146.7854993464
 20
381.2618962804
 10
150.6522187533
 20
381.2618954779
 10
154.496922537
 20
381.2618947155
 10
158.3050264192
 20
381.2618939961
 10
162.0620849575
 20
381.2618933225
 10
165.7538463419
 20
381.2618926973
 10
169.366306457
 20
381.2618921227
 10
172.8857620043
 20
381.2618916011
 10
176.2988624832
 20
381.2618911343
 10
179.5926608347
 20
381.2618907241
 10
182.7546625533
 20
381.2618903721
 10
185.7728730836
 20
381.2618900796
 10
188.635843319
 20
381.2618898478
 10
191.3327130329
 20
381.2618896775
 10
193.8532520748
 20
381.2618895693
 10
196.1878991766
 20
381.2618895237
 10
198.3277982223
 20
381.2618895408
 10
200.2648318417
 20
381.2618896207
 10
201.9916522029
 20
381.2618897628
 10
203.5017088849
 20
381.2618899669
 10
204.7892737252
 20
381.2618902319
 10
205.8494625495
 20
381.2618905571
 10
206.6782536985
 20
381.261890941
 10
207.2725032834
 20
381.2618913823
 10
207.629957112
 20
381.2618918793
 10
207.7492592394
 20
381.2618924301
  0
LWPOLYLINE
  5
65
330
1F
100
AcDbEntity
  8
0
  6
Continuous
 62
     7
370
    15
100
AcDbPolyline
 90
       52
 70
   128
 43
0.0
 10
84.1169326155
 20
382.6418407098
 10
84.1169326155
 20
382.6418407098
 10
84.2367724239
 20
382.6418401159
 10
84.595818896
 20
382.6418394724
 10
85.1926550396
 20
382.6418387819
 10
86.024925415
 20
382.641838047
 10
87.0893454313
 20
382.6418372707
 10
88.381714309
 20
382.641836456
 10
89.8969316584
 20
382.6418356061
 10
91.629017609
 20
382.6418347245
 10
93.5711364089
 20
382.6418338145
 10
95.7156234024
 20
382.6418328798
 10
98.0540152791
 20
382.641831924
 10
100.5770834745
 20
382.6418309509
 10
103.2748705912
 20
382.6418299645
 10
106.1367296959
 20
382.6418289684
 10
109.1513663382
 20
382.6418279668
 10
112.3068831245
 20
382.6418269635
 10
115.5908266717
 20
382.6418259625
 10
118.9902367548
 20
382.6418249678
 10
122.4916974554
 20
382.6418239832
 10
126.0813901077
 20
382.6418230127
 10
129.7451478348
 20
382.6418220601
 10
133.4685114588
 20
382.6418211292
 10
137.2367865644
 20
382.6418202236
 10
141.0351014914
 20
382.6418193469
 10
144.848466026
 20
382.6418185025
 10
148.6618305607
 20
382.6418176938
 10
152.4601454877
 20
382.6418169241
 10
156.2284205933
 20
382.6418161962
 10
159.9517842173
 20
382.6418155132
 10
163.6155419444
 20
382.6418148776
 10
167.2052345967
 20
382.641814292
 10
170.7066952973
 20
382.6418137588
 10
174.1061053804
 20
382.6418132799
 10
177.3900489276
 20
382.6418128574
 10
180.5455657139
 20
382.6418124928
 10
183.5602023562
 20
382.6418121877
 10
186.4220614609
 20
382.6418119432
 10
189.1198485775
 20
382.6418117602
 10
191.642916773
 20
382.6418116396
 10
193.9813086496
 20
382.6418115817
 10
196.1257956431
 20
382.6418115868
 10
198.067914443
 20
382.641811655
 10
199.8000003937
 20
382.6418117858
 10
201.3152177431
 20
382.6418119788
 10
202.6075866208
 20
382.6418122333
 10
203.672006637
 20
382.6418125482
 10
204.5042770125
 20
382.6418129223
 10
205.101113156
 20
382.6418133542
 10
205.4601596282
 20
382.641813842
 10
205.5799994366
 20
382.6418143839
  0
LWPOLYLINE
  5
66
330
1F
100
AcDbEntity
  8
0
  6
Continuous
 62
     7
370
    15
100
AcDbPolyline
 90
       51
 70
   128
 43
0.0
 10
86.5752165589
 20
383.5214336665
 10
86.5752165589
 20
383.5214336665
 10
86.6949452001
 20
383.5214330845
 10
87.053639133
 20
383.521432453
 10
87.6498244074
 20
383.5214317747
 10
88.4810511701
 20
383.5214310521
 10
89.5439037319
 20
383.5214302885
 10
90.8340146038
 20
383.5214294868
 10
92.3460824435
 20
383.5214286504
 10
94.0738938398
 20
383.5214277827
 10
96.0103488451
 20
383.5214268872
 10
98.1474901504
 20
383.5214259678
 10
100.4765357837
 20
383.521425028
 10
102.9879151969
 20
383.5214240719
 10
105.6713085933
 20
383.5214231033
 10
108.5156893339
 20
383.5214221262
 10
111.509369248
 20
383.5214211446
 10
114.6400466628
 20
383.5214201626
 10
117.8948569532
 20
383.5214191841
 10
121.2604254056
 20
383.5214182133
 10
124.7229221773
 20
383.5214172541
 10
128.2681191264
 20
383.5214163104
 10
131.8814482782
 20
383.5214153861
 10
135.548061688
 20
383.5214144851
 10
139.2528924551
 20
383.521413611
 10
142.9807166349
 20
383.5214127674
 10
146.7162157984
 20
383.5214119577
 10
150.4440399783
 20
383.5214111854
 10
154.1488707453
 20
383.5214104536
 10
157.8154841552
 20
383.5214097652
 10
161.428813307
 20
383.5214091232
 10
164.9740102561
 20
383.5214085301
 10
168.4365070278
 20
383.5214079884
 10
171.8020754802
 20
383.5214075003
 10
175.0568857706
 20
383.5214070678
 10
178.1875631854
 20
383.5214066928
 10
181.1812430995
 20
383.5214063767
 10
184.0256238401
 20
383.5214061208
 10
186.7090172365
 20
383.5214059262
 10
189.2203966497
 20
383.5214057937
 10
191.549442283
 20
383.5214057239
 10
193.6865835883
 20
383.5214057169
 10
195.6230385936
 20
383.5214057729
 10
197.3508499899
 20
383.5214058917
 10
198.8629178295
 20
383.5214060726
 10
200.1530287014
 20
383.5214063151
 10
201.2158812633
 20
383.521406618
 10
202.0471080259
 20
383.5214069802
 10
202.6432933003
 20
383.5214074002
 10
203.0019872333
 20
383.5214078762
 10
203.1217158745
 20
383.5214084062
  0
LWPOLYLINE
  5
67
330
1F
100
AcDbEntity
  8
0
  6
Continuous
 62
     7
370
    15
100
AcDbPolyline
 90
       51
 70
   128
 43
0.0
 10
89.2520907791
 20
383.8302868825
 10
89.2520907791
 20
383.8302868825
 10
89.3711268867
 20
383.8302863152
 10
89.7277254786
 20
383.8302856987
 10
90.320359545
 20
383.8302850357
 10
91.1464913357
 20
383.830284329
 10
92.2025832276
 20
383.8302835816
 10
93.4841128732
 20
383.8302827968
 10
94.9855925656
 20
383.8302819779
 10
96.7005927383
 20
383.8302811283
 10
98.6217694974
 20
383.8302802518
 10
100.740896069
 20
383.8302793521
 10
103.0488980278
 20
383.8302784331
 10
105.535892155
 20
383.8302774986
 10
108.19122876
 20
383.8302765527
 10
111.0035372838
 20
383.8302755995
 10
113.9607749895
 20
383.8302746429
 10
117.0502785314
 20
383.8302736872
 10
120.2588181808
 20
383.8302727364
 10
123.5726544785
 20
383.8302717945
 10
126.9775970687
 20
383.8302708657
 10
130.4590654644
 20
383.8302699538
 10
134.0021514835
 20
383.8302690629
 10
137.5916830878
 20
383.8302681966
 10
141.2122893518
 20
383.8302673588
 10
144.8484662836
 20
383.830266553
 10
148.4846432155
 20
383.8302657826
 10
152.1052494795
 20
383.830265051
 10
155.6947810837
 20
383.8302643612
 10
159.2378671029
 20
383.8302637163
 10
162.7193354986
 20
383.830263119
 10
166.1242780888
 20
383.8302625719
 10
169.4381143865
 20
383.8302620773
 10
172.6466540359
 20
383.8302616373
 10
175.7361575777
 20
383.8302612538
 10
178.6933952835
 20
383.8302609284
 10
181.5057038073
 20
383.8302606626
 10
184.1610404123
 20
383.8302604574
 10
186.6480345395
 20
383.8302603138
 10
188.9560364982
 20
383.8302602324
 10
191.0751630698
 20
383.8302602135
 10
192.9963398289
 20
383.8302602572
 10
194.7113400017
 20
383.8302603633
 10
196.2128196941
 20
383.8302605314
 10
197.4943493396
 20
383.8302607607
 10
198.5504412315
 20
383.8302610503
 10
199.3765730223
 20
383.8302613989
 10
199.9692070886
 20
383.830261805
 10
200.3258056806
 20
383.8302622669
 10
200.4448417882
 20
383.8302627827
 10
200.4448417882
 20
383.8302627827
  0
CIRCLE
  5
68
330
1F
100
AcDbEntity
  8
0
  6
Continuous
 62
     7
370
    15
100
AcDbCircle
 10
144.8484662167
 20
212.6885396859
 30
0.0
 40
58.27324965782016
  0
CIRCLE
  5
69
330
1F
100
AcDbEntity
  8
0
  6
Continuous
 62
     7
370
    15
100
AcDbCircle
 10
144.8484662836
 20
212.6885396399
 30
0.0
 40
55.5963755045532
  0
CIRCLE
  5
6A
330
1F
100
AcDbEntity
  8
0
  6
Continuous
 62
     7
370
    15
100
AcDbCircle
 10
144.848466026
 20
212.6885398168
 30
0.0
 40
60.73153341058067
  0
CIRCLE
  5
6B
330
1F
100
AcDbEntity
  8
0
  6
Continuous
 62
     7
370
    15
100
AcDbCircle
 10
144.848465727
 20
212.6885400224
 30
0.0
 40
62.90079351249301
  0
CIRCLE
  5
6C
330
1F
100
AcDbEntity
  8
0
  6
Continuous
 62
     7
370
    15
100
AcDbCircle
 10
144.8484653347
 20
212.6885402919
 30
0.0
 40
64.71059615506496
  0
CIRCLE
  5
6D
330
1F
100
AcDbEntity
  8
0
  6
Continuous
 62
     7
370
    15
100
AcDbCircle
 10
144.8484648645
 20
212.6885406149
 30
0.0
 40
66.09051164330465
  0
CIRCLE
  5
6E
330
1F
100
AcDbEntity
  8
0
  6
Continuous
 62
     7
370
    15
100
AcDbCircle
 10
144.8484643317
 20
212.688540981
 30
0.0
 40
66.97011757897108
  0
CIRCLE
  5
6F
330
1F
100
AcDbEntity
  8
0
  6
Continuous
 62
     7
370
    15
100
AcDbCircle
 10
144.8484637515
 20
212.6885413797
 30
0.0
 40
67.2789653740215
  0
CIRCLE
  5
70
330
1F
100
AcDbEntity
  8
0
  6
Continuous
 62
     7
370
    15
100
AcDbCircle
 10
144.8484515578
 20
212.6885497581
 30
0.0
 40
80.00000000000564
  0
ENDSEC
  0
SECTION
  2
OBJECTS
  0
DICTIONARY
  5
C
330
0
100
AcDbDictionary
281
     1
  3
ACAD_GROUP
350
D
  3
ACAD_LAYOUT
350
1A
  3
ACAD_MLINESTYLE
350
17
  3
ACAD_PLOTSETTINGS
350
19
  3
ACAD_PLOTSTYLENAME
350
E
  0
DICTIONARY
  5
D
102
{ACAD_REACTORS
330
C
102
}
330
C
100
AcDbDictionary
281
     1
  0
DICTIONARY
  5
1A
102
{ACAD_REACTORS
330
C
102
}
330
C
100
AcDbDictionary
281
     1
  3
Layout1
350
1E
  3
Layout2
350
26
  3
Model
350
22
  0
DICTIONARY
  5
17
102
{ACAD_REACTORS
330
C
102
}
330
C
100
AcDbDictionary
281
     1
  3
Standard
350
18
  0
DICTIONARY
  5
19
102
{ACAD_REACTORS
330
C
102
}
330
C
100
AcDbDictionary
281
     1
  0
ACDBDICTIONARYWDFLT
  5
E
102
{ACAD_REACTORS
330
C
102
}
330
C
100
AcDbDictionary
281
     1
  3
Normal
350
F
100
AcDbDictionaryWithDefault
340
F
  0
LAYOUT
  5
1E
102
{ACAD_REACTORS
330
1A
102
}
330
1A
100
AcDbPlotSettings
  1

  2
none_device
  4

  6

 40
0.0
 41
0.0
 42
0.0
 43
0.0
 44
0.0
 45
0.0
 46
0.0
 47
0.0
 48
0.0
 49
0.0
140
0.0
141
0.0
142
1.0
143
1.0
 70
   688
 72
     0
 73
     0
 74
     5
  7

 75
    16
147
1.0
148
0.0
149
0.0
100
AcDbLayout
  1
Layout1
 70
     1
 71
     1
 10
0.0
 20
0.0
 11
420.0
 21
297.0
 12
0.0
 22
0.0
 32
0.0
 14
1.0000000000E+20
 24
1.0000000000E+20
 34
1.0000000000E+20
 15
-1.0000000000E+20
 25
-1.0000000000E+20
 35
-1.0000000000E+20
146
0.0
 13
0.0
 23
0.0
 33
0.0
 16
1.0
 26
0.0
 36
0.0
 17
0.0
 27
1.0
 37
0.0
 76
     0
330
1B
  0
LAYOUT
  5
26
102
{ACAD_REACTORS
330
1A
102
}
330
1A
100
AcDbPlotSettings
  1

  2
none_device
  4

  6

 40
0.0
 41
0.0
 42
0.0
 43
0.0
 44
0.0
 45
0.0
 46
0.0
 47
0.0
 48
0.0
 49
0.0
140
0.0
141
0.0
142
1.0
143
1.0
 70
   688
 72
     0
 73
     0
 74
     5
  7

 75
    16
147
1.0
148
0.0
149
0.0
100
AcDbLayout
  1
Layout2
 70
     1
 71
     2
 10
0.0
 20
0.0
 11
0.0
 21
0.0
 12
0.0
 22
0.0
 32
0.0
 14
0.0
 24
0.0
 34
0.0
 15
0.0
 25
0.0
 35
0.0
146
0.0
 13
0.0
 23
0.0
 33
0.0
 16
1.0
 26
0.0
 36
0.0
 17
0.0
 27
1.0
 37
0.0
 76
     0
330
23
  0
LAYOUT
  5
22
102
{ACAD_REACTORS
330
1A
102
}
330
1A
100
AcDbPlotSettings
  1

  2
none_device
  4

  6

 40
0.0
 41
0.0
 42
0.0
 43
0.0
 44
0.0
 45
0.0
 46
0.0
 47
0.0
 48
0.0
 49
0.0
140
0.0
141
0.0
142
1.0
143
1.0
 70
  1712
 72
     0
 73
     0
 74
     0
  7

 75
     0
147
1.0
148
0.0
149
0.0
100
AcDbLayout
  1
Model
 70
     1
 71
     0
 10
0.0
 20
0.0
 11
558.8
 21
431.8
 12
0.0
 22
0.0
 32
0.0
 14
0.0
 24
0.0
 34
0.0
 15
558.8
 25
431.8
 35
0.0
146
0.0
 13
0.0
 23
0.0
 33
0.0
 16
1.0
 26
0.0
 36
0.0
 17
0.0
 27
1.0
 37
0.0
 76
     0
330
1F
331
29
  0
MLINESTYLE
  5
18
102
{ACAD_REACTORS
330
17
102
}
330
17
100
AcDbMlineStyle
  2
Standard
 70
     0
  3

 62
   256
 51
90.0
 52
90.0
 71
     2
 49
0.5
 62
   256
  6
BYLAYER
 49
-0.5
 62
   256
  6
BYLAYER
  0
ACDBPLACEHOLDER
  5
F
102
{ACAD_REACTORS
330
E
102
}
330
E
  0
ENDSEC
  0
EOF
