  0
SECTION
  2
HEADER
  9
$ACADVER
  1
AC1015
  9
$ACADMAINTVER
 70
     6
  9
$DWGCODEPAGE
  3
ANSI_1251
  9
$INSBASE
 10
0.0
 20
0.0
 30
0.0
  9
$EXTMIN
 10
0.0
 20
0.0
 30
0.0
  9
$EXTMAX
 10
1397.0
 20
1079.5
 30
0.0
  9
$LIMMIN
 10
0.0
 20
0.0
  9
$LIMMAX
 10
1397.0
 20
1079.5
  9
$ORTHOMODE
 70
     0
  9
$REGENMODE
 70
     1
  9
$FILLMODE
 70
     1
  9
$QTEXTMODE
 70
     0
  9
$MIRRTEXT
 70
     1
  9
$LTSCALE
 40
5.0
  9
$ATTMODE
 70
     1
  9
$TEXTSIZE
 40
17.5
  9
$TRACEWID
 40
1.0
  9
$TEXTSTYLE
  7
Standard
  9
$CLAYER
  8
0
  9
$CELTYPE
  6
ByLayer
  9
$CECOLOR
 62
   256
  9
$CELTSCALE
 40
1.0
  9
$DISPSILH
 70
     0
  9
$DIMSCALE
 40
1.0
  9
$DIMASZ
 40
17.5
  9
$DIMEXO
 40
0.05
  9
$DIMDLI
 40
3.75
  9
$DIMRND
 40
0.0
  9
$DIMDLE
 40
0.0
  9
$DIMEXE
 40
5.0
  9
$DIMTP
 40
0.0
  9
$DIMTM
 40
0.0
  9
$DIMTXT
 40
17.5
  9
$DIMCEN
 40
2.5
  9
$DIMTSZ
 40
0.0
  9
$DIMTOL
 70
     0
  9
$DIMLIM
 70
     0
  9
$DIMTIH
 70
     1
  9
$DIMTOH
 70
     1
  9
$DIMSE1
 70
     0
  9
$DIMSE2
 70
     0
  9
$DIMTAD
 70
     1
  9
$DIMZIN
 70
     0
  9
$DIMBLK
  1

  9
$DIMASO
 70
     1
  9
$DIMSHO
 70
     1
  9
$DIMPOST
  1

  9
$DIMAPOST
  1

  9
$DIMALT
 70
     0
  9
$DIMALTD
 70
     3
  9
$DIMALTF
 40
0.0393700787
  9
$DIMLFAC
 40
1.0
  9
$DIMTOFL
 70
     1
  9
$DIMTVP
 40
0.0
  9
$DIMTIX
 70
     0
  9
$DIMSOXD
 70
     0
  9
$DIMSAH
 70
     0
  9
$DIMBLK1
  1

  9
$DIMBLK2
  1

  9
$DIMSTYLE
  2
ISO-25
  9
$DIMCLRD
 70
     0
  9
$DIMCLRE
 70
     0
  9
$DIMCLRT
 70
     0
  9
$DIMTFAC
 40
1.0
  9
$DIMGAP
 40
15.0
  9
$DIMJUST
 70
     0
  9
$DIMSD1
 70
     0
  9
$DIMSD2
 70
     0
  9
$DIMTOLJ
 70
     0
  9
$DIMTZIN
 70
     0
  9
$DIMALTZ
 70
     0
  9
$DIMALTTZ
 70
     0
  9
$DIMUPT
 70
     0
  9
$DIMDEC
 70
     2
  9
$DIMTDEC
 70
     3
  9
$DIMALTU
 70
     2
  9
$DIMALTTD
 70
     3
  9
$DIMTXSTY
  7
Standard
  9
$DIMAUNIT
 70
     0
  9
$DIMADEC
 70
     2
  9
$DIMALTRND
 40
0.0
  9
$DIMAZIN
 70
     0
  9
$DIMDSEP
 70
    44
  9
$DIMATFIT
 70
     3
  9
$DIMFRAC
 70
     0
  9
$DIMLDRBLK
  1

  9
$DIMLUNIT
 70
     2
  9
$DIMLWD
 70
    -2
  9
$DIMLWE
 70
    -2
  9
$DIMTMOVE
 70
     0
  9
$LUNITS
 70
     2
  9
$LUPREC
 70
     2
  9
$SKETCHINC
 40
1.0
  9
$FILLETRAD
 40
10.0
  9
$AUNITS
 70
     0
  9
$AUPREC
 70
     2
  9
$MENU
  1
.
  9
$ELEVATION
 40
0.0
  9
$PELEVATION
 40
0.0
  9
$THICKNESS
 40
0.0
  9
$LIMCHECK
 70
     0
  9
$CHAMFERA
 40
10.0
  9
$CHAMFERB
 40
10.0
  9
$CHAMFERC
 40
20.0
  9
$CHAMFERD
 40
0.0
  9
$SKPOLY
 70
     0
  9
$TDCREATE
 40
2458092.326495139
  9
$TDUCREATE
 40
2458092.243161805
  9
$TDUPDATE
 40
2458092.326495521
  9
$TDUUPDATE
 40
2458092.243162187
  9
$TDINDWG
 40
0.0000000116
  9
$TDUSRTIMER
 40
0.0000000116
  9
$USRTIMER
 70
     1
  9
$ANGBASE
 50
0.0
  9
$ANGDIR
 70
     0
  9
$PDMODE
 70
     0
  9
$PDSIZE
 40
-1.0
  9
$PLINEWID
 40
0.0
  9
$SPLFRAME
 70
     0
  9
$SPLINETYPE
 70
     6
  9
$SPLINESEGS
 70
     8
  9
$HANDSEED
  5
7C
  9
$SURFTAB1
 70
     6
  9
$SURFTAB2
 70
     6
  9
$SURFTYPE
 70
     6
  9
$SURFU
 70
     6
  9
$SURFV
 70
     6
  9
$UCSBASE
  2

  9
$UCSNAME
  2

  9
$UCSORG
 10
0.0
 20
0.0
 30
0.0
  9
$UCSXDIR
 10
1.0
 20
0.0
 30
0.0
  9
$UCSYDIR
 10
0.0
 20
1.0
 30
0.0
  9
$UCSORTHOREF
  2

  9
$UCSORTHOVIEW
 70
     0
  9
$UCSORGTOP
 10
0.0
 20
0.0
 30
0.0
  9
$UCSORGBOTTOM
 10
0.0
 20
0.0
 30
0.0
  9
$UCSORGLEFT
 10
0.0
 20
0.0
 30
0.0
  9
$UCSORGRIGHT
 10
0.0
 20
0.0
 30
0.0
  9
$UCSORGFRONT
 10
0.0
 20
0.0
 30
0.0
  9
$UCSORGBACK
 10
0.0
 20
0.0
 30
0.0
  9
$PUCSBASE
  2

  9
$PUCSNAME
  2

  9
$PUCSORG
 10
0.0
 20
0.0
 30
0.0
  9
$PUCSXDIR
 10
1.0
 20
0.0
 30
0.0
  9
$PUCSYDIR
 10
0.0
 20
1.0
 30
0.0
  9
$PUCSORTHOREF
  2

  9
$PUCSORTHOVIEW
 70
     0
  9
$PUCSORGTOP
 10
0.0
 20
0.0
 30
0.0
  9
$PUCSORGBOTTOM
 10
0.0
 20
0.0
 30
0.0
  9
$PUCSORGLEFT
 10
0.0
 20
0.0
 30
0.0
  9
$PUCSORGRIGHT
 10
0.0
 20
0.0
 30
0.0
  9
$PUCSORGFRONT
 10
0.0
 20
0.0
 30
0.0
  9
$PUCSORGBACK
 10
0.0
 20
0.0
 30
0.0
  9
$USERI1
 70
     0
  9
$USERI2
 70
     0
  9
$USERI3
 70
     0
  9
$USERI4
 70
     0
  9
$USERI5
 70
     0
  9
$USERR1
 40
0.0
  9
$USERR2
 40
0.0
  9
$USERR3
 40
0.0
  9
$USERR4
 40
0.0
  9
$USERR5
 40
0.0
  9
$WORLDVIEW
 70
     1
  9
$SHADEDGE
 70
     3
  9
$SHADEDIF
 70
    70
  9
$TILEMODE
 70
     1
  9
$MAXACTVP
 70
    64
  9
$PINSBASE
 10
0.0
 20
0.0
 30
0.0
  9
$PLIMCHECK
 70
     0
  9
$PEXTMIN
 10
1.0000000000E+20
 20
1.0000000000E+20
 30
1.0000000000E+20
  9
$PEXTMAX
 10
-1.0000000000E+20
 20
-1.0000000000E+20
 30
-1.0000000000E+20
  9
$PLIMMIN
 10
0.0
 20
0.0
  9
$PLIMMAX
 10
420.0
 20
297.0
  9
$UNITMODE
 70
     0
  9
$VISRETAIN
 70
     1
  9
$PLINEGEN
 70
     0
  9
$PSLTSCALE
 70
     1
  9
$TREEDEPTH
 70
  3020
  9
$CMLSTYLE
  2
Standard
  9
$CMLJUST
 70
     0
  9
$CMLSCALE
 40
20.0
  9
$PROXYGRAPHICS
 70
     1
  9
$MEASUREMENT
 70
     1
  9
$CELWEIGHT
370
    -1
  9
$ENDCAPS
280
     0
  9
$JOINSTYLE
280
     0
  9
$LWDISPLAY
290
     1
  9
$INSUNITS
 70
     4
  9
$HYPERLINKBASE
  1

  9
$STYLESHEET
  1

  9
$XEDIT
290
     1
  9
$CEPSNTYPE
380
     0
  9
$PSTYLEMODE
290
     1
  9
$FINGERPRINTGUID
  2
{562C4C38-F100-48B1-BEB3-2A5AB277F2DE}
  9
$VERSIONGUID
  2
{FAEB1C32-E019-11D5-929B-00C0DF256EC4}
  9
$EXTNAMES
290
     1
  9
$PSVPSCALE
 40
0.0
  9
$OLESTARTUP
290
     0
  0
ENDSEC
  0
SECTION
  2
CLASSES
  0
CLASS
  1
ACDBDICTIONARYWDFLT
  2
AcDbDictionaryWithDefault
  3
ObjectDBX Classes
 90
        0
280
     0
281
     0
  0
CLASS
  1
VISUALSTYLE
  2
AcDbVisualStyle
  3
ObjectDBX Classes
 90
     4095
280
     0
281
     0
  0
CLASS
  1
MATERIAL
  2
AcDbMaterial
  3
ObjectDBX Classes
 90
     1153
280
     0
281
     0
  0
CLASS
  1
ACDBPLACEHOLDER
  2
AcDbPlaceHolder
  3
ObjectDBX Classes
 90
        0
280
     0
281
     0
  0
CLASS
  1
LAYOUT
  2
AcDbLayout
  3
ObjectDBX Classes
 90
        0
280
     0
281
     0
  0
ENDSEC
  0
SECTION
  2
TABLES
  0
TABLE
  2
VPORT
  5
8
330
0
100
AcDbSymbolTable
 70
     1
  0
VPORT
  5
29
330
8
100
AcDbSymbolTableRecord
100
AcDbViewportTableRecord
  2
*Active
 70
     0
 10
0.0
 20
0.0
 11
1.0
 21
1.0
 12
698.5
 22
539.75
 13
0.0
 23
0.0
 14
10.0
 24
10.0
 15
10.0
 25
10.0
 16
0.0
 26
0.0
 36
1.0
 17
0.0
 27
0.0
 37
0.0
 40
1079.5
 41
1.2941176471
 42
50.0
 43
0.0
 44
0.0
 50
0.0
 51
0.0
 71
     0
 72
  2000
 73
     1
 74
     3
 75
     0
 76
     0
 77
     0
 78
     0
281
     0
 65
     1
110
0.0
120
0.0
130
0.0
111
1.0
121
0.0
131
0.0
112
0.0
122
1.0
132
0.0
 79
     0
146
0.0
  0
ENDTAB
  0
TABLE
  2
LTYPE
  5
5
330
0
100
AcDbSymbolTable
 70
     6
  0
LTYPE
  5
14
330
5
100
AcDbSymbolTableRecord
100
AcDbLinetypeTableRecord
  2
ByBlock
 70
     0
  3

 72
    65
 73
     0
 40
0.0
  0
LTYPE
  5
15
330
5
100
AcDbSymbolTableRecord
100
AcDbLinetypeTableRecord
  2
ByLayer
 70
     0
  3

 72
    65
 73
     0
 40
0.0
  0
LTYPE
  5
16
330
5
100
AcDbSymbolTableRecord
100
AcDbLinetypeTableRecord
  2
Continuous
 70
     0
  3
Solid line
 72
    65
 73
     0
 40
0.0
  0
LTYPE
  5
3F
330
5
100
AcDbSymbolTableRecord
100
AcDbLinetypeTableRecord
  2
HIDDEN
 70
     0
  3
Hidden __ __ __ __ __ __ __ __ __ __ __ __ __ __
 72
    65
 73
     2
 40
1.905
 49
1.27
 74
     0
 49
-0.635
 74
     0
  0
LTYPE
  5
40
330
5
100
AcDbSymbolTableRecord
100
AcDbLinetypeTableRecord
  2
PHANTOM
 70
     0
  3
Phantom ______  __  __  ______  __  __  ______
 72
    65
 73
     6
 40
12.7
 49
6.35
 74
     0
 49
-1.27
 74
     0
 49
1.27
 74
     0
 49
-1.27
 74
     0
 49
1.27
 74
     0
 49
-1.27
 74
     0
  0
LTYPE
  5
41
330
5
100
AcDbSymbolTableRecord
100
AcDbLinetypeTableRecord
  2
CENTER
 70
     0
  3
Center ____ _ ____ _ ____ _ ____ _ ____ _ ____
 72
    65
 73
     4
 40
10.16
 49
6.35
 74
     0
 49
-1.27
 74
     0
 49
1.27
 74
     0
 49
-1.27
 74
     0
  0
LTYPE
  5
42
330
5
100
AcDbSymbolTableRecord
100
AcDbLinetypeTableRecord
  2
CENTERX2
 70
     0
  3
Center (2x) ________  __  ________  __  _____
 72
    65
 73
     4
 40
20.32
 49
12.7
 74
     0
 49
-2.54
 74
     0
 49
2.54
 74
     0
 49
-2.54
 74
     0
  0
LTYPE
  5
43
330
5
100
AcDbSymbolTableRecord
100
AcDbLinetypeTableRecord
  2
DOT2
 70
     0
  3
Dot (.5x) ........................................
 72
    65
 73
     2
 40
0.635
 49
0.0
 74
     0
 49
-0.635
 74
     0
  0
ENDTAB
  0
TABLE
  2
LAYER
  5
2
330
0
100
AcDbSymbolTable
 70
     1
  0
LAYER
  5
10
330
2
100
AcDbSymbolTableRecord
100
AcDbLayerTableRecord
  2
0
 70
     0
 62
     7
  6
Continuous
370
    -3
390
F
  0
ENDTAB
  0
TABLE
  2
STYLE
  5
3
330
0
100
AcDbSymbolTable
 70
     1
  0
STYLE
  5
11
330
3
100
AcDbSymbolTableRecord
100
AcDbTextStyleTableRecord
  2
Standard
 70
     0
 40
0.0
 41
1.0
 50
0.0
 71
     0
 42
17.5
  3
txt
  4

  0
ENDTAB
  0
TABLE
  2
VIEW
  5
6
330
0
100
AcDbSymbolTable
 70
     0
  0
ENDTAB
  0
TABLE
  2
UCS
  5
7
330
0
100
AcDbSymbolTable
 70
     0
  0
ENDTAB
  0
TABLE
  2
APPID
  5
9
330
0
100
AcDbSymbolTable
 70
     1
  0
APPID
  5
12
330
9
100
AcDbSymbolTableRecord
100
AcDbRegAppTableRecord
  2
ACAD
 70
     0
  0
ENDTAB
  0
TABLE
  2
DIMSTYLE
  5
A
330
0
100
AcDbSymbolTable
 70
     1
100
AcDbDimStyleTable
  0
DIMSTYLE
105
27
330
A
100
AcDbSymbolTableRecord
100
AcDbDimStyleTableRecord
  2
ISO-25
 70
     0
 41
2.5
 42
0.625
 43
3.75
 44
1.25
 73
     0
 74
     0
 77
     1
 78
     8
140
2.5
141
2.5
143
0.0393700787
147
0.625
171
     3
172
     1
178
     0
271
     2
272
     2
274
     3
278
    44
283
     0
284
     8
340
11
  0
ENDTAB
  0
TABLE
  2
BLOCK_RECORD
  5
1
330
0
100
AcDbSymbolTable
 70
     1
  0
BLOCK_RECORD
  5
1F
330
1
100
AcDbSymbolTableRecord
100
AcDbBlockTableRecord
  2
*Model_Space
340
22
  0
BLOCK_RECORD
  5
1B
330
1
100
AcDbSymbolTableRecord
100
AcDbBlockTableRecord
  2
*Paper_Space
340
1E
  0
BLOCK_RECORD
  5
23
330
1
100
AcDbSymbolTableRecord
100
AcDbBlockTableRecord
  2
*Paper_Space0
340
26
  0
ENDTAB
  0
ENDSEC
  0
SECTION
  2
BLOCKS
  0
BLOCK
  5
20
330
1F
100
AcDbEntity
  8
0
100
AcDbBlockBegin
  2
*Model_Space
 70
     0
 10
0.0
 20
0.0
 30
0.0
  3
*Model_Space
  1

  0
ENDBLK
  5
21
330
1F
100
AcDbEntity
  8
0
100
AcDbBlockEnd
  0
BLOCK
  5
1C
330
1B
100
AcDbEntity
 67
     1
  8
0
100
AcDbBlockBegin
  2
*Paper_Space
 70
     0
 10
0.0
 20
0.0
 30
0.0
  3
*Paper_Space
  1

  0
ENDBLK
  5
1D
330
1B
100
AcDbEntity
 67
     1
  8
0
100
AcDbBlockEnd
  0
BLOCK
  5
24
330
23
100
AcDbEntity
  8
0
100
AcDbBlockBegin
  2
*Paper_Space0
 70
     0
 10
0.0
 20
0.0
 30
0.0
  3
*Paper_Space0
  1

  0
ENDBLK
  5
25
330
23
100
AcDbEntity
  8
0
100
AcDbBlockEnd
  0
ENDSEC
  0
SECTION
  2
ENTITIES
  0
LINE
  5
44
330
1F
100
AcDbEntity
  8
0
  6
Continuous
 62
     7
370
    15
100
AcDbLine
 10
170.1089191606
 20
786.8992204632
 30
0.0
 11
170.1089195585
 21
782.4761705365
 31
0.0
  0
LINE
  5
45
330
1F
100
AcDbEntity
  8
0
  6
Continuous
 62
     7
370
    15
100
AcDbLine
 10
400.1077123194
 20
782.4761912257
 30
0.0
 11
400.1077119215
 21
786.8992411525
 31
0.0
  0
LINE
  5
46
330
1F
100
AcDbEntity
  8
0
  6
Continuous
 62
     7
370
    15
100
AcDbLine
 10
170.1089195091
 20
782.4761705365
 30
0.0
 11
176.006309198
 21
776.5787710327
 31
0.0
  0
LINE
  5
47
330
1F
100
AcDbEntity
  8
0
  6
Continuous
 62
     7
370
    15
100
AcDbLine
 10
394.2103237409
 20
776.578790661
 30
0.0
 11
400.1077123689
 21
782.4761912257
 31
0.0
  0
LINE
  5
48
330
1F
100
AcDbEntity
  8
0
  6
Continuous
 62
     7
370
    15
100
AcDbLine
 10
378.4347627856
 20
858.675125254
 30
0.0
 11
377.9085841558
 21
863.2357407344
 31
0.0
  0
LINE
  5
49
330
1F
100
AcDbEntity
  8
0
  6
Continuous
 62
     7
370
    15
100
AcDbLine
 10
192.3080331928
 20
863.235724039
 30
0.0
 11
191.7818553836
 21
858.6751084638
 31
0.0
  0
LINE
  5
4A
330
1F
100
AcDbEntity
  8
0
  6
Continuous
 62
     7
370
    15
100
AcDbLine
 10
378.4347801903
 20
786.8992425331
 30
0.0
 11
378.4347627856
 21
858.675125254
 31
0.0
  0
LINE
  5
4B
330
1F
100
AcDbEntity
  8
0
  6
Continuous
 62
     7
370
    15
100
AcDbLine
 10
191.7818553836
 20
858.6751084638
 30
0.0
 11
191.7818508919
 21
786.8992257429
 31
0.0
  0
LINE
  5
4C
330
1F
100
AcDbEntity
  8
0
  6
Continuous
 62
     7
370
    15
100
AcDbLine
 10
377.9085841558
 20
863.2357407345
 30
0.0
 11
376.4099934953
 21
867.4239195823
 31
0.0
  0
LINE
  5
4D
330
1F
100
AcDbEntity
  8
0
  6
Continuous
 62
     7
370
    15
100
AcDbLine
 10
193.8066230998
 20
867.4239031564
 30
0.0
 11
192.3080331928
 21
863.235724039
 31
0.0
  0
LINE
  5
4E
330
1F
100
AcDbEntity
  8
0
  6
Continuous
 62
     7
370
    15
100
AcDbLine
 10
376.4099934953
 20
867.4239195823
 30
0.0
 11
374.0590183526
 21
871.1197124701
 31
0.0
  0
LINE
  5
4F
330
1F
100
AcDbEntity
  8
0
  6
Continuous
 62
     7
370
    15
100
AcDbLine
 10
196.1575975776
 20
871.1196964671
 30
0.0
 11
193.8066230998
 21
867.4239031564
 31
0.0
  0
LINE
  5
50
330
1F
100
AcDbEntity
  8
0
  6
Continuous
 62
     7
370
    15
100
AcDbLine
 10
374.0590183526
 20
871.1197124701
 30
0.0
 11
370.9756402631
 21
874.2030861472
 31
0.0
  0
LINE
  5
51
330
1F
100
AcDbEntity
  8
0
  6
Continuous
 62
     7
370
    15
100
AcDbLine
 10
199.2409751124
 20
874.203070699
 30
0.0
 11
196.1575975776
 21
871.1196964672
 31
0.0
  0
LINE
  5
52
330
1F
100
AcDbEntity
  8
0
  6
Continuous
 62
     7
370
    15
100
AcDbLine
 10
370.9756402631
 20
874.2030861472
 30
0.0
 11
367.2798617223
 21
876.5540531394
 31
0.0
  0
LINE
  5
53
330
1F
100
AcDbEntity
  8
0
  6
Continuous
 62
     7
370
    15
100
AcDbLine
 10
202.9367532303
 20
876.5540383561
 30
0.0
 11
199.2409751124
 21
874.203070699
 31
0.0
  0
LINE
  5
54
330
1F
100
AcDbEntity
  8
0
  6
Continuous
 62
     7
370
    15
100
AcDbLine
 10
367.2798617222
 20
876.5540531394
 30
0.0
 11
363.0916605037
 21
878.0526183428
 31
0.0
  0
LINE
  5
55
330
1F
100
AcDbEntity
  8
0
  6
Continuous
 62
     7
370
    15
100
AcDbLine
 10
207.1249541793
 20
878.052604313
 30
0.0
 11
202.9367532304
 21
876.5540383561
 31
0.0
  0
LINE
  5
56
330
1F
100
AcDbEntity
  8
0
  6
Continuous
 62
     7
370
    15
100
AcDbLine
 10
363.0916605034
 20
878.0526183429
 30
0.0
 11
358.5310527657
 21
878.5788171715
 31
0.0
  0
LINE
  5
57
330
1F
100
AcDbEntity
  8
0
  6
Continuous
 62
     7
370
    15
100
AcDbLine
 10
211.6855618226
 20
878.5788039621
 30
0.0
 11
207.1249541796
 21
878.052604313
 31
0.0
  0
LWPOLYLINE
  5
58
330
1F
100
AcDbEntity
  8
0
  6
Continuous
 62
     7
370
    15
100
AcDbPolyline
 90
       30
 70
   128
 43
0.0
 10
285.1083155411
 20
786.8991919818
 10
291.3883423223
 20
786.8991926046
 10
297.6496270353
 20
786.8991933415
 10
303.8734835457
 20
786.8991941902
 10
310.0413374193
 20
786.8991951481
 10
316.1347813562
 20
786.8991962125
 10
322.1356301246
 20
786.8991973801
 10
328.0259748333
 20
786.8991986475
 10
333.7882363785
 20
786.8992000109
 10
339.4052179071
 20
786.8992014662
 10
344.8601561384
 20
786.899203009
 10
350.1367713929
 20
786.8992046348
 10
355.2193161768
 20
786.8992063387
 10
360.0926221786
 20
786.8992081157
 10
364.7421455381
 20
786.8992099603
 10
369.1540102501
 20
786.8992118672
 10
373.3150495761
 20
786.8992138306
 10
377.2128453396
 20
786.8992158447
 10
380.8357649859
 20
786.8992179034
 10
384.1729962988
 20
786.8992200007
 10
387.2145796686
 20
786.8992221302
 10
389.9514378149
 20
786.8992242856
 10
392.3754028774
 20
786.8992264604
 10
394.4792407917
 20
786.8992286483
 10
396.2566728785
 20
786.8992308426
 10
397.7023945818
 20
786.8992330367
 10
398.8120913
 20
786.8992352243
 10
399.5824512618
 20
786.8992373986
 10
400.0111754104
 20
786.8992395533
 10
400.1077119215
 20
786.8992411525
  0
LWPOLYLINE
  5
59
330
1F
100
AcDbEntity
  8
0
  6
Continuous
 62
     7
370
    15
100
AcDbPolyline
 90
       30
 70
   128
 43
0.0
 10
170.1089191606
 20
786.8992204632
 10
170.2054556718
 20
786.8992188814
 10
170.6341798204
 20
786.8992168038
 10
171.4045397822
 20
786.8992147681
 10
172.5142365003
 20
786.8992127802
 10
173.9599582037
 20
786.8992108461
 10
175.7373902905
 20
786.8992089716
 10
177.8412282047
 20
786.8992071623
 10
180.2651932673
 20
786.8992054235
 10
183.0020514136
 20
786.8992037605
 10
186.0436347834
 20
786.8992021782
 10
189.3808660963
 20
786.8992006813
 10
193.0037857426
 20
786.8991992744
 10
196.901581506
 20
786.8991979616
 10
201.0626208321
 20
786.8991967468
 10
205.4744855441
 20
786.8991956336
 10
210.1240089035
 20
786.8991946254
 10
214.9973149054
 20
786.8991937252
 10
220.0798596892
 20
786.8991929357
 10
225.3564749437
 20
786.8991922592
 10
230.8114131751
 20
786.8991916977
 10
236.4283947037
 20
786.899191253
 10
242.1906562489
 20
786.8991909263
 10
248.0810009576
 20
786.8991907186
 10
254.081849726
 20
786.8991906306
 10
260.1752936628
 20
786.8991906625
 10
266.3431475365
 20
786.8991908142
 10
272.5670040469
 20
786.8991910852
 10
278.8282887599
 20
786.8991914748
 10
285.1083155411
 20
786.8991919818
  0
LWPOLYLINE
  5
5A
330
1F
100
AcDbEntity
  8
0
  6
Continuous
 62
     7
370
    15
100
AcDbPolyline
 90
       27
 70
   128
 43
0.0
 10
285.1083155411
 20
786.8992026291
 10
290.797867577
 20
786.8992031995
 10
296.4662541057
 20
786.899203885
 10
302.0923883569
 20
786.899204683
 10
307.6553407417
 20
786.8992055907
 10
313.1344167119
 20
786.8992066045
 10
318.5092337449
 20
786.8992077207
 10
323.7597971685
 20
786.8992089352
 10
328.8665745418
 20
786.8992102435
 10
333.8105683175
 20
786.8992116407
 10
338.5733865141
 20
786.8992131215
 10
343.1373111352
 20
786.8992146805
 10
347.4853640812
 20
786.8992163119
 10
351.6013703098
 20
786.8992180097
 10
355.4700180073
 20
786.8992197674
 10
359.0769155503
 20
786.8992215786
 10
362.4086450429
 20
786.8992234365
 10
365.4528122328
 20
786.8992253342
 10
368.1980926179
 20
786.8992272647
 10
370.6342735749
 20
786.8992292207
 10
372.7522923506
 20
786.8992311951
 10
374.5442697762
 20
786.8992331803
 10
376.0035395778
 20
786.8992351692
 10
377.124673176
 20
786.8992371542
 10
377.9034998801
 20
786.899239128
 10
378.3371224037
 20
786.8992410832
 10
378.4347801903
 20
786.8992425331
  0
LWPOLYLINE
  5
5B
330
1F
100
AcDbEntity
  8
0
  6
Continuous
 62
     7
370
    15
100
AcDbPolyline
 90
       27
 70
   128
 43
0.0
 10
191.7818508919
 20
786.8992257429
 10
191.8795086785
 20
786.8992243106
 10
192.3131312021
 20
786.8992224334
 10
193.0919579062
 20
786.8992205997
 10
194.2130915044
 20
786.8992188164
 10
195.672361306
 20
786.8992170901
 10
197.4643387316
 20
786.8992154272
 10
199.5823575073
 20
786.899213834
 10
202.0185384643
 20
786.8992123162
 10
204.7638188494
 20
786.8992108796
 10
207.8079860392
 20
786.8992095296
 10
211.1397155319
 20
786.8992082711
 10
214.7466130749
 20
786.8992071088
 10
218.6152607724
 20
786.8992060471
 10
222.731267001
 20
786.8992050898
 10
227.079319947
 20
786.8992042407
 10
231.643244568
 20
786.8992035027
 10
236.4060627647
 20
786.8992028787
 10
241.3500565404
 20
786.899202371
 10
246.4568339137
 20
786.8992019815
 10
251.7073973372
 20
786.8992017116
 10
257.0822143703
 20
786.8992015624
 10
262.5612903405
 20
786.8992015343
 10
268.1242427253
 20
786.8992016275
 10
273.7503769765
 20
786.8992018416
 10
279.4187635052
 20
786.8992021759
 10
285.1083155411
 20
786.8992026291
  0
LWPOLYLINE
  5
5C
330
1F
100
AcDbEntity
  8
0
  6
Continuous
 62
     7
370
    15
100
AcDbPolyline
 90
       30
 70
   128
 43
0.0
 10
285.108315939
 20
782.476142055
 10
291.3883427256
 20
782.4761426779
 10
297.649627444
 20
782.4761434147
 10
303.8734839597
 20
782.4761442634
 10
310.0413378387
 20
782.4761452214
 10
316.1347817808
 20
782.4761462857
 10
322.1356305543
 20
782.4761474534
 10
328.0259752681
 20
782.4761487208
 10
333.7882368182
 20
782.4761500841
 10
339.4052183516
 20
782.4761515394
 10
344.8601565877
 20
782.4761530822
 10
350.1367718467
 20
782.4761547081
 10
355.2193166349
 20
782.476156412
 10
360.092622641
 20
782.4761581889
 10
364.7421460045
 20
782.4761600336
 10
369.1540107202
 20
782.4761619405
 10
373.3150500499
 20
782.4761639039
 10
377.2128458167
 20
782.476165918
 10
380.8357654661
 20
782.4761679767
 10
384.1729967819
 20
782.4761700739
 10
387.2145801543
 20
782.4761722034
 10
389.9514383029
 20
782.4761743588
 10
392.3754033676
 20
782.4761765337
 10
394.4792412836
 20
782.4761787215
 10
396.2566733719
 20
782.4761809158
 10
397.7023950765
 20
782.47618311
 10
398.8120917957
 20
782.4761852975
 10
399.5824517581
 20
782.4761874718
 10
400.0111759071
 20
782.4761896265
 10
400.1077123194
 20
782.4761912257
  0
LWPOLYLINE
  5
5D
330
1F
100
AcDbEntity
  8
0
  6
Continuous
 62
     7
370
    15
100
AcDbPolyline
 90
       30
 70
   128
 43
0.0
 10
170.1089195585
 20
782.4761705365
 10
170.2054559709
 20
782.4761689546
 10
170.6341801198
 20
782.4761668771
 10
171.4045400823
 20
782.4761648413
 10
172.5142368014
 20
782.4761628534
 10
173.959958506
 20
782.4761609194
 10
175.7373905943
 20
782.4761590449
 10
177.8412285104
 20
782.4761572355
 10
180.265193575
 20
782.4761554967
 10
183.0020517237
 20
782.4761538337
 10
186.043635096
 20
782.4761522514
 10
189.3808664119
 20
782.4761507546
 10
193.0037860613
 20
782.4761493476
 10
196.9015818281
 20
782.4761480348
 10
201.0626211577
 20
782.47614682
 10
205.4744858734
 20
782.4761457068
 10
210.1240092369
 20
782.4761446987
 10
214.997315243
 20
782.4761437985
 10
220.0798600312
 20
782.4761430089
 10
225.3564752902
 20
782.4761423324
 10
230.8114135263
 20
782.476141771
 10
236.4283950597
 20
782.4761413262
 10
242.1906566099
 20
782.4761409995
 10
248.0810013236
 20
782.4761407919
 10
254.0818500972
 20
782.4761407038
 10
260.1752940393
 20
782.4761407357
 10
266.3431479182
 20
782.4761408874
 10
272.567004434
 20
782.4761411584
 10
278.8282891524
 20
782.476141548
 10
285.108315939
 20
782.476142055
  0
LWPOLYLINE
  5
5E
330
1F
100
AcDbEntity
  8
0
  6
Continuous
 62
     7
370
    15
100
AcDbPolyline
 90
       41
 70
   128
 43
0.0
 10
285.1083164695
 20
776.5787440119
 10
291.2257148116
 20
776.5787446201
 10
297.3238655554
 20
776.5787453423
 10
303.3835816625
 20
776.5787461763
 10
309.385797024
 20
776.5787471193
 10
315.3116264499
 20
776.5787481684
 10
321.1424250885
 20
776.5787493204
 10
326.85984709
 20
776.5787505715
 10
332.4459033296
 20
776.5787519179
 10
337.8830180078
 20
776.5787533553
 10
343.1540839501
 20
776.5787548792
 10
348.2425164331
 20
776.5787564849
 10
353.1323053655
 20
776.5787581671
 10
357.8080656625
 20
776.5787599208
 10
362.2550856522
 20
776.5787617403
 10
366.4593733645
 20
776.5787636199
 10
370.4077005548
 20
776.5787655537
 10
374.087644325
 20
776.5787675356
 10
377.4876262106
 20
776.5787695594
 10
380.5969486107
 20
776.5787716187
 10
383.4058284467
 20
776.578773707
 10
385.9054279435
 20
776.5787758178
 10
388.0878824362
 20
776.5787779445
 10
389.9463251156
 20
776.5787800802
 10
391.4749086335
 20
776.5787822184
 10
392.6688235006
 20
776.5787843523
 10
393.524313219
 20
776.5787864751
 10
394.0386861016
 20
776.5787885803
 10
394.2103237409
 20
776.5787906611
 10
394.0386861016
 20
776.578792711
 10
393.524313219
 20
776.5787947236
 10
392.6688235006
 20
776.5787966925
 10
391.4749086335
 20
776.5787986116
 10
389.9463251156
 20
776.5788004747
 10
388.0878824362
 20
776.5788022761
 10
385.9054279435
 20
776.5788040101
 10
383.4058284467
 20
776.5788056713
 10
380.5969486107
 20
776.5788072543
 10
377.4876262106
 20
776.5788087542
 10
374.087644325
 20
776.5788101663
 10
373.5693997431
 20
776.5788103642
  0
LWPOLYLINE
  5
5F
330
1F
100
AcDbEntity
  8
0
  6
Continuous
 62
     7
370
    15
100
AcDbPolyline
 90
       41
 70
   128
 43
0.0
 10
196.6472331958
 20
776.5787944493
 10
196.1289886139
 20
776.5787941582
 10
192.7290067283
 20
776.5787921344
 10
189.6196843282
 20
776.5787900751
 10
186.8108044922
 20
776.5787879868
 10
184.3112049954
 20
776.578785876
 10
182.1287505027
 20
776.5787837493
 10
180.2703078233
 20
776.5787816136
 10
178.7417243054
 20
776.5787794754
 10
177.5478094383
 20
776.5787773415
 10
176.6923197199
 20
776.5787752187
 10
176.1779468373
 20
776.5787731136
 10
176.006309198
 20
776.5787710328
 10
176.1779468373
 20
776.5787689828
 10
176.6923197199
 20
776.5787669703
 10
177.5478094383
 20
776.5787650013
 10
178.7417243054
 20
776.5787630823
 10
180.2703078233
 20
776.5787612191
 10
182.1287505027
 20
776.5787594177
 10
184.3112049954
 20
776.5787576837
 10
186.8108044922
 20
776.5787560226
 10
189.6196843282
 20
776.5787544395
 10
192.7290067283
 20
776.5787529396
 10
196.1289886139
 20
776.5787515275
 10
199.8089323842
 20
776.5787502076
 10
203.7572595744
 20
776.5787489842
 10
207.9615472867
 20
776.578747861
 10
212.4085672764
 20
776.5787468415
 10
217.0843275734
 20
776.5787459291
 10
221.9741165058
 20
776.5787451265
 10
227.0625489888
 20
776.5787444364
 10
232.3336149311
 20
776.5787438607
 10
237.7707296093
 20
776.5787434015
 10
243.3567858489
 20
776.5787430601
 10
249.0742078504
 20
776.5787428375
 10
254.905006489
 20
776.5787427346
 10
260.8308359149
 20
776.5787427516
 10
266.8330512764
 20
776.5787428884
 10
272.8927673835
 20
776.5787431447
 10
278.9909181273
 20
776.5787435196
 10
285.1083164695
 20
776.5787440119
  0
LWPOLYLINE
  5
60
330
1F
100
AcDbEntity
  8
0
  6
Continuous
 62
     7
370
    15
100
AcDbPolyline
 90
       27
 70
   128
 43
0.0
 10
285.1083164695
 20
776.5787505192
 10
290.6079113124
 20
776.5787510716
 10
296.0862292913
 20
776.5787517375
 10
301.5220758582
 20
776.5787525143
 10
306.8944207786
 20
776.5787533988
 10
312.1824794938
 20
776.5787543878
 10
317.3657935319
 20
776.5787554773
 10
322.4243096578
 20
776.5787566632
 10
327.3384574553
 20
776.5787579409
 10
332.0892250413
 20
776.5787593054
 10
336.6582326188
 20
776.5787607515
 10
341.0278035853
 20
776.5787622735
 10
345.1810329194
 20
776.5787638656
 10
349.1018525837
 20
776.5787655216
 10
352.7750936886
 20
776.5787672351
 10
356.1865451779
 20
776.5787689995
 10
359.3230088085
 20
776.578770808
 10
362.1723502119
 20
776.5787726535
 10
364.7235458398
 20
776.5787745289
 10
366.9667256119
 20
776.5787764269
 10
368.8932111014
 20
776.5787783403
 10
370.4955491102
 20
776.5787802616
 10
371.7675405039
 20
776.5787821834
 10
372.7042641949
 20
776.5787840982
 10
373.3020961811
 20
776.5787859986
 10
373.5587235667
 20
776.5787878774
 10
373.5694217644
 20
776.5787883428
  0
LWPOLYLINE
  5
61
330
1F
100
AcDbEntity
  8
0
  6
Continuous
 62
     7
370
    15
100
AcDbPolyline
 90
       27
 70
   128
 43
0.0
 10
196.6472111745
 20
776.578772428
 10
196.6579093722
 20
776.5787719645
 10
196.9145367578
 20
776.5787701319
 10
197.512368744
 20
776.578768339
 10
198.449092435
 20
776.5787665927
 10
199.7210838287
 20
776.5787648998
 10
201.3234218375
 20
776.5787632668
 10
203.249907327
 20
776.5787617
 10
205.4930870991
 20
776.5787602055
 10
208.044282727
 20
776.578758789
 10
210.8936241304
 20
776.5787574562
 10
214.030087761
 20
776.578756212
 10
217.4415392503
 20
776.5787550614
 10
221.1147803552
 20
776.5787540087
 10
225.0356000195
 20
776.5787530581
 10
229.1888293536
 20
776.5787522132
 10
233.5584003201
 20
776.5787514772
 10
238.1274078976
 20
776.5787508532
 10
242.8781754836
 20
776.5787503434
 10
247.7923232811
 20
776.5787499498
 10
252.850839407
 20
776.5787496739
 10
258.0341534451
 20
776.5787495169
 10
263.3222121603
 20
776.5787494793
 10
268.6945570807
 20
776.5787495613
 10
274.1304036476
 20
776.5787497625
 10
279.6087216265
 20
776.5787500822
 10
285.1083164695
 20
776.5787505192
  0
LWPOLYLINE
  5
62
330
1F
100
AcDbEntity
  8
0
  6
Continuous
 62
     7
370
    15
100
AcDbPolyline
 90
       27
 70
   128
 43
0.0
 10
285.1083090846
 20
858.67508535
 10
290.7978604531
 20
858.6750859204
 10
296.4662463168
 20
858.6750866059
 10
302.092379908
 20
858.675087404
 10
307.6553316402
 20
858.6750883116
 10
313.1344069676
 20
858.6750893254
 10
318.5092233701
 20
858.6750904417
 10
323.7597861778
 20
858.6750916562
 10
328.866562952
 20
858.6750929644
 10
333.8105561477
 20
858.6750943616
 10
338.5733737856
 20
858.6750958424
 10
343.1372978712
 20
858.6750974015
 10
347.4853503072
 20
858.6750990329
 10
351.6013560529
 20
858.6751007306
 10
355.4700032966
 20
858.6751024884
 10
359.0769004165
 20
858.6751042995
 10
362.4086295183
 20
858.6751061574
 10
365.452796351
 20
858.6751080552
 10
368.198076414
 20
858.6751099856
 10
370.6342570852
 20
858.6751119417
 10
372.7522756125
 20
858.675113916
 10
374.5442528279
 20
858.6751159013
 10
376.0035224583
 20
858.6751178901
 10
377.124655925
 20
858.6751198751
 10
377.9034825378
 20
858.6751218489
 10
378.3371050105
 20
858.6751238041
 10
378.4347627856
 20
858.675125254
  0
LWPOLYLINE
  5
63
330
1F
100
AcDbEntity
  8
0
  6
Continuous
 62
     7
370
    15
100
AcDbPolyline
 90
       27
 70
   128
 43
0.0
 10
191.7818553836
 20
858.6751084638
 10
191.8795131587
 20
858.6751070316
 10
192.3131356314
 20
858.6751051544
 10
193.0919622442
 20
858.6751033207
 10
194.2130957108
 20
858.6751015374
 10
195.6723653413
 20
858.6750998111
 10
197.4643425566
 20
858.6750981482
 10
199.5823610839
 20
858.6750965549
 10
202.0185417551
 20
858.6750950371
 10
204.7638218182
 20
858.6750936006
 10
207.8079886509
 20
858.6750922505
 10
211.1397177527
 20
858.675090992
 10
214.7466148725
 20
858.6750898297
 10
218.6152621162
 20
858.675088768
 10
222.7312678619
 20
858.6750878108
 10
227.0793202979
 20
858.6750869616
 10
231.6432443835
 20
858.6750862237
 10
236.4060620214
 20
858.6750855997
 10
241.3500552172
 20
858.675085092
 10
246.4568319914
 20
858.6750847025
 10
251.707394799
 20
858.6750844326
 10
257.0822112015
 20
858.6750842833
 10
262.561286529
 20
858.6750842552
 10
268.1242382612
 20
858.6750843484
 10
273.7503718524
 20
858.6750845626
 10
279.4187577161
 20
858.6750848969
 10
285.1083090846
 20
858.67508535
  0
LWPOLYLINE
  5
64
330
1F
100
AcDbEntity
  8
0
  6
Continuous
 62
     7
370
    15
100
AcDbPolyline
 90
       27
 70
   128
 43
0.0
 10
285.1083086743
 20
863.2357010555
 10
290.7657821282
 20
863.2357016227
 10
296.4022094093
 20
863.2357023043
 10
301.9966226379
 20
863.2357030978
 10
307.5282102293
 20
863.2357040003
 10
312.9763943143
 20
863.2357050084
 10
318.3209072904
 20
863.2357061184
 10
323.5418672183
 20
863.235707326
 10
328.619851784
 20
863.2357086269
 10
333.5359705515
 20
863.2357100162
 10
338.2719352361
 20
863.2357114887
 10
342.8101277381
 20
863.235713039
 10
347.1336656833
 20
863.2357146612
 10
351.2264652265
 20
863.2357163493
 10
355.0733008848
 20
863.2357180972
 10
358.6598621767
 20
863.2357198981
 10
361.9728068587
 20
863.2357217456
 10
364.999810559
 20
863.2357236326
 10
367.729612625
 20
863.2357255522
 10
370.1520580137
 20
863.2357274972
 10
372.2581350692
 20
863.2357294604
 10
374.0400090464
 20
863.2357314345
 10
375.4910512572
 20
863.2357334121
 10
376.6058637293
 20
863.2357353859
 10
377.380299287
 20
863.2357373486
 10
377.8114769791
 20
863.2357392928
 10
377.9085841558
 20
863.2357407344
  0
LWPOLYLINE
  5
65
330
1F
100
AcDbEntity
  8
0
  6
Continuous
 62
     7
370
    15
100
AcDbPolyline
 90
       27
 70
   128
 43
0.0
 10
192.3080331928
 20
863.235724039
 10
192.4051403695
 20
863.2357226148
 10
192.8363180617
 20
863.2357207481
 10
193.6107536194
 20
863.2357189248
 10
194.7255660914
 20
863.2357171515
 10
196.1766083022
 20
863.235715435
 10
197.9584822795
 20
863.2357137815
 10
200.064559335
 20
863.2357121972
 10
202.4870047237
 20
863.235710688
 10
205.2168067896
 20
863.2357092595
 10
208.2438104899
 20
863.2357079171
 10
211.5567551719
 20
863.2357066656
 10
215.1433164639
 20
863.2357055099
 10
218.9901521221
 20
863.2357044542
 10
223.0829516654
 20
863.2357035023
 10
227.4064896106
 20
863.235702658
 10
231.9446821126
 20
863.2357019242
 10
236.6806467972
 20
863.2357013037
 10
241.5967655647
 20
863.2357007989
 10
246.6747501304
 20
863.2357004116
 10
251.8957100582
 20
863.2357001432
 10
257.2402230343
 20
863.2356999948
 10
262.6884071194
 20
863.2356999668
 10
268.2199947108
 20
863.2357000595
 10
273.8144079393
 20
863.2357002724
 10
279.4508352204
 20
863.2357006048
 10
285.1083086743
 20
863.2357010555
  0
LWPOLYLINE
  5
66
330
1F
100
AcDbEntity
  8
0
  6
Continuous
 62
     7
370
    15
100
AcDbPolyline
 90
       27
 70
   128
 43
0.0
 10
285.1083082976
 20
867.423880544
 10
290.7289227699
 20
867.4238811081
 10
296.3282163263
 20
867.423881787
 10
301.8849489285
 20
867.423882578
 10
307.3780419863
 20
867.4238834783
 10
312.7866583163
 20
867.4238844844
 10
318.0902811841
 20
867.4238855925
 10
323.2687921316
 20
867.4238867983
 10
328.3025472929
 20
867.4238880974
 10
333.1724519106
 20
867.4238894847
 10
337.8600327683
 20
867.423890955
 10
342.3475082663
 20
867.4238925028
 10
346.6178558729
 20
867.4238941222
 10
350.6548766969
 20
867.423895807
 10
354.4432569356
 20
867.4238975508
 10
357.9686259651
 20
867.423899347
 10
361.2176108531
 20
867.4239011888
 10
364.1778870872
 20
867.4239030693
 10
366.8382253255
 20
867.4239049812
 10
369.1885339939
 20
867.4239069174
 10
371.2198975665
 20
867.4239088705
 10
372.9246103857
 20
867.423910833
 10
374.2962058916
 20
867.4239127976
 10
375.3294811528
 20
867.4239147567
 10
376.0205166023
 20
867.423916703
 10
376.3666909059
 20
867.4239186291
 10
376.4099934953
 20
867.4239195823
  0
LWPOLYLINE
  5
67
330
1F
100
AcDbEntity
  8
0
  6
Continuous
 62
     7
370
    15
100
AcDbPolyline
 90
       27
 70
   128
 43
0.0
 10
193.8066230998
 20
867.4239031564
 10
193.8499256893
 20
867.423902211
 10
194.1960999929
 20
867.4239003472
 10
194.8871354423
 20
867.4238985252
 10
195.9204107035
 20
867.423896752
 10
197.2920062095
 20
867.4238950342
 10
198.9967190286
 20
867.4238933783
 10
201.0280826013
 20
867.4238917907
 10
203.3783912697
 20
867.4238902774
 10
206.038729508
 20
867.4238888441
 10
208.999005742
 20
867.4238874962
 10
212.2479906301
 20
867.4238862389
 10
215.7733596596
 20
867.4238850769
 10
219.5617398982
 20
867.4238840146
 10
223.5987607223
 20
867.4238830561
 10
227.8691083289
 20
867.4238822051
 10
232.3565838269
 20
867.4238814646
 10
237.0441646846
 20
867.4238808376
 10
241.9140693023
 20
867.4238803264
 10
246.9478244636
 20
867.4238799329
 10
252.1263354111
 20
867.4238796587
 10
257.4299582789
 20
867.4238795048
 10
262.8385746088
 20
867.4238794718
 10
268.3316676667
 20
867.4238795598
 10
273.8884002688
 20
867.4238797684
 10
279.4876938253
 20
867.4238800969
 10
285.1083082976
 20
867.423880544
  0
LWPOLYLINE
  5
68
330
1F
100
AcDbEntity
  8
0
  6
Continuous
 62
     7
370
    15
100
AcDbPolyline
 90
       27
 70
   128
 43
0.0
 10
285.1083079651
 20
871.1196744371
 10
290.6383413792
 20
871.1196749926
 10
296.1469801683
 20
871.1196756622
 10
301.6129124791
 20
871.1196764432
 10
307.0149916813
 20
871.1196773327
 10
312.33231818
 20
871.1196783271
 10
317.5443202719
 20
871.1196794227
 10
322.6308337334
 20
871.1196806151
 10
327.5721798321
 20
871.1196818999
 10
332.3492414599
 20
871.1196832719
 10
336.9435370934
 20
871.119684726
 10
341.3372922953
 20
871.1196862565
 10
345.5135084802
 20
871.1196878574
 10
349.4560286791
 20
871.1196895226
 10
353.1496000472
 20
871.1196912456
 10
356.5799328744
 20
871.1196930197
 10
359.7337558695
 20
871.1196948382
 10
362.5988675039
 20
871.1196966939
 10
365.1641832173
 20
871.1196985797
 10
367.4197783015
 20
871.1197004882
 10
369.3569262975
 20
871.1197024122
 10
370.9681327559
 20
871.1197043441
 10
372.2471642319
 20
871.1197062765
 10
373.1890724012
 20
871.1197082019
 10
373.7902132042
 20
871.1197101129
 10
374.0482609437
 20
871.119712002
 10
374.0590183526
 20
871.1197124701
  0
LWPOLYLINE
  5
69
330
1F
100
AcDbEntity
  8
0
  6
Continuous
 62
     7
370
    15
100
AcDbPolyline
 90
       27
 70
   128
 43
0.0
 10
196.1575975776
 20
871.1196964671
 10
196.1683549866
 20
871.1196960011
 10
196.4264027261
 20
871.1196941584
 10
197.027543529
 20
871.1196923555
 10
197.9694516984
 20
871.1196905996
 10
199.2484831744
 20
871.1196888973
 10
200.8596896328
 20
871.1196872552
 10
202.7968376287
 20
871.1196856798
 10
205.052432713
 20
871.119684177
 10
207.6177484264
 20
871.1196827527
 10
210.4828600608
 20
871.1196814125
 10
213.6366830558
 20
871.1196801614
 10
217.0670158831
 20
871.1196790044
 10
220.7605872512
 20
871.1196779459
 10
224.7031074501
 20
871.11967699
 10
228.879323635
 20
871.1196761404
 10
233.2730788369
 20
871.1196754005
 10
237.8673744704
 20
871.1196747729
 10
242.6444360982
 20
871.1196742603
 10
247.5857821969
 20
871.1196738645
 10
252.6722956584
 20
871.1196735872
 10
257.8842977503
 20
871.1196734293
 10
263.201624249
 20
871.1196733915
 10
268.6037034512
 20
871.1196734739
 10
274.069635762
 20
871.1196736762
 10
279.5782745511
 20
871.1196739977
 10
285.1083079651
 20
871.1196744371
  0
LWPOLYLINE
  5
6A
330
1F
100
AcDbEntity
  8
0
  6
Continuous
 62
     7
370
    15
100
AcDbPolyline
 90
       26
 70
   128
 43
0.0
 10
285.1083076878
 20
874.2030494326
 10
290.5543504902
 20
874.2030499808
 10
295.9784640003
 20
874.2030506436
 10
301.3588072276
 20
874.2030514183
 10
306.6737154287
 20
874.2030523016
 10
311.9017873442
 20
874.2030532902
 10
317.0219713737
 20
874.20305438
 10
322.0136503433
 20
874.2030555666
 10
326.8567245236
 20
874.2030568452
 10
331.5316925641
 20
874.2030582107
 10
336.0197300185
 20
874.2030596576
 10
340.3027651441
 20
874.20306118
 10
344.36355167
 20
874.2030627719
 10
348.1857382422
 20
874.2030644268
 10
351.7539342643
 20
874.2030661381
 10
355.0537718704
 20
874.2030678988
 10
358.071963779
 20
874.2030697019
 10
360.7963567966
 20
874.2030715401
 10
363.2159807541
 20
874.2030734061
 10
365.3210926797
 20
874.2030752922
 10
367.1032160308
 20
874.203077191
 10
368.5551748256
 20
874.2030790947
 10
369.6711225385
 20
874.2030809957
 10
370.4465656419
 20
874.2030828863
 10
370.8783817001
 20
874.203084759
 10
370.9756402631
 20
874.2030861472
  0
LWPOLYLINE
  5
6B
330
1F
100
AcDbEntity
  8
0
  6
Continuous
 62
     7
370
    15
100
AcDbPolyline
 90
       26
 70
   128
 43
0.0
 10
199.2409751124
 20
874.203070699
 10
199.3382336755
 20
874.2030693283
 10
199.7700497337
 20
874.2030675333
 10
200.5454928371
 20
874.2030657822
 10
201.6614405499
 20
874.203064082
 10
203.1133993447
 20
874.2030624395
 10
204.8955226958
 20
874.2030608613
 10
207.0006346215
 20
874.2030593539
 10
209.4202585789
 20
874.2030579233
 10
212.1446515966
 20
874.2030565752
 10
215.1628435052
 20
874.2030553151
 10
218.4626811112
 20
874.203054148
 10
222.0308771334
 20
874.2030530787
 10
225.8530637056
 20
874.2030521114
 10
229.9138502315
 20
874.2030512501
 10
234.1968853571
 20
874.2030504982
 10
238.6849228115
 20
874.2030498588
 10
243.359890852
 20
874.2030493343
 10
248.2029650322
 20
874.203048927
 10
253.1946440018
 20
874.2030486385
 10
258.3148280313
 20
874.2030484699
 10
263.5428999469
 20
874.2030484219
 10
268.857808148
 20
874.2030484947
 10
274.2381513752
 20
874.203048688
 10
279.6622648854
 20
874.203049001
 10
285.1083076878
 20
874.2030494326
  0
LWPOLYLINE
  5
6C
330
1F
100
AcDbEntity
  8
0
  6
Continuous
 62
     7
370
    15
100
AcDbPolyline
 90
       26
 70
   128
 43
0.0
 10
285.1083074763
 20
876.5540180049
 10
290.4272572582
 20
876.5540185416
 10
295.7238975162
 20
876.5540191923
 10
300.9760123004
 20
876.5540199545
 10
306.1615724162
 20
876.5540208248
 10
311.2588278223
 20
876.5540217996
 10
316.2463988581
 20
876.5540228749
 10
321.1033659174
 20
876.5540240462
 10
325.8093571925
 20
876.5540253084
 10
330.3446341204
 20
876.5540266564
 10
334.6901741736
 20
876.5540280845
 10
338.827750647
 20
876.5540295867
 10
342.7400091069
 20
876.5540311566
 10
346.4105401818
 20
876.5540327877
 10
349.8239483886
 20
876.5540344732
 10
352.9659167072
 20
876.554036206
 10
355.8232666304
 20
876.5540379788
 10
358.3840134398
 20
876.5540397842
 10
360.6374164733
 20
876.5540416146
 10
362.5740241754
 20
876.5540434624
 10
364.1857137404
 20
876.5540453197
 10
365.4657251823
 20
876.5540471788
 10
366.4086896881
 20
876.5540490319
 10
367.010652137
 20
876.5540508713
 10
367.2690876893
 20
876.5540526891
 10
367.2798617223
 20
876.5540531394
  0
LWPOLYLINE
  5
6D
330
1F
100
AcDbEntity
  8
0
  6
Continuous
 62
     7
370
    15
100
AcDbPolyline
 90
       26
 70
   128
 43
0.0
 10
202.9367532303
 20
876.5540383561
 10
202.9475272633
 20
876.5540379078
 10
203.2059628156
 20
876.5540361364
 10
203.8079252645
 20
876.5540344054
 10
204.7508897703
 20
876.5540327219
 10
206.0309012122
 20
876.5540310931
 10
207.6425907772
 20
876.5540295257
 10
209.5791984793
 20
876.5540280264
 10
211.8326015128
 20
876.5540266014
 10
214.3933483222
 20
876.5540252567
 10
217.2506982454
 20
876.5540239979
 10
220.392666564
 20
876.5540228304
 10
223.8060747708
 20
876.554021759
 10
227.4766058457
 20
876.5540207882
 10
231.3888643056
 20
876.5540199221
 10
235.526440779
 20
876.5540191643
 10
239.8719808322
 20
876.5540185181
 10
244.4072577601
 20
876.554017986
 10
249.1132490351
 20
876.5540175704
 10
253.9702160945
 20
876.554017273
 10
258.9577871303
 20
876.554017095
 10
264.0550425364
 20
876.5540170371
 10
269.2406026521
 20
876.5540170997
 10
274.4927174364
 20
876.5540172825
 10
279.7893576944
 20
876.5540175847
 10
285.1083074763
 20
876.5540180049
  0
LWPOLYLINE
  5
6E
330
1F
100
AcDbEntity
  8
0
  6
Continuous
 62
     7
370
    15
100
AcDbPolyline
 90
       25
 70
   128
 43
0.0
 10
285.1083073415
 20
878.0525849991
 10
290.2622727197
 20
878.0525855203
 10
295.3937011186
 20
878.0525861544
 10
300.4801541075
 20
878.0525868985
 10
305.4993899217
 20
878.0525877494
 10
310.4294607201
 20
878.0525887034
 10
315.2488085573
 20
878.0525897564
 10
319.9363596516
 20
878.0525909037
 10
324.4716165348
 20
878.0525921403
 10
328.8347476823
 20
878.0525934608
 10
333.0066742319
 20
878.0525948594
 10
336.9691534102
 20
878.0525963301
 10
340.704858304
 20
878.0525978663
 10
344.1974536263
 20
878.0525994614
 10
347.4316671463
 20
878.0526011084
 10
350.3933564714
 20
878.0526028001
 10
353.0695708876
 20
878.052604529
 10
355.4486079902
 20
878.0526062877
 10
357.5200648552
 20
878.0526080684
 10
359.274883529
 20
878.0526098634
 10
360.7053906358
 20
878.0526116648
 10
361.8053309321
 20
878.0526134647
 10
362.5698946588
 20
878.0526152553
 10
362.9957385734
 20
878.0526170287
 10
363.0916605037
 20
878.0526183428
  0
LWPOLYLINE
  5
6F
330
1F
100
AcDbEntity
  8
0
  6
Continuous
 62
     7
370
    15
100
AcDbPolyline
 90
       25
 70
   128
 43
0.0
 10
207.1249541793
 20
878.052604313
 10
207.2208761096
 20
878.0526030161
 10
207.6467200241
 20
878.0526013193
 10
208.4112837509
 20
878.0525996663
 10
209.5112240472
 20
878.0525980643
 10
210.941731154
 20
878.0525965203
 10
212.6965498278
 20
878.052595041
 10
214.7680066928
 20
878.0525936329
 10
217.1470437954
 20
878.0525923023
 10
219.8232582116
 20
878.0525910548
 10
222.7849475366
 20
878.0525898959
 10
226.0191610567
 20
878.0525888308
 10
229.511756379
 20
878.0525878641
 10
233.2474612728
 20
878.0525869999
 10
237.2099404511
 20
878.0525862422
 10
241.3818670007
 20
878.0525855941
 10
245.7449981482
 20
878.0525850585
 10
250.2802550313
 20
878.0525846379
 10
254.9678061257
 20
878.0525843339
 10
259.7871539629
 20
878.052584148
 10
264.7172247613
 20
878.0525840809
 10
269.7364605755
 20
878.0525841329
 10
274.8229135644
 20
878.0525843039
 10
279.9543419633
 20
878.0525845931
 10
285.1083073415
 20
878.0525849991
  0
LWPOLYLINE
  5
70
330
1F
100
AcDbEntity
  8
0
  6
Continuous
 62
     7
370
    15
100
AcDbPolyline
 90
       25
 70
   128
 43
0.0
 10
285.1083072942
 20
878.5787857777
 10
290.118852641
 20
878.5787862862
 10
295.1060365125
 20
878.578786908
 10
300.0466063553
 20
878.57878764
 10
304.917526952
 20
878.5787884789
 10
309.6960878223
 20
878.5787894208
 10
314.3600091097
 20
878.5787904613
 10
318.88754546
 20
878.5787915955
 10
323.2575874089
 20
878.5787928182
 10
327.4497598035
 20
878.5787941236
 10
331.4445168008
 20
878.5787955057
 10
335.2232329997
 20
878.5787969581
 10
338.7682902811
 20
878.5787984738
 10
342.0631599512
 20
878.578800046
 10
345.0924798069
 20
878.5788016672
 10
347.8421257604
 20
878.5788033299
 10
350.2992776932
 20
878.5788050264
 10
352.4524792285
 20
878.5788067486
 10
354.291691147
 20
878.5788084887
 10
355.8083381936
 20
878.5788102385
 10
356.9953490596
 20
878.5788119898
 10
357.8471893526
 20
878.5788137344
 10
358.3598873997
 20
878.5788154643
 10
358.5310527661
 20
878.5788171714
 10
358.5310527657
 20
878.5788171715
  0
LWPOLYLINE
  5
71
330
1F
100
AcDbEntity
  8
0
  6
Continuous
 62
     7
370
    15
100
AcDbPolyline
 90
       25
 70
   128
 43
0.0
 10
211.6855618226
 20
878.5788039621
 10
211.6855618223
 20
878.5788039621
 10
211.8567271886
 20
878.5788022858
 10
212.3694252358
 20
878.5788006481
 10
213.2212655287
 20
878.5787990567
 10
214.4082763947
 20
878.578797519
 10
215.9249234413
 20
878.5787960421
 10
217.7641353598
 20
878.5787946329
 10
219.9173368951
 20
878.578793298
 10
222.3744888279
 20
878.5787920436
 10
225.1241347815
 20
878.5787908756
 10
228.1534546371
 20
878.5787897994
 10
231.4483243073
 20
878.57878882
 10
234.9933815886
 20
878.578787942
 10
238.7720977875
 20
878.5787871695
 10
242.7668547849
 20
878.5787865061
 10
246.9590271794
 20
878.5787859549
 10
251.3290691283
 20
878.5787855184
 10
255.8566054787
 20
878.5787851987
 10
260.520526766
 20
878.5787849973
 10
265.2990876364
 20
878.5787849151
 10
270.1700082331
 20
878.5787849525
 10
275.1105780758
 20
878.5787851093
 10
280.0977619473
 20
878.5787853848
 10
285.1083072942
 20
878.5787857777
  0
CIRCLE
  5
72
330
1F
100
AcDbEntity
  8
0
  6
Continuous
 62
     7
370
    15
100
AcDbCircle
 10
285.1083073415
 20
543.6134421129
 30
0.0
 40
77.98335316230951
  0
CIRCLE
  5
73
330
1F
100
AcDbEntity
  8
0
  6
Continuous
 62
     7
370
    15
100
AcDbCircle
 10
285.1083072942
 20
543.6134419352
 30
0.0
 40
73.42274547199477
  0
CIRCLE
  5
74
330
1F
100
AcDbEntity
  8
0
  6
Continuous
 62
     7
370
    15
100
AcDbCircle
 10
285.1083074763
 20
543.6134426189
 30
0.0
 40
82.1715542460896
  0
CIRCLE
  5
75
330
1F
100
AcDbEntity
  8
0
  6
Continuous
 62
     7
370
    15
100
AcDbCircle
 10
285.1083076878
 20
543.6134434126
 30
0.0
 40
85.86733257548396
  0
CIRCLE
  5
76
330
1F
100
AcDbEntity
  8
0
  6
Continuous
 62
     7
370
    15
100
AcDbCircle
 10
285.1083079651
 20
543.6134444536
 30
0.0
 40
88.95071038761857
  0
CIRCLE
  5
77
330
1F
100
AcDbEntity
  8
0
  6
Continuous
 62
     7
370
    15
100
AcDbCircle
 10
285.1083082976
 20
543.6134457014
 30
0.0
 40
91.30168519787631
  0
CIRCLE
  5
78
330
1F
100
AcDbEntity
  8
0
  6
Continuous
 62
     7
370
    15
100
AcDbCircle
 10
285.1083086743
 20
543.6134471154
 30
0.0
 40
92.80027548162174
  0
CIRCLE
  5
79
330
1F
100
AcDbEntity
  8
0
  6
Continuous
 62
     7
370
    15
100
AcDbCircle
 10
285.1083090846
 20
543.6134486551
 30
0.0
 40
93.32645370111472
  0
ARC
  5
7A
330
1F
100
AcDbEntity
  8
0
  6
Continuous
 62
     7
370
    15
100
AcDbCircle
 10
285.1083155411
 20
543.6134728881
 30
0.0
 40
93.32646464918858
100
AcDbArc
 50
319.1964373554
 51
190.9654949765
  0
CIRCLE
  5
7B
330
1F
100
AcDbEntity
  8
0
  6
Continuous
 62
     7
370
    15
100
AcDbCircle
 10
285.1083155411
 20
543.6134728881
 30
0.0
 40
114.999396331158
  0
ENDSEC
  0
SECTION
  2
OBJECTS
  0
DICTIONARY
  5
C
330
0
100
AcDbDictionary
281
     1
  3
ACAD_GROUP
350
D
  3
ACAD_LAYOUT
350
1A
  3
ACAD_MLINESTYLE
350
17
  3
ACAD_PLOTSETTINGS
350
19
  3
ACAD_PLOTSTYLENAME
350
E
  0
DICTIONARY
  5
D
102
{ACAD_REACTORS
330
C
102
}
330
C
100
AcDbDictionary
281
     1
  0
DICTIONARY
  5
1A
102
{ACAD_REACTORS
330
C
102
}
330
C
100
AcDbDictionary
281
     1
  3
Layout1
350
1E
  3
Layout2
350
26
  3
Model
350
22
  0
DICTIONARY
  5
17
102
{ACAD_REACTORS
330
C
102
}
330
C
100
AcDbDictionary
281
     1
  3
Standard
350
18
  0
DICTIONARY
  5
19
102
{ACAD_REACTORS
330
C
102
}
330
C
100
AcDbDictionary
281
     1
  0
ACDBDICTIONARYWDFLT
  5
E
102
{ACAD_REACTORS
330
C
102
}
330
C
100
AcDbDictionary
281
     1
  3
Normal
350
F
100
AcDbDictionaryWithDefault
340
F
  0
LAYOUT
  5
1E
102
{ACAD_REACTORS
330
1A
102
}
330
1A
100
AcDbPlotSettings
  1

  2
none_device
  4

  6

 40
0.0
 41
0.0
 42
0.0
 43
0.0
 44
0.0
 45
0.0
 46
0.0
 47
0.0
 48
0.0
 49
0.0
140
0.0
141
0.0
142
1.0
143
1.0
 70
   688
 72
     0
 73
     0
 74
     5
  7

 75
    16
147
1.0
148
0.0
149
0.0
100
AcDbLayout
  1
Layout1
 70
     1
 71
     1
 10
0.0
 20
0.0
 11
420.0
 21
297.0
 12
0.0
 22
0.0
 32
0.0
 14
1.0000000000E+20
 24
1.0000000000E+20
 34
1.0000000000E+20
 15
-1.0000000000E+20
 25
-1.0000000000E+20
 35
-1.0000000000E+20
146
0.0
 13
0.0
 23
0.0
 33
0.0
 16
1.0
 26
0.0
 36
0.0
 17
0.0
 27
1.0
 37
0.0
 76
     0
330
1B
  0
LAYOUT
  5
26
102
{ACAD_REACTORS
330
1A
102
}
330
1A
100
AcDbPlotSettings
  1

  2
none_device
  4

  6

 40
0.0
 41
0.0
 42
0.0
 43
0.0
 44
0.0
 45
0.0
 46
0.0
 47
0.0
 48
0.0
 49
0.0
140
0.0
141
0.0
142
1.0
143
1.0
 70
   688
 72
     0
 73
     0
 74
     5
  7

 75
    16
147
1.0
148
0.0
149
0.0
100
AcDbLayout
  1
Layout2
 70
     1
 71
     2
 10
0.0
 20
0.0
 11
0.0
 21
0.0
 12
0.0
 22
0.0
 32
0.0
 14
0.0
 24
0.0
 34
0.0
 15
0.0
 25
0.0
 35
0.0
146
0.0
 13
0.0
 23
0.0
 33
0.0
 16
1.0
 26
0.0
 36
0.0
 17
0.0
 27
1.0
 37
0.0
 76
     0
330
23
  0
LAYOUT
  5
22
102
{ACAD_REACTORS
330
1A
102
}
330
1A
100
AcDbPlotSettings
  1

  2
none_device
  4

  6

 40
0.0
 41
0.0
 42
0.0
 43
0.0
 44
0.0
 45
0.0
 46
0.0
 47
0.0
 48
0.0
 49
0.0
140
0.0
141
0.0
142
1.0
143
1.0
 70
  1712
 72
     0
 73
     0
 74
     0
  7

 75
     0
147
1.0
148
0.0
149
0.0
100
AcDbLayout
  1
Model
 70
     1
 71
     0
 10
0.0
 20
0.0
 11
1397.0
 21
1079.5
 12
0.0
 22
0.0
 32
0.0
 14
0.0
 24
0.0
 34
0.0
 15
1397.0
 25
1079.5
 35
0.0
146
0.0
 13
0.0
 23
0.0
 33
0.0
 16
1.0
 26
0.0
 36
0.0
 17
0.0
 27
1.0
 37
0.0
 76
     0
330
1F
331
29
  0
MLINESTYLE
  5
18
102
{ACAD_REACTORS
330
17
102
}
330
17
100
AcDbMlineStyle
  2
Standard
 70
     0
  3

 62
   256
 51
90.0
 52
90.0
 71
     2
 49
0.5
 62
   256
  6
BYLAYER
 49
-0.5
 62
   256
  6
BYLAYER
  0
ACDBPLACEHOLDER
  5
F
102
{ACAD_REACTORS
330
E
102
}
330
E
  0
ENDSEC
  0
EOF
