  0
SECTION
  2
HEADER
  9
$ACADVER
  1
AC1015
  9
$ACADMAINTVER
 70
     6
  9
$DWGCODEPAGE
  3
ANSI_1251
  9
$INSBASE
 10
0.0
 20
0.0
 30
0.0
  9
$EXTMIN
 10
0.0
 20
0.0
 30
0.0
  9
$EXTMAX
 10
558.8
 20
431.8
 30
0.0
  9
$LIMMIN
 10
0.0
 20
0.0
  9
$LIMMAX
 10
558.8
 20
431.8
  9
$ORTHOMODE
 70
     0
  9
$REGENMODE
 70
     1
  9
$FILLMODE
 70
     1
  9
$QTEXTMODE
 70
     0
  9
$MIRRTEXT
 70
     1
  9
$LTSCALE
 40
2.0
  9
$ATTMODE
 70
     1
  9
$TEXTSIZE
 40
7.0
  9
$TRACEWID
 40
1.0
  9
$TEXTSTYLE
  7
Standard
  9
$CLAYER
  8
0
  9
$CELTYPE
  6
ByLayer
  9
$CECOLOR
 62
   256
  9
$CELTSCALE
 40
1.0
  9
$DISPSILH
 70
     0
  9
$DIMSCALE
 40
1.0
  9
$DIMASZ
 40
7.0
  9
$DIMEXO
 40
0.02
  9
$DIMDLI
 40
3.75
  9
$DIMRND
 40
0.0
  9
$DIMDLE
 40
0.0
  9
$DIMEXE
 40
2.0
  9
$DIMTP
 40
0.0
  9
$DIMTM
 40
0.0
  9
$DIMTXT
 40
7.0
  9
$DIMCEN
 40
2.5
  9
$DIMTSZ
 40
0.0
  9
$DIMTOL
 70
     0
  9
$DIMLIM
 70
     0
  9
$DIMTIH
 70
     1
  9
$DIMTOH
 70
     1
  9
$DIMSE1
 70
     0
  9
$DIMSE2
 70
     0
  9
$DIMTAD
 70
     1
  9
$DIMZIN
 70
     0
  9
$DIMBLK
  1

  9
$DIMASO
 70
     1
  9
$DIMSHO
 70
     1
  9
$DIMPOST
  1

  9
$DIMAPOST
  1

  9
$DIMALT
 70
     0
  9
$DIMALTD
 70
     3
  9
$DIMALTF
 40
0.0393700787
  9
$DIMLFAC
 40
1.0
  9
$DIMTOFL
 70
     1
  9
$DIMTVP
 40
0.0
  9
$DIMTIX
 70
     0
  9
$DIMSOXD
 70
     0
  9
$DIMSAH
 70
     0
  9
$DIMBLK1
  1

  9
$DIMBLK2
  1

  9
$DIMSTYLE
  2
ISO-25
  9
$DIMCLRD
 70
     0
  9
$DIMCLRE
 70
     0
  9
$DIMCLRT
 70
     0
  9
$DIMTFAC
 40
1.0
  9
$DIMGAP
 40
6.0
  9
$DIMJUST
 70
     0
  9
$DIMSD1
 70
     0
  9
$DIMSD2
 70
     0
  9
$DIMTOLJ
 70
     0
  9
$DIMTZIN
 70
     0
  9
$DIMALTZ
 70
     0
  9
$DIMALTTZ
 70
     0
  9
$DIMUPT
 70
     0
  9
$DIMDEC
 70
     2
  9
$DIMTDEC
 70
     3
  9
$DIMALTU
 70
     2
  9
$DIMALTTD
 70
     3
  9
$DIMTXSTY
  7
Standard
  9
$DIMAUNIT
 70
     0
  9
$DIMADEC
 70
     2
  9
$DIMALTRND
 40
0.0
  9
$DIMAZIN
 70
     0
  9
$DIMDSEP
 70
    44
  9
$DIMATFIT
 70
     3
  9
$DIMFRAC
 70
     0
  9
$DIMLDRBLK
  1

  9
$DIMLUNIT
 70
     2
  9
$DIMLWD
 70
    -2
  9
$DIMLWE
 70
    -2
  9
$DIMTMOVE
 70
     0
  9
$LUNITS
 70
     2
  9
$LUPREC
 70
     2
  9
$SKETCHINC
 40
1.0
  9
$FILLETRAD
 40
10.0
  9
$AUNITS
 70
     0
  9
$AUPREC
 70
     2
  9
$MENU
  1
.
  9
$ELEVATION
 40
0.0
  9
$PELEVATION
 40
0.0
  9
$THICKNESS
 40
0.0
  9
$LIMCHECK
 70
     0
  9
$CHAMFERA
 40
10.0
  9
$CHAMFERB
 40
10.0
  9
$CHAMFERC
 40
20.0
  9
$CHAMFERD
 40
0.0
  9
$SKPOLY
 70
     0
  9
$TDCREATE
 40
2458090.958529618
  9
$TDUCREATE
 40
2458090.875196285
  9
$TDUPDATE
 40
2458090.958529977
  9
$TDUUPDATE
 40
2458090.875196644
  9
$TDINDWG
 40
0.0000000116
  9
$TDUSRTIMER
 40
0.0000000116
  9
$USRTIMER
 70
     1
  9
$ANGBASE
 50
0.0
  9
$ANGDIR
 70
     0
  9
$PDMODE
 70
     0
  9
$PDSIZE
 40
-1.0
  9
$PLINEWID
 40
0.0
  9
$SPLFRAME
 70
     0
  9
$SPLINETYPE
 70
     6
  9
$SPLINESEGS
 70
     8
  9
$HANDSEED
  5
59
  9
$SURFTAB1
 70
     6
  9
$SURFTAB2
 70
     6
  9
$SURFTYPE
 70
     6
  9
$SURFU
 70
     6
  9
$SURFV
 70
     6
  9
$UCSBASE
  2

  9
$UCSNAME
  2

  9
$UCSORG
 10
0.0
 20
0.0
 30
0.0
  9
$UCSXDIR
 10
1.0
 20
0.0
 30
0.0
  9
$UCSYDIR
 10
0.0
 20
1.0
 30
0.0
  9
$UCSORTHOREF
  2

  9
$UCSORTHOVIEW
 70
     0
  9
$UCSORGTOP
 10
0.0
 20
0.0
 30
0.0
  9
$UCSORGBOTTOM
 10
0.0
 20
0.0
 30
0.0
  9
$UCSORGLEFT
 10
0.0
 20
0.0
 30
0.0
  9
$UCSORGRIGHT
 10
0.0
 20
0.0
 30
0.0
  9
$UCSORGFRONT
 10
0.0
 20
0.0
 30
0.0
  9
$UCSORGBACK
 10
0.0
 20
0.0
 30
0.0
  9
$PUCSBASE
  2

  9
$PUCSNAME
  2

  9
$PUCSORG
 10
0.0
 20
0.0
 30
0.0
  9
$PUCSXDIR
 10
1.0
 20
0.0
 30
0.0
  9
$PUCSYDIR
 10
0.0
 20
1.0
 30
0.0
  9
$PUCSORTHOREF
  2

  9
$PUCSORTHOVIEW
 70
     0
  9
$PUCSORGTOP
 10
0.0
 20
0.0
 30
0.0
  9
$PUCSORGBOTTOM
 10
0.0
 20
0.0
 30
0.0
  9
$PUCSORGLEFT
 10
0.0
 20
0.0
 30
0.0
  9
$PUCSORGRIGHT
 10
0.0
 20
0.0
 30
0.0
  9
$PUCSORGFRONT
 10
0.0
 20
0.0
 30
0.0
  9
$PUCSORGBACK
 10
0.0
 20
0.0
 30
0.0
  9
$USERI1
 70
     0
  9
$USERI2
 70
     0
  9
$USERI3
 70
     0
  9
$USERI4
 70
     0
  9
$USERI5
 70
     0
  9
$USERR1
 40
0.0
  9
$USERR2
 40
0.0
  9
$USERR3
 40
0.0
  9
$USERR4
 40
0.0
  9
$USERR5
 40
0.0
  9
$WORLDVIEW
 70
     1
  9
$SHADEDGE
 70
     3
  9
$SHADEDIF
 70
    70
  9
$TILEMODE
 70
     1
  9
$MAXACTVP
 70
    64
  9
$PINSBASE
 10
0.0
 20
0.0
 30
0.0
  9
$PLIMCHECK
 70
     0
  9
$PEXTMIN
 10
1.0000000000E+20
 20
1.0000000000E+20
 30
1.0000000000E+20
  9
$PEXTMAX
 10
-1.0000000000E+20
 20
-1.0000000000E+20
 30
-1.0000000000E+20
  9
$PLIMMIN
 10
0.0
 20
0.0
  9
$PLIMMAX
 10
420.0
 20
297.0
  9
$UNITMODE
 70
     0
  9
$VISRETAIN
 70
     1
  9
$PLINEGEN
 70
     0
  9
$PSLTSCALE
 70
     1
  9
$TREEDEPTH
 70
  3020
  9
$CMLSTYLE
  2
Standard
  9
$CMLJUST
 70
     0
  9
$CMLSCALE
 40
20.0
  9
$PROXYGRAPHICS
 70
     1
  9
$MEASUREMENT
 70
     1
  9
$CELWEIGHT
370
    -1
  9
$ENDCAPS
280
     0
  9
$JOINSTYLE
280
     0
  9
$LWDISPLAY
290
     1
  9
$INSUNITS
 70
     4
  9
$HYPERLINKBASE
  1

  9
$STYLESHEET
  1

  9
$XEDIT
290
     1
  9
$CEPSNTYPE
380
     0
  9
$PSTYLEMODE
290
     1
  9
$FINGERPRINTGUID
  2
{0196CFF6-EC9D-4365-A267-CB3CE3EBEF31}
  9
$VERSIONGUID
  2
{FAEB1C32-E019-11D5-929B-00C0DF256EC4}
  9
$EXTNAMES
290
     1
  9
$PSVPSCALE
 40
0.0
  9
$OLESTARTUP
290
     0
  0
ENDSEC
  0
SECTION
  2
CLASSES
  0
CLASS
  1
ACDBDICTIONARYWDFLT
  2
AcDbDictionaryWithDefault
  3
ObjectDBX Classes
 90
        0
280
     0
281
     0
  0
CLASS
  1
VISUALSTYLE
  2
AcDbVisualStyle
  3
ObjectDBX Classes
 90
     4095
280
     0
281
     0
  0
CLASS
  1
MATERIAL
  2
AcDbMaterial
  3
ObjectDBX Classes
 90
     1153
280
     0
281
     0
  0
CLASS
  1
ACDBPLACEHOLDER
  2
AcDbPlaceHolder
  3
ObjectDBX Classes
 90
        0
280
     0
281
     0
  0
CLASS
  1
LAYOUT
  2
AcDbLayout
  3
ObjectDBX Classes
 90
        0
280
     0
281
     0
  0
ENDSEC
  0
SECTION
  2
TABLES
  0
TABLE
  2
VPORT
  5
8
330
0
100
AcDbSymbolTable
 70
     1
  0
VPORT
  5
29
330
8
100
AcDbSymbolTableRecord
100
AcDbViewportTableRecord
  2
*Active
 70
     0
 10
0.0
 20
0.0
 11
1.0
 21
1.0
 12
279.4
 22
215.9
 13
0.0
 23
0.0
 14
10.0
 24
10.0
 15
10.0
 25
10.0
 16
0.0
 26
0.0
 36
1.0
 17
0.0
 27
0.0
 37
0.0
 40
431.8
 41
1.2941176471
 42
50.0
 43
0.0
 44
0.0
 50
0.0
 51
0.0
 71
     0
 72
  2000
 73
     1
 74
     3
 75
     0
 76
     0
 77
     0
 78
     0
281
     0
 65
     1
110
0.0
120
0.0
130
0.0
111
1.0
121
0.0
131
0.0
112
0.0
122
1.0
132
0.0
 79
     0
146
0.0
  0
ENDTAB
  0
TABLE
  2
LTYPE
  5
5
330
0
100
AcDbSymbolTable
 70
     6
  0
LTYPE
  5
14
330
5
100
AcDbSymbolTableRecord
100
AcDbLinetypeTableRecord
  2
ByBlock
 70
     0
  3

 72
    65
 73
     0
 40
0.0
  0
LTYPE
  5
15
330
5
100
AcDbSymbolTableRecord
100
AcDbLinetypeTableRecord
  2
ByLayer
 70
     0
  3

 72
    65
 73
     0
 40
0.0
  0
LTYPE
  5
16
330
5
100
AcDbSymbolTableRecord
100
AcDbLinetypeTableRecord
  2
Continuous
 70
     0
  3
Solid line
 72
    65
 73
     0
 40
0.0
  0
LTYPE
  5
3F
330
5
100
AcDbSymbolTableRecord
100
AcDbLinetypeTableRecord
  2
HIDDEN
 70
     0
  3
Hidden __ __ __ __ __ __ __ __ __ __ __ __ __ __
 72
    65
 73
     2
 40
1.905
 49
1.27
 74
     0
 49
-0.635
 74
     0
  0
LTYPE
  5
40
330
5
100
AcDbSymbolTableRecord
100
AcDbLinetypeTableRecord
  2
PHANTOM
 70
     0
  3
Phantom ______  __  __  ______  __  __  ______
 72
    65
 73
     6
 40
12.7
 49
6.35
 74
     0
 49
-1.27
 74
     0
 49
1.27
 74
     0
 49
-1.27
 74
     0
 49
1.27
 74
     0
 49
-1.27
 74
     0
  0
LTYPE
  5
41
330
5
100
AcDbSymbolTableRecord
100
AcDbLinetypeTableRecord
  2
CENTER
 70
     0
  3
Center ____ _ ____ _ ____ _ ____ _ ____ _ ____
 72
    65
 73
     4
 40
10.16
 49
6.35
 74
     0
 49
-1.27
 74
     0
 49
1.27
 74
     0
 49
-1.27
 74
     0
  0
LTYPE
  5
42
330
5
100
AcDbSymbolTableRecord
100
AcDbLinetypeTableRecord
  2
CENTERX2
 70
     0
  3
Center (2x) ________  __  ________  __  _____
 72
    65
 73
     4
 40
20.32
 49
12.7
 74
     0
 49
-2.54
 74
     0
 49
2.54
 74
     0
 49
-2.54
 74
     0
  0
LTYPE
  5
43
330
5
100
AcDbSymbolTableRecord
100
AcDbLinetypeTableRecord
  2
DOT2
 70
     0
  3
Dot (.5x) ........................................
 72
    65
 73
     2
 40
0.635
 49
0.0
 74
     0
 49
-0.635
 74
     0
  0
ENDTAB
  0
TABLE
  2
LAYER
  5
2
330
0
100
AcDbSymbolTable
 70
     1
  0
LAYER
  5
10
330
2
100
AcDbSymbolTableRecord
100
AcDbLayerTableRecord
  2
0
 70
     0
 62
     7
  6
Continuous
370
    -3
390
F
  0
ENDTAB
  0
TABLE
  2
STYLE
  5
3
330
0
100
AcDbSymbolTable
 70
     1
  0
STYLE
  5
11
330
3
100
AcDbSymbolTableRecord
100
AcDbTextStyleTableRecord
  2
Standard
 70
     0
 40
0.0
 41
1.0
 50
0.0
 71
     0
 42
7.0
  3
txt
  4

  0
ENDTAB
  0
TABLE
  2
VIEW
  5
6
330
0
100
AcDbSymbolTable
 70
     0
  0
ENDTAB
  0
TABLE
  2
UCS
  5
7
330
0
100
AcDbSymbolTable
 70
     0
  0
ENDTAB
  0
TABLE
  2
APPID
  5
9
330
0
100
AcDbSymbolTable
 70
     1
  0
APPID
  5
12
330
9
100
AcDbSymbolTableRecord
100
AcDbRegAppTableRecord
  2
ACAD
 70
     0
  0
ENDTAB
  0
TABLE
  2
DIMSTYLE
  5
A
330
0
100
AcDbSymbolTable
 70
     1
100
AcDbDimStyleTable
  0
DIMSTYLE
105
27
330
A
100
AcDbSymbolTableRecord
100
AcDbDimStyleTableRecord
  2
ISO-25
 70
     0
 41
2.5
 42
0.625
 43
3.75
 44
1.25
 73
     0
 74
     0
 77
     1
 78
     8
140
2.5
141
2.5
143
0.0393700787
147
0.625
171
     3
172
     1
178
     0
271
     2
272
     2
274
     3
278
    44
283
     0
284
     8
340
11
  0
ENDTAB
  0
TABLE
  2
BLOCK_RECORD
  5
1
330
0
100
AcDbSymbolTable
 70
     1
  0
BLOCK_RECORD
  5
1F
330
1
100
AcDbSymbolTableRecord
100
AcDbBlockTableRecord
  2
*Model_Space
340
22
  0
BLOCK_RECORD
  5
1B
330
1
100
AcDbSymbolTableRecord
100
AcDbBlockTableRecord
  2
*Paper_Space
340
1E
  0
BLOCK_RECORD
  5
23
330
1
100
AcDbSymbolTableRecord
100
AcDbBlockTableRecord
  2
*Paper_Space0
340
26
  0
ENDTAB
  0
ENDSEC
  0
SECTION
  2
BLOCKS
  0
BLOCK
  5
20
330
1F
100
AcDbEntity
  8
0
100
AcDbBlockBegin
  2
*Model_Space
 70
     0
 10
0.0
 20
0.0
 30
0.0
  3
*Model_Space
  1

  0
ENDBLK
  5
21
330
1F
100
AcDbEntity
  8
0
100
AcDbBlockEnd
  0
BLOCK
  5
1C
330
1B
100
AcDbEntity
 67
     1
  8
0
100
AcDbBlockBegin
  2
*Paper_Space
 70
     0
 10
0.0
 20
0.0
 30
0.0
  3
*Paper_Space
  1

  0
ENDBLK
  5
1D
330
1B
100
AcDbEntity
 67
     1
  8
0
100
AcDbBlockEnd
  0
BLOCK
  5
24
330
23
100
AcDbEntity
  8
0
100
AcDbBlockBegin
  2
*Paper_Space0
 70
     0
 10
0.0
 20
0.0
 30
0.0
  3
*Paper_Space0
  1

  0
ENDBLK
  5
25
330
23
100
AcDbEntity
  8
0
100
AcDbBlockEnd
  0
ENDSEC
  0
SECTION
  2
ENTITIES
  0
LINE
  5
44
330
1F
100
AcDbEntity
  8
0
  6
Continuous
 62
     7
370
    15
100
AcDbLine
 10
203.7799813349
 20
330.0423759244
 30
0.0
 11
196.3705350994
 21
330.042462833
 31
0.0
  0
LINE
  5
45
330
1F
100
AcDbEntity
  8
0
  6
Continuous
 62
     7
370
    15
100
AcDbLine
 10
61.3699338335
 20
330.0432550513
 30
0.0
 11
53.9604875974
 21
330.0432551038
 31
0.0
  0
LINE
  5
46
330
1F
100
AcDbEntity
  8
0
  6
Continuous
 62
     7
370
    15
100
AcDbLine
 10
53.8699295252
 20
330.043254573
 30
0.0
 11
53.8699295252
 21
328.543254573
 31
0.0
  0
LINE
  5
47
330
1F
100
AcDbEntity
  8
0
  6
Continuous
 62
     7
370
    15
100
AcDbLine
 10
203.8705218024
 20
328.5423743309
 30
0.0
 11
203.8705394071
 21
330.0423743308
 31
0.0
  0
LINE
  5
48
330
1F
100
AcDbEntity
  8
0
  6
Continuous
 62
     7
370
    15
100
AcDbLine
 10
53.8699295252
 20
328.543254573
 30
0.0
 11
54.3699338151
 21
328.043254573
 31
0.0
  0
LINE
  5
49
330
1F
100
AcDbEntity
  8
0
  6
Continuous
 62
     7
370
    15
100
AcDbLine
 10
203.3705116442
 20
328.0423801992
 30
0.0
 11
203.8705218024
 21
328.5423743309
 31
0.0
  0
LINE
  5
4A
330
1F
100
AcDbEntity
  8
0
  6
Continuous
 62
     7
370
    15
100
AcDbLine
 10
61.3699343008
 20
358.043254573
 30
0.0
 11
61.3699338335
 21
330.043254573
 31
0.0
  0
LINE
  5
4B
330
1F
100
AcDbEntity
  8
0
  6
Continuous
 62
     7
370
    15
100
AcDbLine
 10
196.3705350994
 20
330.0424623547
 30
0.0
 11
196.3708632544
 21
358.0424623528
 31
0.0
  0
LWPOLYLINE
  5
4C
330
1F
100
AcDbEntity
  8
0
  6
Continuous
 62
     7
370
    15
100
AcDbPolyline
 90
       57
 70
   128
 43
0.0
 10
61.3699338335
 20
330.043254573
 10
61.3969672234
 20
330.0432538637
 10
61.6131044399
 20
330.0432514958
 10
62.0446865202
 20
330.0432478688
 10
62.6903309768
 20
330.0432429945
 10
63.547969616
 20
330.0432368884
 10
64.6148551624
 20
330.0432295701
 10
65.8875700602
 20
330.043221063
 10
67.3620374199
 20
330.0432113944
 10
69.0335340778
 20
330.0432005953
 10
70.8967057264
 20
330.0431887002
 10
72.9455840651
 20
330.0431757473
 10
75.1736059189
 20
330.043161778
 10
77.5736342622
 20
330.0431468371
 10
80.1379810806
 20
330.0431309725
 10
82.8584319982
 20
330.043114235
 10
85.7262725905
 20
330.0430966781
 10
88.7323162995
 20
330.0430783582
 10
91.8669338609
 20
330.0430593338
 10
95.1200841498
 20
330.043039666
 10
98.481346345
 20
330.0430194178
 10
101.9399533104
 20
330.042998654
 10
105.4848260851
 20
330.0429774411
 10
109.104609373
 20
330.0429558471
 10
112.7877079169
 20
330.0429339412
 10
116.5223236418
 20
330.0429117935
 10
120.2964934477
 20
330.0428894749
 10
124.0981275308
 20
330.042867057
 10
127.9150481111
 20
330.0428446116
 10
131.7350284413
 20
330.0428222106
 10
135.5458319727
 20
330.0427999257
 10
139.3352515528
 20
330.0427778283
 10
143.0911485282
 20
330.0427559892
 10
146.8014916286
 20
330.0427344783
 10
150.4543955065
 20
330.0427133647
 10
154.0381588094
 20
330.0426927158
 10
157.5413016632
 20
330.0426725978
 10
160.9526024452
 20
330.0426530753
 10
164.2611337305
 20
330.0426342106
 10
167.456297296
 20
330.0426160644
 10
170.5278580694
 20
330.0425986946
 10
173.4659769158
 20
330.0425821569
 10
176.2612421545
 20
330.0425665043
 10
178.9046997084
 20
330.0425517869
 10
181.387881786
 20
330.0425380519
 10
183.7028340065
 20
330.0425253433
 10
185.84214088
 20
330.0425137018
 10
187.7989495616
 20
330.0425031647
 10
189.5669918032
 20
330.0424937657
 10
191.1406040325
 20
330.0424855349
 10
192.5147454951
 20
330.0424784987
 10
193.6850144016
 20
330.0424726797
 10
194.6476620279
 20
330.0424680965
 10
195.3996047235
 20
330.0424647637
 10
195.9384337892
 20
330.0424626921
 10
196.2624231931
 20
330.0424618882
 10
196.3705350994
 20
330.0424623547
  0
LWPOLYLINE
  5
4D
330
1F
100
AcDbEntity
  8
0
  6
Continuous
 62
     7
370
    15
100
AcDbPolyline
 90
       62
 70
   128
 43
0.0
 10
53.9604875974
 20
330.0432551038
 10
53.8969650598
 20
330.0432549949
 10
53.8969650598
 20
330.0432538339
 10
54.1131324039
 20
330.043251406
 10
54.5448438258
 20
330.0432477183
 10
55.1908545897
 20
330.0432427814
 10
56.0493020792
 20
330.0432366095
 10
57.1177111681
 20
330.0432292204
 10
58.3930013564
 20
330.0432206354
 10
59.8714956523
 20
330.0432108793
 10
61.548931174
 20
330.0431999802
 10
63.4204714407
 20
330.0431879695
 10
65.4807203172
 20
330.0431748819
 10
67.7237375728
 20
330.043160755
 10
70.1430560081
 20
330.0431456297
 10
72.7317001017
 20
330.0431295495
 10
75.4822061225
 20
330.0431125608
 10
78.3866436496
 20
330.0430947126
 10
81.4366384379
 20
330.0430760563
 10
84.6233965627
 20
330.0430566457
 10
87.9377297755
 20
330.0430365368
 10
91.3700819956
 20
330.0430157876
 10
94.9105568629
 20
330.0429944579
 10
98.548946272
 20
330.0429726092
 10
102.2747598043
 20
330.0429503044
 10
106.0772549748
 20
330.042927608
 10
109.9454682057
 20
330.0429045853
 10
113.8682464368
 20
330.0428813028
 10
117.834279283
 20
330.0428578275
 10
121.8321316448
 20
330.0428342271
 10
125.8502766791
 20
330.0428105697
 10
129.8771290334
 20
330.0427869235
 10
133.9010782501
 20
330.0427633567
 10
137.9105222418
 20
330.0427399372
 10
141.8939007435
 20
330.0427167325
 10
145.8397286439
 20
330.0426938096
 10
149.7366290997
 20
330.0426712346
 10
153.573366338
 20
330.0426490724
 10
157.3388780522
 20
330.0426273871
 10
161.0223072972
 20
330.0426062412
 10
164.613033793
 20
330.0425856956
 10
168.1007045455
 20
330.0425658095
 10
171.4752636971
 20
330.0425466404
 10
174.7269815202
 20
330.0425282434
 10
177.8464824706
 20
330.0425106716
 10
180.8247722193
 20
330.0424939757
 10
183.6532635862
 20
330.0424782038
 10
186.3238012983
 20
330.0424634015
 10
188.8286855042
 20
330.0424496112
 10
191.1606939742
 20
330.042436873
 10
193.3131029241
 20
330.0424252233
 10
195.2797064019
 20
330.0424146959
 10
197.0548341806
 20
330.0424053212
 10
198.6333681072
 20
330.042397126
 10
200.0107568598
 20
330.0423901341
 10
201.1830290701
 20
330.0423843656
 10
202.1468047738
 20
330.0423798372
 10
202.8993051561
 20
330.0423765619
 10
203.4383605635
 20
330.0423745491
 10
203.7624167598
 20
330.0423738047
 10
203.8705394071
 20
330.0423743308
 10
203.8705394071
 20
330.0423743308
  0
LWPOLYLINE
  5
4E
330
1F
100
AcDbEntity
  8
0
  6
Continuous
 62
     7
370
    15
100
AcDbPolyline
 90
       60
 70
   128
 43
0.0
 10
53.8699295252
 20
328.543254573
 10
53.8969650566
 20
328.5432538339
 10
54.1131323754
 20
328.543251406
 10
54.5448437466
 20
328.5432477183
 10
55.1908544347
 20
328.5432427814
 10
56.0493018235
 20
328.5432366095
 10
57.117710787
 20
328.5432292204
 10
58.3930008256
 20
328.5432206354
 10
59.8714949479
 20
328.5432108793
 10
61.5489302727
 20
328.5431999802
 10
63.4204703198
 20
328.5431879695
 10
65.4807189545
 20
328.5431748819
 10
67.7237359469
 20
328.543160755
 10
70.1430540982
 20
328.5431456297
 10
72.731697888
 20
328.5431295495
 10
75.4822035859
 20
328.5431125608
 10
78.3866407722
 20
328.5430947126
 10
81.4366352026
 20
328.5430760563
 10
84.6233929534
 20
328.5430566457
 10
87.9377257772
 20
328.5430365368
 10
91.3700775944
 20
328.5430157876
 10
94.9105520462
 20
328.5429944579
 10
98.5489410283
 20
328.5429726092
 10
102.2747541233
 20
328.5429503045
 10
106.0772488475
 20
328.5429276081
 10
109.9454616244
 20
328.5429045854
 10
113.8682393951
 20
328.5428813028
 10
117.8342717758
 20
328.5428578275
 10
121.8321236685
 20
328.5428342271
 10
125.8502682311
 20
328.5428105698
 10
129.8771201129
 20
328.5427869236
 10
133.9010688573
 20
328.5427633568
 10
137.9105123784
 20
328.5427399373
 10
141.8938904126
 20
328.5427167326
 10
145.8397178499
 20
328.5426938097
 10
149.7366178483
 20
328.5426712346
 10
153.5733546363
 20
328.5426490725
 10
157.3388659086
 20
328.5426273872
 10
161.0222947213
 20
328.5426062413
 10
164.6130207957
 20
328.5425856957
 10
168.1006911388
 20
328.5425658096
 10
171.4752498944
 20
328.5425466404
 10
174.7269673359
 20
328.5425282435
 10
177.8464679201
 20
328.5425106717
 10
180.8247573193
 20
328.5424939758
 10
183.6532483542
 20
328.5424782039
 10
186.3237857529
 20
328.5424634015
 10
188.8286696648
 20
328.5424496113
 10
191.1606778611
 20
328.542436873
 10
193.3130865584
 20
328.5424252234
 10
195.2796898054
 20
328.542414696
 10
197.0548173757
 20
328.5424053213
 10
198.6333511171
 20
328.5423971261
 10
200.010739708
 20
328.5423901342
 10
201.1830117807
 20
328.5423843657
 10
202.1467873713
 20
328.5423798373
 10
202.8992876653
 20
328.542376562
 10
203.4383430094
 20
328.5423745492
 10
203.7623991677
 20
328.5423738048
 10
203.8705218024
 20
328.5423743309
  0
LWPOLYLINE
  5
4F
330
1F
100
AcDbEntity
  8
0
  6
Continuous
 62
     7
370
    15
100
AcDbPolyline
 90
       60
 70
   128
 43
0.0
 10
54.3699338151
 20
328.043254573
 10
54.3967891078
 20
328.0432538388
 10
54.6115152959
 20
328.0432514271
 10
55.0403485611
 20
328.043247764
 10
55.682052466
 20
328.04324286
 10
56.5347768122
 20
328.0432367293
 10
57.5960629744
 20
328.0432293894
 10
58.8628509902
 20
328.0432208617
 10
60.3314883816
 20
328.0432111706
 10
61.9977406868
 20
328.0432003442
 10
63.8568036692
 20
328.0431884136
 10
65.9033171689
 20
328.0431754132
 10
68.1313805576
 20
328.0431613805
 10
70.5345697519
 20
328.043146356
 10
73.1059557352
 20
328.043130383
 10
75.838124536
 20
328.0431135076
 10
78.7231986044
 20
328.0430957783
 10
81.752859525
 20
328.0430772464
 10
84.9183720011
 20
328.0430579652
 10
88.2106090408
 20
328.0430379904
 10
91.6200782723
 20
328.0430173795
 10
95.1369493133
 20
328.042996192
 10
98.7510821141
 20
328.042974489
 10
102.4520561944
 20
328.042952333
 10
106.2292006876
 20
328.0429297878
 10
110.0716251086
 20
328.0429069186
 10
113.9682507529
 20
328.0428837913
 10
117.9078426401
 20
328.0428604725
 10
121.879041907
 20
328.0428370295
 10
125.870398558
 20
328.0428135298
 10
129.8704044786
 20
328.0427900413
 10
133.8675266164
 20
328.0427666316
 10
137.8502402334
 20
328.0427433682
 10
141.8070621352
 20
328.0427203182
 10
145.7265837801
 20
328.0426975482
 10
149.5975041724
 20
328.0426751236
 10
153.4086624466
 20
328.0426531092
 10
157.1490700468
 20
328.0426315685
 10
160.8079424096
 20
328.0426105635
 10
164.3747300588
 20
328.0425901549
 10
167.8391490222
 20
328.0425704014
 10
171.1912104832
 20
328.0425513601
 10
174.4212495808
 20
328.0425330857
 10
177.5199532761
 20
328.0425156311
 10
180.4783872042
 20
328.0424990465
 10
183.2880214342
 20
328.0424833798
 10
185.9407550634
 20
328.0424686761
 10
188.4289395738
 20
328.0424549778
 10
190.7454008856
 20
328.0424423244
 10
192.8834600409
 20
328.0424307525
 10
194.8369524619
 20
328.0424202953
 10
196.6002457242
 20
328.042410983
 10
198.1682557968
 20
328.0424028425
 10
199.5364617007
 20
328.0423958972
 10
200.7009185442
 20
328.0423901672
 10
201.6582688967
 20
328.0423856689
 10
202.4057524694
 20
328.0423824155
 10
202.9412140735
 20
328.0423804161
 10
203.2631098348
 20
328.0423796767
 10
203.3705116442
 20
328.0423801992
  0
LWPOLYLINE
  5
50
330
1F
100
AcDbEntity
  8
0
  6
Continuous
 62
     7
370
    15
100
AcDbPolyline
 90
       57
 70
   128
 43
0.0
 10
61.3699343008
 20
358.043254573
 10
61.3969677564
 20
358.0432538637
 10
61.6131054975
 20
358.0432514957
 10
62.0446886254
 20
358.0432478688
 10
62.6903346492
 20
358.0432429944
 10
63.5479753701
 20
358.0432368883
 10
64.6148635062
 20
358.04322957
 10
65.8875814933
 20
358.0432210629
 10
67.3620524319
 20
358.0432113943
 10
69.0335531471
 20
358.0432005952
 10
70.8967293181
 20
358.0431887001
 10
72.9456126301
 20
358.0431757471
 10
75.173639892
 20
358.0431617778
 10
77.5736740609
 20
358.0431468369
 10
80.1380271038
 20
358.0431309722
 10
82.8584846247
 20
358.0431142346
 10
85.7263321781
 20
358.0430966777
 10
88.7323831837
 20
358.0430783577
 10
91.8670083538
 20
358.0430593333
 10
95.1201665391
 20
358.0430396655
 10
98.4814368931
 20
358.0430194173
 10
101.9400522536
 20
358.0429986534
 10
105.4849336328
 20
358.0429774405
 10
109.104725707
 20
358.0429558464
 10
112.7878331909
 20
358.0429339404
 10
116.5224579808
 20
358.0429117926
 10
120.2966369478
 20
358.042889474
 10
124.0982802586
 20
358.0428670561
 10
127.9152101038
 20
358.0428446106
 10
131.7351997062
 20
358.0428222095
 10
135.5460124876
 20
358.0427999246
 10
139.3354412658
 20
358.0427778271
 10
143.0913473579
 20
358.042755988
 10
146.8016994644
 20
358.0427344771
 10
150.454612209
 20
358.0427133633
 10
154.0383842109
 20
358.0426927144
 10
157.5415355679
 20
358.0426725964
 10
160.9528446301
 20
358.0426530738
 10
164.2613839462
 20
358.0426342091
 10
167.4565552673
 20
358.0426160628
 10
170.5281234964
 20
358.042598693
 10
173.4662494745
 20
358.0425821552
 10
176.2615214982
 20
358.0425665026
 10
178.9049854686
 20
358.0425517852
 10
181.3881735736
 20
358.0425380502
 10
183.7031314132
 20
358.0425253416
 10
185.8424434794
 20
358.0425137
 10
187.7992569108
 20
358.0425031629
 10
189.567303444
 20
358.0424937638
 10
191.1409194929
 20
358.042485533
 10
192.5150642909
 20
358.0424784969
 10
193.6853360381
 20
358.0424726778
 10
194.647986001
 20
358.0424680946
 10
195.3999305218
 20
358.0424647618
 10
195.9387608954
 20
358.0424626901
 10
196.2627510857
 20
358.0424618863
 10
196.3708632544
 20
358.0424623528
  0
LWPOLYLINE
  5
51
330
1F
100
AcDbEntity
  8
0
  6
Continuous
 62
     7
370
    15
100
AcDbPolyline
 90
      112
 70
   128
 43
0.0
 10
61.3699343004
 20
358.0432848697
 10
61.4780439581
 20
358.0432990938
 10
61.8020266237
 20
358.0433157006
 10
62.3408444829
 20
358.0433346371
 10
63.0927715398
 20
358.0433558424
 10
64.0553991453
 20
358.0433792487
 10
65.225643713
 20
358.0434047811
 10
66.5997565968
 20
358.0434323576
 10
68.1733360987
 20
358.0434618901
 10
69.9413415693
 20
358.0434932838
 10
71.898109554
 20
358.0435264382
 10
74.0373719351
 20
358.0435612472
 10
76.3522760102
 20
358.0435975992
 10
78.8354064436
 20
358.0436353777
 10
81.4788090201
 20
358.0436744618
 10
84.2740161242
 20
358.0437147262
 10
87.2120738649
 20
358.0437560421
 10
90.2835707574
 20
358.0437982769
 10
93.4786678714
 20
358.0438412955
 10
96.7871303474
 20
358.04388496
 10
100.1983601827
 20
358.0439291306
 10
103.7014301798
 20
358.0439736657
 10
107.2851189494
 20
358.0440184228
 10
110.9379468559
 20
358.0440632584
 10
114.6482127904
 20
358.0441080289
 10
118.4040316524
 20
358.0441525909
 10
122.193372422
 20
358.0441968017
 10
126.0040966981
 20
358.0442405197
 10
129.8239975822
 20
358.0442836047
 10
133.6408387801
 20
358.0443259188
 10
137.4423937987
 20
358.0443673264
 10
141.2164851113
 20
358.044407695
 10
144.9510231655
 20
358.0444468951
 10
148.6340451101
 20
358.0444848013
 10
152.2537531156
 20
358.044521292
 10
155.7985521658
 20
358.0445562505
 10
159.2570872008
 20
358.0445895646
 10
162.6182794902
 20
358.0446211278
 10
165.8713621217
 20
358.0446508388
 10
169.0059144911
 20
358.0446786026
 10
172.0118956819
 20
358.0447043302
 10
174.8796766304
 20
358.0447279391
 10
177.6000709694
 20
358.0447493538
 10
180.1643644559
 20
358.0447685057
 10
182.5643428847
 20
358.0447853333
 10
184.7923184013
 20
358.0447997828
 10
186.8411541286
 20
358.044811808
 10
188.704287028
 20
358.0448213702
 10
190.3757489231
 20
358.0448284389
 10
191.8501856176
 20
358.0448329914
 10
193.1228740462
 20
358.0448350131
 10
194.1897374043
 20
358.0448344976
 10
195.0473582068
 20
358.0448314466
 10
195.6929892358
 20
358.0448258696
 10
196.1245623405
 20
358.0448177848
 10
196.340695062
 20
358.0448072179
 10
196.3406950621
 20
358.0447942027
 10
196.1245623409
 20
358.0447787811
 10
195.6929892365
 20
358.0447610023
 10
195.0473582078
 20
358.0447409234
 10
194.1897374056
 20
358.0447186086
 10
193.1228740478
 20
358.0446941295
 10
191.8501856194
 20
358.0446675644
 10
190.3757489252
 20
358.0446389985
 10
188.7042870304
 20
358.0446085232
 10
186.8411541312
 20
358.0445762362
 10
184.7923184042
 20
358.0445422409
 10
182.5643428878
 20
358.0445066461
 10
180.1643644592
 20
358.044469566
 10
177.600070973
 20
358.0444311193
 10
174.8796766341
 20
358.0443914291
 10
172.0118956859
 20
358.0443506227
 10
169.0059144952
 20
358.0443088306
 10
165.8713621261
 20
358.0442661868
 10
162.6182794947
 20
358.0442228279
 10
159.2570872054
 20
358.0441788928
 10
155.7985521705
 20
358.0441345221
 10
152.2537531204
 20
358.0440898581
 10
148.6340451151
 20
358.0440450439
 10
144.9510231705
 20
358.0440002228
 10
141.2164851163
 20
358.0439555387
 10
137.4423938038
 20
358.0439111345
 10
133.6408387852
 20
358.0438671525
 10
129.8239975874
 20
358.0438237336
 10
126.0040967033
 20
358.043781017
 10
122.1933724271
 20
358.0437391393
 10
118.4040316575
 20
358.0436982348
 10
114.6482127954
 20
358.0436584345
 10
110.9379468609
 20
358.043619866
 10
107.2851189542
 20
358.0435826526
 10
103.7014301846
 20
358.0435469137
 10
100.1983601874
 20
358.0435127637
 10
96.7871303519
 20
358.0434803121
 10
93.4786678758
 20
358.0434496627
 10
90.2835707617
 20
358.0434209137
 10
87.2120738689
 20
358.0433941574
 10
84.2740161281
 20
358.0433694792
 10
81.4788090238
 20
358.0433469584
 10
78.8354064471
 20
358.043326667
 10
76.3522760134
 20
358.04330867
 10
74.0373719381
 20
358.0432930252
 10
71.8981095568
 20
358.0432797826
 10
69.9413415718
 20
358.0432689845
 10
68.173336101
 20
358.0432606657
 10
66.5997565988
 20
358.0432548528
 10
65.2256437148
 20
358.0432515644
 10
64.0553991468
 20
358.043250811
 10
63.092771541
 20
358.043252595
 10
62.3408444838
 20
358.0432569107
 10
61.8020266243
 20
358.0432637443
 10
61.4780439584
 20
358.043273074
 10
61.3699343004
 20
358.0432848697
  0
LINE
  5
52
330
1F
100
AcDbEntity
  8
0
  6
Continuous
 62
     7
370
    15
100
AcDbLine
 10
62.0216099073
 20
236.1651634923
 30
0.0
 11
62.0216078581
 21
236.1651488523
 31
0.0
  0
CIRCLE
  5
53
330
1F
100
AcDbEntity
  8
0
  6
Continuous
 62
     7
370
    15
100
AcDbCircle
 10
128.8703987776
 20
226.8082339129
 30
0.0
 40
67.5004644814566
  0
ARC
  5
54
330
1F
100
AcDbEntity
  8
0
  6
Continuous
 62
     7
370
    15
100
AcDbCircle
 10
128.8702344664
 20
226.8082419849
 30
0.0
 40
67.5003006376173
100
AcDbArc
 50
0.0006724528
 51
154.9611245003
  0
LWPOLYLINE
  5
55
330
1F
100
AcDbEntity
  8
0
  6
Continuous
 62
     7
370
    15
100
AcDbPolyline
 90
        3
 70
   128
 43
0.0
 10
62.1933827904
 20
237.3195709266
 10
62.0446865202
 20
236.3285742917
 10
62.0216078581
 20
236.1651488523
  0
ARC
  5
56
330
1F
100
AcDbEntity
  8
0
  6
Continuous
 62
     7
370
    15
100
AcDbCircle
 10
128.8702344664
 20
226.8082419849
 30
0.0
 40
67.5003006376173
100
AcDbArc
 50
200.1868612441
 51
0.0006724528
  0
CIRCLE
  5
57
330
1F
100
AcDbEntity
  8
0
  6
Continuous
 62
     7
370
    15
100
AcDbCircle
 10
128.8702344662
 20
226.808241985
 30
0.0
 40
75.00030494613564
  0
CIRCLE
  5
58
330
1F
100
AcDbEntity
  8
0
  6
Continuous
 62
     7
370
    15
100
AcDbCircle
 10
128.8688310951
 20
226.8081568977
 30
0.0
 40
67.4988968116861
  0
ENDSEC
  0
SECTION
  2
OBJECTS
  0
DICTIONARY
  5
C
330
0
100
AcDbDictionary
281
     1
  3
ACAD_GROUP
350
D
  3
ACAD_LAYOUT
350
1A
  3
ACAD_MLINESTYLE
350
17
  3
ACAD_PLOTSETTINGS
350
19
  3
ACAD_PLOTSTYLENAME
350
E
  0
DICTIONARY
  5
D
102
{ACAD_REACTORS
330
C
102
}
330
C
100
AcDbDictionary
281
     1
  0
DICTIONARY
  5
1A
102
{ACAD_REACTORS
330
C
102
}
330
C
100
AcDbDictionary
281
     1
  3
Layout1
350
1E
  3
Layout2
350
26
  3
Model
350
22
  0
DICTIONARY
  5
17
102
{ACAD_REACTORS
330
C
102
}
330
C
100
AcDbDictionary
281
     1
  3
Standard
350
18
  0
DICTIONARY
  5
19
102
{ACAD_REACTORS
330
C
102
}
330
C
100
AcDbDictionary
281
     1
  0
ACDBDICTIONARYWDFLT
  5
E
102
{ACAD_REACTORS
330
C
102
}
330
C
100
AcDbDictionary
281
     1
  3
Normal
350
F
100
AcDbDictionaryWithDefault
340
F
  0
LAYOUT
  5
1E
102
{ACAD_REACTORS
330
1A
102
}
330
1A
100
AcDbPlotSettings
  1

  2
none_device
  4

  6

 40
0.0
 41
0.0
 42
0.0
 43
0.0
 44
0.0
 45
0.0
 46
0.0
 47
0.0
 48
0.0
 49
0.0
140
0.0
141
0.0
142
1.0
143
1.0
 70
   688
 72
     0
 73
     0
 74
     5
  7

 75
    16
147
1.0
148
0.0
149
0.0
100
AcDbLayout
  1
Layout1
 70
     1
 71
     1
 10
0.0
 20
0.0
 11
420.0
 21
297.0
 12
0.0
 22
0.0
 32
0.0
 14
1.0000000000E+20
 24
1.0000000000E+20
 34
1.0000000000E+20
 15
-1.0000000000E+20
 25
-1.0000000000E+20
 35
-1.0000000000E+20
146
0.0
 13
0.0
 23
0.0
 33
0.0
 16
1.0
 26
0.0
 36
0.0
 17
0.0
 27
1.0
 37
0.0
 76
     0
330
1B
  0
LAYOUT
  5
26
102
{ACAD_REACTORS
330
1A
102
}
330
1A
100
AcDbPlotSettings
  1

  2
none_device
  4

  6

 40
0.0
 41
0.0
 42
0.0
 43
0.0
 44
0.0
 45
0.0
 46
0.0
 47
0.0
 48
0.0
 49
0.0
140
0.0
141
0.0
142
1.0
143
1.0
 70
   688
 72
     0
 73
     0
 74
     5
  7

 75
    16
147
1.0
148
0.0
149
0.0
100
AcDbLayout
  1
Layout2
 70
     1
 71
     2
 10
0.0
 20
0.0
 11
0.0
 21
0.0
 12
0.0
 22
0.0
 32
0.0
 14
0.0
 24
0.0
 34
0.0
 15
0.0
 25
0.0
 35
0.0
146
0.0
 13
0.0
 23
0.0
 33
0.0
 16
1.0
 26
0.0
 36
0.0
 17
0.0
 27
1.0
 37
0.0
 76
     0
330
23
  0
LAYOUT
  5
22
102
{ACAD_REACTORS
330
1A
102
}
330
1A
100
AcDbPlotSettings
  1

  2
none_device
  4

  6

 40
0.0
 41
0.0
 42
0.0
 43
0.0
 44
0.0
 45
0.0
 46
0.0
 47
0.0
 48
0.0
 49
0.0
140
0.0
141
0.0
142
1.0
143
1.0
 70
  1712
 72
     0
 73
     0
 74
     0
  7

 75
     0
147
1.0
148
0.0
149
0.0
100
AcDbLayout
  1
Model
 70
     1
 71
     0
 10
0.0
 20
0.0
 11
558.8
 21
431.8
 12
0.0
 22
0.0
 32
0.0
 14
0.0
 24
0.0
 34
0.0
 15
558.8
 25
431.8
 35
0.0
146
0.0
 13
0.0
 23
0.0
 33
0.0
 16
1.0
 26
0.0
 36
0.0
 17
0.0
 27
1.0
 37
0.0
 76
     0
330
1F
331
29
  0
MLINESTYLE
  5
18
102
{ACAD_REACTORS
330
17
102
}
330
17
100
AcDbMlineStyle
  2
Standard
 70
     0
  3

 62
   256
 51
90.0
 52
90.0
 71
     2
 49
0.5
 62
   256
  6
BYLAYER
 49
-0.5
 62
   256
  6
BYLAYER
  0
ACDBPLACEHOLDER
  5
F
102
{ACAD_REACTORS
330
E
102
}
330
E
  0
ENDSEC
  0
EOF
