  0
SECTION
  2
HEADER
  9
$ACADVER
  1
AC1021
  9
$ACADMAINTVER
 70
    50
  9
$DWGCODEPAGE
  3
ANSI_1251
  9
$LASTSAVEDBY
  1
Игорь
  9
$INSBASE
 10
0.0
 20
0.0
 30
0.0
  9
$EXTMIN
 10
-135.4111140090635
 20
-355.7988249847652
 30
-0.0015258207003583
  9
$EXTMAX
 10
732.8750347477791
 20
242.2450978844253
 30
0.0000000349246037
  9
$LIMMIN
 10
0.0
 20
0.0
  9
$LIMMAX
 10
279.4
 20
215.9
  9
$ORTHOMODE
 70
     0
  9
$REGENMODE
 70
     1
  9
$FILLMODE
 70
     1
  9
$QTEXTMODE
 70
     0
  9
$MIRRTEXT
 70
     1
  9
$LTSCALE
 40
1.0
  9
$ATTMODE
 70
     1
  9
$TEXTSIZE
 40
3.5
  9
$TRACEWID
 40
1.0
  9
$TEXTSTYLE
  7
Standard
  9
$CLAYER
  8
0
  9
$CELTYPE
  6
ByLayer
  9
$CECOLOR
 62
   256
  9
$CELTSCALE
 40
1.0
  9
$DISPSILH
 70
     0
  9
$DIMSCALE
 40
1.0
  9
$DIMASZ
 40
3.5
  9
$DIMEXO
 40
0.01
  9
$DIMDLI
 40
3.75
  9
$DIMRND
 40
0.0
  9
$DIMDLE
 40
0.0
  9
$DIMEXE
 40
1.0
  9
$DIMTP
 40
0.0
  9
$DIMTM
 40
0.0
  9
$DIMTXT
 40
3.5
  9
$DIMCEN
 40
2.5
  9
$DIMTSZ
 40
0.0
  9
$DIMTOL
 70
     0
  9
$DIMLIM
 70
     0
  9
$DIMTIH
 70
     1
  9
$DIMTOH
 70
     1
  9
$DIMSE1
 70
     0
  9
$DIMSE2
 70
     0
  9
$DIMTAD
 70
     1
  9
$DIMZIN
 70
     0
  9
$DIMBLK
  1

  9
$DIMASO
 70
     1
  9
$DIMSHO
 70
     1
  9
$DIMPOST
  1

  9
$DIMAPOST
  1

  9
$DIMALT
 70
     0
  9
$DIMALTD
 70
     3
  9
$DIMALTF
 40
0.0393700787401575
  9
$DIMLFAC
 40
1.0
  9
$DIMTOFL
 70
     1
  9
$DIMTVP
 40
0.0
  9
$DIMTIX
 70
     0
  9
$DIMSOXD
 70
     0
  9
$DIMSAH
 70
     0
  9
$DIMBLK1
  1

  9
$DIMBLK2
  1

  9
$DIMSTYLE
  2
ISO-25
  9
$DIMCLRD
 70
     0
  9
$DIMCLRE
 70
     0
  9
$DIMCLRT
 70
     0
  9
$DIMTFAC
 40
1.0
  9
$DIMGAP
 40
3.0
  9
$DIMJUST
 70
     0
  9
$DIMSD1
 70
     0
  9
$DIMSD2
 70
     0
  9
$DIMTOLJ
 70
     0
  9
$DIMTZIN
 70
     0
  9
$DIMALTZ
 70
     0
  9
$DIMALTTZ
 70
     0
  9
$DIMUPT
 70
     0
  9
$DIMDEC
 70
     2
  9
$DIMTDEC
 70
     3
  9
$DIMALTU
 70
     2
  9
$DIMALTTD
 70
     3
  9
$DIMTXSTY
  7
Standard
  9
$DIMAUNIT
 70
     0
  9
$DIMADEC
 70
     2
  9
$DIMALTRND
 40
0.0
  9
$DIMAZIN
 70
     0
  9
$DIMDSEP
 70
    44
  9
$DIMATFIT
 70
     3
  9
$DIMFRAC
 70
     0
  9
$DIMLDRBLK
  1

  9
$DIMLUNIT
 70
     2
  9
$DIMLWD
 70
    -2
  9
$DIMLWE
 70
    -2
  9
$DIMTMOVE
 70
     0
  9
$DIMFXL
 40
1.0
  9
$DIMFXLON
 70
     0
  9
$DIMJOGANG
 40
0.7853981633974483
  9
$DIMTFILL
 70
     0
  9
$DIMTFILLCLR
 70
     0
  9
$DIMARCSYM
 70
     0
  9
$DIMLTYPE
  6

  9
$DIMLTEX1
  6

  9
$DIMLTEX2
  6

  9
$LUNITS
 70
     2
  9
$LUPREC
 70
     2
  9
$SKETCHINC
 40
1.0
  9
$FILLETRAD
 40
10.0
  9
$AUNITS
 70
     0
  9
$AUPREC
 70
     2
  9
$MENU
  1
.
  9
$ELEVATION
 40
0.0
  9
$PELEVATION
 40
0.0
  9
$THICKNESS
 40
0.0
  9
$LIMCHECK
 70
     0
  9
$CHAMFERA
 40
10.0
  9
$CHAMFERB
 40
10.0
  9
$CHAMFERC
 40
20.0
  9
$CHAMFERD
 40
0.0
  9
$SKPOLY
 70
     0
  9
$TDCREATE
 40
2458068.620809746
  9
$TDUCREATE
 40
2458068.537476412
  9
$TDUPDATE
 40
2458068.621527338
  9
$TDUUPDATE
 40
2458068.538194005
  9
$TDINDWG
 40
0.0004341898
  9
$TDUSRTIMER
 40
0.0004341898
  9
$USRTIMER
 70
     1
  9
$ANGBASE
 50
0.0
  9
$ANGDIR
 70
     0
  9
$PDMODE
 70
     0
  9
$PDSIZE
 40
-1.0
  9
$PLINEWID
 40
0.0
  9
$SPLFRAME
 70
     0
  9
$SPLINETYPE
 70
     6
  9
$SPLINESEGS
 70
     8
  9
$HANDSEED
  5
4B8
  9
$SURFTAB1
 70
     6
  9
$SURFTAB2
 70
     6
  9
$SURFTYPE
 70
     6
  9
$SURFU
 70
     6
  9
$SURFV
 70
     6
  9
$UCSBASE
  2

  9
$UCSNAME
  2

  9
$UCSORG
 10
0.0
 20
0.0
 30
0.0
  9
$UCSXDIR
 10
1.0
 20
0.0
 30
0.0
  9
$UCSYDIR
 10
0.0
 20
1.0
 30
0.0
  9
$UCSORTHOREF
  2

  9
$UCSORTHOVIEW
 70
     0
  9
$UCSORGTOP
 10
0.0
 20
0.0
 30
0.0
  9
$UCSORGBOTTOM
 10
0.0
 20
0.0
 30
0.0
  9
$UCSORGLEFT
 10
0.0
 20
0.0
 30
0.0
  9
$UCSORGRIGHT
 10
0.0
 20
0.0
 30
0.0
  9
$UCSORGFRONT
 10
0.0
 20
0.0
 30
0.0
  9
$UCSORGBACK
 10
0.0
 20
0.0
 30
0.0
  9
$PUCSBASE
  2

  9
$PUCSNAME
  2

  9
$PUCSORG
 10
0.0
 20
0.0
 30
0.0
  9
$PUCSXDIR
 10
1.0
 20
0.0
 30
0.0
  9
$PUCSYDIR
 10
0.0
 20
1.0
 30
0.0
  9
$PUCSORTHOREF
  2

  9
$PUCSORTHOVIEW
 70
     0
  9
$PUCSORGTOP
 10
0.0
 20
0.0
 30
0.0
  9
$PUCSORGBOTTOM
 10
0.0
 20
0.0
 30
0.0
  9
$PUCSORGLEFT
 10
0.0
 20
0.0
 30
0.0
  9
$PUCSORGRIGHT
 10
0.0
 20
0.0
 30
0.0
  9
$PUCSORGFRONT
 10
0.0
 20
0.0
 30
0.0
  9
$PUCSORGBACK
 10
0.0
 20
0.0
 30
0.0
  9
$USERI1
 70
     0
  9
$USERI2
 70
     0
  9
$USERI3
 70
     0
  9
$USERI4
 70
     0
  9
$USERI5
 70
     0
  9
$USERR1
 40
0.0
  9
$USERR2
 40
0.0
  9
$USERR3
 40
0.0
  9
$USERR4
 40
0.0
  9
$USERR5
 40
0.0
  9
$WORLDVIEW
 70
     1
  9
$SHADEDGE
 70
     3
  9
$SHADEDIF
 70
    70
  9
$TILEMODE
 70
     1
  9
$MAXACTVP
 70
    64
  9
$PINSBASE
 10
0.0
 20
0.0
 30
0.0
  9
$PLIMCHECK
 70
     0
  9
$PEXTMIN
 10
1.000000000000000E+20
 20
1.000000000000000E+20
 30
1.000000000000000E+20
  9
$PEXTMAX
 10
-1.000000000000000E+20
 20
-1.000000000000000E+20
 30
-1.000000000000000E+20
  9
$PLIMMIN
 10
0.0
 20
0.0
  9
$PLIMMAX
 10
420.0
 20
297.0
  9
$UNITMODE
 70
     0
  9
$VISRETAIN
 70
     1
  9
$PLINEGEN
 70
     0
  9
$PSLTSCALE
 70
     1
  9
$TREEDEPTH
 70
  3020
  9
$CMLSTYLE
  2
Standard
  9
$CMLJUST
 70
     0
  9
$CMLSCALE
 40
20.0
  9
$PROXYGRAPHICS
 70
     1
  9
$MEASUREMENT
 70
     1
  9
$CELWEIGHT
370
    -1
  9
$ENDCAPS
280
     0
  9
$JOINSTYLE
280
     0
  9
$LWDISPLAY
290
     1
  9
$INSUNITS
 70
     4
  9
$HYPERLINKBASE
  1

  9
$STYLESHEET
  1

  9
$XEDIT
290
     1
  9
$CEPSNTYPE
380
     0
  9
$PSTYLEMODE
290
     1
  9
$FINGERPRINTGUID
  2
{2A8301B9-E23D-4F94-BD46-13F225FEE7F1}
  9
$VERSIONGUID
  2
{E0770F30-4D33-4CD8-86C5-7A6D729B2BA5}
  9
$EXTNAMES
290
     1
  9
$PSVPSCALE
 40
0.0
  9
$OLESTARTUP
290
     0
  9
$SORTENTS
280
   127
  9
$INDEXCTL
280
     0
  9
$HIDETEXT
280
     0
  9
$XCLIPFRAME
290
     0
  9
$HALOGAP
280
     0
  9
$OBSCOLOR
 70
   257
  9
$OBSLTYPE
280
     0
  9
$INTERSECTIONDISPLAY
280
     0
  9
$INTERSECTIONCOLOR
 70
   257
  9
$DIMASSOC
280
     1
  9
$PROJECTNAME
  1

  9
$CAMERADISPLAY
290
     0
  9
$LENSLENGTH
 40
50.0
  9
$CAMERAHEIGHT
 40
0.0
  9
$STEPSPERSEC
 40
2.0
  9
$STEPSIZE
 40
6.0
  9
$3DDWFPREC
 40
2.0
  9
$PSOLWIDTH
 40
0.25
  9
$PSOLHEIGHT
 40
4.0
  9
$LOFTANG1
 40
1.570796326794896
  9
$LOFTANG2
 40
1.570796326794896
  9
$LOFTMAG1
 40
0.0
  9
$LOFTMAG2
 40
0.0
  9
$LOFTPARAM
 70
     7
  9
$LOFTNORMALS
280
     1
  9
$LATITUDE
 40
37.795
  9
$LONGITUDE
 40
-122.394
  9
$NORTHDIRECTION
 40
0.0
  9
$TIMEZONE
 70
 -8000
  9
$LIGHTGLYPHDISPLAY
280
     1
  9
$TILEMODELIGHTSYNCH
280
     1
  9
$CMATERIAL
347
451
  9
$SOLIDHIST
280
     1
  9
$SHOWHIST
280
     1
  9
$DWFFRAME
280
     2
  9
$DGNFRAME
280
     0
  9
$REALWORLDSCALE
290
     1
  9
$INTERFERECOLOR
 62
     1
  9
$INTERFEREOBJVS
345
473
  9
$INTERFEREVPVS
346
470
  9
$CSHADOW
280
     0
  9
$SHADOWPLANELOCATION
 40
0.0
  0
ENDSEC
  0
SECTION
  2
CLASSES
  0
CLASS
  1
ACDBDICTIONARYWDFLT
  2
AcDbDictionaryWithDefault
  3
ObjectDBX Classes
 90
        0
 91
        1
280
     0
281
     0
  0
CLASS
  1
VISUALSTYLE
  2
AcDbVisualStyle
  3
ObjectDBX Classes
 90
     4095
 91
       16
280
     0
281
     0
  0
CLASS
  1
MATERIAL
  2
AcDbMaterial
  3
ObjectDBX Classes
 90
     1153
 91
        3
280
     0
281
     0
  0
CLASS
  1
TABLESTYLE
  2
AcDbTableStyle
  3
ObjectDBX Classes
 90
     4095
 91
        1
280
     0
281
     0
  0
CLASS
  1
SCALE
  2
AcDbScale
  3
ObjectDBX Classes
 90
     1153
 91
       17
280
     0
281
     0
  0
CLASS
  1
MLEADERSTYLE
  2
AcDbMLeaderStyle
  3
ACDB_MLEADERSTYLE_CLASS
 90
     4095
 91
        1
280
     0
281
     0
  0
CLASS
  1
DICTIONARYVAR
  2
AcDbDictionaryVar
  3
ObjectDBX Classes
 90
        0
 91
        7
280
     0
281
     0
  0
CLASS
  1
CELLSTYLEMAP
  2
AcDbCellStyleMap
  3
ObjectDBX Classes
 90
     1152
 91
        1
280
     0
281
     0
  0
ENDSEC
  0
SECTION
  2
TABLES
  0
TABLE
  2
VPORT
  5
8
330
0
100
AcDbSymbolTable
 70
     1
  0
VPORT
  5
29
330
8
100
AcDbSymbolTableRecord
100
AcDbViewportTableRecord
  2
*Active
 70
     0
 10
0.0
 20
0.0
 11
1.0
 21
1.0
 12
298.7319603693578
 22
-56.77686355016994
 13
0.0
 23
0.0
 14
10.0
 24
10.0
 15
10.0
 25
10.0
 16
0.0
 26
0.0
 36
1.0
 17
0.0
 27
0.0
 37
0.0
 40
605.4271811762175
 41
2.604123711340206
 42
50.0
 43
0.0
 44
0.0
 50
0.0
 51
0.0
 71
     0
 72
  2000
 73
     1
 74
     3
 75
     0
 76
     0
 77
     0
 78
     0
281
     0
 65
     1
110
0.0
120
0.0
130
0.0
111
1.0
121
0.0
131
0.0
112
0.0
122
1.0
132
0.0
 79
     0
146
0.0
348
46F
 60
     3
 61
     5
292
     1
282
     1
141
0.0
142
0.0
 63
   250
421
  3355443
  0
ENDTAB
  0
TABLE
  2
LTYPE
  5
5
330
0
100
AcDbSymbolTable
 70
     6
  0
LTYPE
  5
14
330
5
100
AcDbSymbolTableRecord
100
AcDbLinetypeTableRecord
  2
ByBlock
 70
     0
  3

 72
    65
 73
     0
 40
0.0
  0
LTYPE
  5
15
330
5
100
AcDbSymbolTableRecord
100
AcDbLinetypeTableRecord
  2
ByLayer
 70
     0
  3

 72
    65
 73
     0
 40
0.0
  0
LTYPE
  5
16
330
5
100
AcDbSymbolTableRecord
100
AcDbLinetypeTableRecord
  2
Continuous
 70
     0
  3
Solid line
 72
    65
 73
     0
 40
0.0
  0
LTYPE
  5
3F
330
5
100
AcDbSymbolTableRecord
100
AcDbLinetypeTableRecord
  2
HIDDEN
 70
     0
  3
Hidden __ __ __ __ __ __ __ __ __ __ __ __ __ __
 72
    65
 73
     2
 40
1.905
 49
1.27
 74
     0
 49
-0.635
 74
     0
  0
LTYPE
  5
40
330
5
100
AcDbSymbolTableRecord
100
AcDbLinetypeTableRecord
  2
PHANTOM
 70
     0
  3
Phantom ______  __  __  ______  __  __  ______
 72
    65
 73
     6
 40
12.7
 49
6.349999999999999
 74
     0
 49
-1.27
 74
     0
 49
1.27
 74
     0
 49
-1.27
 74
     0
 49
1.27
 74
     0
 49
-1.27
 74
     0
  0
LTYPE
  5
41
330
5
100
AcDbSymbolTableRecord
100
AcDbLinetypeTableRecord
  2
CENTER
 70
     0
  3
Center ____ _ ____ _ ____ _ ____ _ ____ _ ____
 72
    65
 73
     4
 40
10.16
 49
6.349999999999999
 74
     0
 49
-1.27
 74
     0
 49
1.27
 74
     0
 49
-1.27
 74
     0
  0
LTYPE
  5
42
330
5
100
AcDbSymbolTableRecord
100
AcDbLinetypeTableRecord
  2
CENTERX2
 70
     0
  3
Center (2x) ________  __  ________  __  _____
 72
    65
 73
     4
 40
20.32
 49
12.7
 74
     0
 49
-2.54
 74
     0
 49
2.54
 74
     0
 49
-2.54
 74
     0
  0
LTYPE
  5
43
330
5
100
AcDbSymbolTableRecord
100
AcDbLinetypeTableRecord
  2
DOT2
 70
     0
  3
Dot (.5x) ........................................
 72
    65
 73
     2
 40
0.635
 49
0.0
 74
     0
 49
-0.635
 74
     0
  0
ENDTAB
  0
TABLE
  2
LAYER
  5
2
330
0
100
AcDbSymbolTable
 70
     2
  0
LAYER
  5
10
102
{ACAD_XDICTIONARY
360
4AB
102
}
330
2
100
AcDbSymbolTableRecord
100
AcDbLayerTableRecord
  2
0
 70
     0
 62
     7
  6
Continuous
370
    -3
390
F
347
461
  0
LAYER
  5
495
330
2
100
AcDbSymbolTableRecord
100
AcDbLayerTableRecord
  2
Defpoints
 70
     0
 62
     7
  6
Continuous
290
     0
370
    -3
390
F
347
461
  0
ENDTAB
  0
TABLE
  2
STYLE
  5
3
330
0
100
AcDbSymbolTable
 70
     1
  0
STYLE
  5
11
330
3
100
AcDbSymbolTableRecord
100
AcDbTextStyleTableRecord
  2
Standard
 70
     0
 40
0.0
 41
1.0
 50
0.0
 71
     0
 42
3.5
  3
txt
  4

  0
ENDTAB
  0
TABLE
  2
VIEW
  5
6
330
0
100
AcDbSymbolTable
 70
     0
  0
ENDTAB
  0
TABLE
  2
UCS
  5
7
330
0
100
AcDbSymbolTable
 70
     0
  0
ENDTAB
  0
TABLE
  2
APPID
  5
9
330
0
100
AcDbSymbolTable
 70
     2
  0
APPID
  5
12
330
9
100
AcDbSymbolTableRecord
100
AcDbRegAppTableRecord
  2
ACAD
 70
     0
  0
APPID
  5
491
330
9
100
AcDbSymbolTableRecord
100
AcDbRegAppTableRecord
  2
ACAD_MLEADERVER
 70
     0
  0
ENDTAB
  0
TABLE
  2
DIMSTYLE
  5
A
330
0
100
AcDbSymbolTable
 70
     1
100
AcDbDimStyleTable
 71
     1
340
27
  0
DIMSTYLE
105
27
330
A
100
AcDbSymbolTableRecord
100
AcDbDimStyleTableRecord
  2
ISO-25
 70
     0
 41
2.5
 42
0.625
 43
3.75
 44
1.25
 73
     0
 74
     0
 77
     1
 78
     8
140
2.5
141
2.5
143
0.03937007874016
147
0.625
171
     3
172
     1
271
     2
272
     2
274
     3
278
    44
283
     0
284
     8
340
11
  0
ENDTAB
  0
TABLE
  2
BLOCK_RECORD
  5
1
330
0
100
AcDbSymbolTable
 70
     2
  0
BLOCK_RECORD
  5
1F
330
1
100
AcDbSymbolTableRecord
100
AcDbBlockTableRecord
  2
*Model_Space
340
22
 70
     0
280
     1
281
     0
  0
BLOCK_RECORD
  5
1B
330
1
100
AcDbSymbolTableRecord
100
AcDbBlockTableRecord
  2
*Paper_Space
340
1E
 70
     0
280
     1
281
     0
  0
BLOCK_RECORD
  5
23
330
1
100
AcDbSymbolTableRecord
100
AcDbBlockTableRecord
  2
*Paper_Space0
340
26
 70
     0
280
     1
281
     0
  0
BLOCK_RECORD
  5
496
330
1
100
AcDbSymbolTableRecord
100
AcDbBlockTableRecord
  2
*D1
340
0
 70
     0
280
     1
281
     0
  0
ENDTAB
  0
ENDSEC
  0
SECTION
  2
BLOCKS
  0
BLOCK
  5
20
330
1F
100
AcDbEntity
  8
0
100
AcDbBlockBegin
  2
*Model_Space
 70
     0
 10
0.0
 20
0.0
 30
0.0
  3
*Model_Space
  1

  0
ENDBLK
  5
21
330
1F
100
AcDbEntity
  8
0
100
AcDbBlockEnd
  0
BLOCK
  5
1C
330
1B
100
AcDbEntity
 67
     1
  8
0
100
AcDbBlockBegin
  2
*Paper_Space
 70
     0
 10
0.0
 20
0.0
 30
0.0
  3
*Paper_Space
  1

  0
ENDBLK
  5
1D
330
1B
100
AcDbEntity
 67
     1
  8
0
100
AcDbBlockEnd
  0
BLOCK
  5
24
330
23
100
AcDbEntity
 67
     1
  8
0
100
AcDbBlockBegin
  2
*Paper_Space0
 70
     0
 10
0.0
 20
0.0
 30
0.0
  3
*Paper_Space0
  1

  0
ENDBLK
  5
25
330
23
100
AcDbEntity
 67
     1
  8
0
100
AcDbBlockEnd
  0
BLOCK
  5
497
330
496
100
AcDbEntity
  8
0
100
AcDbBlockBegin
  2
*D1
 70
     1
 10
0.0
 20
0.0
 30
0.0
  3
*D1
  1

  0
LINE
  5
4A2
330
496
100
AcDbEntity
  8
0
 62
     0
370
    -2
100
AcDbLine
 10
-135.401984239454
 20
39.20224596696516
 30
0.0
 11
-135.401984239454
 21
-16.75264185110865
 31
0.0
  0
LINE
  5
4A3
330
496
100
AcDbEntity
  8
0
 62
     0
370
    -2
100
AcDbLine
 10
327.5980157605459
 20
39.20224596696516
 30
0.0
 11
327.5980157605459
 21
-16.75264185110865
 31
0.0
  0
LINE
  5
4A4
330
496
100
AcDbEntity
  8
0
 62
     0
370
    -2
100
AcDbLine
 10
-131.901984239454
 20
-15.75264185110865
 30
0.0
 11
324.0980157605459
 21
-15.75264185110865
 31
0.0
  0
SOLID
  5
4A5
330
496
100
AcDbEntity
  8
0
 62
     0
100
AcDbTrace
 10
-131.901984239454
 20
-15.16930851777531
 30
0.0
 11
-131.901984239454
 21
-16.33597518444198
 31
0.0
 12
-135.401984239454
 22
-15.75264185110865
 32
0.0
 13
-135.401984239454
 23
-15.75264185110865
 33
0.0
  0
SOLID
  5
4A6
330
496
100
AcDbEntity
  8
0
 62
     0
100
AcDbTrace
 10
324.0980157605459
 20
-15.16930851777531
 30
0.0
 11
324.0980157605459
 21
-16.33597518444198
 31
0.0
 12
327.5980157605459
 22
-15.75264185110865
 32
0.0
 13
327.5980157605459
 23
-15.75264185110865
 33
0.0
  0
MTEXT
  5
4A7
330
496
100
AcDbEntity
  8
0
 62
     0
100
AcDbMText
 10
96.09801576054595
 20
-10.71097518444198
 30
0.0
 40
3.5
 41
0.0
 46
0.0
 71
     5
 72
     1
  1
463,00
 73
     1
 44
1.0
  0
POINT
  5
4A8
330
496
100
AcDbEntity
  8
Defpoints
 62
     0
100
AcDbPoint
 10
-135.401984239454
 20
39.21224596696516
 30
0.0
  0
POINT
  5
4A9
330
496
100
AcDbEntity
  8
Defpoints
 62
     0
100
AcDbPoint
 10
327.5980157605459
 20
39.21224596696516
 30
0.0
  0
POINT
  5
4AA
330
496
100
AcDbEntity
  8
Defpoints
 62
     0
100
AcDbPoint
 10
327.5980157605459
 20
-15.75264185110865
 30
0.0
  0
ENDBLK
  5
498
330
496
100
AcDbEntity
  8
0
100
AcDbBlockEnd
  0
ENDSEC
  0
SECTION
  2
ENTITIES
  0
LINE
  5
44
330
1F
100
AcDbEntity
  8
0
  6
Continuous
 62
     7
370
    15
100
AcDbLine
 10
620.9401851533564
 20
242.2337788210555
 30
0.0
 11
590.9401851533563
 21
242.2337788210555
 31
0.0
  0
CIRCLE
  5
45
330
1F
100
AcDbEntity
  8
0
  6
Continuous
 62
     7
370
    15
100
AcDbCircle
 10
605.4640980962235
 20
196.973473948774
 30
0.0
 40
3.0
  0
LINE
  5
46
330
1F
100
AcDbEntity
  8
0
  6
Continuous
 62
     7
370
    15
100
AcDbLine
 10
620.9401851533564
 20
183.8337788210554
 30
0.0
 11
590.9401851533563
 21
183.8337788210554
 31
0.0
  0
LINE
  5
47
330
1F
100
AcDbEntity
  8
0
  6
Continuous
 62
     7
370
    15
100
AcDbLine
 10
620.9401851533564
 20
242.2337788210555
 30
0.0
 11
620.9401851533564
 21
183.8337788210554
 31
0.0
  0
LINE
  5
48
330
1F
100
AcDbEntity
  8
0
  6
Continuous
 62
     7
370
    15
100
AcDbLine
 10
590.9401851533563
 20
242.2337788210555
 30
0.0
 11
590.9401851533563
 21
183.8337788210554
 31
0.0
  0
CIRCLE
  5
49
330
1F
100
AcDbEntity
  8
0
  6
Continuous
 62
     7
370
    15
100
AcDbCircle
 10
669.7857154448059
 20
148.3727835847371
 30
0.0
 40
3.0
  0
CIRCLE
  5
4A
330
1F
100
AcDbEntity
  8
0
  6
Continuous
 62
     7
370
    15
100
AcDbCircle
 10
541.1424807476411
 20
148.3727835847373
 30
0.0
 40
3.0
  0
LINE
  5
4B
330
1F
100
AcDbEntity
  8
0
  6
Continuous
 62
     7
370
    15
100
AcDbLine
 10
678.7475172211953
 20
150.5130413412342
 30
0.0
 11
620.9401851533564
 21
202.514166912705
 31
0.0
  0
LINE
  5
4C
330
1F
100
AcDbEntity
  8
0
  6
Continuous
 62
     7
370
    15
100
AcDbLine
 10
543.0160681176679
 20
140.4081278676103
 30
0.0
 11
570.3551859477633
 21
165.0012867012967
 31
0.0
  0
LINE
  5
4D
330
1F
100
AcDbEntity
  8
0
  6
Continuous
 62
     7
370
    15
100
AcDbLine
 10
590.4041726948597
 20
202.8885290177454
 30
0.0
 11
532.1806789712516
 21
150.5130413412344
 31
0.0
  0
LINE
  5
4E
330
1F
100
AcDbEntity
  8
0
  6
Continuous
 62
     7
370
    15
100
AcDbLine
 10
532.1806789712516
 20
150.5130413412344
 30
0.0
 11
543.0160681176679
 21
140.4081278676103
 31
0.0
  0
LINE
  5
4F
330
1F
100
AcDbEntity
  8
0
  6
Continuous
 62
     7
370
    15
100
AcDbLine
 10
667.912128074779
 20
140.40812786761
 30
0.0
 11
678.7475172211953
 21
150.5130413412342
 31
0.0
  0
LINE
  5
50
330
1F
100
AcDbEntity
  8
0
  6
Continuous
 62
     7
370
    15
100
AcDbLine
 10
590.9401851533563
 20
202.8885290177454
 30
0.0
 11
590.4041726948597
 21
202.8885290177454
 31
0.0
  0
LINE
  5
51
330
1F
100
AcDbEntity
  8
0
  6
Continuous
 62
     7
370
    15
100
AcDbLine
 10
640.5730102446836
 20
165.0012867012967
 30
0.0
 11
667.912128074779
 21
140.40812786761
 31
0.0
  0
LINE
  5
52
330
1F
100
AcDbEntity
  8
0
  6
Continuous
 62
     7
370
    15
100
AcDbLine
 10
570.3551859477633
 20
165.0012867012967
 30
0.0
 11
640.5730102446836
 21
165.0012867012967
 31
0.0
  0
LINE
  5
53
330
1F
100
AcDbEntity
  8
0
  6
Continuous
 62
     7
370
    15
100
AcDbLine
 10
703.7272608634506
 20
31.23246770670824
 30
0.0
 11
732.8640181030976
 21
39.21224596696518
 31
0.0
  0
LINE
  5
54
330
1F
100
AcDbEntity
  8
0
  6
Continuous
 62
     7
370
    15
100
AcDbLine
 10
652.0007753427444
 20
31.23246770670824
 30
0.0
 11
622.8640181030974
 21
39.21224596696516
 31
0.0
  0
LINE
  5
55
330
1F
100
AcDbEntity
  8
0
  6
Continuous
 62
     7
370
    15
100
AcDbLine
 10
652.0007753427444
 20
31.23246770670824
 30
0.0
 11
703.7272608634506
 21
31.23246770670824
 31
0.0
  0
LINE
  5
56
330
1F
100
AcDbEntity
  8
0
  6
Continuous
 62
     7
370
    15
100
AcDbLine
 10
732.8640181030976
 20
39.21224596696518
 30
0.0
 11
732.8640181030976
 21
85.59571046706295
 31
0.0
  0
LINE
  5
57
330
1F
100
AcDbEntity
  8
0
  6
Continuous
 62
     7
370
    15
100
AcDbLine
 10
622.8640181030974
 20
85.59571046706295
 30
0.0
 11
622.8640181030974
 21
39.21224596696516
 31
0.0
  0
ARC
  5
58
330
1F
100
AcDbEntity
  8
0
  6
Continuous
 62
     7
370
    15
100
AcDbCircle
 10
663.9221558330274
 20
-61.1012123527857
 30
0.0
 40
152.3343619760904
100
AcDbArc
 50
90.17143697045312
 51
105.6360890115455
  0
LINE
  5
59
330
1F
100
AcDbEntity
  8
0
  6
Continuous
 62
     7
370
    15
100
AcDbLine
 10
692.2616853690408
 20
91.23246770670826
 30
0.0
 11
663.4663508371541
 21
91.23246770670826
 31
0.0
  0
ARC
  5
5A
330
1F
100
AcDbEntity
  8
0
  6
Continuous
 62
     7
370
    15
100
AcDbCircle
 10
691.8058803731676
 20
-61.1012123527857
 30
0.0
 40
152.3343619760904
100
AcDbArc
 50
74.36391098845446
 51
89.82856302954687
  0
ARC
  5
5B
330
1F
100
AcDbEntity
  8
0
  6
Continuous
 62
     7
370
    15
100
AcDbCircle
 10
694.6200265894161
 20
32.23246770670824
 30
0.0
 40
3.000000000000021
100
AcDbArc
 50
270.0000000000008
 51
340.5287793655102
  0
LINE
  5
5C
330
1F
100
AcDbEntity
  8
0
  6
Continuous
 62
     7
370
    15
100
AcDbLine
 10
694.6200265894161
 20
29.23246770670824
 30
0.0
 11
685.2768808389083
 21
29.23246770670824
 31
0.0
  0
ARC
  5
5D
330
1F
100
AcDbEntity
  8
0
  6
Continuous
 62
     7
370
    15
100
AcDbCircle
 10
685.2768808389083
 20
32.23246770670824
 30
0.0
 40
3.000000000000021
100
AcDbArc
 50
199.4712206344911
 51
270.0000000000008
  0
LINE
  5
5E
330
1F
100
AcDbEntity
  8
0
  6
Continuous
 62
     7
370
    15
100
AcDbLine
 10
669.3328620834024
 20
29.23246770670824
 30
0.0
 11
659.9897163328948
 21
29.23246770670824
 31
0.0
  0
ARC
  5
5F
330
1F
100
AcDbEntity
  8
0
  6
Continuous
 62
     7
370
    15
100
AcDbCircle
 10
659.9897163328948
 20
32.23246770670824
 30
0.0
 40
3.000000000000021
100
AcDbArc
 50
199.4712206344911
 51
270.0000000000008
  0
ARC
  5
60
330
1F
100
AcDbEntity
  8
0
  6
Continuous
 62
     7
370
    15
100
AcDbCircle
 10
669.3328620834024
 20
32.23246770670824
 30
0.0
 40
3.000000000000021
100
AcDbArc
 50
270.0000000000008
 51
340.5287793655102
  0
LINE
  5
61
330
1F
100
AcDbEntity
  8
0
  6
Continuous
 62
     7
370
    15
100
AcDbLine
 10
663.4663508371541
 20
144.4073683121482
 30
0.0
 11
663.4663508371541
 21
91.23246770670826
 31
0.0
  0
LINE
  5
62
330
1F
100
AcDbEntity
  8
0
  6
Continuous
 62
     7
370
    15
100
AcDbLine
 10
668.8789592909549
 20
151.2324677067082
 30
0.0
 11
670.6924715986579
 21
151.2324677067082
 31
0.0
  0
LINE
  5
63
330
1F
100
AcDbEntity
  8
0
  6
Continuous
 62
     7
370
    15
100
AcDbLine
 10
677.9477630168347
 20
151.2324677067082
 30
0.0
 11
692.2616853690408
 21
151.2324677067082
 31
0.0
  0
LINE
  5
64
330
1F
100
AcDbEntity
  8
0
  6
Continuous
 62
     7
370
    15
100
AcDbLine
 10
692.2616853690408
 20
151.2324677067082
 30
0.0
 11
692.2616853690408
 21
91.23246770670826
 31
0.0
  0
LINE
  5
65
330
1F
100
AcDbEntity
  8
0
  6
Continuous
 62
     7
370
    15
100
AcDbLine
 10
483.8640181030974
 20
85.59571046706295
 30
0.0
 11
483.8640181030974
 21
39.21224596696516
 31
0.0
  0
LINE
  5
66
330
1F
100
AcDbEntity
  8
0
  6
Continuous
 62
     7
370
    15
100
AcDbLine
 10
513.0007753427443
 20
31.23246770670824
 30
0.0
 11
483.8640181030974
 21
39.21224596696516
 31
0.0
  0
LINE
  5
67
330
1F
100
AcDbEntity
  8
0
  6
Continuous
 62
     7
370
    15
100
AcDbLine
 10
564.7272608634506
 20
31.23246770670824
 30
0.0
 11
593.8640181030975
 21
39.21224596696518
 31
0.0
  0
LINE
  5
68
330
1F
100
AcDbEntity
  8
0
  6
Continuous
 62
     7
370
    15
100
AcDbLine
 10
593.8640181030975
 20
39.21224596696518
 30
0.0
 11
593.8640181030975
 21
85.59571046706295
 31
0.0
  0
LINE
  5
69
330
1F
100
AcDbEntity
  8
0
  6
Continuous
 62
     7
370
    15
100
AcDbLine
 10
513.0007753427443
 20
31.23246770670824
 30
0.0
 11
564.7272608634506
 21
31.23246770670824
 31
0.0
  0
ARC
  5
6A
330
1F
100
AcDbEntity
  8
0
  6
Continuous
 62
     7
370
    15
100
AcDbCircle
 10
524.9221558330274
 20
-61.1012123527857
 30
0.0
 40
152.3343619760904
100
AcDbArc
 50
90.17143697045312
 51
105.6360890115455
  0
LINE
  5
6B
330
1F
100
AcDbEntity
  8
0
  6
Continuous
 62
     7
370
    15
100
AcDbLine
 10
553.2616853690407
 20
91.23246770670826
 30
0.0
 11
524.4663508371542
 21
91.23246770670826
 31
0.0
  0
ARC
  5
6C
330
1F
100
AcDbEntity
  8
0
  6
Continuous
 62
     7
370
    15
100
AcDbCircle
 10
552.8058803731676
 20
-61.1012123527857
 30
0.0
 40
152.3343619760904
100
AcDbArc
 50
74.36391098845446
 51
89.82856302954687
  0
LINE
  5
6D
330
1F
100
AcDbEntity
  8
0
  6
Continuous
 62
     7
370
    15
100
AcDbLine
 10
555.620026589416
 20
29.23246770670824
 30
0.0
 11
546.2768808389084
 21
29.23246770670824
 31
0.0
  0
ARC
  5
6E
330
1F
100
AcDbEntity
  8
0
  6
Continuous
 62
     7
370
    15
100
AcDbCircle
 10
546.2768808389084
 20
32.23246770670824
 30
0.0
 40
3.000000000000021
100
AcDbArc
 50
199.4712206344911
 51
270.0000000000008
  0
ARC
  5
6F
330
1F
100
AcDbEntity
  8
0
  6
Continuous
 62
     7
370
    15
100
AcDbCircle
 10
555.620026589416
 20
32.23246770670824
 30
0.0
 40
3.0
100
AcDbArc
 50
270.0000000000008
 51
340.5287793655096
  0
LINE
  5
70
330
1F
100
AcDbEntity
  8
0
  6
Continuous
 62
     7
370
    15
100
AcDbLine
 10
530.3328620834024
 20
29.23246770670824
 30
0.0
 11
520.9897163328949
 21
29.23246770670824
 31
0.0
  0
ARC
  5
71
330
1F
100
AcDbEntity
  8
0
  6
Continuous
 62
     7
370
    15
100
AcDbCircle
 10
530.3328620834024
 20
32.23246770670824
 30
0.0
 40
3.000000000000021
100
AcDbArc
 50
270.0000000000008
 51
340.5287793655102
  0
ARC
  5
72
330
1F
100
AcDbEntity
  8
0
  6
Continuous
 62
     7
370
    15
100
AcDbCircle
 10
520.9897163328949
 20
32.23246770670824
 30
0.0
 40
3.000000000000021
100
AcDbArc
 50
199.4712206344911
 51
270.0000000000008
  0
LINE
  5
73
330
1F
100
AcDbEntity
  8
0
  6
Continuous
 62
     7
370
    15
100
AcDbLine
 10
524.4663508371542
 20
151.2324677067082
 30
0.0
 11
532.9804331756137
 21
151.2324677067082
 31
0.0
  0
LINE
  5
74
330
1F
100
AcDbEntity
  8
0
  6
Continuous
 62
     7
370
    15
100
AcDbLine
 10
540.2357245937911
 20
151.2324677067082
 30
0.0
 11
542.0492369014923
 21
151.2324677067082
 31
0.0
  0
LINE
  5
75
330
1F
100
AcDbEntity
  8
0
  6
Continuous
 62
     7
370
    15
100
AcDbLine
 10
553.2616853690407
 20
149.6246685759858
 30
0.0
 11
553.2616853690407
 21
91.23246770670826
 31
0.0
  0
LINE
  5
76
330
1F
100
AcDbEntity
  8
0
  6
Continuous
 62
     7
370
    15
100
AcDbLine
 10
524.4663508371542
 20
151.2324677067082
 30
0.0
 11
524.4663508371542
 21
91.23246770670826
 31
0.0
  0
LINE
  5
77
330
1F
100
AcDbEntity
  8
0
  6
Continuous
 62
     7
370
    15
100
AcDbLine
 10
231.7908748264591
 20
240.2337788210553
 30
0.0
 11
-36.20912517354089
 21
240.2337788210553
 31
0.0
  0
LINE
  5
78
330
1F
100
AcDbEntity
  8
0
  6
Continuous
 62
     7
370
    15
100
AcDbLine
 10
-36.20912517354089
 20
240.2337788210553
 30
0.0
 11
-36.20912517354091
 21
202.8885290177453
 31
0.0
  0
LINE
  5
79
330
1F
100
AcDbEntity
  8
0
  6
Continuous
 62
     7
370
    15
100
AcDbLine
 10
-36.20912517354091
 20
183.8337788210554
 30
0.0
 11
-38.20912517354091
 21
183.8337788210554
 31
0.0
  0
LINE
  5
7A
330
1F
100
AcDbEntity
  8
0
  6
Continuous
 62
     7
370
    15
100
AcDbLine
 10
-38.20912517354091
 20
183.8337788210554
 30
0.0
 11
-38.20912517354088
 21
242.2337788210553
 31
0.0
  0
LINE
  5
7B
330
1F
100
AcDbEntity
  8
0
  6
Continuous
 62
     7
370
    15
100
AcDbLine
 10
233.7908748264591
 20
242.2337788210553
 30
0.0
 11
233.7908748264591
 21
183.8337788210554
 31
0.0
  0
LINE
  5
7C
330
1F
100
AcDbEntity
  8
0
  6
Continuous
 62
     7
370
    15
100
AcDbLine
 10
233.7908748264591
 20
183.8337788210554
 30
0.0
 11
231.7908748264591
 21
183.8337788210554
 31
0.0
  0
LINE
  5
7D
330
1F
100
AcDbEntity
  8
0
  6
Continuous
 62
     7
370
    15
100
AcDbLine
 10
231.7908748264591
 20
202.8885290177453
 30
0.0
 11
231.7908748264591
 21
240.2337788210553
 31
0.0
  0
LINE
  5
7E
330
1F
100
AcDbEntity
  8
0
  6
Continuous
 62
     7
370
    15
100
AcDbLine
 10
-38.20912517354088
 20
242.2337788210553
 30
0.0
 11
233.7908748264591
 21
242.2337788210553
 31
0.0
  0
LINE
  5
7F
330
1F
100
AcDbEntity
  8
0
  6
Continuous
 62
     7
370
    15
100
AcDbLine
 10
229.7908748264591
 20
150.5130413412344
 30
0.0
 11
231.7908748264591
 21
150.5130413412344
 31
0.0
  0
LINE
  5
80
330
1F
100
AcDbEntity
  8
0
  6
Continuous
 62
     7
370
    15
100
AcDbLine
 10
229.7908748264591
 20
202.8885290177454
 30
0.0
 11
229.7908748264591
 21
151.2324677067082
 31
0.0
  0
LINE
  5
81
330
1F
100
AcDbEntity
  8
0
  6
Continuous
 62
     7
370
    15
100
AcDbLine
 10
229.7908748264591
 20
202.8885290177454
 30
0.0
 11
231.7908748264591
 21
202.8885290177454
 31
0.0
  0
LINE
  5
82
330
1F
100
AcDbEntity
  8
0
  6
Continuous
 62
     7
370
    15
100
AcDbLine
 10
231.7908748264591
 20
202.8885290177454
 30
0.0
 11
231.7908748264591
 21
150.5130413412344
 31
0.0
  0
LINE
  5
83
330
1F
100
AcDbEntity
  8
0
  6
Continuous
 62
     7
370
    15
100
AcDbLine
 10
229.7908748264591
 20
140.4081278676103
 30
0.0
 11
231.7908748264591
 21
140.4081278676103
 31
0.0
  0
LINE
  5
84
330
1F
100
AcDbEntity
  8
0
  6
Continuous
 62
     7
370
    15
100
AcDbLine
 10
231.7908748264591
 20
150.5130413412344
 30
0.0
 11
231.7908748264591
 21
140.4081278676103
 31
0.0
  0
LINE
  5
85
330
1F
100
AcDbEntity
  8
0
  6
Continuous
 62
     7
370
    15
100
AcDbLine
 10
97.79087482645913
 20
201.8885290177458
 30
0.0
 11
97.79087482645913
 21
202.8885290177458
 31
0.0
  0
LINE
  5
86
330
1F
100
AcDbEntity
  8
0
  6
Continuous
 62
     7
370
    15
100
AcDbLine
 10
97.79087482645913
 20
202.8885290177458
 30
0.0
 11
229.7908748264591
 21
202.8885290177454
 31
0.0
  0
LINE
  5
87
330
1F
100
AcDbEntity
  8
0
  6
Continuous
 62
     7
370
    15
100
AcDbLine
 10
97.79087482645913
 20
201.8885290177458
 30
0.0
 11
229.7908748264591
 21
201.8885290177454
 31
0.0
  0
LINE
  5
88
330
1F
100
AcDbEntity
  8
0
  6
Continuous
 62
     7
370
    15
100
AcDbLine
 10
-34.20912517354091
 20
202.8885290177453
 30
0.0
 11
-36.20912517354091
 21
202.8885290177453
 31
0.0
  0
LINE
  5
89
330
1F
100
AcDbEntity
  8
0
  6
Continuous
 62
     7
370
    15
100
AcDbLine
 10
-34.20912517354091
 20
151.2324677067082
 30
0.0
 11
-34.20912517354091
 21
202.8885290177453
 31
0.0
  0
LINE
  5
8A
330
1F
100
AcDbEntity
  8
0
  6
Continuous
 62
     7
370
    15
100
AcDbLine
 10
-34.20912517354091
 20
150.513041341234
 30
0.0
 11
-36.20912517354091
 21
150.513041341234
 31
0.0
  0
LINE
  5
8B
330
1F
100
AcDbEntity
  8
0
  6
Continuous
 62
     7
370
    15
100
AcDbLine
 10
-36.20912517354091
 20
150.513041341234
 30
0.0
 11
-36.20912517354091
 21
202.8885290177453
 31
0.0
  0
LINE
  5
8C
330
1F
100
AcDbEntity
  8
0
  6
Continuous
 62
     7
370
    15
100
AcDbLine
 10
-34.20912517354091
 20
140.4081278676099
 30
0.0
 11
-36.20912517354091
 21
140.4081278676099
 31
0.0
  0
LINE
  5
8D
330
1F
100
AcDbEntity
  8
0
  6
Continuous
 62
     7
370
    15
100
AcDbLine
 10
-36.20912517354091
 20
140.4081278676099
 30
0.0
 11
-36.20912517354091
 21
150.513041341234
 31
0.0
  0
LINE
  5
8E
330
1F
100
AcDbEntity
  8
0
  6
Continuous
 62
     7
370
    15
100
AcDbLine
 10
-34.20912517354091
 20
201.8885290177453
 30
0.0
 11
97.79087482645913
 21
201.8885290177458
 31
0.0
  0
LINE
  5
8F
330
1F
100
AcDbEntity
  8
0
  6
Continuous
 62
     7
370
    15
100
AcDbLine
 10
-34.20912517354091
 20
202.8885290177453
 30
0.0
 11
97.79087482645913
 21
202.8885290177458
 31
0.0
  0
LINE
  5
90
330
1F
100
AcDbEntity
  8
0
  6
Continuous
 62
     7
370
    15
100
AcDbLine
 10
306.4393662511732
 20
86.80237200275147
 30
0.0
 11
316.4393662511732
 21
86.80237200275147
 31
0.0
  0
LINE
  5
91
330
1F
100
AcDbEntity
  8
0
  6
Continuous
 62
     7
370
    15
100
AcDbLine
 10
316.4393662511732
 20
86.80237200275147
 30
0.0
 11
316.4393662511732
 21
90.33984735929577
 31
0.0
  0
LINE
  5
92
330
1F
100
AcDbEntity
  8
0
  6
Continuous
 62
     7
370
    15
100
AcDbLine
 10
316.4393662511732
 20
90.33984735929577
 30
0.0
 11
306.4393662511732
 21
90.33984735929577
 31
0.0
  0
LINE
  5
93
330
1F
100
AcDbEntity
  8
0
  6
Continuous
 62
     7
370
    15
100
AcDbLine
 10
306.4393662511732
 20
90.33984735929577
 30
0.0
 11
306.4393662511732
 21
86.80237200275147
 31
0.0
  0
LINE
  5
94
330
1F
100
AcDbEntity
  8
0
  6
Continuous
 62
     7
370
    15
100
AcDbLine
 10
276.4393662511732
 20
86.80237200275152
 30
0.0
 11
286.4393662511732
 21
86.80237200275152
 31
0.0
  0
LINE
  5
95
330
1F
100
AcDbEntity
  8
0
  6
Continuous
 62
     7
370
    15
100
AcDbLine
 10
286.4393662511732
 20
86.80237200275152
 30
0.0
 11
286.4393662511732
 21
90.33984735929582
 31
0.0
  0
LINE
  5
96
330
1F
100
AcDbEntity
  8
0
  6
Continuous
 62
     7
370
    15
100
AcDbLine
 10
286.4393662511732
 20
90.33984735929582
 30
0.0
 11
276.4393662511732
 21
90.33984735929582
 31
0.0
  0
LINE
  5
97
330
1F
100
AcDbEntity
  8
0
  6
Continuous
 62
     7
370
    15
100
AcDbLine
 10
276.4393662511732
 20
90.33984735929582
 30
0.0
 11
276.4393662511732
 21
86.80237200275152
 31
0.0
  0
LINE
  5
98
330
1F
100
AcDbEntity
  8
0
  6
Continuous
 62
     7
370
    15
100
AcDbLine
 10
246.4393662511731
 20
86.80237200275158
 30
0.0
 11
256.4393662511732
 21
86.80237200275158
 31
0.0
  0
LINE
  5
99
330
1F
100
AcDbEntity
  8
0
  6
Continuous
 62
     7
370
    15
100
AcDbLine
 10
256.4393662511732
 20
86.80237200275158
 30
0.0
 11
256.4393662511732
 21
90.33984735929582
 31
0.0
  0
LINE
  5
9A
330
1F
100
AcDbEntity
  8
0
  6
Continuous
 62
     7
370
    15
100
AcDbLine
 10
256.4393662511732
 20
90.33984735929582
 30
0.0
 11
246.4393662511731
 21
90.33984735929582
 31
0.0
  0
LINE
  5
9B
330
1F
100
AcDbEntity
  8
0
  6
Continuous
 62
     7
370
    15
100
AcDbLine
 10
246.4393662511731
 20
90.33984735929582
 30
0.0
 11
246.4393662511731
 21
86.80237200275158
 31
0.0
  0
LINE
  5
9C
330
1F
100
AcDbEntity
  8
0
  6
Continuous
 62
     7
370
    15
100
AcDbLine
 10
216.4393662511732
 20
86.80237200275167
 30
0.0
 11
226.4393662511732
 21
86.80237200275167
 31
0.0
  0
LINE
  5
9D
330
1F
100
AcDbEntity
  8
0
  6
Continuous
 62
     7
370
    15
100
AcDbLine
 10
226.4393662511732
 20
86.80237200275167
 30
0.0
 11
226.4393662511732
 21
90.33984735929587
 31
0.0
  0
LINE
  5
9E
330
1F
100
AcDbEntity
  8
0
  6
Continuous
 62
     7
370
    15
100
AcDbLine
 10
226.4393662511732
 20
90.33984735929587
 30
0.0
 11
216.4393662511732
 21
90.33984735929587
 31
0.0
  0
LINE
  5
9F
330
1F
100
AcDbEntity
  8
0
  6
Continuous
 62
     7
370
    15
100
AcDbLine
 10
216.4393662511732
 20
90.33984735929587
 30
0.0
 11
216.4393662511732
 21
86.80237200275167
 31
0.0
  0
LINE
  5
A0
330
1F
100
AcDbEntity
  8
0
  6
Continuous
 62
     7
370
    15
100
AcDbLine
 10
186.4393662511732
 20
86.80237200275172
 30
0.0
 11
196.4393662511732
 21
86.80237200275172
 31
0.0
  0
LINE
  5
A1
330
1F
100
AcDbEntity
  8
0
  6
Continuous
 62
     7
370
    15
100
AcDbLine
 10
196.4393662511732
 20
86.80237200275172
 30
0.0
 11
196.4393662511732
 21
90.33984735929593
 31
0.0
  0
LINE
  5
A2
330
1F
100
AcDbEntity
  8
0
  6
Continuous
 62
     7
370
    15
100
AcDbLine
 10
196.4393662511732
 20
90.33984735929593
 30
0.0
 11
186.4393662511732
 21
90.33984735929593
 31
0.0
  0
LINE
  5
A3
330
1F
100
AcDbEntity
  8
0
  6
Continuous
 62
     7
370
    15
100
AcDbLine
 10
186.4393662511732
 20
90.33984735929593
 30
0.0
 11
186.4393662511732
 21
86.80237200275172
 31
0.0
  0
LINE
  5
A4
330
1F
100
AcDbEntity
  8
0
  6
Continuous
 62
     7
370
    15
100
AcDbLine
 10
156.4393662511731
 20
86.80237200275177
 30
0.0
 11
166.4393662511731
 21
86.80237200275177
 31
0.0
  0
LINE
  5
A5
330
1F
100
AcDbEntity
  8
0
  6
Continuous
 62
     7
370
    15
100
AcDbLine
 10
166.4393662511731
 20
86.80237200275177
 30
0.0
 11
166.4393662511731
 21
90.33984735929593
 31
0.0
  0
LINE
  5
A6
330
1F
100
AcDbEntity
  8
0
  6
Continuous
 62
     7
370
    15
100
AcDbLine
 10
166.4393662511731
 20
90.33984735929593
 30
0.0
 11
156.4393662511731
 21
90.33984735929593
 31
0.0
  0
LINE
  5
A7
330
1F
100
AcDbEntity
  8
0
  6
Continuous
 62
     7
370
    15
100
AcDbLine
 10
156.4393662511731
 20
90.33984735929593
 30
0.0
 11
156.4393662511731
 21
86.80237200275177
 31
0.0
  0
LINE
  5
A8
330
1F
100
AcDbEntity
  8
0
  6
Continuous
 62
     7
370
    15
100
AcDbLine
 10
126.4393662511732
 20
86.8023720027519
 30
0.0
 11
136.4393662511731
 21
86.8023720027519
 31
0.0
  0
LINE
  5
A9
330
1F
100
AcDbEntity
  8
0
  6
Continuous
 62
     7
370
    15
100
AcDbLine
 10
136.4393662511731
 20
86.8023720027519
 30
0.0
 11
136.4393662511731
 21
90.33984735929593
 31
0.0
  0
LINE
  5
AA
330
1F
100
AcDbEntity
  8
0
  6
Continuous
 62
     7
370
    15
100
AcDbLine
 10
136.4393662511731
 20
90.33984735929593
 30
0.0
 11
126.4393662511732
 21
90.33984735929593
 31
0.0
  0
LINE
  5
AB
330
1F
100
AcDbEntity
  8
0
  6
Continuous
 62
     7
370
    15
100
AcDbLine
 10
126.4393662511732
 20
90.33984735929593
 30
0.0
 11
126.4393662511732
 21
86.8023720027519
 31
0.0
  0
LINE
  5
AC
330
1F
100
AcDbEntity
  8
0
  6
Continuous
 62
     7
370
    15
100
AcDbLine
 10
96.43936625117317
 20
86.802372002752
 30
0.0
 11
106.4393662511731
 21
86.802372002752
 31
0.0
  0
LINE
  5
AD
330
1F
100
AcDbEntity
  8
0
  6
Continuous
 62
     7
370
    15
100
AcDbLine
 10
106.4393662511731
 20
86.802372002752
 30
0.0
 11
106.4393662511731
 21
90.33984735929605
 31
0.0
  0
LINE
  5
AE
330
1F
100
AcDbEntity
  8
0
  6
Continuous
 62
     7
370
    15
100
AcDbLine
 10
106.4393662511731
 20
90.33984735929605
 30
0.0
 11
96.43936625117317
 21
90.33984735929605
 31
0.0
  0
LINE
  5
AF
330
1F
100
AcDbEntity
  8
0
  6
Continuous
 62
     7
370
    15
100
AcDbLine
 10
96.43936625117317
 20
90.33984735929605
 30
0.0
 11
96.43936625117317
 21
86.802372002752
 31
0.0
  0
LINE
  5
B0
330
1F
100
AcDbEntity
  8
0
  6
Continuous
 62
     7
370
    15
100
AcDbLine
 10
66.43936625117319
 20
86.802372002752
 30
0.0
 11
76.43936625117319
 21
86.802372002752
 31
0.0
  0
LINE
  5
B1
330
1F
100
AcDbEntity
  8
0
  6
Continuous
 62
     7
370
    15
100
AcDbLine
 10
76.43936625117319
 20
86.802372002752
 30
0.0
 11
76.43936625117314
 21
90.33984735929605
 31
0.0
  0
LINE
  5
B2
330
1F
100
AcDbEntity
  8
0
  6
Continuous
 62
     7
370
    15
100
AcDbLine
 10
76.43936625117314
 20
90.33984735929605
 30
0.0
 11
66.43936625117319
 21
90.33984735929605
 31
0.0
  0
LINE
  5
B3
330
1F
100
AcDbEntity
  8
0
  6
Continuous
 62
     7
370
    15
100
AcDbLine
 10
66.43936625117319
 20
90.33984735929605
 30
0.0
 11
66.43936625117319
 21
86.802372002752
 31
0.0
  0
LINE
  5
B4
330
1F
100
AcDbEntity
  8
0
  6
Continuous
 62
     7
370
    15
100
AcDbLine
 10
36.43936625117317
 20
86.80237200275213
 30
0.0
 11
46.43936625117317
 21
86.80237200275213
 31
0.0
  0
LINE
  5
B5
330
1F
100
AcDbEntity
  8
0
  6
Continuous
 62
     7
370
    15
100
AcDbLine
 10
46.43936625117317
 20
86.80237200275213
 30
0.0
 11
46.43936625117311
 21
90.33984735929605
 31
0.0
  0
LINE
  5
B6
330
1F
100
AcDbEntity
  8
0
  6
Continuous
 62
     7
370
    15
100
AcDbLine
 10
46.43936625117311
 20
90.33984735929605
 30
0.0
 11
36.43936625117317
 21
90.33984735929605
 31
0.0
  0
LINE
  5
B7
330
1F
100
AcDbEntity
  8
0
  6
Continuous
 62
     7
370
    15
100
AcDbLine
 10
36.43936625117317
 20
90.33984735929605
 30
0.0
 11
36.43936625117317
 21
86.80237200275213
 31
0.0
  0
LINE
  5
B8
330
1F
100
AcDbEntity
  8
0
  6
Continuous
 62
     7
370
    15
100
AcDbLine
 10
6.439366251173197
 20
86.80237200275223
 30
0.0
 11
16.43936625117319
 21
86.80237200275223
 31
0.0
  0
LINE
  5
B9
330
1F
100
AcDbEntity
  8
0
  6
Continuous
 62
     7
370
    15
100
AcDbLine
 10
16.43936625117319
 20
86.80237200275223
 30
0.0
 11
16.43936625117319
 21
90.3398473592961
 31
0.0
  0
LINE
  5
BA
330
1F
100
AcDbEntity
  8
0
  6
Continuous
 62
     7
370
    15
100
AcDbLine
 10
16.43936625117319
 20
90.3398473592961
 30
0.0
 11
6.439366251173197
 21
90.3398473592961
 31
0.0
  0
LINE
  5
BB
330
1F
100
AcDbEntity
  8
0
  6
Continuous
 62
     7
370
    15
100
AcDbLine
 10
6.439366251173197
 20
90.3398473592961
 30
0.0
 11
6.439366251173197
 21
86.80237200275223
 31
0.0
  0
LINE
  5
BC
330
1F
100
AcDbEntity
  8
0
  6
Continuous
 62
     7
370
    15
100
AcDbLine
 10
-23.56063374882678
 20
86.80237200275229
 30
0.0
 11
-13.56063374882677
 21
86.80237200275229
 31
0.0
  0
LINE
  5
BD
330
1F
100
AcDbEntity
  8
0
  6
Continuous
 62
     7
370
    15
100
AcDbLine
 10
-13.56063374882677
 20
86.80237200275229
 30
0.0
 11
-13.56063374882683
 21
90.33984735929616
 31
0.0
  0
LINE
  5
BE
330
1F
100
AcDbEntity
  8
0
  6
Continuous
 62
     7
370
    15
100
AcDbLine
 10
-13.56063374882683
 20
90.33984735929616
 30
0.0
 11
-23.56063374882678
 21
90.33984735929616
 31
0.0
  0
LINE
  5
BF
330
1F
100
AcDbEntity
  8
0
  6
Continuous
 62
     7
370
    15
100
AcDbLine
 10
-23.56063374882678
 20
90.33984735929616
 30
0.0
 11
-23.56063374882678
 21
86.80237200275229
 31
0.0
  0
LINE
  5
C0
330
1F
100
AcDbEntity
  8
0
  6
Continuous
 62
     7
370
    15
100
AcDbLine
 10
-53.5606337488268
 20
86.80237200275234
 30
0.0
 11
-43.5606337488268
 21
86.80237200275234
 31
0.0
  0
LINE
  5
C1
330
1F
100
AcDbEntity
  8
0
  6
Continuous
 62
     7
370
    15
100
AcDbLine
 10
-43.5606337488268
 20
86.80237200275234
 30
0.0
 11
-43.56063374882686
 21
90.33984735929616
 31
0.0
  0
LINE
  5
C2
330
1F
100
AcDbEntity
  8
0
  6
Continuous
 62
     7
370
    15
100
AcDbLine
 10
-43.56063374882686
 20
90.33984735929616
 30
0.0
 11
-53.5606337488268
 21
90.33984735929616
 31
0.0
  0
LINE
  5
C3
330
1F
100
AcDbEntity
  8
0
  6
Continuous
 62
     7
370
    15
100
AcDbLine
 10
-53.5606337488268
 20
90.33984735929616
 30
0.0
 11
-53.5606337488268
 21
86.80237200275234
 31
0.0
  0
LINE
  5
C4
330
1F
100
AcDbEntity
  8
0
  6
Continuous
 62
     7
370
    15
100
AcDbLine
 10
-83.56063374882683
 20
86.80237200275247
 30
0.0
 11
-73.56063374882683
 21
86.80237200275247
 31
0.0
  0
LINE
  5
C5
330
1F
100
AcDbEntity
  8
0
  6
Continuous
 62
     7
370
    15
100
AcDbLine
 10
-73.56063374882683
 20
86.80237200275247
 30
0.0
 11
-73.56063374882689
 21
90.33984735929621
 31
0.0
  0
LINE
  5
C6
330
1F
100
AcDbEntity
  8
0
  6
Continuous
 62
     7
370
    15
100
AcDbLine
 10
-73.56063374882689
 20
90.33984735929621
 30
0.0
 11
-83.56063374882683
 21
90.33984735929621
 31
0.0
  0
LINE
  5
C7
330
1F
100
AcDbEntity
  8
0
  6
Continuous
 62
     7
370
    15
100
AcDbLine
 10
-83.56063374882683
 20
90.33984735929621
 30
0.0
 11
-83.56063374882683
 21
86.80237200275247
 31
0.0
  0
LINE
  5
C8
330
1F
100
AcDbEntity
  8
0
  6
Continuous
 62
     7
370
    15
100
AcDbLine
 10
-113.5606337488268
 20
86.80237200275252
 30
0.0
 11
-103.5606337488268
 21
86.80237200275252
 31
0.0
  0
LINE
  5
C9
330
1F
100
AcDbEntity
  8
0
  6
Continuous
 62
     7
370
    15
100
AcDbLine
 10
-103.5606337488268
 20
86.80237200275252
 30
0.0
 11
-103.5606337488268
 21
90.33984735929626
 31
0.0
  0
LINE
  5
CA
330
1F
100
AcDbEntity
  8
0
  6
Continuous
 62
     7
370
    15
100
AcDbLine
 10
-103.5606337488268
 20
90.33984735929626
 30
0.0
 11
-113.5606337488268
 21
90.33984735929626
 31
0.0
  0
LINE
  5
CB
330
1F
100
AcDbEntity
  8
0
  6
Continuous
 62
     7
370
    15
100
AcDbLine
 10
-113.5606337488268
 20
90.33984735929626
 30
0.0
 11
-113.5606337488268
 21
86.80237200275252
 31
0.0
  0
LINE
  5
CC
330
1F
100
AcDbEntity
  8
0
  6
Continuous
 62
     7
370
    15
100
AcDbLine
 10
-135.401984239454
 20
85.59571046706295
 30
0.0
 11
327.5980157605459
 21
85.59571046706295
 31
0.0
  0
LINE
  5
CD
330
1F
100
AcDbEntity
  8
0
  6
Continuous
 62
     7
370
    15
100
AcDbLine
 10
-135.401984239454
 20
85.59571046706295
 30
0.0
 11
-135.401984239454
 21
91.23246770670826
 31
0.0
  0
LINE
  5
CE
330
1F
100
AcDbEntity
  8
0
  6
Continuous
 62
     7
370
    15
100
AcDbLine
 10
-135.401984239454
 20
91.23246770670826
 30
0.0
 11
-34.20912517354091
 21
91.23246770670826
 31
0.0
  0
LINE
  5
CF
330
1F
100
AcDbEntity
  8
0
  6
Continuous
 62
     7
370
    15
100
AcDbLine
 10
-34.20912517354091
 20
91.23246770670826
 30
0.0
 11
229.7908748264591
 21
91.23246770670826
 31
0.0
  0
LINE
  5
D0
330
1F
100
AcDbEntity
  8
0
  6
Continuous
 62
     7
370
    15
100
AcDbLine
 10
229.7908748264591
 20
91.23246770670826
 30
0.0
 11
327.5980157605459
 21
91.23246770670826
 31
0.0
  0
LINE
  5
D1
330
1F
100
AcDbEntity
  8
0
  6
Continuous
 62
     7
370
    15
100
AcDbLine
 10
327.5980157605459
 20
85.59571046706295
 30
0.0
 11
327.5980157605459
 21
91.23246770670826
 31
0.0
  0
LINE
  5
D2
330
1F
100
AcDbEntity
  8
0
  6
Continuous
 62
     7
370
    15
100
AcDbLine
 10
-128.5606337488268
 20
86.80237200275257
 30
0.0
 11
-118.5606337488268
 21
86.80237200275257
 31
0.0
  0
LINE
  5
D3
330
1F
100
AcDbEntity
  8
0
  6
Continuous
 62
     7
370
    15
100
AcDbLine
 10
-118.5606337488268
 20
86.80237200275257
 30
0.0
 11
-118.5606337488268
 21
90.33984735929626
 31
0.0
  0
LINE
  5
D4
330
1F
100
AcDbEntity
  8
0
  6
Continuous
 62
     7
370
    15
100
AcDbLine
 10
-118.5606337488268
 20
90.33984735929626
 30
0.0
 11
-128.5606337488268
 21
90.33984735929626
 31
0.0
  0
LINE
  5
D5
330
1F
100
AcDbEntity
  8
0
  6
Continuous
 62
     7
370
    15
100
AcDbLine
 10
-128.5606337488268
 20
90.33984735929626
 30
0.0
 11
-128.5606337488268
 21
86.80237200275257
 31
0.0
  0
LINE
  5
D6
330
1F
100
AcDbEntity
  8
0
  6
Continuous
 62
     7
370
    15
100
AcDbLine
 10
-98.5606337488268
 20
86.80237200275247
 30
0.0
 11
-88.56063374882678
 21
86.80237200275247
 31
0.0
  0
LINE
  5
D7
330
1F
100
AcDbEntity
  8
0
  6
Continuous
 62
     7
370
    15
100
AcDbLine
 10
-88.56063374882678
 20
86.80237200275247
 30
0.0
 11
-88.56063374882678
 21
90.33984735929626
 31
0.0
  0
LINE
  5
D8
330
1F
100
AcDbEntity
  8
0
  6
Continuous
 62
     7
370
    15
100
AcDbLine
 10
-88.56063374882678
 20
90.33984735929626
 30
0.0
 11
-98.5606337488268
 21
90.33984735929626
 31
0.0
  0
LINE
  5
D9
330
1F
100
AcDbEntity
  8
0
  6
Continuous
 62
     7
370
    15
100
AcDbLine
 10
-98.5606337488268
 20
90.33984735929626
 30
0.0
 11
-98.5606337488268
 21
86.80237200275247
 31
0.0
  0
LINE
  5
DA
330
1F
100
AcDbEntity
  8
0
  6
Continuous
 62
     7
370
    15
100
AcDbLine
 10
-68.56063374882682
 20
86.80237200275241
 30
0.0
 11
-58.56063374882682
 21
86.80237200275241
 31
0.0
  0
LINE
  5
DB
330
1F
100
AcDbEntity
  8
0
  6
Continuous
 62
     7
370
    15
100
AcDbLine
 10
-58.56063374882682
 20
86.80237200275241
 30
0.0
 11
-58.56063374882687
 21
90.33984735929621
 31
0.0
  0
LINE
  5
DC
330
1F
100
AcDbEntity
  8
0
  6
Continuous
 62
     7
370
    15
100
AcDbLine
 10
-58.56063374882687
 20
90.33984735929621
 30
0.0
 11
-68.56063374882682
 21
90.33984735929621
 31
0.0
  0
LINE
  5
DD
330
1F
100
AcDbEntity
  8
0
  6
Continuous
 62
     7
370
    15
100
AcDbLine
 10
-68.56063374882682
 20
90.33984735929621
 30
0.0
 11
-68.56063374882682
 21
86.80237200275241
 31
0.0
  0
LINE
  5
DE
330
1F
100
AcDbEntity
  8
0
  6
Continuous
 62
     7
370
    15
100
AcDbLine
 10
-38.5606337488268
 20
86.80237200275234
 30
0.0
 11
-28.56063374882678
 21
86.80237200275234
 31
0.0
  0
LINE
  5
DF
330
1F
100
AcDbEntity
  8
0
  6
Continuous
 62
     7
370
    15
100
AcDbLine
 10
-28.56063374882678
 20
86.80237200275234
 30
0.0
 11
-28.56063374882683
 21
90.33984735929616
 31
0.0
  0
LINE
  5
E0
330
1F
100
AcDbEntity
  8
0
  6
Continuous
 62
     7
370
    15
100
AcDbLine
 10
-28.56063374882683
 20
90.33984735929616
 30
0.0
 11
-38.5606337488268
 21
90.33984735929616
 31
0.0
  0
LINE
  5
E1
330
1F
100
AcDbEntity
  8
0
  6
Continuous
 62
     7
370
    15
100
AcDbLine
 10
-38.5606337488268
 20
90.33984735929616
 30
0.0
 11
-38.5606337488268
 21
86.80237200275234
 31
0.0
  0
LINE
  5
E2
330
1F
100
AcDbEntity
  8
0
  6
Continuous
 62
     7
370
    15
100
AcDbLine
 10
-8.56063374882683
 20
86.80237200275223
 30
0.0
 11
1.439366251173197
 21
86.80237200275223
 31
0.0
  0
LINE
  5
E3
330
1F
100
AcDbEntity
  8
0
  6
Continuous
 62
     7
370
    15
100
AcDbLine
 10
1.439366251173197
 20
86.80237200275223
 30
0.0
 11
1.439366251173197
 21
90.33984735929616
 31
0.0
  0
LINE
  5
E4
330
1F
100
AcDbEntity
  8
0
  6
Continuous
 62
     7
370
    15
100
AcDbLine
 10
1.439366251173197
 20
90.33984735929616
 30
0.0
 11
-8.56063374882683
 21
90.33984735929616
 31
0.0
  0
LINE
  5
E5
330
1F
100
AcDbEntity
  8
0
  6
Continuous
 62
     7
370
    15
100
AcDbLine
 10
-8.56063374882683
 20
90.33984735929616
 30
0.0
 11
-8.56063374882683
 21
86.80237200275223
 31
0.0
  0
LINE
  5
E6
330
1F
100
AcDbEntity
  8
0
  6
Continuous
 62
     7
370
    15
100
AcDbLine
 10
21.4393662511732
 20
86.80237200275213
 30
0.0
 11
31.43936625117323
 21
86.80237200275213
 31
0.0
  0
LINE
  5
E7
330
1F
100
AcDbEntity
  8
0
  6
Continuous
 62
     7
370
    15
100
AcDbLine
 10
31.43936625117323
 20
86.80237200275213
 30
0.0
 11
31.43936625117323
 21
90.3398473592961
 31
0.0
  0
LINE
  5
E8
330
1F
100
AcDbEntity
  8
0
  6
Continuous
 62
     7
370
    15
100
AcDbLine
 10
31.43936625117323
 20
90.3398473592961
 30
0.0
 11
21.4393662511732
 21
90.3398473592961
 31
0.0
  0
LINE
  5
E9
330
1F
100
AcDbEntity
  8
0
  6
Continuous
 62
     7
370
    15
100
AcDbLine
 10
21.4393662511732
 20
90.3398473592961
 30
0.0
 11
21.4393662511732
 21
86.80237200275213
 31
0.0
  0
LINE
  5
EA
330
1F
100
AcDbEntity
  8
0
  6
Continuous
 62
     7
370
    15
100
AcDbLine
 10
51.43936625117317
 20
86.80237200275206
 30
0.0
 11
61.43936625117317
 21
86.80237200275206
 31
0.0
  0
LINE
  5
EB
330
1F
100
AcDbEntity
  8
0
  6
Continuous
 62
     7
370
    15
100
AcDbLine
 10
61.43936625117317
 20
86.80237200275206
 30
0.0
 11
61.43936625117314
 21
90.33984735929605
 31
0.0
  0
LINE
  5
EC
330
1F
100
AcDbEntity
  8
0
  6
Continuous
 62
     7
370
    15
100
AcDbLine
 10
61.43936625117314
 20
90.33984735929605
 30
0.0
 11
51.43936625117317
 21
90.33984735929605
 31
0.0
  0
LINE
  5
ED
330
1F
100
AcDbEntity
  8
0
  6
Continuous
 62
     7
370
    15
100
AcDbLine
 10
51.43936625117317
 20
90.33984735929605
 30
0.0
 11
51.43936625117317
 21
86.80237200275206
 31
0.0
  0
LINE
  5
EE
330
1F
100
AcDbEntity
  8
0
  6
Continuous
 62
     7
370
    15
100
AcDbLine
 10
81.43936625117319
 20
86.802372002752
 30
0.0
 11
91.43936625117323
 21
86.802372002752
 31
0.0
  0
LINE
  5
EF
330
1F
100
AcDbEntity
  8
0
  6
Continuous
 62
     7
370
    15
100
AcDbLine
 10
91.43936625117323
 20
86.802372002752
 30
0.0
 11
91.43936625117323
 21
90.33984735929605
 31
0.0
  0
LINE
  5
F0
330
1F
100
AcDbEntity
  8
0
  6
Continuous
 62
     7
370
    15
100
AcDbLine
 10
91.43936625117323
 20
90.33984735929605
 30
0.0
 11
81.43936625117319
 21
90.33984735929605
 31
0.0
  0
LINE
  5
F1
330
1F
100
AcDbEntity
  8
0
  6
Continuous
 62
     7
370
    15
100
AcDbLine
 10
81.43936625117319
 20
90.33984735929605
 30
0.0
 11
81.43936625117319
 21
86.802372002752
 31
0.0
  0
LINE
  5
F2
330
1F
100
AcDbEntity
  8
0
  6
Continuous
 62
     7
370
    15
100
AcDbLine
 10
111.4393662511731
 20
86.8023720027519
 30
0.0
 11
121.4393662511731
 21
86.8023720027519
 31
0.0
  0
LINE
  5
F3
330
1F
100
AcDbEntity
  8
0
  6
Continuous
 62
     7
370
    15
100
AcDbLine
 10
121.4393662511731
 20
86.8023720027519
 30
0.0
 11
121.4393662511731
 21
90.33984735929598
 31
0.0
  0
LINE
  5
F4
330
1F
100
AcDbEntity
  8
0
  6
Continuous
 62
     7
370
    15
100
AcDbLine
 10
121.4393662511731
 20
90.33984735929598
 30
0.0
 11
111.4393662511731
 21
90.33984735929598
 31
0.0
  0
LINE
  5
F5
330
1F
100
AcDbEntity
  8
0
  6
Continuous
 62
     7
370
    15
100
AcDbLine
 10
111.4393662511731
 20
90.33984735929598
 30
0.0
 11
111.4393662511731
 21
86.8023720027519
 31
0.0
  0
LINE
  5
F6
330
1F
100
AcDbEntity
  8
0
  6
Continuous
 62
     7
370
    15
100
AcDbLine
 10
141.4393662511731
 20
86.80237200275184
 30
0.0
 11
151.4393662511731
 21
86.80237200275184
 31
0.0
  0
LINE
  5
F7
330
1F
100
AcDbEntity
  8
0
  6
Continuous
 62
     7
370
    15
100
AcDbLine
 10
151.4393662511731
 20
86.80237200275184
 30
0.0
 11
151.4393662511731
 21
90.33984735929593
 31
0.0
  0
LINE
  5
F8
330
1F
100
AcDbEntity
  8
0
  6
Continuous
 62
     7
370
    15
100
AcDbLine
 10
151.4393662511731
 20
90.33984735929593
 30
0.0
 11
141.4393662511731
 21
90.33984735929593
 31
0.0
  0
LINE
  5
F9
330
1F
100
AcDbEntity
  8
0
  6
Continuous
 62
     7
370
    15
100
AcDbLine
 10
141.4393662511731
 20
90.33984735929593
 30
0.0
 11
141.4393662511731
 21
86.80237200275184
 31
0.0
  0
LINE
  5
FA
330
1F
100
AcDbEntity
  8
0
  6
Continuous
 62
     7
370
    15
100
AcDbLine
 10
171.4393662511731
 20
86.80237200275177
 30
0.0
 11
181.4393662511732
 21
86.80237200275177
 31
0.0
  0
LINE
  5
FB
330
1F
100
AcDbEntity
  8
0
  6
Continuous
 62
     7
370
    15
100
AcDbLine
 10
181.4393662511732
 20
86.80237200275177
 30
0.0
 11
181.4393662511732
 21
90.33984735929593
 31
0.0
  0
LINE
  5
FC
330
1F
100
AcDbEntity
  8
0
  6
Continuous
 62
     7
370
    15
100
AcDbLine
 10
181.4393662511732
 20
90.33984735929593
 30
0.0
 11
171.4393662511731
 21
90.33984735929593
 31
0.0
  0
LINE
  5
FD
330
1F
100
AcDbEntity
  8
0
  6
Continuous
 62
     7
370
    15
100
AcDbLine
 10
171.4393662511731
 20
90.33984735929593
 30
0.0
 11
171.4393662511731
 21
86.80237200275177
 31
0.0
  0
LINE
  5
FE
330
1F
100
AcDbEntity
  8
0
  6
Continuous
 62
     7
370
    15
100
AcDbLine
 10
201.4393662511732
 20
86.80237200275167
 30
0.0
 11
211.4393662511732
 21
86.80237200275167
 31
0.0
  0
LINE
  5
FF
330
1F
100
AcDbEntity
  8
0
  6
Continuous
 62
     7
370
    15
100
AcDbLine
 10
211.4393662511732
 20
86.80237200275167
 30
0.0
 11
211.4393662511732
 21
90.33984735929593
 31
0.0
  0
LINE
  5
100
330
1F
100
AcDbEntity
  8
0
  6
Continuous
 62
     7
370
    15
100
AcDbLine
 10
211.4393662511732
 20
90.33984735929593
 30
0.0
 11
201.4393662511732
 21
90.33984735929593
 31
0.0
  0
LINE
  5
101
330
1F
100
AcDbEntity
  8
0
  6
Continuous
 62
     7
370
    15
100
AcDbLine
 10
201.4393662511732
 20
90.33984735929593
 30
0.0
 11
201.4393662511732
 21
86.80237200275167
 31
0.0
  0
LINE
  5
102
330
1F
100
AcDbEntity
  8
0
  6
Continuous
 62
     7
370
    15
100
AcDbLine
 10
231.4393662511732
 20
86.80237200275161
 30
0.0
 11
241.4393662511732
 21
86.80237200275161
 31
0.0
  0
LINE
  5
103
330
1F
100
AcDbEntity
  8
0
  6
Continuous
 62
     7
370
    15
100
AcDbLine
 10
241.4393662511732
 20
86.80237200275161
 30
0.0
 11
241.4393662511733
 21
90.33984735929582
 31
0.0
  0
LINE
  5
104
330
1F
100
AcDbEntity
  8
0
  6
Continuous
 62
     7
370
    15
100
AcDbLine
 10
241.4393662511733
 20
90.33984735929582
 30
0.0
 11
231.4393662511732
 21
90.33984735929582
 31
0.0
  0
LINE
  5
105
330
1F
100
AcDbEntity
  8
0
  6
Continuous
 62
     7
370
    15
100
AcDbLine
 10
231.4393662511732
 20
90.33984735929582
 30
0.0
 11
231.4393662511732
 21
86.80237200275161
 31
0.0
  0
LINE
  5
106
330
1F
100
AcDbEntity
  8
0
  6
Continuous
 62
     7
370
    15
100
AcDbLine
 10
261.4393662511732
 20
86.80237200275158
 30
0.0
 11
271.4393662511731
 21
86.80237200275158
 31
0.0
  0
LINE
  5
107
330
1F
100
AcDbEntity
  8
0
  6
Continuous
 62
     7
370
    15
100
AcDbLine
 10
271.4393662511731
 20
86.80237200275158
 30
0.0
 11
271.4393662511731
 21
90.33984735929582
 31
0.0
  0
LINE
  5
108
330
1F
100
AcDbEntity
  8
0
  6
Continuous
 62
     7
370
    15
100
AcDbLine
 10
271.4393662511731
 20
90.33984735929582
 30
0.0
 11
261.4393662511732
 21
90.33984735929582
 31
0.0
  0
LINE
  5
109
330
1F
100
AcDbEntity
  8
0
  6
Continuous
 62
     7
370
    15
100
AcDbLine
 10
261.4393662511732
 20
90.33984735929582
 30
0.0
 11
261.4393662511732
 21
86.80237200275158
 31
0.0
  0
LINE
  5
10A
330
1F
100
AcDbEntity
  8
0
  6
Continuous
 62
     7
370
    15
100
AcDbLine
 10
291.4393662511732
 20
86.80237200275147
 30
0.0
 11
301.4393662511732
 21
86.80237200275147
 31
0.0
  0
LINE
  5
10B
330
1F
100
AcDbEntity
  8
0
  6
Continuous
 62
     7
370
    15
100
AcDbLine
 10
301.4393662511732
 20
86.80237200275147
 30
0.0
 11
301.4393662511732
 21
90.33984735929582
 31
0.0
  0
LINE
  5
10C
330
1F
100
AcDbEntity
  8
0
  6
Continuous
 62
     7
370
    15
100
AcDbLine
 10
301.4393662511732
 20
90.33984735929582
 30
0.0
 11
291.4393662511732
 21
90.33984735929582
 31
0.0
  0
LINE
  5
10D
330
1F
100
AcDbEntity
  8
0
  6
Continuous
 62
     7
370
    15
100
AcDbLine
 10
291.4393662511732
 20
90.33984735929582
 30
0.0
 11
291.4393662511732
 21
86.80237200275147
 31
0.0
  0
LINE
  5
10E
330
1F
100
AcDbEntity
  8
0
  6
Continuous
 62
     7
370
    15
100
AcDbLine
 10
316.4393662511732
 20
37.95652886877544
 30
0.0
 11
306.4393662511732
 21
37.95652886877544
 31
0.0
  0
LINE
  5
10F
330
1F
100
AcDbEntity
  8
0
  6
Continuous
 62
     7
370
    15
100
AcDbLine
 10
306.4393662511732
 20
37.95652886877544
 30
0.0
 11
306.4393662511732
 21
32.47906396448012
 31
0.0
  0
LINE
  5
110
330
1F
100
AcDbEntity
  8
0
  6
Continuous
 62
     7
370
    15
100
AcDbLine
 10
306.4393662511732
 20
32.47906396448012
 30
0.0
 11
316.4393662511732
 21
32.47906396448012
 31
0.0
  0
LINE
  5
111
330
1F
100
AcDbEntity
  8
0
  6
Continuous
 62
     7
370
    15
100
AcDbLine
 10
316.4393662511732
 20
32.47906396448012
 30
0.0
 11
316.4393662511732
 21
37.95652886877544
 31
0.0
  0
LINE
  5
112
330
1F
100
AcDbEntity
  8
0
  6
Continuous
 62
     7
370
    15
100
AcDbLine
 10
286.4393662511732
 20
37.95652886877535
 30
0.0
 11
276.4393662511732
 21
37.95652886877535
 31
0.0
  0
LINE
  5
113
330
1F
100
AcDbEntity
  8
0
  6
Continuous
 62
     7
370
    15
100
AcDbLine
 10
276.4393662511732
 20
37.95652886877535
 30
0.0
 11
276.4393662511732
 21
32.47906396448004
 31
0.0
  0
LINE
  5
114
330
1F
100
AcDbEntity
  8
0
  6
Continuous
 62
     7
370
    15
100
AcDbLine
 10
276.4393662511732
 20
32.47906396448004
 30
0.0
 11
286.4393662511732
 21
32.47906396448004
 31
0.0
  0
LINE
  5
115
330
1F
100
AcDbEntity
  8
0
  6
Continuous
 62
     7
370
    15
100
AcDbLine
 10
286.4393662511732
 20
32.47906396448004
 30
0.0
 11
286.4393662511732
 21
37.95652886877535
 31
0.0
  0
LINE
  5
116
330
1F
100
AcDbEntity
  8
0
  6
Continuous
 62
     7
370
    15
100
AcDbLine
 10
256.4393662511732
 20
37.95652886877524
 30
0.0
 11
246.4393662511731
 21
37.95652886877524
 31
0.0
  0
LINE
  5
117
330
1F
100
AcDbEntity
  8
0
  6
Continuous
 62
     7
370
    15
100
AcDbLine
 10
246.4393662511731
 20
37.95652886877524
 30
0.0
 11
246.4393662511731
 21
32.47906396447995
 31
0.0
  0
LINE
  5
118
330
1F
100
AcDbEntity
  8
0
  6
Continuous
 62
     7
370
    15
100
AcDbLine
 10
246.4393662511731
 20
32.47906396447995
 30
0.0
 11
256.4393662511732
 21
32.47906396447995
 31
0.0
  0
LINE
  5
119
330
1F
100
AcDbEntity
  8
0
  6
Continuous
 62
     7
370
    15
100
AcDbLine
 10
256.4393662511732
 20
32.47906396447995
 30
0.0
 11
256.4393662511732
 21
37.95652886877524
 31
0.0
  0
LINE
  5
11A
330
1F
100
AcDbEntity
  8
0
  6
Continuous
 62
     7
370
    15
100
AcDbLine
 10
226.4393662511731
 20
37.95652886877518
 30
0.0
 11
216.4393662511731
 21
37.95652886877518
 31
0.0
  0
LINE
  5
11B
330
1F
100
AcDbEntity
  8
0
  6
Continuous
 62
     7
370
    15
100
AcDbLine
 10
216.4393662511731
 20
37.95652886877518
 30
0.0
 11
216.4393662511731
 21
32.47906396447986
 31
0.0
  0
LINE
  5
11C
330
1F
100
AcDbEntity
  8
0
  6
Continuous
 62
     7
370
    15
100
AcDbLine
 10
216.4393662511731
 20
32.47906396447986
 30
0.0
 11
226.4393662511731
 21
32.47906396447986
 31
0.0
  0
LINE
  5
11D
330
1F
100
AcDbEntity
  8
0
  6
Continuous
 62
     7
370
    15
100
AcDbLine
 10
226.4393662511731
 20
32.47906396447986
 30
0.0
 11
226.4393662511731
 21
37.95652886877518
 31
0.0
  0
LINE
  5
11E
330
1F
100
AcDbEntity
  8
0
  6
Continuous
 62
     7
370
    15
100
AcDbLine
 10
196.4393662511732
 20
37.95652886877507
 30
0.0
 11
186.4393662511732
 21
37.95652886877507
 31
0.0
  0
LINE
  5
11F
330
1F
100
AcDbEntity
  8
0
  6
Continuous
 62
     7
370
    15
100
AcDbLine
 10
186.4393662511732
 20
37.95652886877507
 30
0.0
 11
186.4393662511732
 21
32.47906396447978
 31
0.0
  0
LINE
  5
120
330
1F
100
AcDbEntity
  8
0
  6
Continuous
 62
     7
370
    15
100
AcDbLine
 10
186.4393662511732
 20
32.47906396447978
 30
0.0
 11
196.4393662511732
 21
32.47906396447978
 31
0.0
  0
LINE
  5
121
330
1F
100
AcDbEntity
  8
0
  6
Continuous
 62
     7
370
    15
100
AcDbLine
 10
196.4393662511732
 20
32.47906396447978
 30
0.0
 11
196.4393662511732
 21
37.95652886877507
 31
0.0
  0
LINE
  5
122
330
1F
100
AcDbEntity
  8
0
  6
Continuous
 62
     7
370
    15
100
AcDbLine
 10
166.4393662511731
 20
37.95652886877501
 30
0.0
 11
156.4393662511731
 21
37.95652886877501
 31
0.0
  0
LINE
  5
123
330
1F
100
AcDbEntity
  8
0
  6
Continuous
 62
     7
370
    15
100
AcDbLine
 10
156.4393662511731
 20
37.95652886877501
 30
0.0
 11
156.4393662511731
 21
32.47906396447969
 31
0.0
  0
LINE
  5
124
330
1F
100
AcDbEntity
  8
0
  6
Continuous
 62
     7
370
    15
100
AcDbLine
 10
156.4393662511731
 20
32.47906396447969
 30
0.0
 11
166.4393662511731
 21
32.47906396447969
 31
0.0
  0
LINE
  5
125
330
1F
100
AcDbEntity
  8
0
  6
Continuous
 62
     7
370
    15
100
AcDbLine
 10
166.4393662511731
 20
32.47906396447969
 30
0.0
 11
166.4393662511731
 21
37.95652886877501
 31
0.0
  0
LINE
  5
126
330
1F
100
AcDbEntity
  8
0
  6
Continuous
 62
     7
370
    15
100
AcDbLine
 10
136.4393662511731
 20
37.95652886877491
 30
0.0
 11
126.4393662511732
 21
37.95652886877491
 31
0.0
  0
LINE
  5
127
330
1F
100
AcDbEntity
  8
0
  6
Continuous
 62
     7
370
    15
100
AcDbLine
 10
126.4393662511732
 20
37.95652886877491
 30
0.0
 11
126.4393662511732
 21
32.47906396447961
 31
0.0
  0
LINE
  5
128
330
1F
100
AcDbEntity
  8
0
  6
Continuous
 62
     7
370
    15
100
AcDbLine
 10
126.4393662511732
 20
32.47906396447961
 30
0.0
 11
136.4393662511731
 21
32.47906396447961
 31
0.0
  0
LINE
  5
129
330
1F
100
AcDbEntity
  8
0
  6
Continuous
 62
     7
370
    15
100
AcDbLine
 10
136.4393662511731
 20
32.47906396447961
 30
0.0
 11
136.4393662511731
 21
37.95652886877491
 31
0.0
  0
LINE
  5
12A
330
1F
100
AcDbEntity
  8
0
  6
Continuous
 62
     7
370
    15
100
AcDbLine
 10
106.4393662511731
 20
37.95652886877486
 30
0.0
 11
96.43936625117317
 21
37.95652886877486
 31
0.0
  0
LINE
  5
12B
330
1F
100
AcDbEntity
  8
0
  6
Continuous
 62
     7
370
    15
100
AcDbLine
 10
96.43936625117317
 20
37.95652886877486
 30
0.0
 11
96.43936625117317
 21
32.47906396447951
 31
0.0
  0
LINE
  5
12C
330
1F
100
AcDbEntity
  8
0
  6
Continuous
 62
     7
370
    15
100
AcDbLine
 10
96.43936625117317
 20
32.47906396447951
 30
0.0
 11
106.4393662511731
 21
32.47906396447951
 31
0.0
  0
LINE
  5
12D
330
1F
100
AcDbEntity
  8
0
  6
Continuous
 62
     7
370
    15
100
AcDbLine
 10
106.4393662511731
 20
32.47906396447951
 30
0.0
 11
106.4393662511731
 21
37.95652886877486
 31
0.0
  0
LINE
  5
12E
330
1F
100
AcDbEntity
  8
0
  6
Continuous
 62
     7
370
    15
100
AcDbLine
 10
76.43936625117319
 20
37.95652886877474
 30
0.0
 11
66.43936625117319
 21
37.95652886877474
 31
0.0
  0
LINE
  5
12F
330
1F
100
AcDbEntity
  8
0
  6
Continuous
 62
     7
370
    15
100
AcDbLine
 10
66.43936625117319
 20
37.95652886877474
 30
0.0
 11
66.43936625117319
 21
32.47906396447942
 31
0.0
  0
LINE
  5
130
330
1F
100
AcDbEntity
  8
0
  6
Continuous
 62
     7
370
    15
100
AcDbLine
 10
66.43936625117319
 20
32.47906396447942
 30
0.0
 11
76.43936625117319
 21
32.47906396447945
 31
0.0
  0
LINE
  5
131
330
1F
100
AcDbEntity
  8
0
  6
Continuous
 62
     7
370
    15
100
AcDbLine
 10
76.43936625117319
 20
32.47906396447945
 30
0.0
 11
76.43936625117319
 21
37.95652886877474
 31
0.0
  0
LINE
  5
132
330
1F
100
AcDbEntity
  8
0
  6
Continuous
 62
     7
370
    15
100
AcDbLine
 10
46.43936625117317
 20
37.95652886877466
 30
0.0
 11
36.43936625117317
 21
37.95652886877466
 31
0.0
  0
LINE
  5
133
330
1F
100
AcDbEntity
  8
0
  6
Continuous
 62
     7
370
    15
100
AcDbLine
 10
36.43936625117317
 20
37.95652886877466
 30
0.0
 11
36.43936625117317
 21
32.47906396447934
 31
0.0
  0
LINE
  5
134
330
1F
100
AcDbEntity
  8
0
  6
Continuous
 62
     7
370
    15
100
AcDbLine
 10
36.43936625117317
 20
32.47906396447934
 30
0.0
 11
46.43936625117317
 21
32.47906396447934
 31
0.0
  0
LINE
  5
135
330
1F
100
AcDbEntity
  8
0
  6
Continuous
 62
     7
370
    15
100
AcDbLine
 10
46.43936625117317
 20
32.47906396447934
 30
0.0
 11
46.43936625117317
 21
37.95652886877466
 31
0.0
  0
LINE
  5
136
330
1F
100
AcDbEntity
  8
0
  6
Continuous
 62
     7
370
    15
100
AcDbLine
 10
16.43936625117319
 20
37.95652886877457
 30
0.0
 11
6.439366251173197
 21
37.95652886877457
 31
0.0
  0
LINE
  5
137
330
1F
100
AcDbEntity
  8
0
  6
Continuous
 62
     7
370
    15
100
AcDbLine
 10
6.439366251173197
 20
37.95652886877457
 30
0.0
 11
6.439366251173197
 21
32.47906396447928
 31
0.0
  0
LINE
  5
138
330
1F
100
AcDbEntity
  8
0
  6
Continuous
 62
     7
370
    15
100
AcDbLine
 10
6.439366251173197
 20
32.47906396447928
 30
0.0
 11
16.43936625117319
 21
32.47906396447926
 31
0.0
  0
LINE
  5
139
330
1F
100
AcDbEntity
  8
0
  6
Continuous
 62
     7
370
    15
100
AcDbLine
 10
16.43936625117319
 20
32.47906396447926
 30
0.0
 11
16.43936625117319
 21
37.95652886877457
 31
0.0
  0
LINE
  5
13A
330
1F
100
AcDbEntity
  8
0
  6
Continuous
 62
     7
370
    15
100
AcDbLine
 10
-13.56063374882677
 20
37.95652886877448
 30
0.0
 11
-23.56063374882678
 21
37.95652886877448
 31
0.0
  0
LINE
  5
13B
330
1F
100
AcDbEntity
  8
0
  6
Continuous
 62
     7
370
    15
100
AcDbLine
 10
-23.56063374882678
 20
37.95652886877448
 30
0.0
 11
-23.56063374882678
 21
32.47906396447917
 31
0.0
  0
LINE
  5
13C
330
1F
100
AcDbEntity
  8
0
  6
Continuous
 62
     7
370
    15
100
AcDbLine
 10
-23.56063374882678
 20
32.47906396447917
 30
0.0
 11
-13.56063374882677
 21
32.47906396447917
 31
0.0
  0
LINE
  5
13D
330
1F
100
AcDbEntity
  8
0
  6
Continuous
 62
     7
370
    15
100
AcDbLine
 10
-13.56063374882677
 20
32.47906396447917
 30
0.0
 11
-13.56063374882677
 21
37.95652886877448
 31
0.0
  0
LINE
  5
13E
330
1F
100
AcDbEntity
  8
0
  6
Continuous
 62
     7
370
    15
100
AcDbLine
 10
-43.5606337488268
 20
37.9565288687744
 30
0.0
 11
-53.5606337488268
 21
37.9565288687744
 31
0.0
  0
LINE
  5
13F
330
1F
100
AcDbEntity
  8
0
  6
Continuous
 62
     7
370
    15
100
AcDbLine
 10
-53.5606337488268
 20
37.9565288687744
 30
0.0
 11
-53.5606337488268
 21
32.47906396447911
 31
0.0
  0
LINE
  5
140
330
1F
100
AcDbEntity
  8
0
  6
Continuous
 62
     7
370
    15
100
AcDbLine
 10
-53.5606337488268
 20
32.47906396447911
 30
0.0
 11
-43.5606337488268
 21
32.47906396447908
 31
0.0
  0
LINE
  5
141
330
1F
100
AcDbEntity
  8
0
  6
Continuous
 62
     7
370
    15
100
AcDbLine
 10
-43.5606337488268
 20
32.47906396447908
 30
0.0
 11
-43.5606337488268
 21
37.9565288687744
 31
0.0
  0
LINE
  5
142
330
1F
100
AcDbEntity
  8
0
  6
Continuous
 62
     7
370
    15
100
AcDbLine
 10
-73.56063374882683
 20
37.95652886877433
 30
0.0
 11
-83.56063374882683
 21
37.95652886877433
 31
0.0
  0
LINE
  5
143
330
1F
100
AcDbEntity
  8
0
  6
Continuous
 62
     7
370
    15
100
AcDbLine
 10
-83.56063374882683
 20
37.95652886877433
 30
0.0
 11
-83.56063374882683
 21
32.479063964479
 31
0.0
  0
LINE
  5
144
330
1F
100
AcDbEntity
  8
0
  6
Continuous
 62
     7
370
    15
100
AcDbLine
 10
-83.56063374882683
 20
32.479063964479
 30
0.0
 11
-73.56063374882683
 21
32.479063964479
 31
0.0
  0
LINE
  5
145
330
1F
100
AcDbEntity
  8
0
  6
Continuous
 62
     7
370
    15
100
AcDbLine
 10
-73.56063374882683
 20
32.479063964479
 30
0.0
 11
-73.56063374882683
 21
37.95652886877433
 31
0.0
  0
LINE
  5
146
330
1F
100
AcDbEntity
  8
0
  6
Continuous
 62
     7
370
    15
100
AcDbLine
 10
-103.5606337488268
 20
37.95652886877424
 30
0.0
 11
-113.5606337488268
 21
37.95652886877424
 31
0.0
  0
LINE
  5
147
330
1F
100
AcDbEntity
  8
0
  6
Continuous
 62
     7
370
    15
100
AcDbLine
 10
-113.5606337488268
 20
37.95652886877424
 30
0.0
 11
-113.5606337488268
 21
32.47906396447893
 31
0.0
  0
LINE
  5
148
330
1F
100
AcDbEntity
  8
0
  6
Continuous
 62
     7
370
    15
100
AcDbLine
 10
-113.5606337488268
 20
32.47906396447893
 30
0.0
 11
-103.5606337488268
 21
32.47906396447893
 31
0.0
  0
LINE
  5
149
330
1F
100
AcDbEntity
  8
0
  6
Continuous
 62
     7
370
    15
100
AcDbLine
 10
-103.5606337488268
 20
32.47906396447893
 30
0.0
 11
-103.5606337488268
 21
37.95652886877424
 31
0.0
  0
LINE
  5
14A
330
1F
100
AcDbEntity
  8
0
  6
Continuous
 62
     7
370
    15
100
AcDbLine
 10
-135.401984239454
 20
31.23246770670824
 30
0.0
 11
327.5980157605459
 21
31.23246770670824
 31
0.0
  0
LINE
  5
14B
330
1F
100
AcDbEntity
  8
0
  6
Continuous
 62
     7
370
    15
100
AcDbLine
 10
-135.401984239454
 20
31.23246770670824
 30
0.0
 11
-135.401984239454
 21
39.21224596696516
 31
0.0
  0
LINE
  5
14C
330
1F
100
AcDbEntity
  8
0
  6
Continuous
 62
     7
370
    15
100
AcDbLine
 10
-135.401984239454
 20
39.21224596696516
 30
0.0
 11
327.5980157605459
 21
39.21224596696516
 31
0.0
  0
LINE
  5
14D
330
1F
100
AcDbEntity
  8
0
  6
Continuous
 62
     7
370
    15
100
AcDbLine
 10
327.5980157605459
 20
31.23246770670824
 30
0.0
 11
327.5980157605459
 21
39.21224596696516
 31
0.0
  0
LINE
  5
14E
330
1F
100
AcDbEntity
  8
0
  6
Continuous
 62
     7
370
    15
100
AcDbLine
 10
-118.5606337488268
 20
37.95652886877419
 30
0.0
 11
-128.5606337488268
 21
37.95652886877419
 31
0.0
  0
LINE
  5
14F
330
1F
100
AcDbEntity
  8
0
  6
Continuous
 62
     7
370
    15
100
AcDbLine
 10
-128.5606337488268
 20
37.95652886877419
 30
0.0
 11
-128.5606337488268
 21
32.4790639644789
 31
0.0
  0
LINE
  5
150
330
1F
100
AcDbEntity
  8
0
  6
Continuous
 62
     7
370
    15
100
AcDbLine
 10
-128.5606337488268
 20
32.4790639644789
 30
0.0
 11
-118.5606337488268
 21
32.4790639644789
 31
0.0
  0
LINE
  5
151
330
1F
100
AcDbEntity
  8
0
  6
Continuous
 62
     7
370
    15
100
AcDbLine
 10
-118.5606337488268
 20
32.4790639644789
 30
0.0
 11
-118.5606337488268
 21
37.95652886877419
 31
0.0
  0
LINE
  5
152
330
1F
100
AcDbEntity
  8
0
  6
Continuous
 62
     7
370
    15
100
AcDbLine
 10
-88.56063374882678
 20
37.95652886877427
 30
0.0
 11
-98.5606337488268
 21
37.95652886877427
 31
0.0
  0
LINE
  5
153
330
1F
100
AcDbEntity
  8
0
  6
Continuous
 62
     7
370
    15
100
AcDbLine
 10
-98.5606337488268
 20
37.95652886877427
 30
0.0
 11
-98.5606337488268
 21
32.47906396447894
 31
0.0
  0
LINE
  5
154
330
1F
100
AcDbEntity
  8
0
  6
Continuous
 62
     7
370
    15
100
AcDbLine
 10
-98.5606337488268
 20
32.47906396447894
 30
0.0
 11
-88.56063374882678
 21
32.47906396447894
 31
0.0
  0
LINE
  5
155
330
1F
100
AcDbEntity
  8
0
  6
Continuous
 62
     7
370
    15
100
AcDbLine
 10
-88.56063374882678
 20
32.47906396447894
 30
0.0
 11
-88.56063374882678
 21
37.95652886877427
 31
0.0
  0
LINE
  5
156
330
1F
100
AcDbEntity
  8
0
  6
Continuous
 62
     7
370
    15
100
AcDbLine
 10
-58.56063374882682
 20
37.95652886877436
 30
0.0
 11
-68.56063374882682
 21
37.95652886877436
 31
0.0
  0
LINE
  5
157
330
1F
100
AcDbEntity
  8
0
  6
Continuous
 62
     7
370
    15
100
AcDbLine
 10
-68.56063374882682
 20
37.95652886877436
 30
0.0
 11
-68.56063374882682
 21
32.47906396447902
 31
0.0
  0
LINE
  5
158
330
1F
100
AcDbEntity
  8
0
  6
Continuous
 62
     7
370
    15
100
AcDbLine
 10
-68.56063374882682
 20
32.47906396447902
 30
0.0
 11
-58.56063374882682
 21
32.47906396447906
 31
0.0
  0
LINE
  5
159
330
1F
100
AcDbEntity
  8
0
  6
Continuous
 62
     7
370
    15
100
AcDbLine
 10
-58.56063374882682
 20
32.47906396447906
 30
0.0
 11
-58.56063374882682
 21
37.95652886877436
 31
0.0
  0
LINE
  5
15A
330
1F
100
AcDbEntity
  8
0
  6
Continuous
 62
     7
370
    15
100
AcDbLine
 10
-28.56063374882678
 20
37.95652886877446
 30
0.0
 11
-38.5606337488268
 21
37.95652886877446
 31
0.0
  0
LINE
  5
15B
330
1F
100
AcDbEntity
  8
0
  6
Continuous
 62
     7
370
    15
100
AcDbLine
 10
-38.5606337488268
 20
37.95652886877446
 30
0.0
 11
-38.5606337488268
 21
32.47906396447911
 31
0.0
  0
LINE
  5
15C
330
1F
100
AcDbEntity
  8
0
  6
Continuous
 62
     7
370
    15
100
AcDbLine
 10
-38.5606337488268
 20
32.47906396447911
 30
0.0
 11
-28.56063374882678
 21
32.47906396447911
 31
0.0
  0
LINE
  5
15D
330
1F
100
AcDbEntity
  8
0
  6
Continuous
 62
     7
370
    15
100
AcDbLine
 10
-28.56063374882678
 20
32.47906396447911
 30
0.0
 11
-28.56063374882678
 21
37.95652886877446
 31
0.0
  0
LINE
  5
15E
330
1F
100
AcDbEntity
  8
0
  6
Continuous
 62
     7
370
    15
100
AcDbLine
 10
1.439366251173197
 20
37.95652886877451
 30
0.0
 11
-8.56063374882683
 21
37.95652886877451
 31
0.0
  0
LINE
  5
15F
330
1F
100
AcDbEntity
  8
0
  6
Continuous
 62
     7
370
    15
100
AcDbLine
 10
-8.56063374882683
 20
37.95652886877451
 30
0.0
 11
-8.56063374882683
 21
32.47906396447922
 31
0.0
  0
LINE
  5
160
330
1F
100
AcDbEntity
  8
0
  6
Continuous
 62
     7
370
    15
100
AcDbLine
 10
-8.56063374882683
 20
32.47906396447922
 30
0.0
 11
1.439366251173197
 21
32.47906396447922
 31
0.0
  0
LINE
  5
161
330
1F
100
AcDbEntity
  8
0
  6
Continuous
 62
     7
370
    15
100
AcDbLine
 10
1.439366251173197
 20
32.47906396447922
 30
0.0
 11
1.439366251173197
 21
37.95652886877451
 31
0.0
  0
LINE
  5
162
330
1F
100
AcDbEntity
  8
0
  6
Continuous
 62
     7
370
    15
100
AcDbLine
 10
31.43936625117323
 20
37.95652886877463
 30
0.0
 11
21.4393662511732
 21
37.95652886877463
 31
0.0
  0
LINE
  5
163
330
1F
100
AcDbEntity
  8
0
  6
Continuous
 62
     7
370
    15
100
AcDbLine
 10
21.4393662511732
 20
37.95652886877463
 30
0.0
 11
21.4393662511732
 21
32.47906396447931
 31
0.0
  0
LINE
  5
164
330
1F
100
AcDbEntity
  8
0
  6
Continuous
 62
     7
370
    15
100
AcDbLine
 10
21.4393662511732
 20
32.47906396447931
 30
0.0
 11
31.43936625117323
 21
32.47906396447931
 31
0.0
  0
LINE
  5
165
330
1F
100
AcDbEntity
  8
0
  6
Continuous
 62
     7
370
    15
100
AcDbLine
 10
31.43936625117323
 20
32.47906396447931
 30
0.0
 11
31.43936625117323
 21
37.95652886877463
 31
0.0
  0
LINE
  5
166
330
1F
100
AcDbEntity
  8
0
  6
Continuous
 62
     7
370
    15
100
AcDbLine
 10
61.43936625117317
 20
37.95652886877471
 30
0.0
 11
51.43936625117317
 21
37.95652886877471
 31
0.0
  0
LINE
  5
167
330
1F
100
AcDbEntity
  8
0
  6
Continuous
 62
     7
370
    15
100
AcDbLine
 10
51.43936625117317
 20
37.95652886877471
 30
0.0
 11
51.43936625117317
 21
32.4790639644794
 31
0.0
  0
LINE
  5
168
330
1F
100
AcDbEntity
  8
0
  6
Continuous
 62
     7
370
    15
100
AcDbLine
 10
51.43936625117317
 20
32.4790639644794
 30
0.0
 11
61.43936625117317
 21
32.4790639644794
 31
0.0
  0
LINE
  5
169
330
1F
100
AcDbEntity
  8
0
  6
Continuous
 62
     7
370
    15
100
AcDbLine
 10
61.43936625117317
 20
32.4790639644794
 30
0.0
 11
61.43936625117317
 21
37.95652886877471
 31
0.0
  0
LINE
  5
16A
330
1F
100
AcDbEntity
  8
0
  6
Continuous
 62
     7
370
    15
100
AcDbLine
 10
91.43936625117323
 20
37.9565288687748
 30
0.0
 11
81.43936625117319
 21
37.9565288687748
 31
0.0
  0
LINE
  5
16B
330
1F
100
AcDbEntity
  8
0
  6
Continuous
 62
     7
370
    15
100
AcDbLine
 10
81.43936625117319
 20
37.9565288687748
 30
0.0
 11
81.43936625117319
 21
32.47906396447948
 31
0.0
  0
LINE
  5
16C
330
1F
100
AcDbEntity
  8
0
  6
Continuous
 62
     7
370
    15
100
AcDbLine
 10
81.43936625117319
 20
32.47906396447948
 30
0.0
 11
91.43936625117323
 21
32.47906396447948
 31
0.0
  0
LINE
  5
16D
330
1F
100
AcDbEntity
  8
0
  6
Continuous
 62
     7
370
    15
100
AcDbLine
 10
91.43936625117323
 20
32.47906396447948
 30
0.0
 11
91.43936625117323
 21
37.9565288687748
 31
0.0
  0
LINE
  5
16E
330
1F
100
AcDbEntity
  8
0
  6
Continuous
 62
     7
370
    15
100
AcDbLine
 10
121.4393662511731
 20
37.95652886877488
 30
0.0
 11
111.4393662511731
 21
37.95652886877488
 31
0.0
  0
LINE
  5
16F
330
1F
100
AcDbEntity
  8
0
  6
Continuous
 62
     7
370
    15
100
AcDbLine
 10
111.4393662511731
 20
37.95652886877488
 30
0.0
 11
111.4393662511731
 21
32.47906396447955
 31
0.0
  0
LINE
  5
170
330
1F
100
AcDbEntity
  8
0
  6
Continuous
 62
     7
370
    15
100
AcDbLine
 10
111.4393662511731
 20
32.47906396447955
 30
0.0
 11
121.4393662511731
 21
32.47906396447955
 31
0.0
  0
LINE
  5
171
330
1F
100
AcDbEntity
  8
0
  6
Continuous
 62
     7
370
    15
100
AcDbLine
 10
121.4393662511731
 20
32.47906396447955
 30
0.0
 11
121.4393662511731
 21
37.95652886877488
 31
0.0
  0
LINE
  5
172
330
1F
100
AcDbEntity
  8
0
  6
Continuous
 62
     7
370
    15
100
AcDbLine
 10
151.4393662511731
 20
37.95652886877497
 30
0.0
 11
141.4393662511731
 21
37.95652886877497
 31
0.0
  0
LINE
  5
173
330
1F
100
AcDbEntity
  8
0
  6
Continuous
 62
     7
370
    15
100
AcDbLine
 10
141.4393662511731
 20
37.95652886877497
 30
0.0
 11
141.4393662511731
 21
32.47906396447964
 31
0.0
  0
LINE
  5
174
330
1F
100
AcDbEntity
  8
0
  6
Continuous
 62
     7
370
    15
100
AcDbLine
 10
141.4393662511731
 20
32.47906396447964
 30
0.0
 11
151.4393662511731
 21
32.47906396447964
 31
0.0
  0
LINE
  5
175
330
1F
100
AcDbEntity
  8
0
  6
Continuous
 62
     7
370
    15
100
AcDbLine
 10
151.4393662511731
 20
32.47906396447964
 30
0.0
 11
151.4393662511731
 21
37.95652886877497
 31
0.0
  0
LINE
  5
176
330
1F
100
AcDbEntity
  8
0
  6
Continuous
 62
     7
370
    15
100
AcDbLine
 10
181.4393662511732
 20
37.95652886877504
 30
0.0
 11
171.4393662511731
 21
37.95652886877504
 31
0.0
  0
LINE
  5
177
330
1F
100
AcDbEntity
  8
0
  6
Continuous
 62
     7
370
    15
100
AcDbLine
 10
171.4393662511731
 20
37.95652886877504
 30
0.0
 11
171.4393662511731
 21
32.47906396447972
 31
0.0
  0
LINE
  5
178
330
1F
100
AcDbEntity
  8
0
  6
Continuous
 62
     7
370
    15
100
AcDbLine
 10
171.4393662511731
 20
32.47906396447972
 30
0.0
 11
181.4393662511732
 21
32.47906396447972
 31
0.0
  0
LINE
  5
179
330
1F
100
AcDbEntity
  8
0
  6
Continuous
 62
     7
370
    15
100
AcDbLine
 10
181.4393662511732
 20
32.47906396447972
 30
0.0
 11
181.4393662511732
 21
37.95652886877504
 31
0.0
  0
LINE
  5
17A
330
1F
100
AcDbEntity
  8
0
  6
Continuous
 62
     7
370
    15
100
AcDbLine
 10
211.4393662511732
 20
37.95652886877512
 30
0.0
 11
201.4393662511732
 21
37.95652886877512
 31
0.0
  0
LINE
  5
17B
330
1F
100
AcDbEntity
  8
0
  6
Continuous
 62
     7
370
    15
100
AcDbLine
 10
201.4393662511732
 20
37.95652886877512
 30
0.0
 11
201.4393662511732
 21
32.47906396447981
 31
0.0
  0
LINE
  5
17C
330
1F
100
AcDbEntity
  8
0
  6
Continuous
 62
     7
370
    15
100
AcDbLine
 10
201.4393662511732
 20
32.47906396447981
 30
0.0
 11
211.4393662511732
 21
32.47906396447984
 31
0.0
  0
LINE
  5
17D
330
1F
100
AcDbEntity
  8
0
  6
Continuous
 62
     7
370
    15
100
AcDbLine
 10
211.4393662511732
 20
32.47906396447984
 30
0.0
 11
211.4393662511732
 21
37.95652886877512
 31
0.0
  0
LINE
  5
17E
330
1F
100
AcDbEntity
  8
0
  6
Continuous
 62
     7
370
    15
100
AcDbLine
 10
241.4393662511732
 20
37.95652886877524
 30
0.0
 11
231.4393662511731
 21
37.95652886877524
 31
0.0
  0
LINE
  5
17F
330
1F
100
AcDbEntity
  8
0
  6
Continuous
 62
     7
370
    15
100
AcDbLine
 10
231.4393662511731
 20
37.95652886877524
 30
0.0
 11
231.4393662511731
 21
32.47906396447989
 31
0.0
  0
LINE
  5
180
330
1F
100
AcDbEntity
  8
0
  6
Continuous
 62
     7
370
    15
100
AcDbLine
 10
231.4393662511731
 20
32.47906396447989
 30
0.0
 11
241.4393662511732
 21
32.47906396447989
 31
0.0
  0
LINE
  5
181
330
1F
100
AcDbEntity
  8
0
  6
Continuous
 62
     7
370
    15
100
AcDbLine
 10
241.4393662511732
 20
32.47906396447989
 30
0.0
 11
241.4393662511732
 21
37.95652886877524
 31
0.0
  0
LINE
  5
182
330
1F
100
AcDbEntity
  8
0
  6
Continuous
 62
     7
370
    15
100
AcDbLine
 10
271.4393662511731
 20
37.9565288687753
 30
0.0
 11
261.4393662511732
 21
37.9565288687753
 31
0.0
  0
LINE
  5
183
330
1F
100
AcDbEntity
  8
0
  6
Continuous
 62
     7
370
    15
100
AcDbLine
 10
261.4393662511732
 20
37.9565288687753
 30
0.0
 11
261.4393662511732
 21
32.47906396448001
 31
0.0
  0
LINE
  5
184
330
1F
100
AcDbEntity
  8
0
  6
Continuous
 62
     7
370
    15
100
AcDbLine
 10
261.4393662511732
 20
32.47906396448001
 30
0.0
 11
271.4393662511731
 21
32.47906396448001
 31
0.0
  0
LINE
  5
185
330
1F
100
AcDbEntity
  8
0
  6
Continuous
 62
     7
370
    15
100
AcDbLine
 10
271.4393662511731
 20
32.47906396448001
 30
0.0
 11
271.4393662511731
 21
37.9565288687753
 31
0.0
  0
LINE
  5
186
330
1F
100
AcDbEntity
  8
0
  6
Continuous
 62
     7
370
    15
100
AcDbLine
 10
301.4393662511732
 20
37.95652886877541
 30
0.0
 11
291.4393662511732
 21
37.95652886877541
 31
0.0
  0
LINE
  5
187
330
1F
100
AcDbEntity
  8
0
  6
Continuous
 62
     7
370
    15
100
AcDbLine
 10
291.4393662511732
 20
37.95652886877541
 30
0.0
 11
291.4393662511732
 21
32.47906396448009
 31
0.0
  0
LINE
  5
188
330
1F
100
AcDbEntity
  8
0
  6
Continuous
 62
     7
370
    15
100
AcDbLine
 10
291.4393662511732
 20
32.47906396448009
 30
0.0
 11
301.4393662511732
 21
32.47906396448009
 31
0.0
  0
LINE
  5
189
330
1F
100
AcDbEntity
  8
0
  6
Continuous
 62
     7
370
    15
100
AcDbLine
 10
301.4393662511732
 20
32.47906396448009
 30
0.0
 11
301.4393662511732
 21
37.95652886877541
 31
0.0
  0
LINE
  5
18A
330
1F
100
AcDbEntity
  8
0
  6
Continuous
 62
     7
370
    15
100
AcDbLine
 10
-135.401984239454
 20
85.59571046706295
 30
0.0
 11
-135.401984239454
 21
39.21224596696516
 31
0.0
  0
LINE
  5
18B
330
1F
100
AcDbEntity
  8
0
  6
Continuous
 62
     7
370
    15
100
AcDbLine
 10
327.5980157605459
 20
85.59571046706295
 30
0.0
 11
327.5980157605459
 21
39.21224596696516
 31
0.0
  0
LINE
  5
18C
330
1F
100
AcDbEntity
  8
0
  6
Continuous
 62
     7
370
    15
100
AcDbLine
 10
-107.5324027383017
 20
29.23246770670824
 30
0.0
 11
-116.8755484888094
 21
29.23246770670824
 31
0.0
  0
ARC
  5
18D
330
1F
100
AcDbEntity
  8
0
  6
Continuous
 62
     7
370
    15
100
AcDbCircle
 10
-116.8755484888094
 20
32.23246770670824
 30
0.0
 40
3.0
100
AcDbArc
 50
199.4712206344916
 51
270.0000000000008
  0
ARC
  5
18E
330
1F
100
AcDbEntity
  8
0
  6
Continuous
 62
     7
370
    15
100
AcDbCircle
 10
-107.5324027383017
 20
32.23246770670824
 30
0.0
 40
3.0
100
AcDbArc
 50
270.0000000000008
 51
340.52877936551
  0
LINE
  5
18F
330
1F
100
AcDbEntity
  8
0
  6
Continuous
 62
     7
370
    15
100
AcDbLine
 10
-87.53240273830183
 20
29.23246770670824
 30
0.0
 11
-96.87554848880948
 21
29.23246770670824
 31
0.0
  0
ARC
  5
190
330
1F
100
AcDbEntity
  8
0
  6
Continuous
 62
     7
370
    15
100
AcDbCircle
 10
-87.53240273830183
 20
32.23246770670824
 30
0.0
 40
3.0
100
AcDbArc
 50
270.0000000000008
 51
340.52877936551
  0
ARC
  5
191
330
1F
100
AcDbEntity
  8
0
  6
Continuous
 62
     7
370
    15
100
AcDbCircle
 10
-96.87554848880948
 20
32.23246770670824
 30
0.0
 40
3.0
100
AcDbArc
 50
199.4712206344916
 51
270.0000000000008
  0
LINE
  5
192
330
1F
100
AcDbEntity
  8
0
  6
Continuous
 62
     7
370
    15
100
AcDbLine
 10
-67.53240273830181
 20
29.23246770670824
 30
0.0
 11
-76.87554848880946
 21
29.23246770670824
 31
0.0
  0
ARC
  5
193
330
1F
100
AcDbEntity
  8
0
  6
Continuous
 62
     7
370
    15
100
AcDbCircle
 10
-67.53240273830181
 20
32.23246770670824
 30
0.0
 40
3.0
100
AcDbArc
 50
270.0000000000008
 51
340.52877936551
  0
ARC
  5
194
330
1F
100
AcDbEntity
  8
0
  6
Continuous
 62
     7
370
    15
100
AcDbCircle
 10
-76.87554848880946
 20
32.23246770670824
 30
0.0
 40
3.0
100
AcDbArc
 50
199.4712206344916
 51
270.0000000000008
  0
LINE
  5
195
330
1F
100
AcDbEntity
  8
0
  6
Continuous
 62
     7
370
    15
100
AcDbLine
 10
-47.53240273830178
 20
29.23246770670824
 30
0.0
 11
-56.87554848880944
 21
29.23246770670824
 31
0.0
  0
ARC
  5
196
330
1F
100
AcDbEntity
  8
0
  6
Continuous
 62
     7
370
    15
100
AcDbCircle
 10
-47.53240273830178
 20
32.23246770670824
 30
0.0
 40
3.0
100
AcDbArc
 50
270.0000000000008
 51
340.52877936551
  0
ARC
  5
197
330
1F
100
AcDbEntity
  8
0
  6
Continuous
 62
     7
370
    15
100
AcDbCircle
 10
-56.87554848880944
 20
32.23246770670824
 30
0.0
 40
3.0
100
AcDbArc
 50
199.4712206344916
 51
270.0000000000008
  0
LINE
  5
198
330
1F
100
AcDbEntity
  8
0
  6
Continuous
 62
     7
370
    15
100
AcDbLine
 10
-27.53240273830178
 20
29.23246770670824
 30
0.0
 11
-36.87554848880941
 21
29.23246770670824
 31
0.0
  0
ARC
  5
199
330
1F
100
AcDbEntity
  8
0
  6
Continuous
 62
     7
370
    15
100
AcDbCircle
 10
-36.87554848880941
 20
32.23246770670824
 30
0.0
 40
3.0
100
AcDbArc
 50
199.4712206344916
 51
270.0000000000008
  0
ARC
  5
19A
330
1F
100
AcDbEntity
  8
0
  6
Continuous
 62
     7
370
    15
100
AcDbCircle
 10
-27.53240273830178
 20
32.23246770670824
 30
0.0
 40
3.0
100
AcDbArc
 50
270.0000000000008
 51
340.52877936551
  0
LINE
  5
19B
330
1F
100
AcDbEntity
  8
0
  6
Continuous
 62
     7
370
    15
100
AcDbLine
 10
-7.532402738301755
 20
29.23246770670824
 30
0.0
 11
-16.87554848880941
 21
29.23246770670824
 31
0.0
  0
ARC
  5
19C
330
1F
100
AcDbEntity
  8
0
  6
Continuous
 62
     7
370
    15
100
AcDbCircle
 10
-7.532402738301755
 20
32.23246770670824
 30
0.0
 40
3.0
100
AcDbArc
 50
270.0000000000008
 51
340.52877936551
  0
ARC
  5
19D
330
1F
100
AcDbEntity
  8
0
  6
Continuous
 62
     7
370
    15
100
AcDbCircle
 10
-16.87554848880941
 20
32.23246770670824
 30
0.0
 40
3.0
100
AcDbArc
 50
199.4712206344916
 51
270.0000000000008
  0
LINE
  5
19E
330
1F
100
AcDbEntity
  8
0
  6
Continuous
 62
     7
370
    15
100
AcDbLine
 10
12.46759726169816
 20
29.23246770670824
 30
0.0
 11
3.124451511190613
 21
29.23246770670824
 31
0.0
  0
ARC
  5
19F
330
1F
100
AcDbEntity
  8
0
  6
Continuous
 62
     7
370
    15
100
AcDbCircle
 10
3.124451511190613
 20
32.23246770670824
 30
0.0
 40
3.0
100
AcDbArc
 50
199.4712206344916
 51
270.0000000000008
  0
ARC
  5
1A0
330
1F
100
AcDbEntity
  8
0
  6
Continuous
 62
     7
370
    15
100
AcDbCircle
 10
12.46759726169816
 20
32.23246770670824
 30
0.0
 40
3.0
100
AcDbArc
 50
270.0000000000008
 51
340.52877936551
  0
LINE
  5
1A1
330
1F
100
AcDbEntity
  8
0
  6
Continuous
 62
     7
370
    15
100
AcDbLine
 10
32.46759726169816
 20
29.23246770670824
 30
0.0
 11
23.12445151119053
 21
29.23246770670824
 31
0.0
  0
ARC
  5
1A2
330
1F
100
AcDbEntity
  8
0
  6
Continuous
 62
     7
370
    15
100
AcDbCircle
 10
32.46759726169816
 20
32.23246770670824
 30
0.0
 40
3.0
100
AcDbArc
 50
270.0000000000008
 51
340.52877936551
  0
ARC
  5
1A3
330
1F
100
AcDbEntity
  8
0
  6
Continuous
 62
     7
370
    15
100
AcDbCircle
 10
23.12445151119053
 20
32.23246770670824
 30
0.0
 40
3.0
100
AcDbArc
 50
199.4712206344916
 51
270.0000000000008
  0
LINE
  5
1A4
330
1F
100
AcDbEntity
  8
0
  6
Continuous
 62
     7
370
    15
100
AcDbLine
 10
52.46759726169819
 20
29.23246770670824
 30
0.0
 11
43.12445151119052
 21
29.23246770670824
 31
0.0
  0
ARC
  5
1A5
330
1F
100
AcDbEntity
  8
0
  6
Continuous
 62
     7
370
    15
100
AcDbCircle
 10
43.12445151119052
 20
32.23246770670824
 30
0.0
 40
3.0
100
AcDbArc
 50
199.4712206344916
 51
270.0000000000008
  0
ARC
  5
1A6
330
1F
100
AcDbEntity
  8
0
  6
Continuous
 62
     7
370
    15
100
AcDbCircle
 10
52.46759726169819
 20
32.23246770670824
 30
0.0
 40
3.0
100
AcDbArc
 50
270.0000000000008
 51
340.52877936551
  0
LINE
  5
1A7
330
1F
100
AcDbEntity
  8
0
  6
Continuous
 62
     7
370
    15
100
AcDbLine
 10
72.46759726169827
 20
29.23246770670824
 30
0.0
 11
63.12445151119056
 21
29.23246770670824
 31
0.0
  0
ARC
  5
1A8
330
1F
100
AcDbEntity
  8
0
  6
Continuous
 62
     7
370
    15
100
AcDbCircle
 10
63.12445151119056
 20
32.23246770670824
 30
0.0
 40
3.0
100
AcDbArc
 50
199.4712206344916
 51
270.0000000000008
  0
ARC
  5
1A9
330
1F
100
AcDbEntity
  8
0
  6
Continuous
 62
     7
370
    15
100
AcDbCircle
 10
72.46759726169827
 20
32.23246770670824
 30
0.0
 40
3.0
100
AcDbArc
 50
270.0000000000008
 51
340.5287793655098
  0
LINE
  5
1AA
330
1F
100
AcDbEntity
  8
0
  6
Continuous
 62
     7
370
    15
100
AcDbLine
 10
128.741413951588
 20
29.23246770670824
 30
0.0
 11
119.3982682010804
 21
29.23246770670824
 31
0.0
  0
ARC
  5
1AB
330
1F
100
AcDbEntity
  8
0
  6
Continuous
 62
     7
370
    15
100
AcDbCircle
 10
128.741413951588
 20
32.23246770670824
 30
0.0
 40
3.000000000000021
100
AcDbArc
 50
270.0000000000008
 51
340.5287793655102
  0
ARC
  5
1AC
330
1F
100
AcDbEntity
  8
0
  6
Continuous
 62
     7
370
    15
100
AcDbCircle
 10
119.3982682010804
 20
32.23246770670824
 30
0.0
 40
3.000000000000021
100
AcDbArc
 50
199.4712206344911
 51
270.0000000000008
  0
LINE
  5
1AD
330
1F
100
AcDbEntity
  8
0
  6
Continuous
 62
     7
370
    15
100
AcDbLine
 10
148.741413951588
 20
29.23246770670824
 30
0.0
 11
139.3982682010804
 21
29.23246770670824
 31
0.0
  0
ARC
  5
1AE
330
1F
100
AcDbEntity
  8
0
  6
Continuous
 62
     7
370
    15
100
AcDbCircle
 10
148.741413951588
 20
32.23246770670824
 30
0.0
 40
3.000000000000021
100
AcDbArc
 50
270.0000000000008
 51
340.5287793655102
  0
ARC
  5
1AF
330
1F
100
AcDbEntity
  8
0
  6
Continuous
 62
     7
370
    15
100
AcDbCircle
 10
139.3982682010804
 20
32.23246770670824
 30
0.0
 40
3.0
100
AcDbArc
 50
199.4712206344918
 51
270.0000000000008
  0
LINE
  5
1B0
330
1F
100
AcDbEntity
  8
0
  6
Continuous
 62
     7
370
    15
100
AcDbLine
 10
168.7414139515881
 20
29.23246770670824
 30
0.0
 11
159.3982682010804
 21
29.23246770670824
 31
0.0
  0
ARC
  5
1B1
330
1F
100
AcDbEntity
  8
0
  6
Continuous
 62
     7
370
    15
100
AcDbCircle
 10
168.7414139515881
 20
32.23246770670824
 30
0.0
 40
3.0
100
AcDbArc
 50
270.0000000000008
 51
340.5287793655098
  0
ARC
  5
1B2
330
1F
100
AcDbEntity
  8
0
  6
Continuous
 62
     7
370
    15
100
AcDbCircle
 10
159.3982682010804
 20
32.23246770670824
 30
0.0
 40
3.0
100
AcDbArc
 50
199.4712206344918
 51
270.0000000000008
  0
LINE
  5
1B3
330
1F
100
AcDbEntity
  8
0
  6
Continuous
 62
     7
370
    15
100
AcDbLine
 10
188.7414139515881
 20
29.23246770670824
 30
0.0
 11
179.3982682010804
 21
29.23246770670824
 31
0.0
  0
ARC
  5
1B4
330
1F
100
AcDbEntity
  8
0
  6
Continuous
 62
     7
370
    15
100
AcDbCircle
 10
179.3982682010804
 20
32.23246770670824
 30
0.0
 40
3.000000000000021
100
AcDbArc
 50
199.4712206344911
 51
270.0000000000008
  0
ARC
  5
1B5
330
1F
100
AcDbEntity
  8
0
  6
Continuous
 62
     7
370
    15
100
AcDbCircle
 10
188.7414139515881
 20
32.23246770670824
 30
0.0
 40
3.000000000000021
100
AcDbArc
 50
270.0000000000008
 51
340.5287793655102
  0
LINE
  5
1B6
330
1F
100
AcDbEntity
  8
0
  6
Continuous
 62
     7
370
    15
100
AcDbLine
 10
208.741413951588
 20
29.23246770670824
 30
0.0
 11
199.3982682010803
 21
29.23246770670824
 31
0.0
  0
ARC
  5
1B7
330
1F
100
AcDbEntity
  8
0
  6
Continuous
 62
     7
370
    15
100
AcDbCircle
 10
199.3982682010803
 20
32.23246770670824
 30
0.0
 40
3.0
100
AcDbArc
 50
199.4712206344924
 51
270.0000000000008
  0
ARC
  5
1B8
330
1F
100
AcDbEntity
  8
0
  6
Continuous
 62
     7
370
    15
100
AcDbCircle
 10
208.741413951588
 20
32.23246770670824
 30
0.0
 40
3.000000000000021
100
AcDbArc
 50
270.0000000000008
 51
340.5287793655102
  0
LINE
  5
1B9
330
1F
100
AcDbEntity
  8
0
  6
Continuous
 62
     7
370
    15
100
AcDbLine
 10
228.741413951588
 20
29.23246770670824
 30
0.0
 11
219.3982682010803
 21
29.23246770670824
 31
0.0
  0
ARC
  5
1BA
330
1F
100
AcDbEntity
  8
0
  6
Continuous
 62
     7
370
    15
100
AcDbCircle
 10
228.741413951588
 20
32.23246770670824
 30
0.0
 40
3.0
100
AcDbArc
 50
270.0000000000008
 51
340.5287793655098
  0
ARC
  5
1BB
330
1F
100
AcDbEntity
  8
0
  6
Continuous
 62
     7
370
    15
100
AcDbCircle
 10
219.3982682010803
 20
32.23246770670824
 30
0.0
 40
3.0
100
AcDbArc
 50
199.4712206344918
 51
270.0000000000008
  0
LINE
  5
1BC
330
1F
100
AcDbEntity
  8
0
  6
Continuous
 62
     7
370
    15
100
AcDbLine
 10
248.741413951588
 20
29.23246770670824
 30
0.0
 11
239.3982682010804
 21
29.23246770670824
 31
0.0
  0
ARC
  5
1BD
330
1F
100
AcDbEntity
  8
0
  6
Continuous
 62
     7
370
    15
100
AcDbCircle
 10
248.741413951588
 20
32.23246770670824
 30
0.0
 40
3.000000000000021
100
AcDbArc
 50
270.0000000000008
 51
340.5287793655102
  0
ARC
  5
1BE
330
1F
100
AcDbEntity
  8
0
  6
Continuous
 62
     7
370
    15
100
AcDbCircle
 10
239.3982682010804
 20
32.23246770670824
 30
0.0
 40
3.000000000000021
100
AcDbArc
 50
199.4712206344911
 51
270.0000000000008
  0
LINE
  5
1BF
330
1F
100
AcDbEntity
  8
0
  6
Continuous
 62
     7
370
    15
100
AcDbLine
 10
268.741413951588
 20
29.23246770670824
 30
0.0
 11
259.3982682010804
 21
29.23246770670824
 31
0.0
  0
ARC
  5
1C0
330
1F
100
AcDbEntity
  8
0
  6
Continuous
 62
     7
370
    15
100
AcDbCircle
 10
268.741413951588
 20
32.23246770670824
 30
0.0
 40
3.000000000000021
100
AcDbArc
 50
270.0000000000008
 51
340.5287793655102
  0
ARC
  5
1C1
330
1F
100
AcDbEntity
  8
0
  6
Continuous
 62
     7
370
    15
100
AcDbCircle
 10
259.3982682010804
 20
32.23246770670824
 30
0.0
 40
3.0
100
AcDbArc
 50
199.4712206344918
 51
270.0000000000008
  0
LINE
  5
1C2
330
1F
100
AcDbEntity
  8
0
  6
Continuous
 62
     7
370
    15
100
AcDbLine
 10
288.7414139515881
 20
29.23246770670824
 30
0.0
 11
279.3982682010804
 21
29.23246770670824
 31
0.0
  0
ARC
  5
1C3
330
1F
100
AcDbEntity
  8
0
  6
Continuous
 62
     7
370
    15
100
AcDbCircle
 10
288.7414139515881
 20
32.23246770670824
 30
0.0
 40
3.0
100
AcDbArc
 50
270.0000000000008
 51
340.5287793655098
  0
ARC
  5
1C4
330
1F
100
AcDbEntity
  8
0
  6
Continuous
 62
     7
370
    15
100
AcDbCircle
 10
279.3982682010804
 20
32.23246770670824
 30
0.0
 40
3.0
100
AcDbArc
 50
199.4712206344918
 51
270.0000000000008
  0
LINE
  5
1C5
330
1F
100
AcDbEntity
  8
0
  6
Continuous
 62
     7
370
    15
100
AcDbLine
 10
308.7414139515881
 20
29.23246770670824
 30
0.0
 11
299.3982682010805
 21
29.23246770670824
 31
0.0
  0
ARC
  5
1C6
330
1F
100
AcDbEntity
  8
0
  6
Continuous
 62
     7
370
    15
100
AcDbCircle
 10
308.7414139515881
 20
32.23246770670824
 30
0.0
 40
3.0
100
AcDbArc
 50
270.0000000000008
 51
340.5287793655098
  0
ARC
  5
1C7
330
1F
100
AcDbEntity
  8
0
  6
Continuous
 62
     7
370
    15
100
AcDbCircle
 10
299.3982682010805
 20
32.23246770670824
 30
0.0
 40
3.000000000000021
100
AcDbArc
 50
199.4712206344911
 51
270.0000000000008
  0
LINE
  5
1C8
330
1F
100
AcDbEntity
  8
0
  6
Continuous
 62
     7
370
    15
100
AcDbLine
 10
-34.20912517354091
 20
151.2324677067082
 30
0.0
 11
229.7908748264591
 21
151.2324677067082
 31
0.0
  0
LINE
  5
1C9
330
1F
100
AcDbEntity
  8
0
  6
Continuous
 62
     7
370
    15
100
AcDbLine
 10
229.7908748264591
 20
151.2324677067082
 30
0.0
 11
229.7908748264591
 21
91.23246770670826
 31
0.0
  0
LINE
  5
1CA
330
1F
100
AcDbEntity
  8
0
  6
Continuous
 62
     7
370
    15
100
AcDbLine
 10
-25.91459489982091
 20
93.1098934278051
 30
0.0
 11
-25.91459489982091
 21
140.9592677110988
 31
0.0
  0
LINE
  5
1CB
330
1F
100
AcDbEntity
  8
0
  6
Continuous
 62
     7
370
    15
100
AcDbLine
 10
-25.91459489982091
 20
140.9592677110988
 30
0.0
 11
-28.97921545802103
 21
140.9592677110988
 31
0.0
  0
LINE
  5
1CC
330
1F
100
AcDbEntity
  8
0
  6
Continuous
 62
     7
370
    15
100
AcDbLine
 10
-28.97921545802103
 20
140.9592677110988
 30
0.0
 11
-28.97921545802103
 21
93.1098934278051
 31
0.0
  0
LINE
  5
1CD
330
1F
100
AcDbEntity
  8
0
  6
Continuous
 62
     7
370
    15
100
AcDbLine
 10
-28.97921545802103
 20
93.1098934278051
 30
0.0
 11
-25.91459489982091
 21
93.1098934278051
 31
0.0
  0
LINE
  5
1CE
330
1F
100
AcDbEntity
  8
0
  6
Continuous
 62
     7
370
    15
100
AcDbLine
 10
-15.91459489982088
 20
93.1098934278051
 30
0.0
 11
-15.91459489982088
 21
140.9592677110988
 31
0.0
  0
LINE
  5
1CF
330
1F
100
AcDbEntity
  8
0
  6
Continuous
 62
     7
370
    15
100
AcDbLine
 10
-15.91459489982088
 20
140.9592677110988
 30
0.0
 11
-18.979215458021
 21
140.9592677110988
 31
0.0
  0
LINE
  5
1D0
330
1F
100
AcDbEntity
  8
0
  6
Continuous
 62
     7
370
    15
100
AcDbLine
 10
-18.979215458021
 20
140.9592677110988
 30
0.0
 11
-18.979215458021
 21
93.1098934278051
 31
0.0
  0
LINE
  5
1D1
330
1F
100
AcDbEntity
  8
0
  6
Continuous
 62
     7
370
    15
100
AcDbLine
 10
-18.979215458021
 20
93.1098934278051
 30
0.0
 11
-15.91459489982088
 21
93.1098934278051
 31
0.0
  0
LINE
  5
1D2
330
1F
100
AcDbEntity
  8
0
  6
Continuous
 62
     7
370
    15
100
AcDbLine
 10
-5.914594899820883
 20
93.1098934278051
 30
0.0
 11
-5.914594899820883
 21
140.9592677110988
 31
0.0
  0
LINE
  5
1D3
330
1F
100
AcDbEntity
  8
0
  6
Continuous
 62
     7
370
    15
100
AcDbLine
 10
-5.914594899820883
 20
140.9592677110988
 30
0.0
 11
-8.979215458021002
 21
140.9592677110988
 31
0.0
  0
LINE
  5
1D4
330
1F
100
AcDbEntity
  8
0
  6
Continuous
 62
     7
370
    15
100
AcDbLine
 10
-8.979215458021002
 20
140.9592677110988
 30
0.0
 11
-8.979215458021002
 21
93.1098934278051
 31
0.0
  0
LINE
  5
1D5
330
1F
100
AcDbEntity
  8
0
  6
Continuous
 62
     7
370
    15
100
AcDbLine
 10
-8.979215458021002
 20
93.1098934278051
 30
0.0
 11
-5.914594899820883
 21
93.1098934278051
 31
0.0
  0
LINE
  5
1D6
330
1F
100
AcDbEntity
  8
0
  6
Continuous
 62
     7
370
    15
100
AcDbLine
 10
4.085405100179116
 20
93.1098934278051
 30
0.0
 11
4.085405100179059
 21
140.9592677110988
 31
0.0
  0
LINE
  5
1D7
330
1F
100
AcDbEntity
  8
0
  6
Continuous
 62
     7
370
    15
100
AcDbLine
 10
4.085405100179059
 20
140.9592677110988
 30
0.0
 11
1.02078454197894
 21
140.9592677110988
 31
0.0
  0
LINE
  5
1D8
330
1F
100
AcDbEntity
  8
0
  6
Continuous
 62
     7
370
    15
100
AcDbLine
 10
1.02078454197894
 20
140.9592677110988
 30
0.0
 11
1.020784541978997
 21
93.1098934278051
 31
0.0
  0
LINE
  5
1D9
330
1F
100
AcDbEntity
  8
0
  6
Continuous
 62
     7
370
    15
100
AcDbLine
 10
1.020784541978997
 20
93.1098934278051
 30
0.0
 11
4.085405100179116
 21
93.1098934278051
 31
0.0
  0
LINE
  5
1DA
330
1F
100
AcDbEntity
  8
0
  6
Continuous
 62
     7
370
    15
100
AcDbLine
 10
14.08540510017909
 20
93.1098934278051
 30
0.0
 11
14.08540510017909
 21
140.9592677110988
 31
0.0
  0
LINE
  5
1DB
330
1F
100
AcDbEntity
  8
0
  6
Continuous
 62
     7
370
    15
100
AcDbLine
 10
14.08540510017909
 20
140.9592677110988
 30
0.0
 11
11.02078454197897
 21
140.9592677110988
 31
0.0
  0
LINE
  5
1DC
330
1F
100
AcDbEntity
  8
0
  6
Continuous
 62
     7
370
    15
100
AcDbLine
 10
11.02078454197897
 20
140.9592677110988
 30
0.0
 11
11.02078454197902
 21
93.1098934278051
 31
0.0
  0
LINE
  5
1DD
330
1F
100
AcDbEntity
  8
0
  6
Continuous
 62
     7
370
    15
100
AcDbLine
 10
11.02078454197902
 20
93.1098934278051
 30
0.0
 11
14.08540510017909
 21
93.1098934278051
 31
0.0
  0
LINE
  5
1DE
330
1F
100
AcDbEntity
  8
0
  6
Continuous
 62
     7
370
    15
100
AcDbLine
 10
24.08540510017909
 20
93.1098934278051
 30
0.0
 11
24.08540510017909
 21
140.9592677110988
 31
0.0
  0
LINE
  5
1DF
330
1F
100
AcDbEntity
  8
0
  6
Continuous
 62
     7
370
    15
100
AcDbLine
 10
24.08540510017909
 20
140.9592677110988
 30
0.0
 11
21.02078454197897
 21
140.9592677110988
 31
0.0
  0
LINE
  5
1E0
330
1F
100
AcDbEntity
  8
0
  6
Continuous
 62
     7
370
    15
100
AcDbLine
 10
21.02078454197897
 20
140.9592677110988
 30
0.0
 11
21.02078454197902
 21
93.1098934278051
 31
0.0
  0
LINE
  5
1E1
330
1F
100
AcDbEntity
  8
0
  6
Continuous
 62
     7
370
    15
100
AcDbLine
 10
21.02078454197902
 20
93.1098934278051
 30
0.0
 11
24.08540510017909
 21
93.1098934278051
 31
0.0
  0
LINE
  5
1E2
330
1F
100
AcDbEntity
  8
0
  6
Continuous
 62
     7
370
    15
100
AcDbLine
 10
34.08540510017909
 20
93.1098934278051
 30
0.0
 11
34.08540510017903
 21
140.9592677110988
 31
0.0
  0
LINE
  5
1E3
330
1F
100
AcDbEntity
  8
0
  6
Continuous
 62
     7
370
    15
100
AcDbLine
 10
34.08540510017903
 20
140.9592677110988
 30
0.0
 11
31.02078454197891
 21
140.9592677110988
 31
0.0
  0
LINE
  5
1E4
330
1F
100
AcDbEntity
  8
0
  6
Continuous
 62
     7
370
    15
100
AcDbLine
 10
31.02078454197891
 20
140.9592677110988
 30
0.0
 11
31.02078454197903
 21
93.1098934278051
 31
0.0
  0
LINE
  5
1E5
330
1F
100
AcDbEntity
  8
0
  6
Continuous
 62
     7
370
    15
100
AcDbLine
 10
31.02078454197903
 20
93.1098934278051
 30
0.0
 11
34.08540510017909
 21
93.1098934278051
 31
0.0
  0
LINE
  5
1E6
330
1F
100
AcDbEntity
  8
0
  6
Continuous
 62
     7
370
    15
100
AcDbLine
 10
44.08540510017911
 20
93.1098934278051
 30
0.0
 11
44.08540510017906
 21
140.9592677110988
 31
0.0
  0
LINE
  5
1E7
330
1F
100
AcDbEntity
  8
0
  6
Continuous
 62
     7
370
    15
100
AcDbLine
 10
44.08540510017906
 20
140.9592677110988
 30
0.0
 11
41.02078454197894
 21
140.9592677110988
 31
0.0
  0
LINE
  5
1E8
330
1F
100
AcDbEntity
  8
0
  6
Continuous
 62
     7
370
    15
100
AcDbLine
 10
41.02078454197894
 20
140.9592677110988
 30
0.0
 11
41.02078454197905
 21
93.1098934278051
 31
0.0
  0
LINE
  5
1E9
330
1F
100
AcDbEntity
  8
0
  6
Continuous
 62
     7
370
    15
100
AcDbLine
 10
41.02078454197905
 20
93.1098934278051
 30
0.0
 11
44.08540510017911
 21
93.1098934278051
 31
0.0
  0
LINE
  5
1EA
330
1F
100
AcDbEntity
  8
0
  6
Continuous
 62
     7
370
    15
100
AcDbLine
 10
54.08540510017911
 20
93.1098934278051
 30
0.0
 11
54.08540510017906
 21
140.9592677110988
 31
0.0
  0
LINE
  5
1EB
330
1F
100
AcDbEntity
  8
0
  6
Continuous
 62
     7
370
    15
100
AcDbLine
 10
54.08540510017906
 20
140.9592677110988
 30
0.0
 11
51.02078454197894
 21
140.9592677110988
 31
0.0
  0
LINE
  5
1EC
330
1F
100
AcDbEntity
  8
0
  6
Continuous
 62
     7
370
    15
100
AcDbLine
 10
51.02078454197894
 20
140.9592677110988
 30
0.0
 11
51.02078454197905
 21
93.1098934278051
 31
0.0
  0
LINE
  5
1ED
330
1F
100
AcDbEntity
  8
0
  6
Continuous
 62
     7
370
    15
100
AcDbLine
 10
51.02078454197905
 20
93.1098934278051
 30
0.0
 11
54.08540510017911
 21
93.1098934278051
 31
0.0
  0
LINE
  5
1EE
330
1F
100
AcDbEntity
  8
0
  6
Continuous
 62
     7
370
    15
100
AcDbLine
 10
64.08540510017906
 20
93.1098934278051
 30
0.0
 11
64.08540510017906
 21
140.9592677110988
 31
0.0
  0
LINE
  5
1EF
330
1F
100
AcDbEntity
  8
0
  6
Continuous
 62
     7
370
    15
100
AcDbLine
 10
64.08540510017906
 20
140.9592677110988
 30
0.0
 11
61.02078454197894
 21
140.9592677110988
 31
0.0
  0
LINE
  5
1F0
330
1F
100
AcDbEntity
  8
0
  6
Continuous
 62
     7
370
    15
100
AcDbLine
 10
61.02078454197894
 20
140.9592677110988
 30
0.0
 11
61.02078454197894
 21
93.1098934278051
 31
0.0
  0
LINE
  5
1F1
330
1F
100
AcDbEntity
  8
0
  6
Continuous
 62
     7
370
    15
100
AcDbLine
 10
61.02078454197894
 20
93.1098934278051
 30
0.0
 11
64.08540510017906
 21
93.1098934278051
 31
0.0
  0
LINE
  5
1F2
330
1F
100
AcDbEntity
  8
0
  6
Continuous
 62
     7
370
    15
100
AcDbLine
 10
74.08540510017909
 20
93.1098934278051
 30
0.0
 11
74.08540510017909
 21
140.9592677110988
 31
0.0
  0
LINE
  5
1F3
330
1F
100
AcDbEntity
  8
0
  6
Continuous
 62
     7
370
    15
100
AcDbLine
 10
74.08540510017909
 20
140.9592677110988
 30
0.0
 11
71.02078454197897
 21
140.9592677110988
 31
0.0
  0
LINE
  5
1F4
330
1F
100
AcDbEntity
  8
0
  6
Continuous
 62
     7
370
    15
100
AcDbLine
 10
71.02078454197897
 20
140.9592677110988
 30
0.0
 11
71.02078454197897
 21
93.1098934278051
 31
0.0
  0
LINE
  5
1F5
330
1F
100
AcDbEntity
  8
0
  6
Continuous
 62
     7
370
    15
100
AcDbLine
 10
71.02078454197897
 20
93.1098934278051
 30
0.0
 11
74.08540510017909
 21
93.1098934278051
 31
0.0
  0
LINE
  5
1F6
330
1F
100
AcDbEntity
  8
0
  6
Continuous
 62
     7
370
    15
100
AcDbLine
 10
84.08540510017905
 20
93.1098934278051
 30
0.0
 11
84.08540510017905
 21
140.9592677110988
 31
0.0
  0
LINE
  5
1F7
330
1F
100
AcDbEntity
  8
0
  6
Continuous
 62
     7
370
    15
100
AcDbLine
 10
84.08540510017905
 20
140.9592677110988
 30
0.0
 11
81.02078454197892
 21
140.9592677110988
 31
0.0
  0
LINE
  5
1F8
330
1F
100
AcDbEntity
  8
0
  6
Continuous
 62
     7
370
    15
100
AcDbLine
 10
81.02078454197892
 20
140.9592677110988
 30
0.0
 11
81.02078454197897
 21
93.1098934278051
 31
0.0
  0
LINE
  5
1F9
330
1F
100
AcDbEntity
  8
0
  6
Continuous
 62
     7
370
    15
100
AcDbLine
 10
81.02078454197897
 20
93.1098934278051
 30
0.0
 11
84.08540510017905
 21
93.1098934278051
 31
0.0
  0
LINE
  5
1FA
330
1F
100
AcDbEntity
  8
0
  6
Continuous
 62
     7
370
    15
100
AcDbLine
 10
94.08540510017905
 20
93.1098934278051
 30
0.0
 11
94.08540510017905
 21
140.9592677110988
 31
0.0
  0
LINE
  5
1FB
330
1F
100
AcDbEntity
  8
0
  6
Continuous
 62
     7
370
    15
100
AcDbLine
 10
94.08540510017905
 20
140.9592677110988
 30
0.0
 11
91.02078454197897
 21
140.9592677110988
 31
0.0
  0
LINE
  5
1FC
330
1F
100
AcDbEntity
  8
0
  6
Continuous
 62
     7
370
    15
100
AcDbLine
 10
91.02078454197897
 20
140.9592677110988
 30
0.0
 11
91.02078454197897
 21
93.1098934278051
 31
0.0
  0
LINE
  5
1FD
330
1F
100
AcDbEntity
  8
0
  6
Continuous
 62
     7
370
    15
100
AcDbLine
 10
91.02078454197897
 20
93.1098934278051
 30
0.0
 11
94.08540510017905
 21
93.1098934278051
 31
0.0
  0
LINE
  5
1FE
330
1F
100
AcDbEntity
  8
0
  6
Continuous
 62
     7
370
    15
100
AcDbLine
 10
104.085405100179
 20
93.1098934278051
 30
0.0
 11
104.085405100179
 21
140.9592677110988
 31
0.0
  0
LINE
  5
1FF
330
1F
100
AcDbEntity
  8
0
  6
Continuous
 62
     7
370
    15
100
AcDbLine
 10
104.085405100179
 20
140.9592677110988
 30
0.0
 11
101.020784541979
 21
140.9592677110988
 31
0.0
  0
LINE
  5
200
330
1F
100
AcDbEntity
  8
0
  6
Continuous
 62
     7
370
    15
100
AcDbLine
 10
101.020784541979
 20
140.9592677110988
 30
0.0
 11
101.020784541979
 21
93.1098934278051
 31
0.0
  0
LINE
  5
201
330
1F
100
AcDbEntity
  8
0
  6
Continuous
 62
     7
370
    15
100
AcDbLine
 10
101.020784541979
 20
93.1098934278051
 30
0.0
 11
104.085405100179
 21
93.1098934278051
 31
0.0
  0
LINE
  5
202
330
1F
100
AcDbEntity
  8
0
  6
Continuous
 62
     7
370
    15
100
AcDbLine
 10
114.085405100179
 20
93.1098934278051
 30
0.0
 11
114.0854051001789
 21
140.9592677110988
 31
0.0
  0
LINE
  5
203
330
1F
100
AcDbEntity
  8
0
  6
Continuous
 62
     7
370
    15
100
AcDbLine
 10
114.0854051001789
 20
140.9592677110988
 30
0.0
 11
111.0207845419788
 21
140.9592677110988
 31
0.0
  0
LINE
  5
204
330
1F
100
AcDbEntity
  8
0
  6
Continuous
 62
     7
370
    15
100
AcDbLine
 10
111.0207845419788
 20
140.9592677110988
 30
0.0
 11
111.0207845419789
 21
93.1098934278051
 31
0.0
  0
LINE
  5
205
330
1F
100
AcDbEntity
  8
0
  6
Continuous
 62
     7
370
    15
100
AcDbLine
 10
111.0207845419789
 20
93.1098934278051
 30
0.0
 11
114.085405100179
 21
93.1098934278051
 31
0.0
  0
LINE
  5
206
330
1F
100
AcDbEntity
  8
0
  6
Continuous
 62
     7
370
    15
100
AcDbLine
 10
124.0854051001791
 20
93.1098934278051
 30
0.0
 11
124.085405100179
 21
140.9592677110988
 31
0.0
  0
LINE
  5
207
330
1F
100
AcDbEntity
  8
0
  6
Continuous
 62
     7
370
    15
100
AcDbLine
 10
124.085405100179
 20
140.9592677110988
 30
0.0
 11
121.0207845419788
 21
140.9592677110988
 31
0.0
  0
LINE
  5
208
330
1F
100
AcDbEntity
  8
0
  6
Continuous
 62
     7
370
    15
100
AcDbLine
 10
121.0207845419788
 20
140.9592677110988
 30
0.0
 11
121.0207845419789
 21
93.1098934278051
 31
0.0
  0
LINE
  5
209
330
1F
100
AcDbEntity
  8
0
  6
Continuous
 62
     7
370
    15
100
AcDbLine
 10
121.0207845419789
 20
93.1098934278051
 30
0.0
 11
124.0854051001791
 21
93.1098934278051
 31
0.0
  0
LINE
  5
20A
330
1F
100
AcDbEntity
  8
0
  6
Continuous
 62
     7
370
    15
100
AcDbLine
 10
134.0854051001791
 20
93.1098934278051
 30
0.0
 11
134.085405100179
 21
140.9592677110988
 31
0.0
  0
LINE
  5
20B
330
1F
100
AcDbEntity
  8
0
  6
Continuous
 62
     7
370
    15
100
AcDbLine
 10
134.085405100179
 20
140.9592677110988
 30
0.0
 11
131.0207845419788
 21
140.9592677110988
 31
0.0
  0
LINE
  5
20C
330
1F
100
AcDbEntity
  8
0
  6
Continuous
 62
     7
370
    15
100
AcDbLine
 10
131.0207845419788
 20
140.9592677110988
 30
0.0
 11
131.0207845419789
 21
93.1098934278051
 31
0.0
  0
LINE
  5
20D
330
1F
100
AcDbEntity
  8
0
  6
Continuous
 62
     7
370
    15
100
AcDbLine
 10
131.0207845419789
 20
93.1098934278051
 30
0.0
 11
134.0854051001791
 21
93.1098934278051
 31
0.0
  0
LINE
  5
20E
330
1F
100
AcDbEntity
  8
0
  6
Continuous
 62
     7
370
    15
100
AcDbLine
 10
144.0854051001791
 20
93.1098934278051
 30
0.0
 11
144.085405100179
 21
140.9592677110988
 31
0.0
  0
LINE
  5
20F
330
1F
100
AcDbEntity
  8
0
  6
Continuous
 62
     7
370
    15
100
AcDbLine
 10
144.085405100179
 20
140.9592677110988
 30
0.0
 11
141.0207845419788
 21
140.9592677110988
 31
0.0
  0
LINE
  5
210
330
1F
100
AcDbEntity
  8
0
  6
Continuous
 62
     7
370
    15
100
AcDbLine
 10
141.0207845419788
 20
140.9592677110988
 30
0.0
 11
141.0207845419789
 21
93.1098934278051
 31
0.0
  0
LINE
  5
211
330
1F
100
AcDbEntity
  8
0
  6
Continuous
 62
     7
370
    15
100
AcDbLine
 10
141.0207845419789
 20
93.1098934278051
 30
0.0
 11
144.0854051001791
 21
93.1098934278051
 31
0.0
  0
LINE
  5
212
330
1F
100
AcDbEntity
  8
0
  6
Continuous
 62
     7
370
    15
100
AcDbLine
 10
154.0854051001791
 20
93.1098934278051
 30
0.0
 11
154.085405100179
 21
140.9592677110988
 31
0.0
  0
LINE
  5
213
330
1F
100
AcDbEntity
  8
0
  6
Continuous
 62
     7
370
    15
100
AcDbLine
 10
154.085405100179
 20
140.9592677110988
 30
0.0
 11
151.0207845419789
 21
140.9592677110988
 31
0.0
  0
LINE
  5
214
330
1F
100
AcDbEntity
  8
0
  6
Continuous
 62
     7
370
    15
100
AcDbLine
 10
151.0207845419789
 20
140.9592677110988
 30
0.0
 11
151.020784541979
 21
93.1098934278051
 31
0.0
  0
LINE
  5
215
330
1F
100
AcDbEntity
  8
0
  6
Continuous
 62
     7
370
    15
100
AcDbLine
 10
151.020784541979
 20
93.1098934278051
 30
0.0
 11
154.0854051001791
 21
93.1098934278051
 31
0.0
  0
LINE
  5
216
330
1F
100
AcDbEntity
  8
0
  6
Continuous
 62
     7
370
    15
100
AcDbLine
 10
164.0854051001791
 20
93.1098934278051
 30
0.0
 11
164.085405100179
 21
140.9592677110988
 31
0.0
  0
LINE
  5
217
330
1F
100
AcDbEntity
  8
0
  6
Continuous
 62
     7
370
    15
100
AcDbLine
 10
164.085405100179
 20
140.9592677110988
 30
0.0
 11
161.0207845419789
 21
140.9592677110988
 31
0.0
  0
LINE
  5
218
330
1F
100
AcDbEntity
  8
0
  6
Continuous
 62
     7
370
    15
100
AcDbLine
 10
161.0207845419789
 20
140.9592677110988
 30
0.0
 11
161.020784541979
 21
93.1098934278051
 31
0.0
  0
LINE
  5
219
330
1F
100
AcDbEntity
  8
0
  6
Continuous
 62
     7
370
    15
100
AcDbLine
 10
161.020784541979
 20
93.1098934278051
 30
0.0
 11
164.0854051001791
 21
93.1098934278051
 31
0.0
  0
LINE
  5
21A
330
1F
100
AcDbEntity
  8
0
  6
Continuous
 62
     7
370
    15
100
AcDbLine
 10
174.0854051001791
 20
93.1098934278051
 30
0.0
 11
174.085405100179
 21
140.9592677110988
 31
0.0
  0
LINE
  5
21B
330
1F
100
AcDbEntity
  8
0
  6
Continuous
 62
     7
370
    15
100
AcDbLine
 10
174.085405100179
 20
140.9592677110988
 30
0.0
 11
171.0207845419789
 21
140.9592677110988
 31
0.0
  0
LINE
  5
21C
330
1F
100
AcDbEntity
  8
0
  6
Continuous
 62
     7
370
    15
100
AcDbLine
 10
171.0207845419789
 20
140.9592677110988
 30
0.0
 11
171.020784541979
 21
93.1098934278051
 31
0.0
  0
LINE
  5
21D
330
1F
100
AcDbEntity
  8
0
  6
Continuous
 62
     7
370
    15
100
AcDbLine
 10
171.020784541979
 20
93.1098934278051
 30
0.0
 11
174.0854051001791
 21
93.1098934278051
 31
0.0
  0
LINE
  5
21E
330
1F
100
AcDbEntity
  8
0
  6
Continuous
 62
     7
370
    15
100
AcDbLine
 10
184.085405100179
 20
93.1098934278051
 30
0.0
 11
184.085405100179
 21
140.9592677110988
 31
0.0
  0
LINE
  5
21F
330
1F
100
AcDbEntity
  8
0
  6
Continuous
 62
     7
370
    15
100
AcDbLine
 10
184.085405100179
 20
140.9592677110988
 30
0.0
 11
181.0207845419789
 21
140.9592677110988
 31
0.0
  0
LINE
  5
220
330
1F
100
AcDbEntity
  8
0
  6
Continuous
 62
     7
370
    15
100
AcDbLine
 10
181.0207845419789
 20
140.9592677110988
 30
0.0
 11
181.0207845419789
 21
93.1098934278051
 31
0.0
  0
LINE
  5
221
330
1F
100
AcDbEntity
  8
0
  6
Continuous
 62
     7
370
    15
100
AcDbLine
 10
181.0207845419789
 20
93.1098934278051
 30
0.0
 11
184.085405100179
 21
93.1098934278051
 31
0.0
  0
LINE
  5
222
330
1F
100
AcDbEntity
  8
0
  6
Continuous
 62
     7
370
    15
100
AcDbLine
 10
194.085405100179
 20
93.1098934278051
 30
0.0
 11
194.0854051001789
 21
140.9592677110988
 31
0.0
  0
LINE
  5
223
330
1F
100
AcDbEntity
  8
0
  6
Continuous
 62
     7
370
    15
100
AcDbLine
 10
194.0854051001789
 20
140.9592677110988
 30
0.0
 11
191.0207845419788
 21
140.9592677110988
 31
0.0
  0
LINE
  5
224
330
1F
100
AcDbEntity
  8
0
  6
Continuous
 62
     7
370
    15
100
AcDbLine
 10
191.0207845419788
 20
140.9592677110988
 30
0.0
 11
191.0207845419789
 21
93.1098934278051
 31
0.0
  0
LINE
  5
225
330
1F
100
AcDbEntity
  8
0
  6
Continuous
 62
     7
370
    15
100
AcDbLine
 10
191.0207845419789
 20
93.1098934278051
 30
0.0
 11
194.085405100179
 21
93.1098934278051
 31
0.0
  0
LINE
  5
226
330
1F
100
AcDbEntity
  8
0
  6
Continuous
 62
     7
370
    15
100
AcDbLine
 10
204.0854051001791
 20
93.1098934278051
 30
0.0
 11
204.0854051001789
 21
140.9592677110988
 31
0.0
  0
LINE
  5
227
330
1F
100
AcDbEntity
  8
0
  6
Continuous
 62
     7
370
    15
100
AcDbLine
 10
204.0854051001789
 20
140.9592677110988
 30
0.0
 11
201.0207845419788
 21
140.9592677110988
 31
0.0
  0
LINE
  5
228
330
1F
100
AcDbEntity
  8
0
  6
Continuous
 62
     7
370
    15
100
AcDbLine
 10
201.0207845419788
 20
140.9592677110988
 30
0.0
 11
201.0207845419789
 21
93.1098934278051
 31
0.0
  0
LINE
  5
229
330
1F
100
AcDbEntity
  8
0
  6
Continuous
 62
     7
370
    15
100
AcDbLine
 10
201.0207845419789
 20
93.1098934278051
 30
0.0
 11
204.0854051001791
 21
93.1098934278051
 31
0.0
  0
LINE
  5
22A
330
1F
100
AcDbEntity
  8
0
  6
Continuous
 62
     7
370
    15
100
AcDbLine
 10
214.0854051001791
 20
93.1098934278051
 30
0.0
 11
214.0854051001789
 21
140.9592677110988
 31
0.0
  0
LINE
  5
22B
330
1F
100
AcDbEntity
  8
0
  6
Continuous
 62
     7
370
    15
100
AcDbLine
 10
214.0854051001789
 20
140.9592677110988
 30
0.0
 11
211.0207845419789
 21
140.9592677110988
 31
0.0
  0
LINE
  5
22C
330
1F
100
AcDbEntity
  8
0
  6
Continuous
 62
     7
370
    15
100
AcDbLine
 10
211.0207845419789
 20
140.9592677110988
 30
0.0
 11
211.020784541979
 21
93.1098934278051
 31
0.0
  0
LINE
  5
22D
330
1F
100
AcDbEntity
  8
0
  6
Continuous
 62
     7
370
    15
100
AcDbLine
 10
211.020784541979
 20
93.1098934278051
 30
0.0
 11
214.0854051001791
 21
93.1098934278051
 31
0.0
  0
LINE
  5
22E
330
1F
100
AcDbEntity
  8
0
  6
Continuous
 62
     7
370
    15
100
AcDbLine
 10
224.085405100179
 20
93.1098934278051
 30
0.0
 11
224.085405100179
 21
140.9592677110988
 31
0.0
  0
LINE
  5
22F
330
1F
100
AcDbEntity
  8
0
  6
Continuous
 62
     7
370
    15
100
AcDbLine
 10
224.085405100179
 20
140.9592677110988
 30
0.0
 11
221.0207845419788
 21
140.9592677110988
 31
0.0
  0
LINE
  5
230
330
1F
100
AcDbEntity
  8
0
  6
Continuous
 62
     7
370
    15
100
AcDbLine
 10
221.0207845419788
 20
140.9592677110988
 30
0.0
 11
221.020784541979
 21
93.1098934278051
 31
0.0
  0
LINE
  5
231
330
1F
100
AcDbEntity
  8
0
  6
Continuous
 62
     7
370
    15
100
AcDbLine
 10
221.020784541979
 20
93.1098934278051
 30
0.0
 11
224.085405100179
 21
93.1098934278051
 31
0.0
  0
LINE
  5
232
330
1F
100
AcDbEntity
  8
0
  6
Continuous
 62
     7
370
    15
100
AcDbLine
 10
-34.20912517354091
 20
151.2324677067082
 30
0.0
 11
-34.20912517354091
 21
91.23246770670826
 31
0.0
  0
LINE
  5
233
330
1F
100
AcDbEntity
  8
0
  6
Continuous
 62
     7
370
    15
100
AcDbLine
 10
-38.20912517354088
 20
-218.7066463433583
 30
0.0
 11
-38.20912517354088
 21
-248.7066463433583
 31
0.0
  0
LINE
  5
234
330
1F
100
AcDbEntity
  8
0
  6
Continuous
 62
     7
370
    15
100
AcDbLine
 10
233.7908748264591
 20
-218.7066463433583
 30
0.0
 11
233.7908748264591
 21
-248.7066463433583
 31
0.0
  0
LINE
  5
235
330
1F
100
AcDbEntity
  8
0
  6
Continuous
 62
     7
370
    15
100
AcDbLine
 10
-38.20912517354088
 20
-248.7066463433583
 30
0.0
 11
233.7908748264591
 21
-248.7066463433583
 31
0.0
  0
LINE
  5
236
330
1F
100
AcDbEntity
  8
0
  6
Continuous
 62
     7
370
    15
100
AcDbLine
 10
-38.20912517354088
 20
-218.7066463433583
 30
0.0
 11
233.7908748264591
 21
-218.7066463433583
 31
0.0
  0
LINE
  5
237
330
1F
100
AcDbEntity
  8
0
  6
Continuous
 62
     7
370
    15
100
AcDbLine
 10
229.7908748264591
 20
-249.2426588018549
 30
0.0
 11
231.7908748264591
 21
-249.2426588018549
 31
0.0
  0
LINE
  5
238
330
1F
100
AcDbEntity
  8
0
  6
Continuous
 62
     7
370
    15
100
AcDbLine
 10
97.79087482645913
 20
-249.2426588018544
 30
0.0
 11
229.7908748264591
 21
-249.2426588018549
 31
0.0
  0
LINE
  5
239
330
1F
100
AcDbEntity
  8
0
  6
Continuous
 62
     7
370
    15
100
AcDbLine
 10
97.79087482645913
 20
-248.7066463433585
 30
0.0
 11
97.79087482645913
 21
-249.2426588018544
 31
0.0
  0
LINE
  5
23A
330
1F
100
AcDbEntity
  8
0
  6
Continuous
 62
     7
370
    15
100
AcDbLine
 10
231.7908748264591
 20
-248.7066463433585
 30
0.0
 11
231.7908748264591
 21
-249.2426588018549
 31
0.0
  0
LINE
  5
23B
330
1F
100
AcDbEntity
  8
0
  6
Continuous
 62
     7
370
    15
100
AcDbLine
 10
229.7908748264591
 20
-160.8993142755193
 30
0.0
 11
231.7908748264591
 21
-160.8993142755193
 31
0.0
  0
LINE
  5
23C
330
1F
100
AcDbEntity
  8
0
  6
Continuous
 62
     7
370
    15
100
AcDbLine
 10
229.7908748264591
 20
-161.6990684798808
 30
0.0
 11
229.7908748264591
 21
-218.7066463433585
 31
0.0
  0
LINE
  5
23D
330
1F
100
AcDbEntity
  8
0
  6
Continuous
 62
     7
370
    15
100
AcDbLine
 10
231.7908748264591
 20
-160.8993142755193
 30
0.0
 11
231.7908748264591
 21
-218.7066463433585
 31
0.0
  0
LINE
  5
23E
330
1F
100
AcDbEntity
  8
0
  6
Continuous
 62
     7
370
    15
100
AcDbLine
 10
229.7908748264591
 20
-307.466152525463
 30
0.0
 11
231.7908748264591
 21
-307.466152525463
 31
0.0
  0
LINE
  5
23F
330
1F
100
AcDbEntity
  8
0
  6
Continuous
 62
     7
370
    15
100
AcDbLine
 10
229.7908748264591
 20
-249.2426588018549
 30
0.0
 11
229.7908748264591
 21
-306.6663983211015
 31
0.0
  0
LINE
  5
240
330
1F
100
AcDbEntity
  8
0
  6
Continuous
 62
     7
370
    15
100
AcDbLine
 10
231.7908748264591
 20
-249.2426588018549
 30
0.0
 11
231.7908748264591
 21
-307.466152525463
 31
0.0
  0
LINE
  5
241
330
1F
100
AcDbEntity
  8
0
  6
Continuous
 62
     7
370
    15
100
AcDbLine
 10
-34.20912517354091
 20
-249.2426588018542
 30
0.0
 11
97.79087482645913
 21
-249.2426588018546
 31
0.0
  0
LINE
  5
242
330
1F
100
AcDbEntity
  8
0
  6
Continuous
 62
     7
370
    15
100
AcDbLine
 10
-34.20912517354091
 20
-249.2426588018542
 30
0.0
 11
-36.20912517354091
 21
-249.2426588018542
 31
0.0
  0
LINE
  5
243
330
1F
100
AcDbEntity
  8
0
  6
Continuous
 62
     7
370
    15
100
AcDbLine
 10
-36.20912517354091
 20
-249.2426588018542
 30
0.0
 11
-36.20912517354094
 21
-248.7066463433585
 31
0.0
  0
LINE
  5
244
330
1F
100
AcDbEntity
  8
0
  6
Continuous
 62
     7
370
    15
100
AcDbLine
 10
-34.20912517354088
 20
-160.8993142755187
 30
0.0
 11
-36.20912517354089
 21
-160.8993142755187
 31
0.0
  0
LINE
  5
245
330
1F
100
AcDbEntity
  8
0
  6
Continuous
 62
     7
370
    15
100
AcDbLine
 10
-36.20912517354094
 20
-218.7066463433585
 30
0.0
 11
-36.20912517354089
 21
-160.8993142755187
 31
0.0
  0
LINE
  5
246
330
1F
100
AcDbEntity
  8
0
  6
Continuous
 62
     7
370
    15
100
AcDbLine
 10
-34.20912517354094
 20
-218.7066463433585
 30
0.0
 11
-34.20912517354088
 21
-161.69906847988
 31
0.0
  0
LINE
  5
247
330
1F
100
AcDbEntity
  8
0
  6
Continuous
 62
     7
370
    15
100
AcDbLine
 10
-34.20912517354091
 20
-307.4661525254624
 30
0.0
 11
-36.20912517354091
 21
-307.4661525254624
 31
0.0
  0
LINE
  5
248
330
1F
100
AcDbEntity
  8
0
  6
Continuous
 62
     7
370
    15
100
AcDbLine
 10
-36.20912517354091
 20
-307.4661525254624
 30
0.0
 11
-36.20912517354091
 21
-249.2426588018542
 31
0.0
  0
LINE
  5
249
330
1F
100
AcDbEntity
  8
0
  6
Continuous
 62
     7
370
    15
100
AcDbLine
 10
-34.20912517354091
 20
-306.6663983211008
 30
0.0
 11
-34.20912517354091
 21
-249.2426588018542
 31
0.0
  0
LINE
  5
24A
330
1F
100
AcDbEntity
  8
0
  6
Continuous
 62
     7
370
    15
100
AcDbLine
 10
-34.20912517354091
 20
-176.1804806595604
 30
0.0
 11
229.7908748264591
 21
-176.1804806595604
 31
0.0
  0
LINE
  5
24B
330
1F
100
AcDbEntity
  8
0
  6
Continuous
 62
     7
370
    15
100
AcDbLine
 10
229.7908748264591
 20
-161.6990684798808
 30
0.0
 11
229.7908748264591
 21
-147.3851461276739
 31
0.0
  0
LINE
  5
24C
330
1F
100
AcDbEntity
  8
0
  6
Continuous
 62
     7
370
    15
100
AcDbLine
 10
229.7908748264591
 20
-147.3851461276739
 30
0.0
 11
-34.20912517354091
 21
-147.3851461276739
 31
0.0
  0
LINE
  5
24D
330
1F
100
AcDbEntity
  8
0
  6
Continuous
 62
     7
370
    15
100
AcDbLine
 10
-34.20912517354091
 20
-147.3851461276739
 30
0.0
 11
-34.20912517354088
 21
-161.69906847988
 31
0.0
  0
LINE
  5
24E
330
1F
100
AcDbEntity
  8
0
  6
Continuous
 62
     7
370
    15
100
AcDbLine
 10
316.4393662511732
 20
-112.1977832012557
 30
0.0
 11
316.4393662511732
 21
-132.1977832012557
 31
0.0
  0
LINE
  5
24F
330
1F
100
AcDbEntity
  8
0
  6
Continuous
 62
     7
370
    15
100
AcDbLine
 10
306.4393662511732
 20
-112.1977832012557
 30
0.0
 11
316.4393662511732
 21
-112.1977832012557
 31
0.0
  0
LINE
  5
250
330
1F
100
AcDbEntity
  8
0
  6
Continuous
 62
     7
370
    15
100
AcDbLine
 10
306.4393662511732
 20
-132.1977832012557
 30
0.0
 11
306.4393662511732
 21
-112.1977832012557
 31
0.0
  0
LINE
  5
251
330
1F
100
AcDbEntity
  8
0
  6
Continuous
 62
     7
370
    15
100
AcDbLine
 10
316.4393662511732
 20
-132.1977832012557
 30
0.0
 11
306.4393662511732
 21
-132.1977832012557
 31
0.0
  0
LINE
  5
252
330
1F
100
AcDbEntity
  8
0
  6
Continuous
 62
     7
370
    15
100
AcDbLine
 10
286.4393662511732
 20
-112.1977832012554
 30
0.0
 11
286.4393662511732
 21
-132.1977832012553
 31
0.0
  0
LINE
  5
253
330
1F
100
AcDbEntity
  8
0
  6
Continuous
 62
     7
370
    15
100
AcDbLine
 10
276.4393662511732
 20
-112.1977832012554
 30
0.0
 11
286.4393662511732
 21
-112.1977832012554
 31
0.0
  0
LINE
  5
254
330
1F
100
AcDbEntity
  8
0
  6
Continuous
 62
     7
370
    15
100
AcDbLine
 10
276.4393662511732
 20
-132.1977832012553
 30
0.0
 11
276.4393662511732
 21
-112.1977832012554
 31
0.0
  0
LINE
  5
255
330
1F
100
AcDbEntity
  8
0
  6
Continuous
 62
     7
370
    15
100
AcDbLine
 10
286.4393662511732
 20
-132.1977832012553
 30
0.0
 11
276.4393662511732
 21
-132.1977832012553
 31
0.0
  0
LINE
  5
256
330
1F
100
AcDbEntity
  8
0
  6
Continuous
 62
     7
370
    15
100
AcDbLine
 10
256.4393662511732
 20
-112.197783201255
 30
0.0
 11
256.4393662511732
 21
-132.1977832012551
 31
0.0
  0
LINE
  5
257
330
1F
100
AcDbEntity
  8
0
  6
Continuous
 62
     7
370
    15
100
AcDbLine
 10
246.4393662511731
 20
-112.197783201255
 30
0.0
 11
256.4393662511732
 21
-112.197783201255
 31
0.0
  0
LINE
  5
258
330
1F
100
AcDbEntity
  8
0
  6
Continuous
 62
     7
370
    15
100
AcDbLine
 10
246.4393662511731
 20
-132.1977832012551
 30
0.0
 11
246.4393662511731
 21
-112.197783201255
 31
0.0
  0
LINE
  5
259
330
1F
100
AcDbEntity
  8
0
  6
Continuous
 62
     7
370
    15
100
AcDbLine
 10
256.4393662511732
 20
-132.1977832012551
 30
0.0
 11
246.4393662511731
 21
-132.1977832012551
 31
0.0
  0
LINE
  5
25A
330
1F
100
AcDbEntity
  8
0
  6
Continuous
 62
     7
370
    15
100
AcDbLine
 10
226.4393662511732
 20
-112.1977832012548
 30
0.0
 11
226.4393662511732
 21
-132.1977832012547
 31
0.0
  0
LINE
  5
25B
330
1F
100
AcDbEntity
  8
0
  6
Continuous
 62
     7
370
    15
100
AcDbLine
 10
216.4393662511732
 20
-112.1977832012548
 30
0.0
 11
226.4393662511732
 21
-112.1977832012548
 31
0.0
  0
LINE
  5
25C
330
1F
100
AcDbEntity
  8
0
  6
Continuous
 62
     7
370
    15
100
AcDbLine
 10
216.4393662511732
 20
-132.1977832012547
 30
0.0
 11
216.4393662511732
 21
-112.1977832012548
 31
0.0
  0
LINE
  5
25D
330
1F
100
AcDbEntity
  8
0
  6
Continuous
 62
     7
370
    15
100
AcDbLine
 10
226.4393662511732
 20
-132.1977832012547
 30
0.0
 11
216.4393662511732
 21
-132.1977832012547
 31
0.0
  0
LINE
  5
25E
330
1F
100
AcDbEntity
  8
0
  6
Continuous
 62
     7
370
    15
100
AcDbLine
 10
196.4393662511732
 20
-112.1977832012544
 30
0.0
 11
196.4393662511732
 21
-132.1977832012545
 31
0.0
  0
LINE
  5
25F
330
1F
100
AcDbEntity
  8
0
  6
Continuous
 62
     7
370
    15
100
AcDbLine
 10
186.4393662511732
 20
-112.1977832012544
 30
0.0
 11
196.4393662511732
 21
-112.1977832012544
 31
0.0
  0
LINE
  5
260
330
1F
100
AcDbEntity
  8
0
  6
Continuous
 62
     7
370
    15
100
AcDbLine
 10
186.4393662511732
 20
-132.1977832012545
 30
0.0
 11
186.4393662511732
 21
-112.1977832012544
 31
0.0
  0
LINE
  5
261
330
1F
100
AcDbEntity
  8
0
  6
Continuous
 62
     7
370
    15
100
AcDbLine
 10
196.4393662511732
 20
-132.1977832012545
 30
0.0
 11
186.4393662511732
 21
-132.1977832012545
 31
0.0
  0
LINE
  5
262
330
1F
100
AcDbEntity
  8
0
  6
Continuous
 62
     7
370
    15
100
AcDbLine
 10
166.4393662511731
 20
-112.1977832012541
 30
0.0
 11
166.4393662511731
 21
-132.1977832012541
 31
0.0
  0
LINE
  5
263
330
1F
100
AcDbEntity
  8
0
  6
Continuous
 62
     7
370
    15
100
AcDbLine
 10
156.4393662511731
 20
-112.1977832012541
 30
0.0
 11
166.4393662511731
 21
-112.1977832012541
 31
0.0
  0
LINE
  5
264
330
1F
100
AcDbEntity
  8
0
  6
Continuous
 62
     7
370
    15
100
AcDbLine
 10
156.4393662511731
 20
-132.1977832012541
 30
0.0
 11
156.4393662511731
 21
-112.1977832012541
 31
0.0
  0
LINE
  5
265
330
1F
100
AcDbEntity
  8
0
  6
Continuous
 62
     7
370
    15
100
AcDbLine
 10
166.4393662511731
 20
-132.1977832012541
 30
0.0
 11
156.4393662511731
 21
-132.1977832012541
 31
0.0
  0
LINE
  5
266
330
1F
100
AcDbEntity
  8
0
  6
Continuous
 62
     7
370
    15
100
AcDbLine
 10
136.4393662511731
 20
-112.1977832012538
 30
0.0
 11
136.4393662511731
 21
-132.1977832012538
 31
0.0
  0
LINE
  5
267
330
1F
100
AcDbEntity
  8
0
  6
Continuous
 62
     7
370
    15
100
AcDbLine
 10
126.4393662511732
 20
-112.1977832012538
 30
0.0
 11
136.4393662511731
 21
-112.1977832012538
 31
0.0
  0
LINE
  5
268
330
1F
100
AcDbEntity
  8
0
  6
Continuous
 62
     7
370
    15
100
AcDbLine
 10
126.4393662511732
 20
-132.1977832012538
 30
0.0
 11
126.4393662511732
 21
-112.1977832012538
 31
0.0
  0
LINE
  5
269
330
1F
100
AcDbEntity
  8
0
  6
Continuous
 62
     7
370
    15
100
AcDbLine
 10
136.4393662511731
 20
-132.1977832012538
 30
0.0
 11
126.4393662511732
 21
-132.1977832012538
 31
0.0
  0
LINE
  5
26A
330
1F
100
AcDbEntity
  8
0
  6
Continuous
 62
     7
370
    15
100
AcDbLine
 10
106.4393662511731
 20
-112.1977832012535
 30
0.0
 11
106.4393662511731
 21
-132.1977832012534
 31
0.0
  0
LINE
  5
26B
330
1F
100
AcDbEntity
  8
0
  6
Continuous
 62
     7
370
    15
100
AcDbLine
 10
96.43936625117317
 20
-112.1977832012535
 30
0.0
 11
106.4393662511731
 21
-112.1977832012535
 31
0.0
  0
LINE
  5
26C
330
1F
100
AcDbEntity
  8
0
  6
Continuous
 62
     7
370
    15
100
AcDbLine
 10
96.43936625117317
 20
-132.1977832012534
 30
0.0
 11
96.43936625117317
 21
-112.1977832012535
 31
0.0
  0
LINE
  5
26D
330
1F
100
AcDbEntity
  8
0
  6
Continuous
 62
     7
370
    15
100
AcDbLine
 10
106.4393662511731
 20
-132.1977832012534
 30
0.0
 11
96.43936625117317
 21
-132.1977832012534
 31
0.0
  0
LINE
  5
26E
330
1F
100
AcDbEntity
  8
0
  6
Continuous
 62
     7
370
    15
100
AcDbLine
 10
76.43936625117314
 20
-112.1977832012531
 30
0.0
 11
76.43936625117319
 21
-132.1977832012531
 31
0.0
  0
LINE
  5
26F
330
1F
100
AcDbEntity
  8
0
  6
Continuous
 62
     7
370
    15
100
AcDbLine
 10
66.43936625117319
 20
-112.1977832012531
 30
0.0
 11
76.43936625117314
 21
-112.1977832012531
 31
0.0
  0
LINE
  5
270
330
1F
100
AcDbEntity
  8
0
  6
Continuous
 62
     7
370
    15
100
AcDbLine
 10
66.43936625117319
 20
-132.1977832012531
 30
0.0
 11
66.43936625117319
 21
-112.1977832012531
 31
0.0
  0
LINE
  5
271
330
1F
100
AcDbEntity
  8
0
  6
Continuous
 62
     7
370
    15
100
AcDbLine
 10
76.43936625117319
 20
-132.1977832012531
 30
0.0
 11
66.43936625117319
 21
-132.1977832012531
 31
0.0
  0
LINE
  5
272
330
1F
100
AcDbEntity
  8
0
  6
Continuous
 62
     7
370
    15
100
AcDbLine
 10
46.43936625117311
 20
-112.1977832012529
 30
0.0
 11
46.43936625117317
 21
-132.1977832012528
 31
0.0
  0
LINE
  5
273
330
1F
100
AcDbEntity
  8
0
  6
Continuous
 62
     7
370
    15
100
AcDbLine
 10
36.43936625117317
 20
-112.1977832012529
 30
0.0
 11
46.43936625117311
 21
-112.1977832012529
 31
0.0
  0
LINE
  5
274
330
1F
100
AcDbEntity
  8
0
  6
Continuous
 62
     7
370
    15
100
AcDbLine
 10
36.43936625117317
 20
-132.1977832012528
 30
0.0
 11
36.43936625117317
 21
-112.1977832012529
 31
0.0
  0
LINE
  5
275
330
1F
100
AcDbEntity
  8
0
  6
Continuous
 62
     7
370
    15
100
AcDbLine
 10
46.43936625117317
 20
-132.1977832012528
 30
0.0
 11
36.43936625117317
 21
-132.1977832012528
 31
0.0
  0
LINE
  5
276
330
1F
100
AcDbEntity
  8
0
  6
Continuous
 62
     7
370
    15
100
AcDbLine
 10
16.43936625117319
 20
-112.1977832012525
 30
0.0
 11
16.43936625117319
 21
-132.1977832012525
 31
0.0
  0
LINE
  5
277
330
1F
100
AcDbEntity
  8
0
  6
Continuous
 62
     7
370
    15
100
AcDbLine
 10
6.439366251173197
 20
-112.1977832012525
 30
0.0
 11
16.43936625117319
 21
-112.1977832012525
 31
0.0
  0
LINE
  5
278
330
1F
100
AcDbEntity
  8
0
  6
Continuous
 62
     7
370
    15
100
AcDbLine
 10
6.439366251173197
 20
-132.1977832012525
 30
0.0
 11
6.439366251173197
 21
-112.1977832012525
 31
0.0
  0
LINE
  5
279
330
1F
100
AcDbEntity
  8
0
  6
Continuous
 62
     7
370
    15
100
AcDbLine
 10
16.43936625117319
 20
-132.1977832012525
 30
0.0
 11
6.439366251173197
 21
-132.1977832012525
 31
0.0
  0
LINE
  5
27A
330
1F
100
AcDbEntity
  8
0
  6
Continuous
 62
     7
370
    15
100
AcDbLine
 10
-13.56063374882683
 20
-112.1977832012522
 30
0.0
 11
-13.56063374882677
 21
-132.1977832012522
 31
0.0
  0
LINE
  5
27B
330
1F
100
AcDbEntity
  8
0
  6
Continuous
 62
     7
370
    15
100
AcDbLine
 10
-23.56063374882678
 20
-112.1977832012522
 30
0.0
 11
-13.56063374882683
 21
-112.1977832012522
 31
0.0
  0
LINE
  5
27C
330
1F
100
AcDbEntity
  8
0
  6
Continuous
 62
     7
370
    15
100
AcDbLine
 10
-23.56063374882678
 20
-132.1977832012522
 30
0.0
 11
-23.56063374882678
 21
-112.1977832012522
 31
0.0
  0
LINE
  5
27D
330
1F
100
AcDbEntity
  8
0
  6
Continuous
 62
     7
370
    15
100
AcDbLine
 10
-13.56063374882677
 20
-132.1977832012522
 30
0.0
 11
-23.56063374882678
 21
-132.1977832012522
 31
0.0
  0
LINE
  5
27E
330
1F
100
AcDbEntity
  8
0
  6
Continuous
 62
     7
370
    15
100
AcDbLine
 10
-43.56063374882686
 20
-112.1977832012519
 30
0.0
 11
-43.5606337488268
 21
-132.1977832012519
 31
0.0
  0
LINE
  5
27F
330
1F
100
AcDbEntity
  8
0
  6
Continuous
 62
     7
370
    15
100
AcDbLine
 10
-53.5606337488268
 20
-112.1977832012519
 30
0.0
 11
-43.56063374882686
 21
-112.1977832012519
 31
0.0
  0
LINE
  5
280
330
1F
100
AcDbEntity
  8
0
  6
Continuous
 62
     7
370
    15
100
AcDbLine
 10
-53.5606337488268
 20
-132.1977832012519
 30
0.0
 11
-53.5606337488268
 21
-112.1977832012519
 31
0.0
  0
LINE
  5
281
330
1F
100
AcDbEntity
  8
0
  6
Continuous
 62
     7
370
    15
100
AcDbLine
 10
-43.5606337488268
 20
-132.1977832012519
 30
0.0
 11
-53.5606337488268
 21
-132.1977832012519
 31
0.0
  0
LINE
  5
282
330
1F
100
AcDbEntity
  8
0
  6
Continuous
 62
     7
370
    15
100
AcDbLine
 10
-73.56063374882689
 20
-112.1977832012516
 30
0.0
 11
-73.56063374882683
 21
-132.1977832012516
 31
0.0
  0
LINE
  5
283
330
1F
100
AcDbEntity
  8
0
  6
Continuous
 62
     7
370
    15
100
AcDbLine
 10
-83.56063374882683
 20
-112.1977832012516
 30
0.0
 11
-73.56063374882689
 21
-112.1977832012516
 31
0.0
  0
LINE
  5
284
330
1F
100
AcDbEntity
  8
0
  6
Continuous
 62
     7
370
    15
100
AcDbLine
 10
-83.56063374882683
 20
-132.1977832012516
 30
0.0
 11
-83.56063374882683
 21
-112.1977832012516
 31
0.0
  0
LINE
  5
285
330
1F
100
AcDbEntity
  8
0
  6
Continuous
 62
     7
370
    15
100
AcDbLine
 10
-73.56063374882683
 20
-132.1977832012516
 30
0.0
 11
-83.56063374882683
 21
-132.1977832012516
 31
0.0
  0
LINE
  5
286
330
1F
100
AcDbEntity
  8
0
  6
Continuous
 62
     7
370
    15
100
AcDbLine
 10
-103.5606337488268
 20
-112.1977832012513
 30
0.0
 11
-103.5606337488268
 21
-132.1977832012513
 31
0.0
  0
LINE
  5
287
330
1F
100
AcDbEntity
  8
0
  6
Continuous
 62
     7
370
    15
100
AcDbLine
 10
-113.5606337488268
 20
-112.1977832012513
 30
0.0
 11
-103.5606337488268
 21
-112.1977832012513
 31
0.0
  0
LINE
  5
288
330
1F
100
AcDbEntity
  8
0
  6
Continuous
 62
     7
370
    15
100
AcDbLine
 10
-113.5606337488268
 20
-132.1977832012513
 30
0.0
 11
-113.5606337488268
 21
-112.1977832012513
 31
0.0
  0
LINE
  5
289
330
1F
100
AcDbEntity
  8
0
  6
Continuous
 62
     7
370
    15
100
AcDbLine
 10
-103.5606337488268
 20
-132.1977832012513
 30
0.0
 11
-113.5606337488268
 21
-132.1977832012513
 31
0.0
  0
LINE
  5
28A
330
1F
100
AcDbEntity
  8
0
  6
Continuous
 62
     7
370
    15
100
AcDbLine
 10
229.7908748264591
 20
-147.3851461276739
 30
0.0
 11
327.5980157605459
 21
-147.3851461276739
 31
0.0
  0
LINE
  5
28B
330
1F
100
AcDbEntity
  8
0
  6
Continuous
 62
     7
370
    15
100
AcDbLine
 10
-135.401984239454
 20
-147.3851461276739
 30
0.0
 11
-34.20912517354091
 21
-147.3851461276739
 31
0.0
  0
LINE
  5
28C
330
1F
100
AcDbEntity
  8
0
  6
Continuous
 62
     7
370
    15
100
AcDbLine
 10
-135.401984239454
 20
-106.7828133936171
 30
0.0
 11
-135.401984239454
 21
-147.3851461276739
 31
0.0
  0
LINE
  5
28D
330
1F
100
AcDbEntity
  8
0
  6
Continuous
 62
     7
370
    15
100
AcDbLine
 10
-135.401984239454
 20
-106.7828133936171
 30
0.0
 11
327.5980157605459
 21
-106.7828133936171
 31
0.0
  0
LINE
  5
28E
330
1F
100
AcDbEntity
  8
0
  6
Continuous
 62
     7
370
    15
100
AcDbLine
 10
327.5980157605459
 20
-106.7828133936171
 30
0.0
 11
327.5980157605459
 21
-147.3851461276739
 31
0.0
  0
LINE
  5
28F
330
1F
100
AcDbEntity
  8
0
  6
Continuous
 62
     7
370
    15
100
AcDbLine
 10
-118.5606337488268
 20
-112.1977832012511
 30
0.0
 11
-118.5606337488268
 21
-132.1977832012511
 31
0.0
  0
LINE
  5
290
330
1F
100
AcDbEntity
  8
0
  6
Continuous
 62
     7
370
    15
100
AcDbLine
 10
-128.5606337488268
 20
-112.1977832012511
 30
0.0
 11
-118.5606337488268
 21
-112.1977832012511
 31
0.0
  0
LINE
  5
291
330
1F
100
AcDbEntity
  8
0
  6
Continuous
 62
     7
370
    15
100
AcDbLine
 10
-128.5606337488268
 20
-132.1977832012511
 30
0.0
 11
-128.5606337488268
 21
-112.1977832012511
 31
0.0
  0
LINE
  5
292
330
1F
100
AcDbEntity
  8
0
  6
Continuous
 62
     7
370
    15
100
AcDbLine
 10
-118.5606337488268
 20
-132.1977832012511
 30
0.0
 11
-128.5606337488268
 21
-132.1977832012511
 31
0.0
  0
LINE
  5
293
330
1F
100
AcDbEntity
  8
0
  6
Continuous
 62
     7
370
    15
100
AcDbLine
 10
-88.56063374882678
 20
-112.1977832012514
 30
0.0
 11
-88.56063374882678
 21
-132.1977832012514
 31
0.0
  0
LINE
  5
294
330
1F
100
AcDbEntity
  8
0
  6
Continuous
 62
     7
370
    15
100
AcDbLine
 10
-98.5606337488268
 20
-112.1977832012514
 30
0.0
 11
-88.56063374882678
 21
-112.1977832012514
 31
0.0
  0
LINE
  5
295
330
1F
100
AcDbEntity
  8
0
  6
Continuous
 62
     7
370
    15
100
AcDbLine
 10
-98.5606337488268
 20
-132.1977832012514
 30
0.0
 11
-98.5606337488268
 21
-112.1977832012514
 31
0.0
  0
LINE
  5
296
330
1F
100
AcDbEntity
  8
0
  6
Continuous
 62
     7
370
    15
100
AcDbLine
 10
-88.56063374882678
 20
-132.1977832012514
 30
0.0
 11
-98.5606337488268
 21
-132.1977832012514
 31
0.0
  0
LINE
  5
297
330
1F
100
AcDbEntity
  8
0
  6
Continuous
 62
     7
370
    15
100
AcDbLine
 10
-58.56063374882687
 20
-112.1977832012517
 30
0.0
 11
-58.56063374882682
 21
-132.1977832012518
 31
0.0
  0
LINE
  5
298
330
1F
100
AcDbEntity
  8
0
  6
Continuous
 62
     7
370
    15
100
AcDbLine
 10
-68.56063374882682
 20
-112.1977832012517
 30
0.0
 11
-58.56063374882687
 21
-112.1977832012517
 31
0.0
  0
LINE
  5
299
330
1F
100
AcDbEntity
  8
0
  6
Continuous
 62
     7
370
    15
100
AcDbLine
 10
-68.56063374882682
 20
-132.1977832012518
 30
0.0
 11
-68.56063374882682
 21
-112.1977832012517
 31
0.0
  0
LINE
  5
29A
330
1F
100
AcDbEntity
  8
0
  6
Continuous
 62
     7
370
    15
100
AcDbLine
 10
-58.56063374882682
 20
-132.1977832012518
 30
0.0
 11
-68.56063374882682
 21
-132.1977832012518
 31
0.0
  0
LINE
  5
29B
330
1F
100
AcDbEntity
  8
0
  6
Continuous
 62
     7
370
    15
100
AcDbLine
 10
-28.56063374882683
 20
-112.1977832012521
 30
0.0
 11
-28.56063374882678
 21
-132.1977832012521
 31
0.0
  0
LINE
  5
29C
330
1F
100
AcDbEntity
  8
0
  6
Continuous
 62
     7
370
    15
100
AcDbLine
 10
-38.5606337488268
 20
-112.1977832012521
 30
0.0
 11
-28.56063374882683
 21
-112.1977832012521
 31
0.0
  0
LINE
  5
29D
330
1F
100
AcDbEntity
  8
0
  6
Continuous
 62
     7
370
    15
100
AcDbLine
 10
-38.5606337488268
 20
-132.1977832012521
 30
0.0
 11
-38.5606337488268
 21
-112.1977832012521
 31
0.0
  0
LINE
  5
29E
330
1F
100
AcDbEntity
  8
0
  6
Continuous
 62
     7
370
    15
100
AcDbLine
 10
-28.56063374882678
 20
-132.1977832012521
 30
0.0
 11
-38.5606337488268
 21
-132.1977832012521
 31
0.0
  0
LINE
  5
29F
330
1F
100
AcDbEntity
  8
0
  6
Continuous
 62
     7
370
    15
100
AcDbLine
 10
1.439366251173197
 20
-112.1977832012524
 30
0.0
 11
1.439366251173197
 21
-132.1977832012524
 31
0.0
  0
LINE
  5
2A0
330
1F
100
AcDbEntity
  8
0
  6
Continuous
 62
     7
370
    15
100
AcDbLine
 10
-8.56063374882683
 20
-112.1977832012524
 30
0.0
 11
1.439366251173197
 21
-112.1977832012524
 31
0.0
  0
LINE
  5
2A1
330
1F
100
AcDbEntity
  8
0
  6
Continuous
 62
     7
370
    15
100
AcDbLine
 10
-8.56063374882683
 20
-132.1977832012524
 30
0.0
 11
-8.56063374882683
 21
-112.1977832012524
 31
0.0
  0
LINE
  5
2A2
330
1F
100
AcDbEntity
  8
0
  6
Continuous
 62
     7
370
    15
100
AcDbLine
 10
1.439366251173197
 20
-132.1977832012524
 30
0.0
 11
-8.56063374882683
 21
-132.1977832012524
 31
0.0
  0
LINE
  5
2A3
330
1F
100
AcDbEntity
  8
0
  6
Continuous
 62
     7
370
    15
100
AcDbLine
 10
31.43936625117323
 20
-112.1977832012527
 30
0.0
 11
31.43936625117323
 21
-132.1977832012527
 31
0.0
  0
LINE
  5
2A4
330
1F
100
AcDbEntity
  8
0
  6
Continuous
 62
     7
370
    15
100
AcDbLine
 10
21.4393662511732
 20
-112.1977832012527
 30
0.0
 11
31.43936625117323
 21
-112.1977832012527
 31
0.0
  0
LINE
  5
2A5
330
1F
100
AcDbEntity
  8
0
  6
Continuous
 62
     7
370
    15
100
AcDbLine
 10
21.4393662511732
 20
-132.1977832012527
 30
0.0
 11
21.4393662511732
 21
-112.1977832012527
 31
0.0
  0
LINE
  5
2A6
330
1F
100
AcDbEntity
  8
0
  6
Continuous
 62
     7
370
    15
100
AcDbLine
 10
31.43936625117323
 20
-132.1977832012527
 30
0.0
 11
21.4393662511732
 21
-132.1977832012527
 31
0.0
  0
LINE
  5
2A7
330
1F
100
AcDbEntity
  8
0
  6
Continuous
 62
     7
370
    15
100
AcDbLine
 10
61.43936625117314
 20
-112.197783201253
 30
0.0
 11
61.43936625117317
 21
-132.197783201253
 31
0.0
  0
LINE
  5
2A8
330
1F
100
AcDbEntity
  8
0
  6
Continuous
 62
     7
370
    15
100
AcDbLine
 10
51.43936625117317
 20
-112.197783201253
 30
0.0
 11
61.43936625117314
 21
-112.197783201253
 31
0.0
  0
LINE
  5
2A9
330
1F
100
AcDbEntity
  8
0
  6
Continuous
 62
     7
370
    15
100
AcDbLine
 10
51.43936625117317
 20
-132.197783201253
 30
0.0
 11
51.43936625117317
 21
-112.197783201253
 31
0.0
  0
LINE
  5
2AA
330
1F
100
AcDbEntity
  8
0
  6
Continuous
 62
     7
370
    15
100
AcDbLine
 10
61.43936625117317
 20
-132.197783201253
 30
0.0
 11
51.43936625117317
 21
-132.197783201253
 31
0.0
  0
LINE
  5
2AB
330
1F
100
AcDbEntity
  8
0
  6
Continuous
 62
     7
370
    15
100
AcDbLine
 10
91.43936625117323
 20
-112.1977832012533
 30
0.0
 11
91.43936625117323
 21
-132.1977832012533
 31
0.0
  0
LINE
  5
2AC
330
1F
100
AcDbEntity
  8
0
  6
Continuous
 62
     7
370
    15
100
AcDbLine
 10
81.43936625117319
 20
-112.1977832012533
 30
0.0
 11
91.43936625117323
 21
-112.1977832012533
 31
0.0
  0
LINE
  5
2AD
330
1F
100
AcDbEntity
  8
0
  6
Continuous
 62
     7
370
    15
100
AcDbLine
 10
81.43936625117319
 20
-132.1977832012533
 30
0.0
 11
81.43936625117319
 21
-112.1977832012533
 31
0.0
  0
LINE
  5
2AE
330
1F
100
AcDbEntity
  8
0
  6
Continuous
 62
     7
370
    15
100
AcDbLine
 10
91.43936625117323
 20
-132.1977832012533
 30
0.0
 11
81.43936625117319
 21
-132.1977832012533
 31
0.0
  0
LINE
  5
2AF
330
1F
100
AcDbEntity
  8
0
  6
Continuous
 62
     7
370
    15
100
AcDbLine
 10
121.4393662511731
 20
-112.1977832012536
 30
0.0
 11
121.4393662511731
 21
-132.1977832012537
 31
0.0
  0
LINE
  5
2B0
330
1F
100
AcDbEntity
  8
0
  6
Continuous
 62
     7
370
    15
100
AcDbLine
 10
111.4393662511731
 20
-112.1977832012536
 30
0.0
 11
121.4393662511731
 21
-112.1977832012536
 31
0.0
  0
LINE
  5
2B1
330
1F
100
AcDbEntity
  8
0
  6
Continuous
 62
     7
370
    15
100
AcDbLine
 10
111.4393662511731
 20
-132.1977832012537
 30
0.0
 11
111.4393662511731
 21
-112.1977832012536
 31
0.0
  0
LINE
  5
2B2
330
1F
100
AcDbEntity
  8
0
  6
Continuous
 62
     7
370
    15
100
AcDbLine
 10
121.4393662511731
 20
-132.1977832012537
 30
0.0
 11
111.4393662511731
 21
-132.1977832012537
 31
0.0
  0
LINE
  5
2B3
330
1F
100
AcDbEntity
  8
0
  6
Continuous
 62
     7
370
    15
100
AcDbLine
 10
151.4393662511731
 20
-112.1977832012539
 30
0.0
 11
151.4393662511731
 21
-132.1977832012539
 31
0.0
  0
LINE
  5
2B4
330
1F
100
AcDbEntity
  8
0
  6
Continuous
 62
     7
370
    15
100
AcDbLine
 10
141.4393662511731
 20
-112.1977832012539
 30
0.0
 11
151.4393662511731
 21
-112.1977832012539
 31
0.0
  0
LINE
  5
2B5
330
1F
100
AcDbEntity
  8
0
  6
Continuous
 62
     7
370
    15
100
AcDbLine
 10
141.4393662511731
 20
-132.1977832012539
 30
0.0
 11
141.4393662511731
 21
-112.1977832012539
 31
0.0
  0
LINE
  5
2B6
330
1F
100
AcDbEntity
  8
0
  6
Continuous
 62
     7
370
    15
100
AcDbLine
 10
151.4393662511731
 20
-132.1977832012539
 30
0.0
 11
141.4393662511731
 21
-132.1977832012539
 31
0.0
  0
LINE
  5
2B7
330
1F
100
AcDbEntity
  8
0
  6
Continuous
 62
     7
370
    15
100
AcDbLine
 10
181.4393662511732
 20
-112.1977832012543
 30
0.0
 11
181.4393662511732
 21
-132.1977832012543
 31
0.0
  0
LINE
  5
2B8
330
1F
100
AcDbEntity
  8
0
  6
Continuous
 62
     7
370
    15
100
AcDbLine
 10
171.4393662511731
 20
-112.1977832012543
 30
0.0
 11
181.4393662511732
 21
-112.1977832012543
 31
0.0
  0
LINE
  5
2B9
330
1F
100
AcDbEntity
  8
0
  6
Continuous
 62
     7
370
    15
100
AcDbLine
 10
171.4393662511731
 20
-132.1977832012543
 30
0.0
 11
171.4393662511731
 21
-112.1977832012543
 31
0.0
  0
LINE
  5
2BA
330
1F
100
AcDbEntity
  8
0
  6
Continuous
 62
     7
370
    15
100
AcDbLine
 10
181.4393662511732
 20
-132.1977832012543
 30
0.0
 11
171.4393662511731
 21
-132.1977832012543
 31
0.0
  0
LINE
  5
2BB
330
1F
100
AcDbEntity
  8
0
  6
Continuous
 62
     7
370
    15
100
AcDbLine
 10
211.4393662511732
 20
-112.1977832012546
 30
0.0
 11
211.4393662511732
 21
-132.1977832012546
 31
0.0
  0
LINE
  5
2BC
330
1F
100
AcDbEntity
  8
0
  6
Continuous
 62
     7
370
    15
100
AcDbLine
 10
201.4393662511732
 20
-112.1977832012546
 30
0.0
 11
211.4393662511732
 21
-112.1977832012546
 31
0.0
  0
LINE
  5
2BD
330
1F
100
AcDbEntity
  8
0
  6
Continuous
 62
     7
370
    15
100
AcDbLine
 10
201.4393662511732
 20
-132.1977832012546
 30
0.0
 11
201.4393662511732
 21
-112.1977832012546
 31
0.0
  0
LINE
  5
2BE
330
1F
100
AcDbEntity
  8
0
  6
Continuous
 62
     7
370
    15
100
AcDbLine
 10
211.4393662511732
 20
-132.1977832012546
 30
0.0
 11
201.4393662511732
 21
-132.1977832012546
 31
0.0
  0
LINE
  5
2BF
330
1F
100
AcDbEntity
  8
0
  6
Continuous
 62
     7
370
    15
100
AcDbLine
 10
241.4393662511733
 20
-112.1977832012549
 30
0.0
 11
241.4393662511732
 21
-132.1977832012549
 31
0.0
  0
LINE
  5
2C0
330
1F
100
AcDbEntity
  8
0
  6
Continuous
 62
     7
370
    15
100
AcDbLine
 10
231.4393662511732
 20
-112.1977832012549
 30
0.0
 11
241.4393662511733
 21
-112.1977832012549
 31
0.0
  0
LINE
  5
2C1
330
1F
100
AcDbEntity
  8
0
  6
Continuous
 62
     7
370
    15
100
AcDbLine
 10
231.4393662511732
 20
-132.1977832012549
 30
0.0
 11
231.4393662511732
 21
-112.1977832012549
 31
0.0
  0
LINE
  5
2C2
330
1F
100
AcDbEntity
  8
0
  6
Continuous
 62
     7
370
    15
100
AcDbLine
 10
241.4393662511732
 20
-132.1977832012549
 30
0.0
 11
231.4393662511732
 21
-132.1977832012549
 31
0.0
  0
LINE
  5
2C3
330
1F
100
AcDbEntity
  8
0
  6
Continuous
 62
     7
370
    15
100
AcDbLine
 10
271.4393662511731
 20
-112.1977832012552
 30
0.0
 11
271.4393662511731
 21
-132.1977832012552
 31
0.0
  0
LINE
  5
2C4
330
1F
100
AcDbEntity
  8
0
  6
Continuous
 62
     7
370
    15
100
AcDbLine
 10
261.4393662511732
 20
-112.1977832012552
 30
0.0
 11
271.4393662511731
 21
-112.1977832012552
 31
0.0
  0
LINE
  5
2C5
330
1F
100
AcDbEntity
  8
0
  6
Continuous
 62
     7
370
    15
100
AcDbLine
 10
261.4393662511732
 20
-132.1977832012552
 30
0.0
 11
261.4393662511732
 21
-112.1977832012552
 31
0.0
  0
LINE
  5
2C6
330
1F
100
AcDbEntity
  8
0
  6
Continuous
 62
     7
370
    15
100
AcDbLine
 10
271.4393662511731
 20
-132.1977832012552
 30
0.0
 11
261.4393662511732
 21
-132.1977832012552
 31
0.0
  0
LINE
  5
2C7
330
1F
100
AcDbEntity
  8
0
  6
Continuous
 62
     7
370
    15
100
AcDbLine
 10
301.4393662511732
 20
-112.1977832012555
 30
0.0
 11
301.4393662511732
 21
-132.1977832012555
 31
0.0
  0
LINE
  5
2C8
330
1F
100
AcDbEntity
  8
0
  6
Continuous
 62
     7
370
    15
100
AcDbLine
 10
291.4393662511732
 20
-112.1977832012555
 30
0.0
 11
301.4393662511732
 21
-112.1977832012555
 31
0.0
  0
LINE
  5
2C9
330
1F
100
AcDbEntity
  8
0
  6
Continuous
 62
     7
370
    15
100
AcDbLine
 10
291.4393662511732
 20
-132.1977832012555
 30
0.0
 11
291.4393662511732
 21
-112.1977832012555
 31
0.0
  0
LINE
  5
2CA
330
1F
100
AcDbEntity
  8
0
  6
Continuous
 62
     7
370
    15
100
AcDbLine
 10
301.4393662511732
 20
-132.1977832012555
 30
0.0
 11
291.4393662511732
 21
-132.1977832012555
 31
0.0
  0
LINE
  5
2CB
330
1F
100
AcDbEntity
  8
0
  6
Continuous
 62
     7
370
    15
100
AcDbLine
 10
327.5980157605459
 20
-147.3851461276739
 30
0.0
 11
327.5980157605459
 21
-176.1804806595604
 31
0.0
  0
LINE
  5
2CC
330
1F
100
AcDbEntity
  8
0
  6
Continuous
 62
     7
370
    15
100
AcDbLine
 10
-135.401984239454
 20
-147.3851461276739
 30
0.0
 11
-135.401984239454
 21
-176.1804806595604
 31
0.0
  0
LINE
  5
2CD
330
1F
100
AcDbEntity
  8
0
  6
Continuous
 62
     7
370
    15
100
AcDbLine
 10
306.4393662511732
 20
-212.1977832012557
 30
0.0
 11
316.4393662511732
 21
-212.1977832012557
 31
0.0
  0
LINE
  5
2CE
330
1F
100
AcDbEntity
  8
0
  6
Continuous
 62
     7
370
    15
100
AcDbLine
 10
316.4393662511732
 20
-212.1977832012557
 30
0.0
 11
316.4393662511732
 21
-192.1977832012557
 31
0.0
  0
LINE
  5
2CF
330
1F
100
AcDbEntity
  8
0
  6
Continuous
 62
     7
370
    15
100
AcDbLine
 10
316.4393662511732
 20
-192.1977832012557
 30
0.0
 11
306.4393662511732
 21
-192.1977832012557
 31
0.0
  0
LINE
  5
2D0
330
1F
100
AcDbEntity
  8
0
  6
Continuous
 62
     7
370
    15
100
AcDbLine
 10
306.4393662511732
 20
-192.1977832012557
 30
0.0
 11
306.4393662511732
 21
-212.1977832012557
 31
0.0
  0
LINE
  5
2D1
330
1F
100
AcDbEntity
  8
0
  6
Continuous
 62
     7
370
    15
100
AcDbLine
 10
276.4393662511732
 20
-212.1977832012554
 30
0.0
 11
286.4393662511732
 21
-212.1977832012554
 31
0.0
  0
LINE
  5
2D2
330
1F
100
AcDbEntity
  8
0
  6
Continuous
 62
     7
370
    15
100
AcDbLine
 10
286.4393662511732
 20
-212.1977832012554
 30
0.0
 11
286.4393662511732
 21
-192.1977832012554
 31
0.0
  0
LINE
  5
2D3
330
1F
100
AcDbEntity
  8
0
  6
Continuous
 62
     7
370
    15
100
AcDbLine
 10
286.4393662511732
 20
-192.1977832012554
 30
0.0
 11
276.4393662511732
 21
-192.1977832012554
 31
0.0
  0
LINE
  5
2D4
330
1F
100
AcDbEntity
  8
0
  6
Continuous
 62
     7
370
    15
100
AcDbLine
 10
276.4393662511732
 20
-192.1977832012554
 30
0.0
 11
276.4393662511732
 21
-212.1977832012554
 31
0.0
  0
LINE
  5
2D5
330
1F
100
AcDbEntity
  8
0
  6
Continuous
 62
     7
370
    15
100
AcDbLine
 10
246.4393662511731
 20
-212.1977832012551
 30
0.0
 11
256.4393662511732
 21
-212.1977832012551
 31
0.0
  0
LINE
  5
2D6
330
1F
100
AcDbEntity
  8
0
  6
Continuous
 62
     7
370
    15
100
AcDbLine
 10
256.4393662511732
 20
-212.1977832012551
 30
0.0
 11
256.4393662511732
 21
-192.1977832012551
 31
0.0
  0
LINE
  5
2D7
330
1F
100
AcDbEntity
  8
0
  6
Continuous
 62
     7
370
    15
100
AcDbLine
 10
256.4393662511732
 20
-192.1977832012551
 30
0.0
 11
246.4393662511731
 21
-192.1977832012551
 31
0.0
  0
LINE
  5
2D8
330
1F
100
AcDbEntity
  8
0
  6
Continuous
 62
     7
370
    15
100
AcDbLine
 10
246.4393662511731
 20
-192.1977832012551
 30
0.0
 11
246.4393662511731
 21
-212.1977832012551
 31
0.0
  0
LINE
  5
2D9
330
1F
100
AcDbEntity
  8
0
  6
Continuous
 62
     7
370
    15
100
AcDbLine
 10
216.4393662511732
 20
-212.1977832012547
 30
0.0
 11
226.4393662511732
 21
-212.1977832012547
 31
0.0
  0
LINE
  5
2DA
330
1F
100
AcDbEntity
  8
0
  6
Continuous
 62
     7
370
    15
100
AcDbLine
 10
226.4393662511732
 20
-212.1977832012547
 30
0.0
 11
226.4393662511732
 21
-192.1977832012547
 31
0.0
  0
LINE
  5
2DB
330
1F
100
AcDbEntity
  8
0
  6
Continuous
 62
     7
370
    15
100
AcDbLine
 10
226.4393662511732
 20
-192.1977832012547
 30
0.0
 11
216.4393662511732
 21
-192.1977832012547
 31
0.0
  0
LINE
  5
2DC
330
1F
100
AcDbEntity
  8
0
  6
Continuous
 62
     7
370
    15
100
AcDbLine
 10
216.4393662511732
 20
-192.1977832012547
 30
0.0
 11
216.4393662511732
 21
-212.1977832012547
 31
0.0
  0
LINE
  5
2DD
330
1F
100
AcDbEntity
  8
0
  6
Continuous
 62
     7
370
    15
100
AcDbLine
 10
186.4393662511732
 20
-212.1977832012544
 30
0.0
 11
196.4393662511732
 21
-212.1977832012544
 31
0.0
  0
LINE
  5
2DE
330
1F
100
AcDbEntity
  8
0
  6
Continuous
 62
     7
370
    15
100
AcDbLine
 10
196.4393662511732
 20
-212.1977832012544
 30
0.0
 11
196.4393662511732
 21
-192.1977832012544
 31
0.0
  0
LINE
  5
2DF
330
1F
100
AcDbEntity
  8
0
  6
Continuous
 62
     7
370
    15
100
AcDbLine
 10
196.4393662511732
 20
-192.1977832012544
 30
0.0
 11
186.4393662511732
 21
-192.1977832012544
 31
0.0
  0
LINE
  5
2E0
330
1F
100
AcDbEntity
  8
0
  6
Continuous
 62
     7
370
    15
100
AcDbLine
 10
186.4393662511732
 20
-192.1977832012544
 30
0.0
 11
186.4393662511732
 21
-212.1977832012544
 31
0.0
  0
LINE
  5
2E1
330
1F
100
AcDbEntity
  8
0
  6
Continuous
 62
     7
370
    15
100
AcDbLine
 10
156.4393662511731
 20
-212.1977832012541
 30
0.0
 11
166.4393662511731
 21
-212.1977832012541
 31
0.0
  0
LINE
  5
2E2
330
1F
100
AcDbEntity
  8
0
  6
Continuous
 62
     7
370
    15
100
AcDbLine
 10
166.4393662511731
 20
-212.1977832012541
 30
0.0
 11
166.4393662511731
 21
-192.1977832012541
 31
0.0
  0
LINE
  5
2E3
330
1F
100
AcDbEntity
  8
0
  6
Continuous
 62
     7
370
    15
100
AcDbLine
 10
166.4393662511731
 20
-192.1977832012541
 30
0.0
 11
156.4393662511731
 21
-192.1977832012541
 31
0.0
  0
LINE
  5
2E4
330
1F
100
AcDbEntity
  8
0
  6
Continuous
 62
     7
370
    15
100
AcDbLine
 10
156.4393662511731
 20
-192.1977832012541
 30
0.0
 11
156.4393662511731
 21
-212.1977832012541
 31
0.0
  0
LINE
  5
2E5
330
1F
100
AcDbEntity
  8
0
  6
Continuous
 62
     7
370
    15
100
AcDbLine
 10
126.4393662511732
 20
-212.1977832012538
 30
0.0
 11
136.4393662511731
 21
-212.1977832012538
 31
0.0
  0
LINE
  5
2E6
330
1F
100
AcDbEntity
  8
0
  6
Continuous
 62
     7
370
    15
100
AcDbLine
 10
136.4393662511731
 20
-212.1977832012538
 30
0.0
 11
136.4393662511731
 21
-192.1977832012538
 31
0.0
  0
LINE
  5
2E7
330
1F
100
AcDbEntity
  8
0
  6
Continuous
 62
     7
370
    15
100
AcDbLine
 10
136.4393662511731
 20
-192.1977832012538
 30
0.0
 11
126.4393662511732
 21
-192.1977832012538
 31
0.0
  0
LINE
  5
2E8
330
1F
100
AcDbEntity
  8
0
  6
Continuous
 62
     7
370
    15
100
AcDbLine
 10
126.4393662511732
 20
-192.1977832012538
 30
0.0
 11
126.4393662511732
 21
-212.1977832012538
 31
0.0
  0
LINE
  5
2E9
330
1F
100
AcDbEntity
  8
0
  6
Continuous
 62
     7
370
    15
100
AcDbLine
 10
96.43936625117317
 20
-212.1977832012535
 30
0.0
 11
106.4393662511731
 21
-212.1977832012535
 31
0.0
  0
LINE
  5
2EA
330
1F
100
AcDbEntity
  8
0
  6
Continuous
 62
     7
370
    15
100
AcDbLine
 10
106.4393662511731
 20
-212.1977832012535
 30
0.0
 11
106.4393662511731
 21
-192.1977832012535
 31
0.0
  0
LINE
  5
2EB
330
1F
100
AcDbEntity
  8
0
  6
Continuous
 62
     7
370
    15
100
AcDbLine
 10
106.4393662511731
 20
-192.1977832012535
 30
0.0
 11
96.43936625117317
 21
-192.1977832012535
 31
0.0
  0
LINE
  5
2EC
330
1F
100
AcDbEntity
  8
0
  6
Continuous
 62
     7
370
    15
100
AcDbLine
 10
96.43936625117317
 20
-192.1977832012535
 30
0.0
 11
96.43936625117317
 21
-212.1977832012535
 31
0.0
  0
LINE
  5
2ED
330
1F
100
AcDbEntity
  8
0
  6
Continuous
 62
     7
370
    15
100
AcDbLine
 10
66.43936625117319
 20
-212.1977832012532
 30
0.0
 11
76.43936625117319
 21
-212.1977832012532
 31
0.0
  0
LINE
  5
2EE
330
1F
100
AcDbEntity
  8
0
  6
Continuous
 62
     7
370
    15
100
AcDbLine
 10
76.43936625117319
 20
-212.1977832012532
 30
0.0
 11
76.43936625117314
 21
-192.1977832012532
 31
0.0
  0
LINE
  5
2EF
330
1F
100
AcDbEntity
  8
0
  6
Continuous
 62
     7
370
    15
100
AcDbLine
 10
76.43936625117314
 20
-192.1977832012532
 30
0.0
 11
66.43936625117319
 21
-192.1977832012532
 31
0.0
  0
LINE
  5
2F0
330
1F
100
AcDbEntity
  8
0
  6
Continuous
 62
     7
370
    15
100
AcDbLine
 10
66.43936625117319
 20
-192.1977832012532
 30
0.0
 11
66.43936625117319
 21
-212.1977832012532
 31
0.0
  0
LINE
  5
2F1
330
1F
100
AcDbEntity
  8
0
  6
Continuous
 62
     7
370
    15
100
AcDbLine
 10
36.43936625117317
 20
-212.1977832012528
 30
0.0
 11
46.43936625117317
 21
-212.1977832012528
 31
0.0
  0
LINE
  5
2F2
330
1F
100
AcDbEntity
  8
0
  6
Continuous
 62
     7
370
    15
100
AcDbLine
 10
46.43936625117317
 20
-212.1977832012528
 30
0.0
 11
46.43936625117311
 21
-192.1977832012528
 31
0.0
  0
LINE
  5
2F3
330
1F
100
AcDbEntity
  8
0
  6
Continuous
 62
     7
370
    15
100
AcDbLine
 10
46.43936625117311
 20
-192.1977832012528
 30
0.0
 11
36.43936625117317
 21
-192.1977832012528
 31
0.0
  0
LINE
  5
2F4
330
1F
100
AcDbEntity
  8
0
  6
Continuous
 62
     7
370
    15
100
AcDbLine
 10
36.43936625117317
 20
-192.1977832012528
 30
0.0
 11
36.43936625117317
 21
-212.1977832012528
 31
0.0
  0
LINE
  5
2F5
330
1F
100
AcDbEntity
  8
0
  6
Continuous
 62
     7
370
    15
100
AcDbLine
 10
6.439366251173197
 20
-212.1977832012525
 30
0.0
 11
16.43936625117319
 21
-212.1977832012525
 31
0.0
  0
LINE
  5
2F6
330
1F
100
AcDbEntity
  8
0
  6
Continuous
 62
     7
370
    15
100
AcDbLine
 10
16.43936625117319
 20
-212.1977832012525
 30
0.0
 11
16.43936625117319
 21
-192.1977832012526
 31
0.0
  0
LINE
  5
2F7
330
1F
100
AcDbEntity
  8
0
  6
Continuous
 62
     7
370
    15
100
AcDbLine
 10
16.43936625117319
 20
-192.1977832012526
 30
0.0
 11
6.439366251173197
 21
-192.1977832012526
 31
0.0
  0
LINE
  5
2F8
330
1F
100
AcDbEntity
  8
0
  6
Continuous
 62
     7
370
    15
100
AcDbLine
 10
6.439366251173197
 20
-192.1977832012526
 30
0.0
 11
6.439366251173197
 21
-212.1977832012525
 31
0.0
  0
LINE
  5
2F9
330
1F
100
AcDbEntity
  8
0
  6
Continuous
 62
     7
370
    15
100
AcDbLine
 10
-23.56063374882678
 20
-212.1977832012523
 30
0.0
 11
-13.56063374882677
 21
-212.1977832012523
 31
0.0
  0
LINE
  5
2FA
330
1F
100
AcDbEntity
  8
0
  6
Continuous
 62
     7
370
    15
100
AcDbLine
 10
-13.56063374882677
 20
-212.1977832012523
 30
0.0
 11
-13.56063374882683
 21
-192.1977832012522
 31
0.0
  0
LINE
  5
2FB
330
1F
100
AcDbEntity
  8
0
  6
Continuous
 62
     7
370
    15
100
AcDbLine
 10
-13.56063374882683
 20
-192.1977832012522
 30
0.0
 11
-23.56063374882678
 21
-192.1977832012522
 31
0.0
  0
LINE
  5
2FC
330
1F
100
AcDbEntity
  8
0
  6
Continuous
 62
     7
370
    15
100
AcDbLine
 10
-23.56063374882678
 20
-192.1977832012522
 30
0.0
 11
-23.56063374882678
 21
-212.1977832012523
 31
0.0
  0
LINE
  5
2FD
330
1F
100
AcDbEntity
  8
0
  6
Continuous
 62
     7
370
    15
100
AcDbLine
 10
-53.5606337488268
 20
-212.1977832012519
 30
0.0
 11
-43.5606337488268
 21
-212.1977832012519
 31
0.0
  0
LINE
  5
2FE
330
1F
100
AcDbEntity
  8
0
  6
Continuous
 62
     7
370
    15
100
AcDbLine
 10
-43.5606337488268
 20
-212.1977832012519
 30
0.0
 11
-43.56063374882686
 21
-192.1977832012519
 31
0.0
  0
LINE
  5
2FF
330
1F
100
AcDbEntity
  8
0
  6
Continuous
 62
     7
370
    15
100
AcDbLine
 10
-43.56063374882686
 20
-192.1977832012519
 30
0.0
 11
-53.5606337488268
 21
-192.1977832012519
 31
0.0
  0
LINE
  5
300
330
1F
100
AcDbEntity
  8
0
  6
Continuous
 62
     7
370
    15
100
AcDbLine
 10
-53.5606337488268
 20
-192.1977832012519
 30
0.0
 11
-53.5606337488268
 21
-212.1977832012519
 31
0.0
  0
LINE
  5
301
330
1F
100
AcDbEntity
  8
0
  6
Continuous
 62
     7
370
    15
100
AcDbLine
 10
-83.56063374882683
 20
-212.1977832012516
 30
0.0
 11
-73.56063374882683
 21
-212.1977832012516
 31
0.0
  0
LINE
  5
302
330
1F
100
AcDbEntity
  8
0
  6
Continuous
 62
     7
370
    15
100
AcDbLine
 10
-73.56063374882683
 20
-212.1977832012516
 30
0.0
 11
-73.56063374882689
 21
-192.1977832012516
 31
0.0
  0
LINE
  5
303
330
1F
100
AcDbEntity
  8
0
  6
Continuous
 62
     7
370
    15
100
AcDbLine
 10
-73.56063374882689
 20
-192.1977832012516
 30
0.0
 11
-83.56063374882683
 21
-192.1977832012516
 31
0.0
  0
LINE
  5
304
330
1F
100
AcDbEntity
  8
0
  6
Continuous
 62
     7
370
    15
100
AcDbLine
 10
-83.56063374882683
 20
-192.1977832012516
 30
0.0
 11
-83.56063374882683
 21
-212.1977832012516
 31
0.0
  0
LINE
  5
305
330
1F
100
AcDbEntity
  8
0
  6
Continuous
 62
     7
370
    15
100
AcDbLine
 10
-113.5606337488268
 20
-212.1977832012513
 30
0.0
 11
-103.5606337488268
 21
-212.1977832012513
 31
0.0
  0
LINE
  5
306
330
1F
100
AcDbEntity
  8
0
  6
Continuous
 62
     7
370
    15
100
AcDbLine
 10
-103.5606337488268
 20
-212.1977832012513
 30
0.0
 11
-103.5606337488268
 21
-192.1977832012513
 31
0.0
  0
LINE
  5
307
330
1F
100
AcDbEntity
  8
0
  6
Continuous
 62
     7
370
    15
100
AcDbLine
 10
-103.5606337488268
 20
-192.1977832012513
 30
0.0
 11
-113.5606337488268
 21
-192.1977832012513
 31
0.0
  0
LINE
  5
308
330
1F
100
AcDbEntity
  8
0
  6
Continuous
 62
     7
370
    15
100
AcDbLine
 10
-113.5606337488268
 20
-192.1977832012513
 30
0.0
 11
-113.5606337488268
 21
-212.1977832012513
 31
0.0
  0
LINE
  5
309
330
1F
100
AcDbEntity
  8
0
  6
Continuous
 62
     7
370
    15
100
AcDbLine
 10
-135.401984239454
 20
-216.7828133936172
 30
0.0
 11
-36.20912517354091
 21
-216.7828133936172
 31
0.0
  0
LINE
  5
30A
330
1F
100
AcDbEntity
  8
0
  6
Continuous
 62
     7
370
    15
100
AcDbLine
 10
-34.20912517354091
 20
-216.7828133936172
 30
0.0
 11
229.7908748264591
 21
-216.7828133936172
 31
0.0
  0
LINE
  5
30B
330
1F
100
AcDbEntity
  8
0
  6
Continuous
 62
     7
370
    15
100
AcDbLine
 10
231.790874826459
 20
-216.7828133936171
 30
0.0
 11
327.5980157605459
 21
-216.7828133936172
 31
0.0
  0
LINE
  5
30C
330
1F
100
AcDbEntity
  8
0
  6
Continuous
 62
     7
370
    15
100
AcDbLine
 10
-135.401984239454
 20
-216.7828133936172
 30
0.0
 11
-135.401984239454
 21
-176.1804806595604
 31
0.0
  0
LINE
  5
30D
330
1F
100
AcDbEntity
  8
0
  6
Continuous
 62
     7
370
    15
100
AcDbLine
 10
327.5980157605459
 20
-216.7828133936172
 30
0.0
 11
327.5980157605459
 21
-176.1804806595604
 31
0.0
  0
LINE
  5
30E
330
1F
100
AcDbEntity
  8
0
  6
Continuous
 62
     7
370
    15
100
AcDbLine
 10
-128.5606337488268
 20
-212.1977832012511
 30
0.0
 11
-118.5606337488268
 21
-212.1977832012511
 31
0.0
  0
LINE
  5
30F
330
1F
100
AcDbEntity
  8
0
  6
Continuous
 62
     7
370
    15
100
AcDbLine
 10
-118.5606337488268
 20
-212.1977832012511
 30
0.0
 11
-118.5606337488268
 21
-192.1977832012511
 31
0.0
  0
LINE
  5
310
330
1F
100
AcDbEntity
  8
0
  6
Continuous
 62
     7
370
    15
100
AcDbLine
 10
-118.5606337488268
 20
-192.1977832012511
 30
0.0
 11
-128.5606337488268
 21
-192.1977832012511
 31
0.0
  0
LINE
  5
311
330
1F
100
AcDbEntity
  8
0
  6
Continuous
 62
     7
370
    15
100
AcDbLine
 10
-128.5606337488268
 20
-192.1977832012511
 30
0.0
 11
-128.5606337488268
 21
-212.1977832012511
 31
0.0
  0
LINE
  5
312
330
1F
100
AcDbEntity
  8
0
  6
Continuous
 62
     7
370
    15
100
AcDbLine
 10
-98.5606337488268
 20
-212.1977832012514
 30
0.0
 11
-88.56063374882678
 21
-212.1977832012514
 31
0.0
  0
LINE
  5
313
330
1F
100
AcDbEntity
  8
0
  6
Continuous
 62
     7
370
    15
100
AcDbLine
 10
-88.56063374882678
 20
-212.1977832012514
 30
0.0
 11
-88.56063374882678
 21
-192.1977832012514
 31
0.0
  0
LINE
  5
314
330
1F
100
AcDbEntity
  8
0
  6
Continuous
 62
     7
370
    15
100
AcDbLine
 10
-88.56063374882678
 20
-192.1977832012514
 30
0.0
 11
-98.5606337488268
 21
-192.1977832012514
 31
0.0
  0
LINE
  5
315
330
1F
100
AcDbEntity
  8
0
  6
Continuous
 62
     7
370
    15
100
AcDbLine
 10
-98.5606337488268
 20
-192.1977832012514
 30
0.0
 11
-98.5606337488268
 21
-212.1977832012514
 31
0.0
  0
LINE
  5
316
330
1F
100
AcDbEntity
  8
0
  6
Continuous
 62
     7
370
    15
100
AcDbLine
 10
-68.56063374882682
 20
-212.1977832012518
 30
0.0
 11
-58.56063374882682
 21
-212.1977832012518
 31
0.0
  0
LINE
  5
317
330
1F
100
AcDbEntity
  8
0
  6
Continuous
 62
     7
370
    15
100
AcDbLine
 10
-58.56063374882682
 20
-212.1977832012518
 30
0.0
 11
-58.56063374882687
 21
-192.1977832012517
 31
0.0
  0
LINE
  5
318
330
1F
100
AcDbEntity
  8
0
  6
Continuous
 62
     7
370
    15
100
AcDbLine
 10
-58.56063374882687
 20
-192.1977832012517
 30
0.0
 11
-68.56063374882682
 21
-192.1977832012517
 31
0.0
  0
LINE
  5
319
330
1F
100
AcDbEntity
  8
0
  6
Continuous
 62
     7
370
    15
100
AcDbLine
 10
-68.56063374882682
 20
-192.1977832012517
 30
0.0
 11
-68.56063374882682
 21
-212.1977832012518
 31
0.0
  0
LINE
  5
31A
330
1F
100
AcDbEntity
  8
0
  6
Continuous
 62
     7
370
    15
100
AcDbLine
 10
-38.5606337488268
 20
-212.1977832012521
 30
0.0
 11
-36.20912517354089
 21
-212.1977832012521
 31
0.0
  0
LINE
  5
31B
330
1F
100
AcDbEntity
  8
0
  6
Continuous
 62
     7
370
    15
100
AcDbLine
 10
-34.20912517354091
 20
-212.1977832012521
 30
0.0
 11
-28.56063374882678
 21
-212.1977832012521
 31
0.0
  0
LINE
  5
31C
330
1F
100
AcDbEntity
  8
0
  6
Continuous
 62
     7
370
    15
100
AcDbLine
 10
-28.56063374882678
 20
-212.1977832012521
 30
0.0
 11
-28.56063374882683
 21
-192.197783201252
 31
0.0
  0
LINE
  5
31D
330
1F
100
AcDbEntity
  8
0
  6
Continuous
 62
     7
370
    15
100
AcDbLine
 10
-28.56063374882683
 20
-192.197783201252
 30
0.0
 11
-34.20912517354088
 21
-192.197783201252
 31
0.0
  0
LINE
  5
31E
330
1F
100
AcDbEntity
  8
0
  6
Continuous
 62
     7
370
    15
100
AcDbLine
 10
-36.20912517354089
 20
-192.197783201252
 30
0.0
 11
-38.5606337488268
 21
-192.197783201252
 31
0.0
  0
LINE
  5
31F
330
1F
100
AcDbEntity
  8
0
  6
Continuous
 62
     7
370
    15
100
AcDbLine
 10
-38.5606337488268
 20
-192.197783201252
 30
0.0
 11
-38.5606337488268
 21
-212.1977832012521
 31
0.0
  0
LINE
  5
320
330
1F
100
AcDbEntity
  8
0
  6
Continuous
 62
     7
370
    15
100
AcDbLine
 10
-8.56063374882683
 20
-212.1977832012524
 30
0.0
 11
1.439366251173197
 21
-212.1977832012524
 31
0.0
  0
LINE
  5
321
330
1F
100
AcDbEntity
  8
0
  6
Continuous
 62
     7
370
    15
100
AcDbLine
 10
1.439366251173197
 20
-212.1977832012524
 30
0.0
 11
1.439366251173197
 21
-192.1977832012524
 31
0.0
  0
LINE
  5
322
330
1F
100
AcDbEntity
  8
0
  6
Continuous
 62
     7
370
    15
100
AcDbLine
 10
1.439366251173197
 20
-192.1977832012524
 30
0.0
 11
-8.56063374882683
 21
-192.1977832012524
 31
0.0
  0
LINE
  5
323
330
1F
100
AcDbEntity
  8
0
  6
Continuous
 62
     7
370
    15
100
AcDbLine
 10
-8.56063374882683
 20
-192.1977832012524
 30
0.0
 11
-8.56063374882683
 21
-212.1977832012524
 31
0.0
  0
LINE
  5
324
330
1F
100
AcDbEntity
  8
0
  6
Continuous
 62
     7
370
    15
100
AcDbLine
 10
21.4393662511732
 20
-212.1977832012527
 30
0.0
 11
31.43936625117323
 21
-212.1977832012527
 31
0.0
  0
LINE
  5
325
330
1F
100
AcDbEntity
  8
0
  6
Continuous
 62
     7
370
    15
100
AcDbLine
 10
31.43936625117323
 20
-212.1977832012527
 30
0.0
 11
31.43936625117323
 21
-192.1977832012527
 31
0.0
  0
LINE
  5
326
330
1F
100
AcDbEntity
  8
0
  6
Continuous
 62
     7
370
    15
100
AcDbLine
 10
31.43936625117323
 20
-192.1977832012527
 30
0.0
 11
21.4393662511732
 21
-192.1977832012527
 31
0.0
  0
LINE
  5
327
330
1F
100
AcDbEntity
  8
0
  6
Continuous
 62
     7
370
    15
100
AcDbLine
 10
21.4393662511732
 20
-192.1977832012527
 30
0.0
 11
21.4393662511732
 21
-212.1977832012527
 31
0.0
  0
LINE
  5
328
330
1F
100
AcDbEntity
  8
0
  6
Continuous
 62
     7
370
    15
100
AcDbLine
 10
51.43936625117317
 20
-212.197783201253
 30
0.0
 11
61.43936625117317
 21
-212.197783201253
 31
0.0
  0
LINE
  5
329
330
1F
100
AcDbEntity
  8
0
  6
Continuous
 62
     7
370
    15
100
AcDbLine
 10
61.43936625117317
 20
-212.197783201253
 30
0.0
 11
61.43936625117314
 21
-192.197783201253
 31
0.0
  0
LINE
  5
32A
330
1F
100
AcDbEntity
  8
0
  6
Continuous
 62
     7
370
    15
100
AcDbLine
 10
61.43936625117314
 20
-192.197783201253
 30
0.0
 11
51.43936625117317
 21
-192.197783201253
 31
0.0
  0
LINE
  5
32B
330
1F
100
AcDbEntity
  8
0
  6
Continuous
 62
     7
370
    15
100
AcDbLine
 10
51.43936625117317
 20
-192.197783201253
 30
0.0
 11
51.43936625117317
 21
-212.197783201253
 31
0.0
  0
LINE
  5
32C
330
1F
100
AcDbEntity
  8
0
  6
Continuous
 62
     7
370
    15
100
AcDbLine
 10
81.43936625117319
 20
-212.1977832012533
 30
0.0
 11
91.43936625117323
 21
-212.1977832012533
 31
0.0
  0
LINE
  5
32D
330
1F
100
AcDbEntity
  8
0
  6
Continuous
 62
     7
370
    15
100
AcDbLine
 10
91.43936625117323
 20
-212.1977832012533
 30
0.0
 11
91.43936625117323
 21
-192.1977832012533
 31
0.0
  0
LINE
  5
32E
330
1F
100
AcDbEntity
  8
0
  6
Continuous
 62
     7
370
    15
100
AcDbLine
 10
91.43936625117323
 20
-192.1977832012533
 30
0.0
 11
81.43936625117319
 21
-192.1977832012533
 31
0.0
  0
LINE
  5
32F
330
1F
100
AcDbEntity
  8
0
  6
Continuous
 62
     7
370
    15
100
AcDbLine
 10
81.43936625117319
 20
-192.1977832012533
 30
0.0
 11
81.43936625117319
 21
-212.1977832012533
 31
0.0
  0
LINE
  5
330
330
1F
100
AcDbEntity
  8
0
  6
Continuous
 62
     7
370
    15
100
AcDbLine
 10
111.4393662511731
 20
-212.1977832012536
 30
0.0
 11
121.4393662511731
 21
-212.1977832012536
 31
0.0
  0
LINE
  5
331
330
1F
100
AcDbEntity
  8
0
  6
Continuous
 62
     7
370
    15
100
AcDbLine
 10
121.4393662511731
 20
-212.1977832012536
 30
0.0
 11
121.4393662511731
 21
-192.1977832012536
 31
0.0
  0
LINE
  5
332
330
1F
100
AcDbEntity
  8
0
  6
Continuous
 62
     7
370
    15
100
AcDbLine
 10
121.4393662511731
 20
-192.1977832012536
 30
0.0
 11
111.4393662511731
 21
-192.1977832012536
 31
0.0
  0
LINE
  5
333
330
1F
100
AcDbEntity
  8
0
  6
Continuous
 62
     7
370
    15
100
AcDbLine
 10
111.4393662511731
 20
-192.1977832012536
 30
0.0
 11
111.4393662511731
 21
-212.1977832012536
 31
0.0
  0
LINE
  5
334
330
1F
100
AcDbEntity
  8
0
  6
Continuous
 62
     7
370
    15
100
AcDbLine
 10
141.4393662511731
 20
-212.197783201254
 30
0.0
 11
151.4393662511731
 21
-212.197783201254
 31
0.0
  0
LINE
  5
335
330
1F
100
AcDbEntity
  8
0
  6
Continuous
 62
     7
370
    15
100
AcDbLine
 10
151.4393662511731
 20
-212.197783201254
 30
0.0
 11
151.4393662511731
 21
-192.1977832012539
 31
0.0
  0
LINE
  5
336
330
1F
100
AcDbEntity
  8
0
  6
Continuous
 62
     7
370
    15
100
AcDbLine
 10
151.4393662511731
 20
-192.1977832012539
 30
0.0
 11
141.4393662511731
 21
-192.1977832012539
 31
0.0
  0
LINE
  5
337
330
1F
100
AcDbEntity
  8
0
  6
Continuous
 62
     7
370
    15
100
AcDbLine
 10
141.4393662511731
 20
-192.1977832012539
 30
0.0
 11
141.4393662511731
 21
-212.197783201254
 31
0.0
  0
LINE
  5
338
330
1F
100
AcDbEntity
  8
0
  6
Continuous
 62
     7
370
    15
100
AcDbLine
 10
171.4393662511731
 20
-212.1977832012543
 30
0.0
 11
181.4393662511732
 21
-212.1977832012543
 31
0.0
  0
LINE
  5
339
330
1F
100
AcDbEntity
  8
0
  6
Continuous
 62
     7
370
    15
100
AcDbLine
 10
181.4393662511732
 20
-212.1977832012543
 30
0.0
 11
181.4393662511732
 21
-192.1977832012543
 31
0.0
  0
LINE
  5
33A
330
1F
100
AcDbEntity
  8
0
  6
Continuous
 62
     7
370
    15
100
AcDbLine
 10
181.4393662511732
 20
-192.1977832012543
 30
0.0
 11
171.4393662511731
 21
-192.1977832012543
 31
0.0
  0
LINE
  5
33B
330
1F
100
AcDbEntity
  8
0
  6
Continuous
 62
     7
370
    15
100
AcDbLine
 10
171.4393662511731
 20
-192.1977832012543
 30
0.0
 11
171.4393662511731
 21
-212.1977832012543
 31
0.0
  0
LINE
  5
33C
330
1F
100
AcDbEntity
  8
0
  6
Continuous
 62
     7
370
    15
100
AcDbLine
 10
201.4393662511732
 20
-212.1977832012546
 30
0.0
 11
211.4393662511732
 21
-212.1977832012546
 31
0.0
  0
LINE
  5
33D
330
1F
100
AcDbEntity
  8
0
  6
Continuous
 62
     7
370
    15
100
AcDbLine
 10
211.4393662511732
 20
-212.1977832012546
 30
0.0
 11
211.4393662511732
 21
-192.1977832012546
 31
0.0
  0
LINE
  5
33E
330
1F
100
AcDbEntity
  8
0
  6
Continuous
 62
     7
370
    15
100
AcDbLine
 10
211.4393662511732
 20
-192.1977832012546
 30
0.0
 11
201.4393662511732
 21
-192.1977832012546
 31
0.0
  0
LINE
  5
33F
330
1F
100
AcDbEntity
  8
0
  6
Continuous
 62
     7
370
    15
100
AcDbLine
 10
201.4393662511732
 20
-192.1977832012546
 30
0.0
 11
201.4393662511732
 21
-212.1977832012546
 31
0.0
  0
LINE
  5
340
330
1F
100
AcDbEntity
  8
0
  6
Continuous
 62
     7
370
    15
100
AcDbLine
 10
231.790874826459
 20
-212.197783201255
 30
0.0
 11
241.4393662511732
 21
-212.1977832012549
 31
0.0
  0
LINE
  5
341
330
1F
100
AcDbEntity
  8
0
  6
Continuous
 62
     7
370
    15
100
AcDbLine
 10
241.4393662511732
 20
-212.1977832012549
 30
0.0
 11
241.4393662511733
 21
-192.1977832012549
 31
0.0
  0
LINE
  5
342
330
1F
100
AcDbEntity
  8
0
  6
Continuous
 62
     7
370
    15
100
AcDbLine
 10
241.4393662511733
 20
-192.1977832012549
 30
0.0
 11
231.7908748264591
 21
-192.1977832012549
 31
0.0
  0
LINE
  5
343
330
1F
100
AcDbEntity
  8
0
  6
Continuous
 62
     7
370
    15
100
AcDbLine
 10
261.4393662511732
 20
-212.1977832012552
 30
0.0
 11
271.4393662511731
 21
-212.1977832012552
 31
0.0
  0
LINE
  5
344
330
1F
100
AcDbEntity
  8
0
  6
Continuous
 62
     7
370
    15
100
AcDbLine
 10
271.4393662511731
 20
-212.1977832012552
 30
0.0
 11
271.4393662511731
 21
-192.1977832012552
 31
0.0
  0
LINE
  5
345
330
1F
100
AcDbEntity
  8
0
  6
Continuous
 62
     7
370
    15
100
AcDbLine
 10
271.4393662511731
 20
-192.1977832012552
 30
0.0
 11
261.4393662511732
 21
-192.1977832012552
 31
0.0
  0
LINE
  5
346
330
1F
100
AcDbEntity
  8
0
  6
Continuous
 62
     7
370
    15
100
AcDbLine
 10
261.4393662511732
 20
-192.1977832012552
 30
0.0
 11
261.4393662511732
 21
-212.1977832012552
 31
0.0
  0
LINE
  5
347
330
1F
100
AcDbEntity
  8
0
  6
Continuous
 62
     7
370
    15
100
AcDbLine
 10
291.4393662511732
 20
-212.1977832012555
 30
0.0
 11
301.4393662511732
 21
-212.1977832012555
 31
0.0
  0
LINE
  5
348
330
1F
100
AcDbEntity
  8
0
  6
Continuous
 62
     7
370
    15
100
AcDbLine
 10
301.4393662511732
 20
-212.1977832012555
 30
0.0
 11
301.4393662511732
 21
-192.1977832012555
 31
0.0
  0
LINE
  5
349
330
1F
100
AcDbEntity
  8
0
  6
Continuous
 62
     7
370
    15
100
AcDbLine
 10
301.4393662511732
 20
-192.1977832012555
 30
0.0
 11
291.4393662511732
 21
-192.1977832012555
 31
0.0
  0
LINE
  5
34A
330
1F
100
AcDbEntity
  8
0
  6
Continuous
 62
     7
370
    15
100
AcDbLine
 10
291.4393662511732
 20
-192.1977832012555
 30
0.0
 11
291.4393662511732
 21
-212.1977832012555
 31
0.0
  0
LINE
  5
34B
330
1F
100
AcDbEntity
  8
0
  6
Continuous
 62
     7
370
    15
100
AcDbLine
 10
-34.20912517354091
 20
-315.1804806595604
 30
0.0
 11
229.7908748264591
 21
-315.1804806595604
 31
0.0
  0
LINE
  5
34C
330
1F
100
AcDbEntity
  8
0
  6
Continuous
 62
     7
370
    15
100
AcDbLine
 10
-34.20912517354091
 20
-306.6663983211008
 30
0.0
 11
-34.20912517354091
 21
-315.1804806595604
 31
0.0
  0
LINE
  5
34D
330
1F
100
AcDbEntity
  8
0
  6
Continuous
 62
     7
370
    15
100
AcDbLine
 10
229.7908748264591
 20
-315.1804806595604
 30
0.0
 11
229.7908748264591
 21
-306.6663983211015
 31
0.0
  0
LINE
  5
34E
330
1F
100
AcDbEntity
  8
0
  6
Continuous
 62
     7
370
    15
100
AcDbLine
 10
229.7908748264591
 20
-286.3851461276739
 30
0.0
 11
-34.20912517354091
 21
-286.3851461276739
 31
0.0
  0
LINE
  5
34F
330
1F
100
AcDbEntity
  8
0
  6
Continuous
 62
     7
370
    15
100
AcDbLine
 10
316.4393662511732
 20
-251.1977832012557
 30
0.0
 11
316.4393662511732
 21
-271.1977832012557
 31
0.0
  0
LINE
  5
350
330
1F
100
AcDbEntity
  8
0
  6
Continuous
 62
     7
370
    15
100
AcDbLine
 10
306.4393662511732
 20
-251.1977832012557
 30
0.0
 11
316.4393662511732
 21
-251.1977832012557
 31
0.0
  0
LINE
  5
351
330
1F
100
AcDbEntity
  8
0
  6
Continuous
 62
     7
370
    15
100
AcDbLine
 10
306.4393662511732
 20
-271.1977832012557
 30
0.0
 11
306.4393662511732
 21
-251.1977832012557
 31
0.0
  0
LINE
  5
352
330
1F
100
AcDbEntity
  8
0
  6
Continuous
 62
     7
370
    15
100
AcDbLine
 10
316.4393662511732
 20
-271.1977832012557
 30
0.0
 11
306.4393662511732
 21
-271.1977832012557
 31
0.0
  0
LINE
  5
353
330
1F
100
AcDbEntity
  8
0
  6
Continuous
 62
     7
370
    15
100
AcDbLine
 10
286.4393662511732
 20
-251.1977832012554
 30
0.0
 11
286.4393662511732
 21
-271.1977832012554
 31
0.0
  0
LINE
  5
354
330
1F
100
AcDbEntity
  8
0
  6
Continuous
 62
     7
370
    15
100
AcDbLine
 10
276.4393662511732
 20
-251.1977832012554
 30
0.0
 11
286.4393662511732
 21
-251.1977832012554
 31
0.0
  0
LINE
  5
355
330
1F
100
AcDbEntity
  8
0
  6
Continuous
 62
     7
370
    15
100
AcDbLine
 10
276.4393662511732
 20
-271.1977832012554
 30
0.0
 11
276.4393662511732
 21
-251.1977832012554
 31
0.0
  0
LINE
  5
356
330
1F
100
AcDbEntity
  8
0
  6
Continuous
 62
     7
370
    15
100
AcDbLine
 10
286.4393662511732
 20
-271.1977832012554
 30
0.0
 11
276.4393662511732
 21
-271.1977832012554
 31
0.0
  0
LINE
  5
357
330
1F
100
AcDbEntity
  8
0
  6
Continuous
 62
     7
370
    15
100
AcDbLine
 10
256.4393662511732
 20
-251.1977832012551
 30
0.0
 11
256.4393662511732
 21
-271.1977832012551
 31
0.0
  0
LINE
  5
358
330
1F
100
AcDbEntity
  8
0
  6
Continuous
 62
     7
370
    15
100
AcDbLine
 10
246.4393662511731
 20
-251.1977832012551
 30
0.0
 11
256.4393662511732
 21
-251.1977832012551
 31
0.0
  0
LINE
  5
359
330
1F
100
AcDbEntity
  8
0
  6
Continuous
 62
     7
370
    15
100
AcDbLine
 10
246.4393662511731
 20
-271.1977832012551
 30
0.0
 11
246.4393662511731
 21
-251.1977832012551
 31
0.0
  0
LINE
  5
35A
330
1F
100
AcDbEntity
  8
0
  6
Continuous
 62
     7
370
    15
100
AcDbLine
 10
256.4393662511732
 20
-271.1977832012551
 30
0.0
 11
246.4393662511731
 21
-271.1977832012551
 31
0.0
  0
LINE
  5
35B
330
1F
100
AcDbEntity
  8
0
  6
Continuous
 62
     7
370
    15
100
AcDbLine
 10
226.4393662511732
 20
-251.1977832012548
 30
0.0
 11
226.4393662511732
 21
-271.1977832012548
 31
0.0
  0
LINE
  5
35C
330
1F
100
AcDbEntity
  8
0
  6
Continuous
 62
     7
370
    15
100
AcDbLine
 10
216.4393662511732
 20
-251.1977832012548
 30
0.0
 11
226.4393662511732
 21
-251.1977832012548
 31
0.0
  0
LINE
  5
35D
330
1F
100
AcDbEntity
  8
0
  6
Continuous
 62
     7
370
    15
100
AcDbLine
 10
216.4393662511732
 20
-271.1977832012548
 30
0.0
 11
216.4393662511732
 21
-251.1977832012548
 31
0.0
  0
LINE
  5
35E
330
1F
100
AcDbEntity
  8
0
  6
Continuous
 62
     7
370
    15
100
AcDbLine
 10
226.4393662511732
 20
-271.1977832012548
 30
0.0
 11
216.4393662511732
 21
-271.1977832012548
 31
0.0
  0
LINE
  5
35F
330
1F
100
AcDbEntity
  8
0
  6
Continuous
 62
     7
370
    15
100
AcDbLine
 10
196.4393662511732
 20
-251.1977832012544
 30
0.0
 11
196.4393662511732
 21
-271.1977832012545
 31
0.0
  0
LINE
  5
360
330
1F
100
AcDbEntity
  8
0
  6
Continuous
 62
     7
370
    15
100
AcDbLine
 10
186.4393662511732
 20
-251.1977832012544
 30
0.0
 11
196.4393662511732
 21
-251.1977832012544
 31
0.0
  0
LINE
  5
361
330
1F
100
AcDbEntity
  8
0
  6
Continuous
 62
     7
370
    15
100
AcDbLine
 10
186.4393662511732
 20
-271.1977832012545
 30
0.0
 11
186.4393662511732
 21
-251.1977832012544
 31
0.0
  0
LINE
  5
362
330
1F
100
AcDbEntity
  8
0
  6
Continuous
 62
     7
370
    15
100
AcDbLine
 10
196.4393662511732
 20
-271.1977832012545
 30
0.0
 11
186.4393662511732
 21
-271.1977832012545
 31
0.0
  0
LINE
  5
363
330
1F
100
AcDbEntity
  8
0
  6
Continuous
 62
     7
370
    15
100
AcDbLine
 10
166.4393662511731
 20
-251.1977832012541
 30
0.0
 11
166.4393662511731
 21
-271.1977832012542
 31
0.0
  0
LINE
  5
364
330
1F
100
AcDbEntity
  8
0
  6
Continuous
 62
     7
370
    15
100
AcDbLine
 10
156.4393662511731
 20
-251.1977832012541
 30
0.0
 11
166.4393662511731
 21
-251.1977832012541
 31
0.0
  0
LINE
  5
365
330
1F
100
AcDbEntity
  8
0
  6
Continuous
 62
     7
370
    15
100
AcDbLine
 10
156.4393662511731
 20
-271.1977832012542
 30
0.0
 11
156.4393662511731
 21
-251.1977832012541
 31
0.0
  0
LINE
  5
366
330
1F
100
AcDbEntity
  8
0
  6
Continuous
 62
     7
370
    15
100
AcDbLine
 10
166.4393662511731
 20
-271.1977832012542
 30
0.0
 11
156.4393662511731
 21
-271.1977832012542
 31
0.0
  0
LINE
  5
367
330
1F
100
AcDbEntity
  8
0
  6
Continuous
 62
     7
370
    15
100
AcDbLine
 10
136.4393662511731
 20
-251.1977832012539
 30
0.0
 11
136.4393662511731
 21
-271.1977832012538
 31
0.0
  0
LINE
  5
368
330
1F
100
AcDbEntity
  8
0
  6
Continuous
 62
     7
370
    15
100
AcDbLine
 10
126.4393662511732
 20
-251.1977832012539
 30
0.0
 11
136.4393662511731
 21
-251.1977832012539
 31
0.0
  0
LINE
  5
369
330
1F
100
AcDbEntity
  8
0
  6
Continuous
 62
     7
370
    15
100
AcDbLine
 10
126.4393662511732
 20
-271.1977832012538
 30
0.0
 11
126.4393662511732
 21
-251.1977832012539
 31
0.0
  0
LINE
  5
36A
330
1F
100
AcDbEntity
  8
0
  6
Continuous
 62
     7
370
    15
100
AcDbLine
 10
136.4393662511731
 20
-271.1977832012538
 30
0.0
 11
126.4393662511732
 21
-271.1977832012538
 31
0.0
  0
LINE
  5
36B
330
1F
100
AcDbEntity
  8
0
  6
Continuous
 62
     7
370
    15
100
AcDbLine
 10
106.4393662511731
 20
-251.1977832012535
 30
0.0
 11
106.4393662511731
 21
-271.1977832012535
 31
0.0
  0
LINE
  5
36C
330
1F
100
AcDbEntity
  8
0
  6
Continuous
 62
     7
370
    15
100
AcDbLine
 10
96.43936625117317
 20
-251.1977832012535
 30
0.0
 11
106.4393662511731
 21
-251.1977832012535
 31
0.0
  0
LINE
  5
36D
330
1F
100
AcDbEntity
  8
0
  6
Continuous
 62
     7
370
    15
100
AcDbLine
 10
96.43936625117317
 20
-271.1977832012535
 30
0.0
 11
96.43936625117317
 21
-251.1977832012535
 31
0.0
  0
LINE
  5
36E
330
1F
100
AcDbEntity
  8
0
  6
Continuous
 62
     7
370
    15
100
AcDbLine
 10
106.4393662511731
 20
-271.1977832012535
 30
0.0
 11
96.43936625117317
 21
-271.1977832012535
 31
0.0
  0
LINE
  5
36F
330
1F
100
AcDbEntity
  8
0
  6
Continuous
 62
     7
370
    15
100
AcDbLine
 10
76.43936625117314
 20
-251.1977832012532
 30
0.0
 11
76.43936625117319
 21
-271.1977832012532
 31
0.0
  0
LINE
  5
370
330
1F
100
AcDbEntity
  8
0
  6
Continuous
 62
     7
370
    15
100
AcDbLine
 10
66.43936625117319
 20
-251.1977832012532
 30
0.0
 11
76.43936625117314
 21
-251.1977832012532
 31
0.0
  0
LINE
  5
371
330
1F
100
AcDbEntity
  8
0
  6
Continuous
 62
     7
370
    15
100
AcDbLine
 10
66.43936625117319
 20
-271.1977832012532
 30
0.0
 11
66.43936625117319
 21
-251.1977832012532
 31
0.0
  0
LINE
  5
372
330
1F
100
AcDbEntity
  8
0
  6
Continuous
 62
     7
370
    15
100
AcDbLine
 10
76.43936625117319
 20
-271.1977832012532
 30
0.0
 11
66.43936625117319
 21
-271.1977832012532
 31
0.0
  0
LINE
  5
373
330
1F
100
AcDbEntity
  8
0
  6
Continuous
 62
     7
370
    15
100
AcDbLine
 10
46.43936625117311
 20
-251.1977832012529
 30
0.0
 11
46.43936625117317
 21
-271.1977832012528
 31
0.0
  0
LINE
  5
374
330
1F
100
AcDbEntity
  8
0
  6
Continuous
 62
     7
370
    15
100
AcDbLine
 10
36.43936625117317
 20
-251.1977832012529
 30
0.0
 11
46.43936625117311
 21
-251.1977832012529
 31
0.0
  0
LINE
  5
375
330
1F
100
AcDbEntity
  8
0
  6
Continuous
 62
     7
370
    15
100
AcDbLine
 10
36.43936625117317
 20
-271.1977832012528
 30
0.0
 11
36.43936625117317
 21
-251.1977832012529
 31
0.0
  0
LINE
  5
376
330
1F
100
AcDbEntity
  8
0
  6
Continuous
 62
     7
370
    15
100
AcDbLine
 10
46.43936625117317
 20
-271.1977832012528
 30
0.0
 11
36.43936625117317
 21
-271.1977832012528
 31
0.0
  0
LINE
  5
377
330
1F
100
AcDbEntity
  8
0
  6
Continuous
 62
     7
370
    15
100
AcDbLine
 10
16.43936625117319
 20
-251.1977832012526
 30
0.0
 11
16.43936625117319
 21
-271.1977832012526
 31
0.0
  0
LINE
  5
378
330
1F
100
AcDbEntity
  8
0
  6
Continuous
 62
     7
370
    15
100
AcDbLine
 10
6.439366251173197
 20
-251.1977832012526
 30
0.0
 11
16.43936625117319
 21
-251.1977832012526
 31
0.0
  0
LINE
  5
379
330
1F
100
AcDbEntity
  8
0
  6
Continuous
 62
     7
370
    15
100
AcDbLine
 10
6.439366251173197
 20
-271.1977832012526
 30
0.0
 11
6.439366251173197
 21
-251.1977832012526
 31
0.0
  0
LINE
  5
37A
330
1F
100
AcDbEntity
  8
0
  6
Continuous
 62
     7
370
    15
100
AcDbLine
 10
16.43936625117319
 20
-271.1977832012526
 30
0.0
 11
6.439366251173197
 21
-271.1977832012526
 31
0.0
  0
LINE
  5
37B
330
1F
100
AcDbEntity
  8
0
  6
Continuous
 62
     7
370
    15
100
AcDbLine
 10
-13.56063374882683
 20
-251.1977832012522
 30
0.0
 11
-13.56063374882677
 21
-271.1977832012522
 31
0.0
  0
LINE
  5
37C
330
1F
100
AcDbEntity
  8
0
  6
Continuous
 62
     7
370
    15
100
AcDbLine
 10
-23.56063374882678
 20
-251.1977832012522
 30
0.0
 11
-13.56063374882683
 21
-251.1977832012522
 31
0.0
  0
LINE
  5
37D
330
1F
100
AcDbEntity
  8
0
  6
Continuous
 62
     7
370
    15
100
AcDbLine
 10
-23.56063374882678
 20
-271.1977832012522
 30
0.0
 11
-23.56063374882678
 21
-251.1977832012522
 31
0.0
  0
LINE
  5
37E
330
1F
100
AcDbEntity
  8
0
  6
Continuous
 62
     7
370
    15
100
AcDbLine
 10
-13.56063374882677
 20
-271.1977832012522
 30
0.0
 11
-23.56063374882678
 21
-271.1977832012522
 31
0.0
  0
LINE
  5
37F
330
1F
100
AcDbEntity
  8
0
  6
Continuous
 62
     7
370
    15
100
AcDbLine
 10
-43.56063374882686
 20
-251.197783201252
 30
0.0
 11
-43.5606337488268
 21
-271.1977832012519
 31
0.0
  0
LINE
  5
380
330
1F
100
AcDbEntity
  8
0
  6
Continuous
 62
     7
370
    15
100
AcDbLine
 10
-53.5606337488268
 20
-251.197783201252
 30
0.0
 11
-43.56063374882686
 21
-251.197783201252
 31
0.0
  0
LINE
  5
381
330
1F
100
AcDbEntity
  8
0
  6
Continuous
 62
     7
370
    15
100
AcDbLine
 10
-53.5606337488268
 20
-271.1977832012519
 30
0.0
 11
-53.5606337488268
 21
-251.197783201252
 31
0.0
  0
LINE
  5
382
330
1F
100
AcDbEntity
  8
0
  6
Continuous
 62
     7
370
    15
100
AcDbLine
 10
-43.5606337488268
 20
-271.1977832012519
 30
0.0
 11
-53.5606337488268
 21
-271.1977832012519
 31
0.0
  0
LINE
  5
383
330
1F
100
AcDbEntity
  8
0
  6
Continuous
 62
     7
370
    15
100
AcDbLine
 10
-73.56063374882689
 20
-251.1977832012517
 30
0.0
 11
-73.56063374882683
 21
-271.1977832012516
 31
0.0
  0
LINE
  5
384
330
1F
100
AcDbEntity
  8
0
  6
Continuous
 62
     7
370
    15
100
AcDbLine
 10
-83.56063374882683
 20
-251.1977832012517
 30
0.0
 11
-73.56063374882689
 21
-251.1977832012517
 31
0.0
  0
LINE
  5
385
330
1F
100
AcDbEntity
  8
0
  6
Continuous
 62
     7
370
    15
100
AcDbLine
 10
-83.56063374882683
 20
-271.1977832012516
 30
0.0
 11
-83.56063374882683
 21
-251.1977832012517
 31
0.0
  0
LINE
  5
386
330
1F
100
AcDbEntity
  8
0
  6
Continuous
 62
     7
370
    15
100
AcDbLine
 10
-73.56063374882683
 20
-271.1977832012516
 30
0.0
 11
-83.56063374882683
 21
-271.1977832012516
 31
0.0
  0
LINE
  5
387
330
1F
100
AcDbEntity
  8
0
  6
Continuous
 62
     7
370
    15
100
AcDbLine
 10
-103.5606337488268
 20
-251.1977832012513
 30
0.0
 11
-103.5606337488268
 21
-271.1977832012514
 31
0.0
  0
LINE
  5
388
330
1F
100
AcDbEntity
  8
0
  6
Continuous
 62
     7
370
    15
100
AcDbLine
 10
-113.5606337488268
 20
-251.1977832012513
 30
0.0
 11
-103.5606337488268
 21
-251.1977832012513
 31
0.0
  0
LINE
  5
389
330
1F
100
AcDbEntity
  8
0
  6
Continuous
 62
     7
370
    15
100
AcDbLine
 10
-113.5606337488268
 20
-271.1977832012514
 30
0.0
 11
-113.5606337488268
 21
-251.1977832012513
 31
0.0
  0
LINE
  5
38A
330
1F
100
AcDbEntity
  8
0
  6
Continuous
 62
     7
370
    15
100
AcDbLine
 10
-103.5606337488268
 20
-271.1977832012514
 30
0.0
 11
-113.5606337488268
 21
-271.1977832012514
 31
0.0
  0
LINE
  5
38B
330
1F
100
AcDbEntity
  8
0
  6
Continuous
 62
     7
370
    15
100
AcDbLine
 10
-135.401984239454
 20
-245.7828133936172
 30
0.0
 11
-135.401984239454
 21
-286.3851461276739
 31
0.0
  0
LINE
  5
38C
330
1F
100
AcDbEntity
  8
0
  6
Continuous
 62
     7
370
    15
100
AcDbLine
 10
-135.401984239454
 20
-245.7828133936172
 30
0.0
 11
-38.20912517354088
 21
-245.7828133936172
 31
0.0
  0
LINE
  5
38D
330
1F
100
AcDbEntity
  8
0
  6
Continuous
 62
     7
370
    15
100
AcDbLine
 10
233.7908748264591
 20
-245.7828133936172
 30
0.0
 11
327.5980157605459
 21
-245.7828133936172
 31
0.0
  0
LINE
  5
38E
330
1F
100
AcDbEntity
  8
0
  6
Continuous
 62
     7
370
    15
100
AcDbLine
 10
327.5980157605459
 20
-245.7828133936172
 30
0.0
 11
327.5980157605459
 21
-286.3851461276739
 31
0.0
  0
LINE
  5
38F
330
1F
100
AcDbEntity
  8
0
  6
Continuous
 62
     7
370
    15
100
AcDbLine
 10
-118.5606337488268
 20
-251.1977832012512
 30
0.0
 11
-118.5606337488268
 21
-271.1977832012511
 31
0.0
  0
LINE
  5
390
330
1F
100
AcDbEntity
  8
0
  6
Continuous
 62
     7
370
    15
100
AcDbLine
 10
-128.5606337488268
 20
-251.1977832012512
 30
0.0
 11
-118.5606337488268
 21
-251.1977832012512
 31
0.0
  0
LINE
  5
391
330
1F
100
AcDbEntity
  8
0
  6
Continuous
 62
     7
370
    15
100
AcDbLine
 10
-128.5606337488268
 20
-271.1977832012511
 30
0.0
 11
-128.5606337488268
 21
-251.1977832012512
 31
0.0
  0
LINE
  5
392
330
1F
100
AcDbEntity
  8
0
  6
Continuous
 62
     7
370
    15
100
AcDbLine
 10
-118.5606337488268
 20
-271.1977832012511
 30
0.0
 11
-128.5606337488268
 21
-271.1977832012511
 31
0.0
  0
LINE
  5
393
330
1F
100
AcDbEntity
  8
0
  6
Continuous
 62
     7
370
    15
100
AcDbLine
 10
-88.56063374882678
 20
-251.1977832012515
 30
0.0
 11
-88.56063374882678
 21
-271.1977832012514
 31
0.0
  0
LINE
  5
394
330
1F
100
AcDbEntity
  8
0
  6
Continuous
 62
     7
370
    15
100
AcDbLine
 10
-98.5606337488268
 20
-251.1977832012515
 30
0.0
 11
-88.56063374882678
 21
-251.1977832012515
 31
0.0
  0
LINE
  5
395
330
1F
100
AcDbEntity
  8
0
  6
Continuous
 62
     7
370
    15
100
AcDbLine
 10
-98.5606337488268
 20
-271.1977832012514
 30
0.0
 11
-98.5606337488268
 21
-251.1977832012515
 31
0.0
  0
LINE
  5
396
330
1F
100
AcDbEntity
  8
0
  6
Continuous
 62
     7
370
    15
100
AcDbLine
 10
-88.56063374882678
 20
-271.1977832012514
 30
0.0
 11
-98.5606337488268
 21
-271.1977832012514
 31
0.0
  0
LINE
  5
397
330
1F
100
AcDbEntity
  8
0
  6
Continuous
 62
     7
370
    15
100
AcDbLine
 10
-58.56063374882687
 20
-251.1977832012518
 30
0.0
 11
-58.56063374882682
 21
-271.1977832012518
 31
0.0
  0
LINE
  5
398
330
1F
100
AcDbEntity
  8
0
  6
Continuous
 62
     7
370
    15
100
AcDbLine
 10
-68.56063374882682
 20
-251.1977832012518
 30
0.0
 11
-58.56063374882687
 21
-251.1977832012518
 31
0.0
  0
LINE
  5
399
330
1F
100
AcDbEntity
  8
0
  6
Continuous
 62
     7
370
    15
100
AcDbLine
 10
-68.56063374882682
 20
-271.1977832012518
 30
0.0
 11
-68.56063374882682
 21
-251.1977832012518
 31
0.0
  0
LINE
  5
39A
330
1F
100
AcDbEntity
  8
0
  6
Continuous
 62
     7
370
    15
100
AcDbLine
 10
-58.56063374882682
 20
-271.1977832012518
 30
0.0
 11
-68.56063374882682
 21
-271.1977832012518
 31
0.0
  0
LINE
  5
39B
330
1F
100
AcDbEntity
  8
0
  6
Continuous
 62
     7
370
    15
100
AcDbLine
 10
-28.56063374882683
 20
-251.1977832012521
 30
0.0
 11
-28.56063374882678
 21
-271.1977832012521
 31
0.0
  0
LINE
  5
39C
330
1F
100
AcDbEntity
  8
0
  6
Continuous
 62
     7
370
    15
100
AcDbLine
 10
-38.5606337488268
 20
-251.1977832012521
 30
0.0
 11
-36.20912517354091
 21
-251.1977832012521
 31
0.0
  0
LINE
  5
39D
330
1F
100
AcDbEntity
  8
0
  6
Continuous
 62
     7
370
    15
100
AcDbLine
 10
-34.20912517354091
 20
-251.1977832012521
 30
0.0
 11
-28.56063374882683
 21
-251.1977832012521
 31
0.0
  0
LINE
  5
39E
330
1F
100
AcDbEntity
  8
0
  6
Continuous
 62
     7
370
    15
100
AcDbLine
 10
-38.5606337488268
 20
-271.1977832012521
 30
0.0
 11
-38.5606337488268
 21
-251.1977832012521
 31
0.0
  0
LINE
  5
39F
330
1F
100
AcDbEntity
  8
0
  6
Continuous
 62
     7
370
    15
100
AcDbLine
 10
-28.56063374882678
 20
-271.1977832012521
 30
0.0
 11
-34.20912517354091
 21
-271.1977832012521
 31
0.0
  0
LINE
  5
3A0
330
1F
100
AcDbEntity
  8
0
  6
Continuous
 62
     7
370
    15
100
AcDbLine
 10
-36.20912517354091
 20
-271.1977832012521
 30
0.0
 11
-38.5606337488268
 21
-271.1977832012521
 31
0.0
  0
LINE
  5
3A1
330
1F
100
AcDbEntity
  8
0
  6
Continuous
 62
     7
370
    15
100
AcDbLine
 10
1.439366251173197
 20
-251.1977832012524
 30
0.0
 11
1.439366251173197
 21
-271.1977832012524
 31
0.0
  0
LINE
  5
3A2
330
1F
100
AcDbEntity
  8
0
  6
Continuous
 62
     7
370
    15
100
AcDbLine
 10
-8.56063374882683
 20
-251.1977832012524
 30
0.0
 11
1.439366251173197
 21
-251.1977832012524
 31
0.0
  0
LINE
  5
3A3
330
1F
100
AcDbEntity
  8
0
  6
Continuous
 62
     7
370
    15
100
AcDbLine
 10
-8.56063374882683
 20
-271.1977832012524
 30
0.0
 11
-8.56063374882683
 21
-251.1977832012524
 31
0.0
  0
LINE
  5
3A4
330
1F
100
AcDbEntity
  8
0
  6
Continuous
 62
     7
370
    15
100
AcDbLine
 10
1.439366251173197
 20
-271.1977832012524
 30
0.0
 11
-8.56063374882683
 21
-271.1977832012524
 31
0.0
  0
LINE
  5
3A5
330
1F
100
AcDbEntity
  8
0
  6
Continuous
 62
     7
370
    15
100
AcDbLine
 10
31.43936625117323
 20
-251.1977832012528
 30
0.0
 11
31.43936625117323
 21
-271.1977832012527
 31
0.0
  0
LINE
  5
3A6
330
1F
100
AcDbEntity
  8
0
  6
Continuous
 62
     7
370
    15
100
AcDbLine
 10
21.4393662511732
 20
-251.1977832012528
 30
0.0
 11
31.43936625117323
 21
-251.1977832012528
 31
0.0
  0
LINE
  5
3A7
330
1F
100
AcDbEntity
  8
0
  6
Continuous
 62
     7
370
    15
100
AcDbLine
 10
21.4393662511732
 20
-271.1977832012527
 30
0.0
 11
21.4393662511732
 21
-251.1977832012528
 31
0.0
  0
LINE
  5
3A8
330
1F
100
AcDbEntity
  8
0
  6
Continuous
 62
     7
370
    15
100
AcDbLine
 10
31.43936625117323
 20
-271.1977832012527
 30
0.0
 11
21.4393662511732
 21
-271.1977832012527
 31
0.0
  0
LINE
  5
3A9
330
1F
100
AcDbEntity
  8
0
  6
Continuous
 62
     7
370
    15
100
AcDbLine
 10
61.43936625117314
 20
-251.1977832012531
 30
0.0
 11
61.43936625117317
 21
-271.197783201253
 31
0.0
  0
LINE
  5
3AA
330
1F
100
AcDbEntity
  8
0
  6
Continuous
 62
     7
370
    15
100
AcDbLine
 10
51.43936625117317
 20
-251.1977832012531
 30
0.0
 11
61.43936625117314
 21
-251.1977832012531
 31
0.0
  0
LINE
  5
3AB
330
1F
100
AcDbEntity
  8
0
  6
Continuous
 62
     7
370
    15
100
AcDbLine
 10
51.43936625117317
 20
-271.197783201253
 30
0.0
 11
51.43936625117317
 21
-251.1977832012531
 31
0.0
  0
LINE
  5
3AC
330
1F
100
AcDbEntity
  8
0
  6
Continuous
 62
     7
370
    15
100
AcDbLine
 10
61.43936625117317
 20
-271.197783201253
 30
0.0
 11
51.43936625117317
 21
-271.197783201253
 31
0.0
  0
LINE
  5
3AD
330
1F
100
AcDbEntity
  8
0
  6
Continuous
 62
     7
370
    15
100
AcDbLine
 10
91.43936625117323
 20
-251.1977832012533
 30
0.0
 11
91.43936625117323
 21
-271.1977832012534
 31
0.0
  0
LINE
  5
3AE
330
1F
100
AcDbEntity
  8
0
  6
Continuous
 62
     7
370
    15
100
AcDbLine
 10
81.43936625117319
 20
-251.1977832012533
 30
0.0
 11
91.43936625117323
 21
-251.1977832012533
 31
0.0
  0
LINE
  5
3AF
330
1F
100
AcDbEntity
  8
0
  6
Continuous
 62
     7
370
    15
100
AcDbLine
 10
81.43936625117319
 20
-271.1977832012534
 30
0.0
 11
81.43936625117319
 21
-251.1977832012533
 31
0.0
  0
LINE
  5
3B0
330
1F
100
AcDbEntity
  8
0
  6
Continuous
 62
     7
370
    15
100
AcDbLine
 10
91.43936625117323
 20
-271.1977832012534
 30
0.0
 11
81.43936625117319
 21
-271.1977832012534
 31
0.0
  0
LINE
  5
3B1
330
1F
100
AcDbEntity
  8
0
  6
Continuous
 62
     7
370
    15
100
AcDbLine
 10
121.4393662511731
 20
-251.1977832012537
 30
0.0
 11
121.4393662511731
 21
-271.1977832012538
 31
0.0
  0
LINE
  5
3B2
330
1F
100
AcDbEntity
  8
0
  6
Continuous
 62
     7
370
    15
100
AcDbLine
 10
111.4393662511731
 20
-251.1977832012537
 30
0.0
 11
121.4393662511731
 21
-251.1977832012537
 31
0.0
  0
LINE
  5
3B3
330
1F
100
AcDbEntity
  8
0
  6
Continuous
 62
     7
370
    15
100
AcDbLine
 10
111.4393662511731
 20
-271.1977832012538
 30
0.0
 11
111.4393662511731
 21
-251.1977832012537
 31
0.0
  0
LINE
  5
3B4
330
1F
100
AcDbEntity
  8
0
  6
Continuous
 62
     7
370
    15
100
AcDbLine
 10
121.4393662511731
 20
-271.1977832012538
 30
0.0
 11
111.4393662511731
 21
-271.1977832012538
 31
0.0
  0
LINE
  5
3B5
330
1F
100
AcDbEntity
  8
0
  6
Continuous
 62
     7
370
    15
100
AcDbLine
 10
151.4393662511731
 20
-251.197783201254
 30
0.0
 11
151.4393662511731
 21
-271.197783201254
 31
0.0
  0
LINE
  5
3B6
330
1F
100
AcDbEntity
  8
0
  6
Continuous
 62
     7
370
    15
100
AcDbLine
 10
141.4393662511731
 20
-251.197783201254
 30
0.0
 11
151.4393662511731
 21
-251.197783201254
 31
0.0
  0
LINE
  5
3B7
330
1F
100
AcDbEntity
  8
0
  6
Continuous
 62
     7
370
    15
100
AcDbLine
 10
141.4393662511731
 20
-271.197783201254
 30
0.0
 11
141.4393662511731
 21
-251.197783201254
 31
0.0
  0
LINE
  5
3B8
330
1F
100
AcDbEntity
  8
0
  6
Continuous
 62
     7
370
    15
100
AcDbLine
 10
151.4393662511731
 20
-271.197783201254
 30
0.0
 11
141.4393662511731
 21
-271.197783201254
 31
0.0
  0
LINE
  5
3B9
330
1F
100
AcDbEntity
  8
0
  6
Continuous
 62
     7
370
    15
100
AcDbLine
 10
181.4393662511732
 20
-251.1977832012543
 30
0.0
 11
181.4393662511732
 21
-271.1977832012543
 31
0.0
  0
LINE
  5
3BA
330
1F
100
AcDbEntity
  8
0
  6
Continuous
 62
     7
370
    15
100
AcDbLine
 10
171.4393662511731
 20
-251.1977832012543
 30
0.0
 11
181.4393662511732
 21
-251.1977832012543
 31
0.0
  0
LINE
  5
3BB
330
1F
100
AcDbEntity
  8
0
  6
Continuous
 62
     7
370
    15
100
AcDbLine
 10
171.4393662511731
 20
-271.1977832012543
 30
0.0
 11
171.4393662511731
 21
-251.1977832012543
 31
0.0
  0
LINE
  5
3BC
330
1F
100
AcDbEntity
  8
0
  6
Continuous
 62
     7
370
    15
100
AcDbLine
 10
181.4393662511732
 20
-271.1977832012543
 30
0.0
 11
171.4393662511731
 21
-271.1977832012543
 31
0.0
  0
LINE
  5
3BD
330
1F
100
AcDbEntity
  8
0
  6
Continuous
 62
     7
370
    15
100
AcDbLine
 10
211.4393662511732
 20
-251.1977832012546
 30
0.0
 11
211.4393662511732
 21
-271.1977832012546
 31
0.0
  0
LINE
  5
3BE
330
1F
100
AcDbEntity
  8
0
  6
Continuous
 62
     7
370
    15
100
AcDbLine
 10
201.4393662511732
 20
-251.1977832012546
 30
0.0
 11
211.4393662511732
 21
-251.1977832012546
 31
0.0
  0
LINE
  5
3BF
330
1F
100
AcDbEntity
  8
0
  6
Continuous
 62
     7
370
    15
100
AcDbLine
 10
201.4393662511732
 20
-271.1977832012546
 30
0.0
 11
201.4393662511732
 21
-251.1977832012546
 31
0.0
  0
LINE
  5
3C0
330
1F
100
AcDbEntity
  8
0
  6
Continuous
 62
     7
370
    15
100
AcDbLine
 10
211.4393662511732
 20
-271.1977832012546
 30
0.0
 11
201.4393662511732
 21
-271.1977832012546
 31
0.0
  0
LINE
  5
3C1
330
1F
100
AcDbEntity
  8
0
  6
Continuous
 62
     7
370
    15
100
AcDbLine
 10
241.4393662511733
 20
-251.1977832012549
 30
0.0
 11
241.4393662511732
 21
-271.197783201255
 31
0.0
  0
LINE
  5
3C2
330
1F
100
AcDbEntity
  8
0
  6
Continuous
 62
     7
370
    15
100
AcDbLine
 10
231.7908748264591
 20
-251.1977832012549
 30
0.0
 11
241.4393662511733
 21
-251.1977832012549
 31
0.0
  0
LINE
  5
3C3
330
1F
100
AcDbEntity
  8
0
  6
Continuous
 62
     7
370
    15
100
AcDbLine
 10
241.4393662511732
 20
-271.197783201255
 30
0.0
 11
231.7908748264591
 21
-271.197783201255
 31
0.0
  0
LINE
  5
3C4
330
1F
100
AcDbEntity
  8
0
  6
Continuous
 62
     7
370
    15
100
AcDbLine
 10
271.4393662511731
 20
-251.1977832012552
 30
0.0
 11
271.4393662511731
 21
-271.1977832012552
 31
0.0
  0
LINE
  5
3C5
330
1F
100
AcDbEntity
  8
0
  6
Continuous
 62
     7
370
    15
100
AcDbLine
 10
261.4393662511732
 20
-251.1977832012552
 30
0.0
 11
271.4393662511731
 21
-251.1977832012552
 31
0.0
  0
LINE
  5
3C6
330
1F
100
AcDbEntity
  8
0
  6
Continuous
 62
     7
370
    15
100
AcDbLine
 10
261.4393662511732
 20
-271.1977832012552
 30
0.0
 11
261.4393662511732
 21
-251.1977832012552
 31
0.0
  0
LINE
  5
3C7
330
1F
100
AcDbEntity
  8
0
  6
Continuous
 62
     7
370
    15
100
AcDbLine
 10
271.4393662511731
 20
-271.1977832012552
 30
0.0
 11
261.4393662511732
 21
-271.1977832012552
 31
0.0
  0
LINE
  5
3C8
330
1F
100
AcDbEntity
  8
0
  6
Continuous
 62
     7
370
    15
100
AcDbLine
 10
301.4393662511732
 20
-251.1977832012556
 30
0.0
 11
301.4393662511732
 21
-271.1977832012556
 31
0.0
  0
LINE
  5
3C9
330
1F
100
AcDbEntity
  8
0
  6
Continuous
 62
     7
370
    15
100
AcDbLine
 10
291.4393662511732
 20
-251.1977832012556
 30
0.0
 11
301.4393662511732
 21
-251.1977832012556
 31
0.0
  0
LINE
  5
3CA
330
1F
100
AcDbEntity
  8
0
  6
Continuous
 62
     7
370
    15
100
AcDbLine
 10
291.4393662511732
 20
-271.1977832012556
 30
0.0
 11
291.4393662511732
 21
-251.1977832012556
 31
0.0
  0
LINE
  5
3CB
330
1F
100
AcDbEntity
  8
0
  6
Continuous
 62
     7
370
    15
100
AcDbLine
 10
301.4393662511732
 20
-271.1977832012556
 30
0.0
 11
291.4393662511732
 21
-271.1977832012556
 31
0.0
  0
LINE
  5
3CC
330
1F
100
AcDbEntity
  8
0
  6
Continuous
 62
     7
370
    15
100
AcDbLine
 10
327.5980157605459
 20
-286.3851461276739
 30
0.0
 11
327.5980157605459
 21
-315.1804806595604
 31
0.0
  0
LINE
  5
3CD
330
1F
100
AcDbEntity
  8
0
  6
Continuous
 62
     7
370
    15
100
AcDbLine
 10
229.7908748264591
 20
-315.1804806595604
 30
0.0
 11
327.5980157605459
 21
-315.1804806595604
 31
0.0
  0
LINE
  5
3CE
330
1F
100
AcDbEntity
  8
0
  6
Continuous
 62
     7
370
    15
100
AcDbLine
 10
-135.401984239454
 20
-315.1804806595604
 30
0.0
 11
-34.20912517354091
 21
-315.1804806595604
 31
0.0
  0
LINE
  5
3CF
330
1F
100
AcDbEntity
  8
0
  6
Continuous
 62
     7
370
    15
100
AcDbLine
 10
-135.401984239454
 20
-286.3851461276739
 30
0.0
 11
-135.401984239454
 21
-315.1804806595604
 31
0.0
  0
LINE
  5
3D0
330
1F
100
AcDbEntity
  8
0
  6
Continuous
 62
     7
370
    15
100
AcDbLine
 10
306.4393662511732
 20
-351.1977832012557
 30
0.0
 11
316.4393662511732
 21
-351.1977832012557
 31
0.0
  0
LINE
  5
3D1
330
1F
100
AcDbEntity
  8
0
  6
Continuous
 62
     7
370
    15
100
AcDbLine
 10
316.4393662511732
 20
-351.1977832012557
 30
0.0
 11
316.4393662511732
 21
-331.1977832012557
 31
0.0
  0
LINE
  5
3D2
330
1F
100
AcDbEntity
  8
0
  6
Continuous
 62
     7
370
    15
100
AcDbLine
 10
316.4393662511732
 20
-331.1977832012557
 30
0.0
 11
306.4393662511732
 21
-331.1977832012557
 31
0.0
  0
LINE
  5
3D3
330
1F
100
AcDbEntity
  8
0
  6
Continuous
 62
     7
370
    15
100
AcDbLine
 10
306.4393662511732
 20
-331.1977832012557
 30
0.0
 11
306.4393662511732
 21
-351.1977832012557
 31
0.0
  0
LINE
  5
3D4
330
1F
100
AcDbEntity
  8
0
  6
Continuous
 62
     7
370
    15
100
AcDbLine
 10
276.4393662511732
 20
-351.1977832012554
 30
0.0
 11
286.4393662511732
 21
-351.1977832012554
 31
0.0
  0
LINE
  5
3D5
330
1F
100
AcDbEntity
  8
0
  6
Continuous
 62
     7
370
    15
100
AcDbLine
 10
286.4393662511732
 20
-351.1977832012554
 30
0.0
 11
286.4393662511732
 21
-331.1977832012555
 31
0.0
  0
LINE
  5
3D6
330
1F
100
AcDbEntity
  8
0
  6
Continuous
 62
     7
370
    15
100
AcDbLine
 10
286.4393662511732
 20
-331.1977832012555
 30
0.0
 11
276.4393662511732
 21
-331.1977832012555
 31
0.0
  0
LINE
  5
3D7
330
1F
100
AcDbEntity
  8
0
  6
Continuous
 62
     7
370
    15
100
AcDbLine
 10
276.4393662511732
 20
-331.1977832012555
 30
0.0
 11
276.4393662511732
 21
-351.1977832012554
 31
0.0
  0
LINE
  5
3D8
330
1F
100
AcDbEntity
  8
0
  6
Continuous
 62
     7
370
    15
100
AcDbLine
 10
246.4393662511731
 20
-351.1977832012551
 30
0.0
 11
256.4393662511732
 21
-351.1977832012551
 31
0.0
  0
LINE
  5
3D9
330
1F
100
AcDbEntity
  8
0
  6
Continuous
 62
     7
370
    15
100
AcDbLine
 10
256.4393662511732
 20
-351.1977832012551
 30
0.0
 11
256.4393662511732
 21
-331.1977832012551
 31
0.0
  0
LINE
  5
3DA
330
1F
100
AcDbEntity
  8
0
  6
Continuous
 62
     7
370
    15
100
AcDbLine
 10
256.4393662511732
 20
-331.1977832012551
 30
0.0
 11
246.4393662511731
 21
-331.1977832012551
 31
0.0
  0
LINE
  5
3DB
330
1F
100
AcDbEntity
  8
0
  6
Continuous
 62
     7
370
    15
100
AcDbLine
 10
246.4393662511731
 20
-331.1977832012551
 30
0.0
 11
246.4393662511731
 21
-351.1977832012551
 31
0.0
  0
LINE
  5
3DC
330
1F
100
AcDbEntity
  8
0
  6
Continuous
 62
     7
370
    15
100
AcDbLine
 10
216.4393662511732
 20
-351.1977832012548
 30
0.0
 11
226.4393662511732
 21
-351.1977832012548
 31
0.0
  0
LINE
  5
3DD
330
1F
100
AcDbEntity
  8
0
  6
Continuous
 62
     7
370
    15
100
AcDbLine
 10
226.4393662511732
 20
-351.1977832012548
 30
0.0
 11
226.4393662511732
 21
-331.1977832012548
 31
0.0
  0
LINE
  5
3DE
330
1F
100
AcDbEntity
  8
0
  6
Continuous
 62
     7
370
    15
100
AcDbLine
 10
226.4393662511732
 20
-331.1977832012548
 30
0.0
 11
216.4393662511732
 21
-331.1977832012548
 31
0.0
  0
LINE
  5
3DF
330
1F
100
AcDbEntity
  8
0
  6
Continuous
 62
     7
370
    15
100
AcDbLine
 10
216.4393662511732
 20
-331.1977832012548
 30
0.0
 11
216.4393662511732
 21
-351.1977832012548
 31
0.0
  0
LINE
  5
3E0
330
1F
100
AcDbEntity
  8
0
  6
Continuous
 62
     7
370
    15
100
AcDbLine
 10
186.4393662511732
 20
-351.1977832012544
 30
0.0
 11
196.4393662511732
 21
-351.1977832012544
 31
0.0
  0
LINE
  5
3E1
330
1F
100
AcDbEntity
  8
0
  6
Continuous
 62
     7
370
    15
100
AcDbLine
 10
196.4393662511732
 20
-351.1977832012544
 30
0.0
 11
196.4393662511732
 21
-331.1977832012544
 31
0.0
  0
LINE
  5
3E2
330
1F
100
AcDbEntity
  8
0
  6
Continuous
 62
     7
370
    15
100
AcDbLine
 10
196.4393662511732
 20
-331.1977832012544
 30
0.0
 11
186.4393662511732
 21
-331.1977832012544
 31
0.0
  0
LINE
  5
3E3
330
1F
100
AcDbEntity
  8
0
  6
Continuous
 62
     7
370
    15
100
AcDbLine
 10
186.4393662511732
 20
-331.1977832012544
 30
0.0
 11
186.4393662511732
 21
-351.1977832012544
 31
0.0
  0
LINE
  5
3E4
330
1F
100
AcDbEntity
  8
0
  6
Continuous
 62
     7
370
    15
100
AcDbLine
 10
156.4393662511731
 20
-351.1977832012541
 30
0.0
 11
166.4393662511731
 21
-351.1977832012541
 31
0.0
  0
LINE
  5
3E5
330
1F
100
AcDbEntity
  8
0
  6
Continuous
 62
     7
370
    15
100
AcDbLine
 10
166.4393662511731
 20
-351.1977832012541
 30
0.0
 11
166.4393662511731
 21
-331.1977832012541
 31
0.0
  0
LINE
  5
3E6
330
1F
100
AcDbEntity
  8
0
  6
Continuous
 62
     7
370
    15
100
AcDbLine
 10
166.4393662511731
 20
-331.1977832012541
 30
0.0
 11
156.4393662511731
 21
-331.1977832012541
 31
0.0
  0
LINE
  5
3E7
330
1F
100
AcDbEntity
  8
0
  6
Continuous
 62
     7
370
    15
100
AcDbLine
 10
156.4393662511731
 20
-331.1977832012541
 30
0.0
 11
156.4393662511731
 21
-351.1977832012541
 31
0.0
  0
LINE
  5
3E8
330
1F
100
AcDbEntity
  8
0
  6
Continuous
 62
     7
370
    15
100
AcDbLine
 10
126.4393662511732
 20
-351.1977832012539
 30
0.0
 11
136.4393662511731
 21
-351.1977832012539
 31
0.0
  0
LINE
  5
3E9
330
1F
100
AcDbEntity
  8
0
  6
Continuous
 62
     7
370
    15
100
AcDbLine
 10
136.4393662511731
 20
-351.1977832012539
 30
0.0
 11
136.4393662511731
 21
-331.1977832012538
 31
0.0
  0
LINE
  5
3EA
330
1F
100
AcDbEntity
  8
0
  6
Continuous
 62
     7
370
    15
100
AcDbLine
 10
136.4393662511731
 20
-331.1977832012538
 30
0.0
 11
126.4393662511732
 21
-331.1977832012538
 31
0.0
  0
LINE
  5
3EB
330
1F
100
AcDbEntity
  8
0
  6
Continuous
 62
     7
370
    15
100
AcDbLine
 10
126.4393662511732
 20
-331.1977832012538
 30
0.0
 11
126.4393662511732
 21
-351.1977832012539
 31
0.0
  0
LINE
  5
3EC
330
1F
100
AcDbEntity
  8
0
  6
Continuous
 62
     7
370
    15
100
AcDbLine
 10
96.43936625117317
 20
-351.1977832012535
 30
0.0
 11
106.4393662511731
 21
-351.1977832012535
 31
0.0
  0
LINE
  5
3ED
330
1F
100
AcDbEntity
  8
0
  6
Continuous
 62
     7
370
    15
100
AcDbLine
 10
106.4393662511731
 20
-351.1977832012535
 30
0.0
 11
106.4393662511731
 21
-331.1977832012535
 31
0.0
  0
LINE
  5
3EE
330
1F
100
AcDbEntity
  8
0
  6
Continuous
 62
     7
370
    15
100
AcDbLine
 10
106.4393662511731
 20
-331.1977832012535
 30
0.0
 11
96.43936625117317
 21
-331.1977832012535
 31
0.0
  0
LINE
  5
3EF
330
1F
100
AcDbEntity
  8
0
  6
Continuous
 62
     7
370
    15
100
AcDbLine
 10
96.43936625117317
 20
-331.1977832012535
 30
0.0
 11
96.43936625117317
 21
-351.1977832012535
 31
0.0
  0
LINE
  5
3F0
330
1F
100
AcDbEntity
  8
0
  6
Continuous
 62
     7
370
    15
100
AcDbLine
 10
66.43936625117319
 20
-351.1977832012532
 30
0.0
 11
76.43936625117319
 21
-351.1977832012532
 31
0.0
  0
LINE
  5
3F1
330
1F
100
AcDbEntity
  8
0
  6
Continuous
 62
     7
370
    15
100
AcDbLine
 10
76.43936625117319
 20
-351.1977832012532
 30
0.0
 11
76.43936625117314
 21
-331.1977832012532
 31
0.0
  0
LINE
  5
3F2
330
1F
100
AcDbEntity
  8
0
  6
Continuous
 62
     7
370
    15
100
AcDbLine
 10
76.43936625117314
 20
-331.1977832012532
 30
0.0
 11
66.43936625117319
 21
-331.1977832012532
 31
0.0
  0
LINE
  5
3F3
330
1F
100
AcDbEntity
  8
0
  6
Continuous
 62
     7
370
    15
100
AcDbLine
 10
66.43936625117319
 20
-331.1977832012532
 30
0.0
 11
66.43936625117319
 21
-351.1977832012532
 31
0.0
  0
LINE
  5
3F4
330
1F
100
AcDbEntity
  8
0
  6
Continuous
 62
     7
370
    15
100
AcDbLine
 10
36.43936625117317
 20
-351.1977832012529
 30
0.0
 11
46.43936625117317
 21
-351.1977832012529
 31
0.0
  0
LINE
  5
3F5
330
1F
100
AcDbEntity
  8
0
  6
Continuous
 62
     7
370
    15
100
AcDbLine
 10
46.43936625117317
 20
-351.1977832012529
 30
0.0
 11
46.43936625117311
 21
-331.1977832012529
 31
0.0
  0
LINE
  5
3F6
330
1F
100
AcDbEntity
  8
0
  6
Continuous
 62
     7
370
    15
100
AcDbLine
 10
46.43936625117311
 20
-331.1977832012529
 30
0.0
 11
36.43936625117317
 21
-331.1977832012529
 31
0.0
  0
LINE
  5
3F7
330
1F
100
AcDbEntity
  8
0
  6
Continuous
 62
     7
370
    15
100
AcDbLine
 10
36.43936625117317
 20
-331.1977832012529
 30
0.0
 11
36.43936625117317
 21
-351.1977832012529
 31
0.0
  0
LINE
  5
3F8
330
1F
100
AcDbEntity
  8
0
  6
Continuous
 62
     7
370
    15
100
AcDbLine
 10
6.439366251173197
 20
-351.1977832012525
 30
0.0
 11
16.43936625117319
 21
-351.1977832012525
 31
0.0
  0
LINE
  5
3F9
330
1F
100
AcDbEntity
  8
0
  6
Continuous
 62
     7
370
    15
100
AcDbLine
 10
16.43936625117319
 20
-351.1977832012525
 30
0.0
 11
16.43936625117319
 21
-331.1977832012526
 31
0.0
  0
LINE
  5
3FA
330
1F
100
AcDbEntity
  8
0
  6
Continuous
 62
     7
370
    15
100
AcDbLine
 10
16.43936625117319
 20
-331.1977832012526
 30
0.0
 11
6.439366251173197
 21
-331.1977832012526
 31
0.0
  0
LINE
  5
3FB
330
1F
100
AcDbEntity
  8
0
  6
Continuous
 62
     7
370
    15
100
AcDbLine
 10
6.439366251173197
 20
-331.1977832012526
 30
0.0
 11
6.439366251173197
 21
-351.1977832012525
 31
0.0
  0
LINE
  5
3FC
330
1F
100
AcDbEntity
  8
0
  6
Continuous
 62
     7
370
    15
100
AcDbLine
 10
-23.56063374882678
 20
-351.1977832012523
 30
0.0
 11
-13.56063374882677
 21
-351.1977832012523
 31
0.0
  0
LINE
  5
3FD
330
1F
100
AcDbEntity
  8
0
  6
Continuous
 62
     7
370
    15
100
AcDbLine
 10
-13.56063374882677
 20
-351.1977832012523
 30
0.0
 11
-13.56063374882683
 21
-331.1977832012523
 31
0.0
  0
LINE
  5
3FE
330
1F
100
AcDbEntity
  8
0
  6
Continuous
 62
     7
370
    15
100
AcDbLine
 10
-13.56063374882683
 20
-331.1977832012523
 30
0.0
 11
-23.56063374882678
 21
-331.1977832012523
 31
0.0
  0
LINE
  5
3FF
330
1F
100
AcDbEntity
  8
0
  6
Continuous
 62
     7
370
    15
100
AcDbLine
 10
-23.56063374882678
 20
-331.1977832012523
 30
0.0
 11
-23.56063374882678
 21
-351.1977832012523
 31
0.0
  0
LINE
  5
400
330
1F
100
AcDbEntity
  8
0
  6
Continuous
 62
     7
370
    15
100
AcDbLine
 10
-53.5606337488268
 20
-351.1977832012519
 30
0.0
 11
-43.5606337488268
 21
-351.1977832012519
 31
0.0
  0
LINE
  5
401
330
1F
100
AcDbEntity
  8
0
  6
Continuous
 62
     7
370
    15
100
AcDbLine
 10
-43.5606337488268
 20
-351.1977832012519
 30
0.0
 11
-43.56063374882686
 21
-331.1977832012519
 31
0.0
  0
LINE
  5
402
330
1F
100
AcDbEntity
  8
0
  6
Continuous
 62
     7
370
    15
100
AcDbLine
 10
-43.56063374882686
 20
-331.1977832012519
 30
0.0
 11
-53.5606337488268
 21
-331.1977832012519
 31
0.0
  0
LINE
  5
403
330
1F
100
AcDbEntity
  8
0
  6
Continuous
 62
     7
370
    15
100
AcDbLine
 10
-53.5606337488268
 20
-331.1977832012519
 30
0.0
 11
-53.5606337488268
 21
-351.1977832012519
 31
0.0
  0
LINE
  5
404
330
1F
100
AcDbEntity
  8
0
  6
Continuous
 62
     7
370
    15
100
AcDbLine
 10
-83.56063374882683
 20
-351.1977832012517
 30
0.0
 11
-73.56063374882683
 21
-351.1977832012517
 31
0.0
  0
LINE
  5
405
330
1F
100
AcDbEntity
  8
0
  6
Continuous
 62
     7
370
    15
100
AcDbLine
 10
-73.56063374882683
 20
-351.1977832012517
 30
0.0
 11
-73.56063374882689
 21
-331.1977832012516
 31
0.0
  0
LINE
  5
406
330
1F
100
AcDbEntity
  8
0
  6
Continuous
 62
     7
370
    15
100
AcDbLine
 10
-73.56063374882689
 20
-331.1977832012516
 30
0.0
 11
-83.56063374882683
 21
-331.1977832012516
 31
0.0
  0
LINE
  5
407
330
1F
100
AcDbEntity
  8
0
  6
Continuous
 62
     7
370
    15
100
AcDbLine
 10
-83.56063374882683
 20
-331.1977832012516
 30
0.0
 11
-83.56063374882683
 21
-351.1977832012517
 31
0.0
  0
LINE
  5
408
330
1F
100
AcDbEntity
  8
0
  6
Continuous
 62
     7
370
    15
100
AcDbLine
 10
-113.5606337488268
 20
-351.1977832012513
 30
0.0
 11
-103.5606337488268
 21
-351.1977832012513
 31
0.0
  0
LINE
  5
409
330
1F
100
AcDbEntity
  8
0
  6
Continuous
 62
     7
370
    15
100
AcDbLine
 10
-103.5606337488268
 20
-351.1977832012513
 30
0.0
 11
-103.5606337488268
 21
-331.1977832012513
 31
0.0
  0
LINE
  5
40A
330
1F
100
AcDbEntity
  8
0
  6
Continuous
 62
     7
370
    15
100
AcDbLine
 10
-103.5606337488268
 20
-331.1977832012513
 30
0.0
 11
-113.5606337488268
 21
-331.1977832012513
 31
0.0
  0
LINE
  5
40B
330
1F
100
AcDbEntity
  8
0
  6
Continuous
 62
     7
370
    15
100
AcDbLine
 10
-113.5606337488268
 20
-331.1977832012513
 30
0.0
 11
-113.5606337488268
 21
-351.1977832012513
 31
0.0
  0
LINE
  5
40C
330
1F
100
AcDbEntity
  8
0
  6
Continuous
 62
     7
370
    15
100
AcDbLine
 10
-135.401984239454
 20
-355.7828133936172
 30
0.0
 11
327.5980157605459
 21
-355.7828133936172
 31
0.0
  0
LINE
  5
40D
330
1F
100
AcDbEntity
  8
0
  6
Continuous
 62
     7
370
    15
100
AcDbLine
 10
-135.401984239454
 20
-355.7828133936172
 30
0.0
 11
-135.401984239454
 21
-315.1804806595604
 31
0.0
  0
LINE
  5
40E
330
1F
100
AcDbEntity
  8
0
  6
Continuous
 62
     7
370
    15
100
AcDbLine
 10
327.5980157605459
 20
-355.7828133936172
 30
0.0
 11
327.5980157605459
 21
-315.1804806595604
 31
0.0
  0
LINE
  5
40F
330
1F
100
AcDbEntity
  8
0
  6
Continuous
 62
     7
370
    15
100
AcDbLine
 10
-128.5606337488268
 20
-351.1977832012512
 30
0.0
 11
-118.5606337488268
 21
-351.1977832012512
 31
0.0
  0
LINE
  5
410
330
1F
100
AcDbEntity
  8
0
  6
Continuous
 62
     7
370
    15
100
AcDbLine
 10
-118.5606337488268
 20
-351.1977832012512
 30
0.0
 11
-118.5606337488268
 21
-331.1977832012511
 31
0.0
  0
LINE
  5
411
330
1F
100
AcDbEntity
  8
0
  6
Continuous
 62
     7
370
    15
100
AcDbLine
 10
-118.5606337488268
 20
-331.1977832012511
 30
0.0
 11
-128.5606337488268
 21
-331.1977832012511
 31
0.0
  0
LINE
  5
412
330
1F
100
AcDbEntity
  8
0
  6
Continuous
 62
     7
370
    15
100
AcDbLine
 10
-128.5606337488268
 20
-331.1977832012511
 30
0.0
 11
-128.5606337488268
 21
-351.1977832012512
 31
0.0
  0
LINE
  5
413
330
1F
100
AcDbEntity
  8
0
  6
Continuous
 62
     7
370
    15
100
AcDbLine
 10
-98.5606337488268
 20
-351.1977832012515
 30
0.0
 11
-88.56063374882678
 21
-351.1977832012515
 31
0.0
  0
LINE
  5
414
330
1F
100
AcDbEntity
  8
0
  6
Continuous
 62
     7
370
    15
100
AcDbLine
 10
-88.56063374882678
 20
-351.1977832012515
 30
0.0
 11
-88.56063374882678
 21
-331.1977832012515
 31
0.0
  0
LINE
  5
415
330
1F
100
AcDbEntity
  8
0
  6
Continuous
 62
     7
370
    15
100
AcDbLine
 10
-88.56063374882678
 20
-331.1977832012515
 30
0.0
 11
-98.5606337488268
 21
-331.1977832012515
 31
0.0
  0
LINE
  5
416
330
1F
100
AcDbEntity
  8
0
  6
Continuous
 62
     7
370
    15
100
AcDbLine
 10
-98.5606337488268
 20
-331.1977832012515
 30
0.0
 11
-98.5606337488268
 21
-351.1977832012515
 31
0.0
  0
LINE
  5
417
330
1F
100
AcDbEntity
  8
0
  6
Continuous
 62
     7
370
    15
100
AcDbLine
 10
-68.56063374882682
 20
-351.1977832012517
 30
0.0
 11
-58.56063374882682
 21
-351.1977832012517
 31
0.0
  0
LINE
  5
418
330
1F
100
AcDbEntity
  8
0
  6
Continuous
 62
     7
370
    15
100
AcDbLine
 10
-58.56063374882682
 20
-351.1977832012517
 30
0.0
 11
-58.56063374882687
 21
-331.1977832012518
 31
0.0
  0
LINE
  5
419
330
1F
100
AcDbEntity
  8
0
  6
Continuous
 62
     7
370
    15
100
AcDbLine
 10
-58.56063374882687
 20
-331.1977832012518
 30
0.0
 11
-68.56063374882682
 21
-331.1977832012518
 31
0.0
  0
LINE
  5
41A
330
1F
100
AcDbEntity
  8
0
  6
Continuous
 62
     7
370
    15
100
AcDbLine
 10
-68.56063374882682
 20
-331.1977832012518
 30
0.0
 11
-68.56063374882682
 21
-351.1977832012517
 31
0.0
  0
LINE
  5
41B
330
1F
100
AcDbEntity
  8
0
  6
Continuous
 62
     7
370
    15
100
AcDbLine
 10
-38.5606337488268
 20
-351.1977832012521
 30
0.0
 11
-28.56063374882678
 21
-351.1977832012521
 31
0.0
  0
LINE
  5
41C
330
1F
100
AcDbEntity
  8
0
  6
Continuous
 62
     7
370
    15
100
AcDbLine
 10
-28.56063374882678
 20
-351.1977832012521
 30
0.0
 11
-28.56063374882683
 21
-331.1977832012521
 31
0.0
  0
LINE
  5
41D
330
1F
100
AcDbEntity
  8
0
  6
Continuous
 62
     7
370
    15
100
AcDbLine
 10
-28.56063374882683
 20
-331.1977832012521
 30
0.0
 11
-38.5606337488268
 21
-331.1977832012521
 31
0.0
  0
LINE
  5
41E
330
1F
100
AcDbEntity
  8
0
  6
Continuous
 62
     7
370
    15
100
AcDbLine
 10
-38.5606337488268
 20
-331.1977832012521
 30
0.0
 11
-38.5606337488268
 21
-351.1977832012521
 31
0.0
  0
LINE
  5
41F
330
1F
100
AcDbEntity
  8
0
  6
Continuous
 62
     7
370
    15
100
AcDbLine
 10
-8.56063374882683
 20
-351.1977832012525
 30
0.0
 11
1.439366251173197
 21
-351.1977832012525
 31
0.0
  0
LINE
  5
420
330
1F
100
AcDbEntity
  8
0
  6
Continuous
 62
     7
370
    15
100
AcDbLine
 10
1.439366251173197
 20
-351.1977832012525
 30
0.0
 11
1.439366251173197
 21
-331.1977832012524
 31
0.0
  0
LINE
  5
421
330
1F
100
AcDbEntity
  8
0
  6
Continuous
 62
     7
370
    15
100
AcDbLine
 10
1.439366251173197
 20
-331.1977832012524
 30
0.0
 11
-8.56063374882683
 21
-331.1977832012524
 31
0.0
  0
LINE
  5
422
330
1F
100
AcDbEntity
  8
0
  6
Continuous
 62
     7
370
    15
100
AcDbLine
 10
-8.56063374882683
 20
-331.1977832012524
 30
0.0
 11
-8.56063374882683
 21
-351.1977832012525
 31
0.0
  0
LINE
  5
423
330
1F
100
AcDbEntity
  8
0
  6
Continuous
 62
     7
370
    15
100
AcDbLine
 10
21.4393662511732
 20
-351.1977832012527
 30
0.0
 11
31.43936625117323
 21
-351.1977832012527
 31
0.0
  0
LINE
  5
424
330
1F
100
AcDbEntity
  8
0
  6
Continuous
 62
     7
370
    15
100
AcDbLine
 10
31.43936625117323
 20
-351.1977832012527
 30
0.0
 11
31.43936625117323
 21
-331.1977832012528
 31
0.0
  0
LINE
  5
425
330
1F
100
AcDbEntity
  8
0
  6
Continuous
 62
     7
370
    15
100
AcDbLine
 10
31.43936625117323
 20
-331.1977832012528
 30
0.0
 11
21.4393662511732
 21
-331.1977832012528
 31
0.0
  0
LINE
  5
426
330
1F
100
AcDbEntity
  8
0
  6
Continuous
 62
     7
370
    15
100
AcDbLine
 10
21.4393662511732
 20
-331.1977832012528
 30
0.0
 11
21.4393662511732
 21
-351.1977832012527
 31
0.0
  0
LINE
  5
427
330
1F
100
AcDbEntity
  8
0
  6
Continuous
 62
     7
370
    15
100
AcDbLine
 10
51.43936625117317
 20
-351.1977832012531
 30
0.0
 11
61.43936625117317
 21
-351.1977832012531
 31
0.0
  0
LINE
  5
428
330
1F
100
AcDbEntity
  8
0
  6
Continuous
 62
     7
370
    15
100
AcDbLine
 10
61.43936625117317
 20
-351.1977832012531
 30
0.0
 11
61.43936625117314
 21
-331.1977832012531
 31
0.0
  0
LINE
  5
429
330
1F
100
AcDbEntity
  8
0
  6
Continuous
 62
     7
370
    15
100
AcDbLine
 10
61.43936625117314
 20
-331.1977832012531
 30
0.0
 11
51.43936625117317
 21
-331.1977832012531
 31
0.0
  0
LINE
  5
42A
330
1F
100
AcDbEntity
  8
0
  6
Continuous
 62
     7
370
    15
100
AcDbLine
 10
51.43936625117317
 20
-331.1977832012531
 30
0.0
 11
51.43936625117317
 21
-351.1977832012531
 31
0.0
  0
LINE
  5
42B
330
1F
100
AcDbEntity
  8
0
  6
Continuous
 62
     7
370
    15
100
AcDbLine
 10
81.43936625117319
 20
-351.1977832012533
 30
0.0
 11
91.43936625117323
 21
-351.1977832012533
 31
0.0
  0
LINE
  5
42C
330
1F
100
AcDbEntity
  8
0
  6
Continuous
 62
     7
370
    15
100
AcDbLine
 10
91.43936625117323
 20
-351.1977832012533
 30
0.0
 11
91.43936625117323
 21
-331.1977832012534
 31
0.0
  0
LINE
  5
42D
330
1F
100
AcDbEntity
  8
0
  6
Continuous
 62
     7
370
    15
100
AcDbLine
 10
91.43936625117323
 20
-331.1977832012534
 30
0.0
 11
81.43936625117319
 21
-331.1977832012534
 31
0.0
  0
LINE
  5
42E
330
1F
100
AcDbEntity
  8
0
  6
Continuous
 62
     7
370
    15
100
AcDbLine
 10
81.43936625117319
 20
-331.1977832012534
 30
0.0
 11
81.43936625117319
 21
-351.1977832012533
 31
0.0
  0
LINE
  5
42F
330
1F
100
AcDbEntity
  8
0
  6
Continuous
 62
     7
370
    15
100
AcDbLine
 10
111.4393662511731
 20
-351.1977832012537
 30
0.0
 11
121.4393662511731
 21
-351.1977832012537
 31
0.0
  0
LINE
  5
430
330
1F
100
AcDbEntity
  8
0
  6
Continuous
 62
     7
370
    15
100
AcDbLine
 10
121.4393662511731
 20
-351.1977832012537
 30
0.0
 11
121.4393662511731
 21
-331.1977832012536
 31
0.0
  0
LINE
  5
431
330
1F
100
AcDbEntity
  8
0
  6
Continuous
 62
     7
370
    15
100
AcDbLine
 10
121.4393662511731
 20
-331.1977832012536
 30
0.0
 11
111.4393662511731
 21
-331.1977832012536
 31
0.0
  0
LINE
  5
432
330
1F
100
AcDbEntity
  8
0
  6
Continuous
 62
     7
370
    15
100
AcDbLine
 10
111.4393662511731
 20
-331.1977832012536
 30
0.0
 11
111.4393662511731
 21
-351.1977832012537
 31
0.0
  0
LINE
  5
433
330
1F
100
AcDbEntity
  8
0
  6
Continuous
 62
     7
370
    15
100
AcDbLine
 10
141.4393662511731
 20
-351.197783201254
 30
0.0
 11
151.4393662511731
 21
-351.197783201254
 31
0.0
  0
LINE
  5
434
330
1F
100
AcDbEntity
  8
0
  6
Continuous
 62
     7
370
    15
100
AcDbLine
 10
151.4393662511731
 20
-351.197783201254
 30
0.0
 11
151.4393662511731
 21
-331.197783201254
 31
0.0
  0
LINE
  5
435
330
1F
100
AcDbEntity
  8
0
  6
Continuous
 62
     7
370
    15
100
AcDbLine
 10
151.4393662511731
 20
-331.197783201254
 30
0.0
 11
141.4393662511731
 21
-331.197783201254
 31
0.0
  0
LINE
  5
436
330
1F
100
AcDbEntity
  8
0
  6
Continuous
 62
     7
370
    15
100
AcDbLine
 10
141.4393662511731
 20
-331.197783201254
 30
0.0
 11
141.4393662511731
 21
-351.197783201254
 31
0.0
  0
LINE
  5
437
330
1F
100
AcDbEntity
  8
0
  6
Continuous
 62
     7
370
    15
100
AcDbLine
 10
171.4393662511731
 20
-351.1977832012543
 30
0.0
 11
181.4393662511732
 21
-351.1977832012543
 31
0.0
  0
LINE
  5
438
330
1F
100
AcDbEntity
  8
0
  6
Continuous
 62
     7
370
    15
100
AcDbLine
 10
181.4393662511732
 20
-351.1977832012543
 30
0.0
 11
181.4393662511732
 21
-331.1977832012543
 31
0.0
  0
LINE
  5
439
330
1F
100
AcDbEntity
  8
0
  6
Continuous
 62
     7
370
    15
100
AcDbLine
 10
181.4393662511732
 20
-331.1977832012543
 30
0.0
 11
171.4393662511731
 21
-331.1977832012543
 31
0.0
  0
LINE
  5
43A
330
1F
100
AcDbEntity
  8
0
  6
Continuous
 62
     7
370
    15
100
AcDbLine
 10
171.4393662511731
 20
-331.1977832012543
 30
0.0
 11
171.4393662511731
 21
-351.1977832012543
 31
0.0
  0
LINE
  5
43B
330
1F
100
AcDbEntity
  8
0
  6
Continuous
 62
     7
370
    15
100
AcDbLine
 10
201.4393662511732
 20
-351.1977832012546
 30
0.0
 11
211.4393662511732
 21
-351.1977832012546
 31
0.0
  0
LINE
  5
43C
330
1F
100
AcDbEntity
  8
0
  6
Continuous
 62
     7
370
    15
100
AcDbLine
 10
211.4393662511732
 20
-351.1977832012546
 30
0.0
 11
211.4393662511732
 21
-331.1977832012547
 31
0.0
  0
LINE
  5
43D
330
1F
100
AcDbEntity
  8
0
  6
Continuous
 62
     7
370
    15
100
AcDbLine
 10
211.4393662511732
 20
-331.1977832012547
 30
0.0
 11
201.4393662511732
 21
-331.1977832012547
 31
0.0
  0
LINE
  5
43E
330
1F
100
AcDbEntity
  8
0
  6
Continuous
 62
     7
370
    15
100
AcDbLine
 10
201.4393662511732
 20
-331.1977832012547
 30
0.0
 11
201.4393662511732
 21
-351.1977832012546
 31
0.0
  0
LINE
  5
43F
330
1F
100
AcDbEntity
  8
0
  6
Continuous
 62
     7
370
    15
100
AcDbLine
 10
231.4393662511732
 20
-351.1977832012549
 30
0.0
 11
241.4393662511732
 21
-351.1977832012549
 31
0.0
  0
LINE
  5
440
330
1F
100
AcDbEntity
  8
0
  6
Continuous
 62
     7
370
    15
100
AcDbLine
 10
241.4393662511732
 20
-351.1977832012549
 30
0.0
 11
241.4393662511733
 21
-331.1977832012549
 31
0.0
  0
LINE
  5
441
330
1F
100
AcDbEntity
  8
0
  6
Continuous
 62
     7
370
    15
100
AcDbLine
 10
241.4393662511733
 20
-331.1977832012549
 30
0.0
 11
231.4393662511732
 21
-331.1977832012549
 31
0.0
  0
LINE
  5
442
330
1F
100
AcDbEntity
  8
0
  6
Continuous
 62
     7
370
    15
100
AcDbLine
 10
231.4393662511732
 20
-331.1977832012549
 30
0.0
 11
231.4393662511732
 21
-351.1977832012549
 31
0.0
  0
LINE
  5
443
330
1F
100
AcDbEntity
  8
0
  6
Continuous
 62
     7
370
    15
100
AcDbLine
 10
261.4393662511732
 20
-351.1977832012552
 30
0.0
 11
271.4393662511731
 21
-351.1977832012552
 31
0.0
  0
LINE
  5
444
330
1F
100
AcDbEntity
  8
0
  6
Continuous
 62
     7
370
    15
100
AcDbLine
 10
271.4393662511731
 20
-351.1977832012552
 30
0.0
 11
271.4393662511731
 21
-331.1977832012553
 31
0.0
  0
LINE
  5
445
330
1F
100
AcDbEntity
  8
0
  6
Continuous
 62
     7
370
    15
100
AcDbLine
 10
271.4393662511731
 20
-331.1977832012553
 30
0.0
 11
261.4393662511732
 21
-331.1977832012553
 31
0.0
  0
LINE
  5
446
330
1F
100
AcDbEntity
  8
0
  6
Continuous
 62
     7
370
    15
100
AcDbLine
 10
261.4393662511732
 20
-331.1977832012553
 30
0.0
 11
261.4393662511732
 21
-351.1977832012552
 31
0.0
  0
LINE
  5
447
330
1F
100
AcDbEntity
  8
0
  6
Continuous
 62
     7
370
    15
100
AcDbLine
 10
291.4393662511732
 20
-351.1977832012556
 30
0.0
 11
301.4393662511732
 21
-351.1977832012556
 31
0.0
  0
LINE
  5
448
330
1F
100
AcDbEntity
  8
0
  6
Continuous
 62
     7
370
    15
100
AcDbLine
 10
301.4393662511732
 20
-351.1977832012556
 30
0.0
 11
301.4393662511732
 21
-331.1977832012555
 31
0.0
  0
LINE
  5
449
330
1F
100
AcDbEntity
  8
0
  6
Continuous
 62
     7
370
    15
100
AcDbLine
 10
301.4393662511732
 20
-331.1977832012555
 30
0.0
 11
291.4393662511732
 21
-331.1977832012555
 31
0.0
  0
LINE
  5
44A
330
1F
100
AcDbEntity
  8
0
  6
Continuous
 62
     7
370
    15
100
AcDbLine
 10
291.4393662511732
 20
-331.1977832012555
 30
0.0
 11
291.4393662511732
 21
-351.1977832012556
 31
0.0
  0
LINE
  5
44B
330
1F
100
AcDbEntity
  8
0
  6
Continuous
 62
     8
370
    15
100
AcDbLine
 10
231.7908748264591
 20
-176.1804806595604
 30
0.0
 11
327.5980157605459
 21
-176.1804806595604
 31
0.0
  0
LINE
  5
44C
330
1F
100
AcDbEntity
  8
0
  6
Continuous
 62
     8
370
    15
100
AcDbLine
 10
-135.401984239454
 20
-176.1804806595604
 30
0.0
 11
-36.20912517354089
 21
-176.1804806595604
 31
0.0
  0
LINE
  5
44D
330
1F
100
AcDbEntity
  8
0
  6
Continuous
 62
     8
370
    15
100
AcDbLine
 10
231.7908748264591
 20
-286.3851461276739
 30
0.0
 11
327.5980157605459
 21
-286.3851461276739
 31
0.0
  0
LINE
  5
44E
330
1F
100
AcDbEntity
  8
0
  6
Continuous
 62
     8
370
    15
100
AcDbLine
 10
-135.401984239454
 20
-286.3851461276739
 30
0.0
 11
-36.20912517354089
 21
-286.3851461276739
 31
0.0
  0
ENDSEC
  0
SECTION
  2
OBJECTS
  0
DICTIONARY
  5
C
330
0
100
AcDbDictionary
281
     1
  3
ACAD_COLOR
350
47A
  3
ACAD_GROUP
350
D
  3
ACAD_LAYOUT
350
1A
  3
ACAD_MATERIAL
350
450
  3
ACAD_MLEADERSTYLE
350
48F
  3
ACAD_MLINESTYLE
350
17
  3
ACAD_PLOTSETTINGS
350
19
  3
ACAD_PLOTSTYLENAME
350
E
  3
ACAD_SCALELIST
350
47D
  3
ACAD_TABLESTYLE
350
47B
  3
ACAD_VISUALSTYLE
350
469
  3
ACDB_RECOMPOSE_DATA
350
4B7
  3
AcDbVariableDictionary
350
4AD
  0
DICTIONARY
  5
4AB
330
10
100
AcDbDictionary
280
     1
281
     1
  3
ADSK_XREC_LAYER_RECONCILED
360
4AC
  0
DICTIONARY
  5
47A
102
{ACAD_REACTORS
330
C
102
}
330
C
100
AcDbDictionary
281
     1
  0
DICTIONARY
  5
D
102
{ACAD_REACTORS
330
C
102
}
330
C
100
AcDbDictionary
281
     1
  0
DICTIONARY
  5
1A
102
{ACAD_REACTORS
330
C
102
}
330
C
100
AcDbDictionary
281
     1
  3
Layout1
350
1E
  3
Layout2
350
26
  3
Model
350
22
  0
DICTIONARY
  5
450
102
{ACAD_REACTORS
330
C
102
}
330
C
100
AcDbDictionary
281
     1
  3
ByBlock
350
459
  3
ByLayer
350
451
  3
Global
350
461
  0
DICTIONARY
  5
48F
102
{ACAD_REACTORS
330
C
102
}
330
C
100
AcDbDictionary
281
     1
  3
Standard
350
490
  0
DICTIONARY
  5
17
102
{ACAD_REACTORS
330
C
102
}
330
C
100
AcDbDictionary
281
     1
  3
Standard
350
18
  0
DICTIONARY
  5
19
102
{ACAD_REACTORS
330
C
102
}
330
C
100
AcDbDictionary
281
     1
  0
ACDBDICTIONARYWDFLT
  5
E
102
{ACAD_REACTORS
330
C
102
}
330
C
100
AcDbDictionary
281
     1
  3
Normal
350
F
100
AcDbDictionaryWithDefault
340
F
  0
DICTIONARY
  5
47D
102
{ACAD_REACTORS
330
C
102
}
330
C
100
AcDbDictionary
281
     1
  3
A0
350
47E
  3
A1
350
47F
  3
A2
350
480
  3
A3
350
481
  3
A4
350
482
  3
A5
350
483
  3
A6
350
484
  3
A7
350
485
  3
A8
350
486
  3
A9
350
487
  3
B0
350
488
  3
B1
350
489
  3
B2
350
48A
  3
B3
350
48B
  3
B4
350
48C
  3
B5
350
48D
  3
B6
350
48E
  0
DICTIONARY
  5
47B
102
{ACAD_REACTORS
330
C
102
}
330
C
100
AcDbDictionary
281
     1
  3
Standard
350
47C
  0
DICTIONARY
  5
469
102
{ACAD_REACTORS
330
C
102
}
330
C
100
AcDbDictionary
281
     1
  3
2dWireframe
350
46F
  3
3D Hidden
350
471
  3
3dWireframe
350
470
  3
Basic
350
46E
  3
Brighten
350
475
  3
ColorChange
350
479
  3
Conceptual
350
472
  3
Dim
350
474
  3
Facepattern
350
478
  3
Flat
350
46A
  3
FlatWithEdges
350
46B
  3
Gouraud
350
46C
  3
GouraudWithEdges
350
46D
  3
Linepattern
350
477
  3
Realistic
350
473
  3
Thicken
350
476
  0
XRECORD
  5
4B7
102
{ACAD_REACTORS
330
C
102
}
330
C
100
AcDbXrecord
280
     1
 90
        1
330
47C
  0
DICTIONARY
  5
4AD
102
{ACAD_REACTORS
330
C
102
}
330
C
100
AcDbDictionary
281
     1
  3
CANNOSCALE
350
4B1
  3
CMLEADERSTYLE
350
4AF
  3
CTABLESTYLE
350
4AE
  3
LAYEREVAL
350
4B3
  3
LAYERNOTIFY
350
4B4
  3
LIGHTINGUNITS
350
4B2
  3
MSLTSCALE
350
4B0
  0
XRECORD
  5
4AC
102
{ACAD_REACTORS
330
4AB
102
}
330
4AB
100
AcDbXrecord
280
     1
290
     1
  0
LAYOUT
  5
1E
102
{ACAD_REACTORS
330
1A
102
}
330
1A
100
AcDbPlotSettings
  1

  2
none_device
  4

  6

 40
0.0
 41
0.0
 42
0.0
 43
0.0
 44
0.0
 45
0.0
 46
0.0
 47
0.0
 48
0.0
 49
0.0
140
0.0
141
0.0
142
1.0
143
1.0
 70
   688
 72
     0
 73
     0
 74
     5
  7

 75
    16
147
1.0
 76
     0
 77
     2
 78
   300
148
0.0
149
0.0
100
AcDbLayout
  1
Layout1
 70
     1
 71
     1
 10
0.0
 20
0.0
 11
420.0
 21
297.0
 12
0.0
 22
0.0
 32
0.0
 14
1.000000000000000E+20
 24
1.000000000000000E+20
 34
1.000000000000000E+20
 15
-1.000000000000000E+20
 25
-1.000000000000000E+20
 35
-1.000000000000000E+20
146
0.0
 13
0.0
 23
0.0
 33
0.0
 16
1.0
 26
0.0
 36
0.0
 17
0.0
 27
1.0
 37
0.0
 76
     0
330
1B
  0
LAYOUT
  5
26
102
{ACAD_REACTORS
330
1A
102
}
330
1A
100
AcDbPlotSettings
  1

  2
none_device
  4

  6

 40
0.0
 41
0.0
 42
0.0
 43
0.0
 44
0.0
 45
0.0
 46
0.0
 47
0.0
 48
0.0
 49
0.0
140
0.0
141
0.0
142
1.0
143
1.0
 70
   688
 72
     0
 73
     0
 74
     5
  7

 75
    16
147
1.0
 76
     0
 77
     2
 78
   300
148
0.0
149
0.0
100
AcDbLayout
  1
Layout2
 70
     1
 71
     2
 10
0.0
 20
0.0
 11
0.0
 21
0.0
 12
0.0
 22
0.0
 32
0.0
 14
0.0
 24
0.0
 34
0.0
 15
0.0
 25
0.0
 35
0.0
146
0.0
 13
0.0
 23
0.0
 33
0.0
 16
1.0
 26
0.0
 36
0.0
 17
0.0
 27
1.0
 37
0.0
 76
     0
330
23
  0
LAYOUT
  5
22
102
{ACAD_REACTORS
330
1A
102
}
330
1A
100
AcDbPlotSettings
  1

  2
none_device
  4

  6

 40
0.0
 41
0.0
 42
0.0
 43
0.0
 44
0.0
 45
0.0
 46
0.0
 47
0.0
 48
0.0
 49
0.0
140
0.0
141
0.0
142
1.0
143
1.0
 70
  1712
 72
     0
 73
     0
 74
     0
  7

 75
     0
147
1.0
 76
     0
 77
     2
 78
   300
148
0.0
149
0.0
100
AcDbLayout
  1
Model
 70
     1
 71
     0
 10
0.0
 20
0.0
 11
279.4
 21
215.9
 12
0.0
 22
0.0
 32
0.0
 14
0.0
 24
0.0
 34
0.0
 15
279.4
 25
215.9
 35
0.0
146
0.0
 13
0.0
 23
0.0
 33
0.0
 16
1.0
 26
0.0
 36
0.0
 17
0.0
 27
1.0
 37
0.0
 76
     0
330
1F
331
29
  0
MATERIAL
  5
459
102
{ACAD_XDICTIONARY
360
45A
102
}
102
{ACAD_REACTORS
330
450
102
}
330
450
100
AcDbMaterial
  1
ByBlock
 72
     0
 43
0.0008202099737533
 43
0.0
 43
0.0
 43
0.0
 43
0.0
 43
0.0008202099737533
 43
0.0
 43
0.0
 43
0.0
 43
0.0
 43
1.0
 43
0.0
 43
0.0
 43
0.0
 43
0.0
 43
1.0
 77
     0
 47
0.0008202099737533
 47
0.0
 47
0.0
 47
0.0
 47
0.0
 47
0.0008202099737533
 47
0.0
 47
0.0
 47
0.0
 47
0.0
 47
1.0
 47
0.0
 47
0.0
 47
0.0
 47
0.0
 47
1.0
171
     0
 49
0.0008202099737533
 49
0.0
 49
0.0
 49
0.0
 49
0.0
 49
0.0008202099737533
 49
0.0
 49
0.0
 49
0.0
 49
0.0
 49
1.0
 49
0.0
 49
0.0
 49
0.0
 49
0.0
 49
1.0
175
     0
142
0.0008202099737533
142
0.0
142
0.0
142
0.0
142
0.0
142
0.0008202099737533
142
0.0
142
0.0
142
0.0
142
0.0
142
1.0
142
0.0
142
0.0
142
0.0
142
0.0
142
1.0
179
     0
144
0.0008202099737533
144
0.0
144
0.0
144
0.0
144
0.0
144
0.0008202099737533
144
0.0
144
0.0
144
0.0
144
0.0
144
1.0
144
0.0
144
0.0
144
0.0
144
0.0
144
1.0
147
0.0008202099737533
147
0.0
147
0.0
147
0.0
147
0.0
147
0.0008202099737533
147
0.0
147
0.0
147
0.0
147
0.0
147
1.0
147
0.0
147
0.0
147
0.0
147
0.0
147
1.0
  0
MATERIAL
  5
451
102
{ACAD_XDICTIONARY
360
452
102
}
102
{ACAD_REACTORS
330
450
102
}
330
450
100
AcDbMaterial
  1
ByLayer
 72
     0
 43
0.0008202099737533
 43
0.0
 43
0.0
 43
0.0
 43
0.0
 43
0.0008202099737533
 43
0.0
 43
0.0
 43
0.0
 43
0.0
 43
1.0
 43
0.0
 43
0.0
 43
0.0
 43
0.0
 43
1.0
 77
     0
 47
0.0008202099737533
 47
0.0
 47
0.0
 47
0.0
 47
0.0
 47
0.0008202099737533
 47
0.0
 47
0.0
 47
0.0
 47
0.0
 47
1.0
 47
0.0
 47
0.0
 47
0.0
 47
0.0
 47
1.0
171
     0
 49
0.0008202099737533
 49
0.0
 49
0.0
 49
0.0
 49
0.0
 49
0.0008202099737533
 49
0.0
 49
0.0
 49
0.0
 49
0.0
 49
1.0
 49
0.0
 49
0.0
 49
0.0
 49
0.0
 49
1.0
175
     0
142
0.0008202099737533
142
0.0
142
0.0
142
0.0
142
0.0
142
0.0008202099737533
142
0.0
142
0.0
142
0.0
142
0.0
142
1.0
142
0.0
142
0.0
142
0.0
142
0.0
142
1.0
179
     0
144
0.0008202099737533
144
0.0
144
0.0
144
0.0
144
0.0
144
0.0008202099737533
144
0.0
144
0.0
144
0.0
144
0.0
144
1.0
144
0.0
144
0.0
144
0.0
144
0.0
144
1.0
147
0.0008202099737533
147
0.0
147
0.0
147
0.0
147
0.0
147
0.0008202099737533
147
0.0
147
0.0
147
0.0
147
0.0
147
1.0
147
0.0
147
0.0
147
0.0
147
0.0
147
1.0
  0
MATERIAL
  5
461
102
{ACAD_XDICTIONARY
360
462
102
}
102
{ACAD_REACTORS
330
450
102
}
330
450
100
AcDbMaterial
  1
Global
 72
     0
 43
0.0008202099737533
 43
0.0
 43
0.0
 43
0.0
 43
0.0
 43
0.0008202099737533
 43
0.0
 43
0.0
 43
0.0
 43
0.0
 43
1.0
 43
0.0
 43
0.0
 43
0.0
 43
0.0
 43
1.0
 77
     0
 47
0.0008202099737533
 47
0.0
 47
0.0
 47
0.0
 47
0.0
 47
0.0008202099737533
 47
0.0
 47
0.0
 47
0.0
 47
0.0
 47
1.0
 47
0.0
 47
0.0
 47
0.0
 47
0.0
 47
1.0
171
     0
 49
0.0008202099737533
 49
0.0
 49
0.0
 49
0.0
 49
0.0
 49
0.0008202099737533
 49
0.0
 49
0.0
 49
0.0
 49
0.0
 49
1.0
 49
0.0
 49
0.0
 49
0.0
 49
0.0
 49
1.0
175
     0
142
0.0008202099737533
142
0.0
142
0.0
142
0.0
142
0.0
142
0.0008202099737533
142
0.0
142
0.0
142
0.0
142
0.0
142
1.0
142
0.0
142
0.0
142
0.0
142
0.0
142
1.0
179
     0
144
0.0008202099737533
144
0.0
144
0.0
144
0.0
144
0.0
144
0.0008202099737533
144
0.0
144
0.0
144
0.0
144
0.0
144
1.0
144
0.0
144
0.0
144
0.0
144
0.0
144
1.0
147
0.0008202099737533
147
0.0
147
0.0
147
0.0
147
0.0
147
0.0008202099737533
147
0.0
147
0.0
147
0.0
147
0.0
147
1.0
147
0.0
147
0.0
147
0.0
147
0.0
147
1.0
  0
MLEADERSTYLE
  5
490
102
{ACAD_REACTORS
330
48F
102
}
330
48F
100
AcDbMLeaderStyle
170
     2
171
     1
172
     0
 90
        2
 40
0.0
 41
0.0
173
     1
 91
-1056964608
340
14
 92
       -2
290
     1
 42
2.0
291
     1
 43
0.36
  3
Standard
 44
4.0
300

342
11
174
     1
178
     6
175
     1
176
     0
 93
-1056964608
 45
4.0
292
     0
297
     0
 46
4.0
 94
-1056964608
 47
1.0
 49
1.0
140
1.0
293
     1
141
0.0
294
     1
177
     0
142
1.0
295
     1
296
     0
143
0.125
1001
ACAD_MLEADERVER
1070
     2
  0
MLINESTYLE
  5
18
102
{ACAD_REACTORS
330
17
102
}
330
17
100
AcDbMlineStyle
  2
STANDARD
 70
     0
  3

 62
   256
 51
90.0
 52
90.0
 71
     2
 49
0.5
 62
   256
  6
BYLAYER
 49
-0.5
 62
   256
  6
BYLAYER
  0
ACDBPLACEHOLDER
  5
F
102
{ACAD_REACTORS
330
E
102
}
330
E
  0
SCALE
  5
47E
102
{ACAD_REACTORS
330
47D
102
}
330
47D
100
AcDbScale
 70
     0
300
1:1
140
1.0
141
1.0
290
     1
  0
SCALE
  5
47F
102
{ACAD_REACTORS
330
47D
102
}
330
47D
100
AcDbScale
 70
     0
300
1:2
140
1.0
141
2.0
290
     0
  0
SCALE
  5
480
102
{ACAD_REACTORS
330
47D
102
}
330
47D
100
AcDbScale
 70
     0
300
1:4
140
1.0
141
4.0
290
     0
  0
SCALE
  5
481
102
{ACAD_REACTORS
330
47D
102
}
330
47D
100
AcDbScale
 70
     0
300
1:5
140
1.0
141
5.0
290
     0
  0
SCALE
  5
482
102
{ACAD_REACTORS
330
47D
102
}
330
47D
100
AcDbScale
 70
     0
300
1:8
140
1.0
141
8.0
290
     0
  0
SCALE
  5
483
102
{ACAD_REACTORS
330
47D
102
}
330
47D
100
AcDbScale
 70
     0
300
1:10
140
1.0
141
10.0
290
     0
  0
SCALE
  5
484
102
{ACAD_REACTORS
330
47D
102
}
330
47D
100
AcDbScale
 70
     0
300
1:16
140
1.0
141
16.0
290
     0
  0
SCALE
  5
485
102
{ACAD_REACTORS
330
47D
102
}
330
47D
100
AcDbScale
 70
     0
300
1:20
140
1.0
141
20.0
290
     0
  0
SCALE
  5
486
102
{ACAD_REACTORS
330
47D
102
}
330
47D
100
AcDbScale
 70
     0
300
1:30
140
1.0
141
30.0
290
     0
  0
SCALE
  5
487
102
{ACAD_REACTORS
330
47D
102
}
330
47D
100
AcDbScale
 70
     0
300
1:40
140
1.0
141
40.0
290
     0
  0
SCALE
  5
488
102
{ACAD_REACTORS
330
47D
102
}
330
47D
100
AcDbScale
 70
     0
300
1:50
140
1.0
141
50.0
290
     0
  0
SCALE
  5
489
102
{ACAD_REACTORS
330
47D
102
}
330
47D
100
AcDbScale
 70
     0
300
1:100
140
1.0
141
100.0
290
     0
  0
SCALE
  5
48A
102
{ACAD_REACTORS
330
47D
102
}
330
47D
100
AcDbScale
 70
     0
300
2:1
140
2.0
141
1.0
290
     0
  0
SCALE
  5
48B
102
{ACAD_REACTORS
330
47D
102
}
330
47D
100
AcDbScale
 70
     0
300
4:1
140
4.0
141
1.0
290
     0
  0
SCALE
  5
48C
102
{ACAD_REACTORS
330
47D
102
}
330
47D
100
AcDbScale
 70
     0
300
8:1
140
8.0
141
1.0
290
     0
  0
SCALE
  5
48D
102
{ACAD_REACTORS
330
47D
102
}
330
47D
100
AcDbScale
 70
     0
300
10:1
140
10.0
141
1.0
290
     0
  0
SCALE
  5
48E
102
{ACAD_REACTORS
330
47D
102
}
330
47D
100
AcDbScale
 70
     0
300
100:1
140
100.0
141
1.0
290
     0
  0
TABLESTYLE
  5
47C
102
{ACAD_XDICTIONARY
360
4B5
102
}
102
{ACAD_REACTORS
330
47B
102
}
330
47B
100
AcDbTableStyle
  3
Standard
 70
     0
 71
     0
 40
1.5
 41
1.5
280
     0
281
     0
  7
Standard
140
4.5
170
     2
 62
     0
 63
     7
283
     0
 90
      512
 91
        0
  1

274
    -2
284
     1
 64
     0
275
    -2
285
     1
 65
     0
276
    -2
286
     1
 66
     0
277
    -2
287
     1
 67
     0
278
    -2
288
     1
 68
     0
279
    -2
289
     1
 69
     0
  7
Standard
140
6.0
170
     5
 62
     0
 63
     7
283
     0
 90
      512
 91
        0
  1

274
    -2
284
     1
 64
     0
275
    -2
285
     1
 65
     0
276
    -2
286
     1
 66
     0
277
    -2
287
     1
 67
     0
278
    -2
288
     1
 68
     0
279
    -2
289
     1
 69
     0
  7
Standard
140
4.5
170
     5
 62
     0
 63
     7
283
     0
 90
      512
 91
        0
  1

274
    -2
284
     1
 64
     0
275
    -2
285
     1
 65
     0
276
    -2
286
     1
 66
     0
277
    -2
287
     1
 67
     0
278
    -2
288
     1
 68
     0
279
    -2
289
     1
 69
     0
  0
VISUALSTYLE
  5
46F
102
{ACAD_REACTORS
330
469
102
}
330
469
100
AcDbVisualStyle
  2
2dWireframe
 70
     4
 71
     0
 72
     2
 73
     0
 90
        0
 40
-0.6
 41
-30.0
 62
     5
 63
     7
421
 16777215
 74
     1
 91
        4
 64
     7
 65
   257
 75
     1
175
     1
 42
1.0
 92
        0
 66
   257
 43
1.0
 76
     1
 77
     6
 78
     2
 67
     7
 79
     5
170
     0
171
     0
290
     0
174
     0
 93
        1
 44
0.0
173
     0
291
     0
 45
0.0
  0
VISUALSTYLE
  5
471
102
{ACAD_REACTORS
330
469
102
}
330
469
100
AcDbVisualStyle
  2
3D Hidden
 70
     6
 71
     1
 72
     2
 73
     2
 90
        0
 40
-0.6
 41
-30.0
 62
     5
 63
     7
421
 16777215
 74
     2
 91
        2
 64
     7
 65
   257
 75
     2
175
     1
 42
40.0
 92
        0
 66
   257
 43
1.0
 76
     1
 77
     6
 78
     2
 67
     7
 79
     3
170
     0
171
     0
290
     0
174
     0
 93
        1
 44
0.0
173
     0
291
     0
 45
0.0
  0
VISUALSTYLE
  5
470
102
{ACAD_REACTORS
330
469
102
}
330
469
100
AcDbVisualStyle
  2
3dWireframe
 70
     5
 71
     0
 72
     2
 73
     0
 90
        0
 40
-0.6
 41
-30.0
 62
     5
 63
     7
421
 16777215
 74
     1
 91
        4
 64
     7
 65
   257
 75
     1
175
     1
 42
1.0
 92
        0
 66
   257
 43
1.0
 76
     1
 77
     6
 78
     2
 67
     7
 79
     5
170
     0
171
     0
290
     0
174
     0
 93
        1
 44
0.0
173
     0
291
     0
 45
0.0
  0
VISUALSTYLE
  5
46E
102
{ACAD_REACTORS
330
469
102
}
330
469
100
AcDbVisualStyle
  2
Basic
 70
     7
 71
     1
 72
     0
 73
     1
 90
        0
 40
-0.6
 41
-30.0
 62
     5
 63
     7
421
 16777215
 74
     0
 91
        4
 64
     7
 65
   257
 75
     1
175
     1
 42
1.0
 92
        8
 66
     7
 43
1.0
 76
     1
 77
     6
 78
     2
 67
     7
 79
     5
170
     0
171
     0
290
     0
174
     0
 93
        1
 44
0.0
173
     0
291
     1
 45
0.0
  0
VISUALSTYLE
  5
475
102
{ACAD_REACTORS
330
469
102
}
330
469
100
AcDbVisualStyle
  2
Brighten
 70
    12
 71
     2
 72
     2
 73
     0
 90
        0
 40
-0.6
 41
-30.0
 62
     5
 63
     7
421
 16777215
 74
     1
 91
        4
 64
     7
 65
   257
 75
     1
175
     1
 42
1.0
 92
        8
 66
     7
 43
1.0
 76
     1
 77
     6
 78
     2
 67
     7
 79
     5
170
     0
171
     0
290
     0
174
     0
 93
        1
 44
50.0
173
     0
291
     1
 45
0.0
  0
VISUALSTYLE
  5
479
102
{ACAD_REACTORS
330
469
102
}
330
469
100
AcDbVisualStyle
  2
ColorChange
 70
    16
 71
     2
 72
     2
 73
     3
 90
        0
 40
-0.6
 41
-30.0
 62
     5
 63
     8
421
  8421504
 74
     1
 91
        4
 64
     7
 65
   257
 75
     1
175
     1
 42
1.0
 92
        8
 66
     8
424
  8421504
 43
1.0
 76
     1
 77
     6
 78
     2
 67
     7
 79
     5
170
     0
171
     0
290
     0
174
     0
 93
        1
 44
0.0
173
     0
291
     1
 45
0.0
  0
VISUALSTYLE
  5
472
102
{ACAD_REACTORS
330
469
102
}
330
469
100
AcDbVisualStyle
  2
Conceptual
 70
     9
 71
     3
 72
     2
 73
     0
 90
        0
 40
-0.6
 41
-30.0
 62
     5
 63
     7
421
 16777215
 74
     2
 91
        2
 64
     7
 65
   257
 75
     1
175
     1
 42
40.0
 92
        8
 66
     7
 43
1.0
 76
     1
 77
     6
 78
     2
 67
     7
 79
     3
170
     0
171
     0
290
     0
174
     0
 93
        1
 44
0.0
173
     0
291
     0
 45
0.0
  0
VISUALSTYLE
  5
474
102
{ACAD_REACTORS
330
469
102
}
330
469
100
AcDbVisualStyle
  2
Dim
 70
    11
 71
     2
 72
     2
 73
     0
 90
        0
 40
-0.6
 41
-30.0
 62
     5
 63
     7
421
 16777215
 74
     1
 91
        4
 64
     7
 65
   257
 75
     1
175
     1
 42
1.0
 92
        8
 66
     7
 43
1.0
 76
     1
 77
     6
 78
     2
 67
     7
 79
     5
170
     0
171
     0
290
     0
174
     0
 93
        1
 44
-50.0
173
     0
291
     1
 45
0.0
  0
VISUALSTYLE
  5
478
102
{ACAD_REACTORS
330
469
102
}
330
469
100
AcDbVisualStyle
  2
Facepattern
 70
    15
 71
     2
 72
     2
 73
     0
 90
        0
 40
-0.6
 41
-30.0
 62
     5
 63
     7
421
 16777215
 74
     1
 91
        4
 64
     7
 65
   257
 75
     1
175
     1
 42
1.0
 92
        8
 66
     7
 43
1.0
 76
     1
 77
     6
 78
     2
 67
     7
 79
     5
170
     0
171
     0
290
     0
174
     0
 93
        1
 44
0.0
173
     0
291
     1
 45
0.0
  0
VISUALSTYLE
  5
46A
102
{ACAD_REACTORS
330
469
102
}
330
469
100
AcDbVisualStyle
  2
Flat
 70
     0
 71
     2
 72
     1
 73
     1
 90
        2
 40
-0.6
 41
30.0
 62
     5
 63
     7
421
 16777215
 74
     0
 91
        4
 64
     7
 65
   257
 75
     1
175
     1
 42
1.0
 92
        8
 66
     7
 43
1.0
 76
     1
 77
     6
 78
     2
 67
     7
 79
     5
170
     0
171
     0
290
     0
174
     0
 93
       13
 44
0.0
173
     0
291
     1
 45
0.0
  0
VISUALSTYLE
  5
46B
102
{ACAD_REACTORS
330
469
102
}
330
469
100
AcDbVisualStyle
  2
FlatWithEdges
 70
     1
 71
     2
 72
     1
 73
     1
 90
        2
 40
-0.6
 41
30.0
 62
     5
 63
     7
421
 16777215
 74
     1
 91
        4
 64
     7
 65
   257
 75
     1
175
     1
 42
1.0
 92
        0
 66
   257
 43
1.0
 76
     1
 77
     6
 78
     2
 67
     7
 79
     5
170
     0
171
     0
290
     0
174
     0
 93
       13
 44
0.0
173
     0
291
     1
 45
0.0
  0
VISUALSTYLE
  5
46C
102
{ACAD_REACTORS
330
469
102
}
330
469
100
AcDbVisualStyle
  2
Gouraud
 70
     2
 71
     2
 72
     2
 73
     1
 90
        2
 40
-0.6
 41
30.0
 62
     5
 63
     7
421
 16777215
 74
     0
 91
        4
 64
     7
 65
   257
 75
     1
175
     1
 42
1.0
 92
        0
 66
     7
 43
1.0
 76
     1
 77
     6
 78
     2
 67
     7
 79
     5
170
     0
171
     0
290
     0
174
     0
 93
       13
 44
0.0
173
     0
291
     1
 45
0.0
  0
VISUALSTYLE
  5
46D
102
{ACAD_REACTORS
330
469
102
}
330
469
100
AcDbVisualStyle
  2
GouraudWithEdges
 70
     3
 71
     2
 72
     2
 73
     1
 90
        2
 40
-0.6
 41
30.0
 62
     5
 63
     7
421
 16777215
 74
     1
 91
        4
 64
     7
 65
   257
 75
     1
175
     1
 42
1.0
 92
        0
 66
   257
 43
1.0
 76
     1
 77
     6
 78
     2
 67
     7
 79
     5
170
     0
171
     0
290
     0
174
     0
 93
       13
 44
0.0
173
     0
291
     1
 45
0.0
  0
VISUALSTYLE
  5
477
102
{ACAD_REACTORS
330
469
102
}
330
469
100
AcDbVisualStyle
  2
Linepattern
 70
    14
 71
     2
 72
     2
 73
     0
 90
        0
 40
-0.6
 41
-30.0
 62
     5
 63
     7
421
 16777215
 74
     1
 91
        4
 64
     7
 65
   257
 75
     7
175
     7
 42
1.0
 92
        8
 66
     7
 43
1.0
 76
     1
 77
     6
 78
     2
 67
     7
 79
     5
170
     0
171
     0
290
     0
174
     0
 93
        1
 44
0.0
173
     0
291
     1
 45
0.0
  0
VISUALSTYLE
  5
473
102
{ACAD_REACTORS
330
469
102
}
330
469
100
AcDbVisualStyle
  2
Realistic
 70
     8
 71
     2
 72
     2
 73
     0
 90
        0
 40
-0.6
 41
-30.0
 62
     5
 63
     7
421
 16777215
 74
     1
 91
        0
 64
     7
 65
   257
 75
     1
175
     1
 42
1.0
 92
        8
 66
     8
424
  7895160
 43
1.0
 76
     1
 77
     6
 78
     2
 67
     7
 79
     5
170
     0
171
     0
290
     0
174
     0
 93
       13
 44
0.0
173
     0
291
     0
 45
0.0
  0
VISUALSTYLE
  5
476
102
{ACAD_REACTORS
330
469
102
}
330
469
100
AcDbVisualStyle
  2
Thicken
 70
    13
 71
     2
 72
     2
 73
     0
 90
        0
 40
-0.6
 41
-30.0
 62
     5
 63
     7
421
 16777215
 74
     1
 91
        4
 64
     7
 65
   257
 75
     1
175
     1
 42
1.0
 92
       12
 66
     7
 43
1.0
 76
     1
 77
     6
 78
     2
 67
     7
 79
     5
170
     0
171
     0
290
     0
174
     0
 93
        1
 44
0.0
173
     0
291
     1
 45
0.0
  0
DICTIONARYVAR
  5
4B1
102
{ACAD_REACTORS
330
4AD
102
}
330
4AD
100
DictionaryVariables
280
     0
  1
1:1
  0
DICTIONARYVAR
  5
4AF
102
{ACAD_REACTORS
330
4AD
102
}
330
4AD
100
DictionaryVariables
280
     0
  1
STANDARD
  0
DICTIONARYVAR
  5
4AE
102
{ACAD_REACTORS
330
4AD
102
}
330
4AD
100
DictionaryVariables
280
     0
  1
STANDARD
  0
DICTIONARYVAR
  5
4B3
102
{ACAD_REACTORS
330
4AD
102
}
330
4AD
100
DictionaryVariables
280
     0
  1
1
  0
DICTIONARYVAR
  5
4B4
102
{ACAD_REACTORS
330
4AD
102
}
330
4AD
100
DictionaryVariables
280
     0
  1
15
  0
DICTIONARYVAR
  5
4B2
102
{ACAD_REACTORS
330
4AD
102
}
330
4AD
100
DictionaryVariables
280
     0
  1
0
  0
DICTIONARYVAR
  5
4B0
102
{ACAD_REACTORS
330
4AD
102
}
330
4AD
100
DictionaryVariables
280
     0
  1
0
  0
DICTIONARY
  5
45A
330
459
100
AcDbDictionary
280
     1
281
     1
  3
BUMPTILE
360
45C
  3
DIFFUSETILE
360
45B
  3
OPACITYTILE
360
45F
  3
REFLECTIONTILE
360
45E
  3
REFRACTIONTILE
360
460
  3
SPECULARTILE
360
45D
  0
DICTIONARY
  5
452
330
451
100
AcDbDictionary
280
     1
281
     1
  3
BUMPTILE
360
454
  3
DIFFUSETILE
360
453
  3
OPACITYTILE
360
457
  3
REFLECTIONTILE
360
456
  3
REFRACTIONTILE
360
458
  3
SPECULARTILE
360
455
  0
DICTIONARY
  5
462
330
461
100
AcDbDictionary
280
     1
281
     1
  3
BUMPTILE
360
464
  3
DIFFUSETILE
360
463
  3
OPACITYTILE
360
467
  3
REFLECTIONTILE
360
466
  3
REFRACTIONTILE
360
468
  3
SPECULARTILE
360
465
  0
DICTIONARY
  5
4B5
330
47C
100
AcDbDictionary
280
     1
281
     1
  3
ACAD_ROUNDTRIP_2008_TABLESTYLE_CELLSTYLEMAP
360
4B6
  0
XRECORD
  5
45C
102
{ACAD_REACTORS
330
45A
102
}
330
45A
100
AcDbXrecord
280
     1
270
     1
271
     1
  0
XRECORD
  5
45B
102
{ACAD_REACTORS
330
45A
102
}
330
45A
100
AcDbXrecord
280
     1
270
     1
271
     1
  0
XRECORD
  5
45F
102
{ACAD_REACTORS
330
45A
102
}
330
45A
100
AcDbXrecord
280
     1
270
     1
271
     1
  0
XRECORD
  5
45E
102
{ACAD_REACTORS
330
45A
102
}
330
45A
100
AcDbXrecord
280
     1
270
     1
271
     1
  0
XRECORD
  5
460
102
{ACAD_REACTORS
330
45A
102
}
330
45A
100
AcDbXrecord
280
     1
270
     1
271
     1
  0
XRECORD
  5
45D
102
{ACAD_REACTORS
330
45A
102
}
330
45A
100
AcDbXrecord
280
     1
270
     1
271
     1
  0
XRECORD
  5
454
102
{ACAD_REACTORS
330
452
102
}
330
452
100
AcDbXrecord
280
     1
270
     1
271
     1
  0
XRECORD
  5
453
102
{ACAD_REACTORS
330
452
102
}
330
452
100
AcDbXrecord
280
     1
270
     1
271
     1
  0
XRECORD
  5
457
102
{ACAD_REACTORS
330
452
102
}
330
452
100
AcDbXrecord
280
     1
270
     1
271
     1
  0
XRECORD
  5
456
102
{ACAD_REACTORS
330
452
102
}
330
452
100
AcDbXrecord
280
     1
270
     1
271
     1
  0
XRECORD
  5
458
102
{ACAD_REACTORS
330
452
102
}
330
452
100
AcDbXrecord
280
     1
270
     1
271
     1
  0
XRECORD
  5
455
102
{ACAD_REACTORS
330
452
102
}
330
452
100
AcDbXrecord
280
     1
270
     1
271
     1
  0
XRECORD
  5
464
102
{ACAD_REACTORS
330
462
102
}
330
462
100
AcDbXrecord
280
     1
270
     1
271
     1
  0
XRECORD
  5
463
102
{ACAD_REACTORS
330
462
102
}
330
462
100
AcDbXrecord
280
     1
270
     1
271
     1
  0
XRECORD
  5
467
102
{ACAD_REACTORS
330
462
102
}
330
462
100
AcDbXrecord
280
     1
270
     1
271
     1
  0
XRECORD
  5
466
102
{ACAD_REACTORS
330
462
102
}
330
462
100
AcDbXrecord
280
     1
270
     1
271
     1
  0
XRECORD
  5
468
102
{ACAD_REACTORS
330
462
102
}
330
462
100
AcDbXrecord
280
     1
270
     1
271
     1
  0
XRECORD
  5
465
102
{ACAD_REACTORS
330
462
102
}
330
462
100
AcDbXrecord
280
     1
270
     1
271
     1
  0
CELLSTYLEMAP
  5
4B6
102
{ACAD_REACTORS
330
4B5
102
}
330
4B5
100
AcDbCellStyleMap
 90
        3
300
CELLSTYLE
  1
TABLEFORMAT_BEGIN
 90
        5
170
     1
 91
        0
 92
    32768
 62
   257
 93
        1
300
CONTENTFORMAT
  1
CONTENTFORMAT_BEGIN
 90
        0
 91
        0
 92
      512
 93
        0
300

 40
0.0
140
1.0
 94
        5
 62
     0
340
11
144
6.0
309
CONTENTFORMAT_END
171
     1
301
MARGIN
  1
CELLMARGIN_BEGIN
 40
1.5
 40
1.5
 40
1.5
 40
1.5
 40
4.5
 40
4.5
309
CELLMARGIN_END
 94
        6
 95
        1
302
GRIDFORMAT
  1
GRIDFORMAT_BEGIN
 90
        0
 91
        1
 62
     0
 92
       -2
340
0
 93
        0
 40
1.125
309
GRIDFORMAT_END
 95
        2
302
GRIDFORMAT
  1
GRIDFORMAT_BEGIN
 90
        0
 91
        1
 62
     0
 92
       -2
340
0
 93
        0
 40
1.125
309
GRIDFORMAT_END
 95
        4
302
GRIDFORMAT
  1
GRIDFORMAT_BEGIN
 90
        0
 91
        1
 62
     0
 92
       -2
340
0
 93
        0
 40
1.125
309
GRIDFORMAT_END
 95
        8
302
GRIDFORMAT
  1
GRIDFORMAT_BEGIN
 90
        0
 91
        1
 62
     0
 92
       -2
340
0
 93
        0
 40
1.125
309
GRIDFORMAT_END
 95
       16
302
GRIDFORMAT
  1
GRIDFORMAT_BEGIN
 90
        0
 91
        1
 62
     0
 92
       -2
340
0
 93
        0
 40
1.125
309
GRIDFORMAT_END
 95
       32
302
GRIDFORMAT
  1
GRIDFORMAT_BEGIN
 90
        0
 91
        1
 62
     0
 92
       -2
340
0
 93
        0
 40
1.125
309
GRIDFORMAT_END
309
TABLEFORMAT_END
  1
CELLSTYLE_BEGIN
 90
        1
 91
        1
300
_TITLE
309
CELLSTYLE_END
300
CELLSTYLE
  1
TABLEFORMAT_BEGIN
 90
        5
170
     1
 91
        0
 92
        0
 62
   257
 93
        1
300
CONTENTFORMAT
  1
CONTENTFORMAT_BEGIN
 90
        0
 91
        0
 92
      512
 93
        0
300

 40
0.0
140
1.0
 94
        5
 62
     0
340
11
144
4.5
309
CONTENTFORMAT_END
171
     1
301
MARGIN
  1
CELLMARGIN_BEGIN
 40
1.5
 40
1.5
 40
1.5
 40
1.5
 40
4.5
 40
4.5
309
CELLMARGIN_END
 94
        6
 95
        1
302
GRIDFORMAT
  1
GRIDFORMAT_BEGIN
 90
        0
 91
        1
 62
     0
 92
       -2
340
0
 93
        0
 40
1.125
309
GRIDFORMAT_END
 95
        2
302
GRIDFORMAT
  1
GRIDFORMAT_BEGIN
 90
        0
 91
        1
 62
     0
 92
       -2
340
0
 93
        0
 40
1.125
309
GRIDFORMAT_END
 95
        4
302
GRIDFORMAT
  1
GRIDFORMAT_BEGIN
 90
        0
 91
        1
 62
     0
 92
       -2
340
0
 93
        0
 40
1.125
309
GRIDFORMAT_END
 95
        8
302
GRIDFORMAT
  1
GRIDFORMAT_BEGIN
 90
        0
 91
        1
 62
     0
 92
       -2
340
0
 93
        0
 40
1.125
309
GRIDFORMAT_END
 95
       16
302
GRIDFORMAT
  1
GRIDFORMAT_BEGIN
 90
        0
 91
        1
 62
     0
 92
       -2
340
0
 93
        0
 40
1.125
309
GRIDFORMAT_END
 95
       32
302
GRIDFORMAT
  1
GRIDFORMAT_BEGIN
 90
        0
 91
        1
 62
     0
 92
       -2
340
0
 93
        0
 40
1.125
309
GRIDFORMAT_END
309
TABLEFORMAT_END
  1
CELLSTYLE_BEGIN
 90
        2
 91
        1
300
_HEADER
309
CELLSTYLE_END
300
CELLSTYLE
  1
TABLEFORMAT_BEGIN
 90
        5
170
     1
 91
        0
 92
        0
 62
   257
 93
        1
300
CONTENTFORMAT
  1
CONTENTFORMAT_BEGIN
 90
        0
 91
        0
 92
      512
 93
        0
300

 40
0.0
140
1.0
 94
        2
 62
     0
340
11
144
4.5
309
CONTENTFORMAT_END
171
     1
301
MARGIN
  1
CELLMARGIN_BEGIN
 40
1.5
 40
1.5
 40
1.5
 40
1.5
 40
4.5
 40
4.5
309
CELLMARGIN_END
 94
        6
 95
        1
302
GRIDFORMAT
  1
GRIDFORMAT_BEGIN
 90
        0
 91
        1
 62
     0
 92
       -2
340
0
 93
        0
 40
1.125
309
GRIDFORMAT_END
 95
        2
302
GRIDFORMAT
  1
GRIDFORMAT_BEGIN
 90
        0
 91
        1
 62
     0
 92
       -2
340
0
 93
        0
 40
1.125
309
GRIDFORMAT_END
 95
        4
302
GRIDFORMAT
  1
GRIDFORMAT_BEGIN
 90
        0
 91
        1
 62
     0
 92
       -2
340
0
 93
        0
 40
1.125
309
GRIDFORMAT_END
 95
        8
302
GRIDFORMAT
  1
GRIDFORMAT_BEGIN
 90
        0
 91
        1
 62
     0
 92
       -2
340
0
 93
        0
 40
1.125
309
GRIDFORMAT_END
 95
       16
302
GRIDFORMAT
  1
GRIDFORMAT_BEGIN
 90
        0
 91
        1
 62
     0
 92
       -2
340
0
 93
        0
 40
1.125
309
GRIDFORMAT_END
 95
       32
302
GRIDFORMAT
  1
GRIDFORMAT_BEGIN
 90
        0
 91
        1
 62
     0
 92
       -2
340
0
 93
        0
 40
1.125
309
GRIDFORMAT_END
309
TABLEFORMAT_END
  1
CELLSTYLE_BEGIN
 90
        3
 91
        2
300
_DATA
309
CELLSTYLE_END
  0
ENDSEC
  0
EOF
