  0
SECTION
  2
HEADER
  9
$ACADVER
  1
AC1021
  9
$ACADMAINTVER
 70
    50
  9
$DWGCODEPAGE
  3
ANSI_1251
  9
$LASTSAVEDBY
  1
Игорь
  9
$INSBASE
 10
0.0
 20
0.0
 30
0.0
  9
$EXTMIN
 10
29401.8878716997
 20
82026.582683258
 30
-0.0015258207003583
  9
$EXTMAX
 10
31277.74220343883
 20
82734.87265850988
 30
0.0000000349246037
  9
$LIMMIN
 10
0.0
 20
0.0
  9
$LIMMAX
 10
139700.0
 20
107950.0
  9
$ORTHOMODE
 70
     0
  9
$REGENMODE
 70
     1
  9
$FILLMODE
 70
     1
  9
$QTEXTMODE
 70
     0
  9
$MIRRTEXT
 70
     1
  9
$LTSCALE
 40
500.0
  9
$ATTMODE
 70
     1
  9
$TEXTSIZE
 40
1750.0
  9
$TRACEWID
 40
1.0
  9
$TEXTSTYLE
  7
Standard
  9
$CLAYER
  8
0
  9
$CELTYPE
  6
ByLayer
  9
$CECOLOR
 62
   256
  9
$CELTSCALE
 40
1.0
  9
$DISPSILH
 70
     0
  9
$DIMSCALE
 40
1.0
  9
$DIMASZ
 40
1750.0
  9
$DIMEXO
 40
5.0
  9
$DIMDLI
 40
3.75
  9
$DIMRND
 40
0.0
  9
$DIMDLE
 40
0.0
  9
$DIMEXE
 40
500.0
  9
$DIMTP
 40
0.0
  9
$DIMTM
 40
0.0
  9
$DIMTXT
 40
1750.0
  9
$DIMCEN
 40
2.5
  9
$DIMTSZ
 40
0.0
  9
$DIMTOL
 70
     0
  9
$DIMLIM
 70
     0
  9
$DIMTIH
 70
     1
  9
$DIMTOH
 70
     1
  9
$DIMSE1
 70
     0
  9
$DIMSE2
 70
     0
  9
$DIMTAD
 70
     1
  9
$DIMZIN
 70
     0
  9
$DIMBLK
  1

  9
$DIMASO
 70
     1
  9
$DIMSHO
 70
     1
  9
$DIMPOST
  1

  9
$DIMAPOST
  1

  9
$DIMALT
 70
     0
  9
$DIMALTD
 70
     3
  9
$DIMALTF
 40
0.0393700787401575
  9
$DIMLFAC
 40
1.0
  9
$DIMTOFL
 70
     1
  9
$DIMTVP
 40
0.0
  9
$DIMTIX
 70
     0
  9
$DIMSOXD
 70
     0
  9
$DIMSAH
 70
     0
  9
$DIMBLK1
  1

  9
$DIMBLK2
  1

  9
$DIMSTYLE
  2
ISO-25
  9
$DIMCLRD
 70
     0
  9
$DIMCLRE
 70
     0
  9
$DIMCLRT
 70
     0
  9
$DIMTFAC
 40
1.0
  9
$DIMGAP
 40
1500.0
  9
$DIMJUST
 70
     0
  9
$DIMSD1
 70
     0
  9
$DIMSD2
 70
     0
  9
$DIMTOLJ
 70
     0
  9
$DIMTZIN
 70
     0
  9
$DIMALTZ
 70
     0
  9
$DIMALTTZ
 70
     0
  9
$DIMUPT
 70
     0
  9
$DIMDEC
 70
     2
  9
$DIMTDEC
 70
     3
  9
$DIMALTU
 70
     2
  9
$DIMALTTD
 70
     3
  9
$DIMTXSTY
  7
Standard
  9
$DIMAUNIT
 70
     0
  9
$DIMADEC
 70
     2
  9
$DIMALTRND
 40
0.0
  9
$DIMAZIN
 70
     0
  9
$DIMDSEP
 70
    44
  9
$DIMATFIT
 70
     3
  9
$DIMFRAC
 70
     0
  9
$DIMLDRBLK
  1

  9
$DIMLUNIT
 70
     2
  9
$DIMLWD
 70
    -2
  9
$DIMLWE
 70
    -2
  9
$DIMTMOVE
 70
     0
  9
$DIMFXL
 40
1.0
  9
$DIMFXLON
 70
     0
  9
$DIMJOGANG
 40
0.7853981633974483
  9
$DIMTFILL
 70
     0
  9
$DIMTFILLCLR
 70
     0
  9
$DIMARCSYM
 70
     0
  9
$DIMLTYPE
  6

  9
$DIMLTEX1
  6

  9
$DIMLTEX2
  6

  9
$LUNITS
 70
     2
  9
$LUPREC
 70
     2
  9
$SKETCHINC
 40
1.0
  9
$FILLETRAD
 40
10.0
  9
$AUNITS
 70
     0
  9
$AUPREC
 70
     2
  9
$MENU
  1
.
  9
$ELEVATION
 40
0.0
  9
$PELEVATION
 40
0.0
  9
$THICKNESS
 40
0.0
  9
$LIMCHECK
 70
     0
  9
$CHAMFERA
 40
10.0
  9
$CHAMFERB
 40
10.0
  9
$CHAMFERC
 40
20.0
  9
$CHAMFERD
 40
0.0
  9
$SKPOLY
 70
     0
  9
$TDCREATE
 40
2458091.015100417
  9
$TDUCREATE
 40
2458090.931767083
  9
$TDUPDATE
 40
2458091.016238473
  9
$TDUUPDATE
 40
2458090.932905139
  9
$TDINDWG
 40
0.0010721875
  9
$TDUSRTIMER
 40
0.0010721875
  9
$USRTIMER
 70
     1
  9
$ANGBASE
 50
0.0
  9
$ANGDIR
 70
     0
  9
$PDMODE
 70
     0
  9
$PDSIZE
 40
-1.0
  9
$PLINEWID
 40
0.0
  9
$SPLFRAME
 70
     0
  9
$SPLINETYPE
 70
     6
  9
$SPLINESEGS
 70
     8
  9
$HANDSEED
  5
151
  9
$SURFTAB1
 70
     6
  9
$SURFTAB2
 70
     6
  9
$SURFTYPE
 70
     6
  9
$SURFU
 70
     6
  9
$SURFV
 70
     6
  9
$UCSBASE
  2

  9
$UCSNAME
  2

  9
$UCSORG
 10
0.0
 20
0.0
 30
0.0
  9
$UCSXDIR
 10
1.0
 20
0.0
 30
0.0
  9
$UCSYDIR
 10
0.0
 20
1.0
 30
0.0
  9
$UCSORTHOREF
  2

  9
$UCSORTHOVIEW
 70
     0
  9
$UCSORGTOP
 10
0.0
 20
0.0
 30
0.0
  9
$UCSORGBOTTOM
 10
0.0
 20
0.0
 30
0.0
  9
$UCSORGLEFT
 10
0.0
 20
0.0
 30
0.0
  9
$UCSORGRIGHT
 10
0.0
 20
0.0
 30
0.0
  9
$UCSORGFRONT
 10
0.0
 20
0.0
 30
0.0
  9
$UCSORGBACK
 10
0.0
 20
0.0
 30
0.0
  9
$PUCSBASE
  2

  9
$PUCSNAME
  2

  9
$PUCSORG
 10
0.0
 20
0.0
 30
0.0
  9
$PUCSXDIR
 10
1.0
 20
0.0
 30
0.0
  9
$PUCSYDIR
 10
0.0
 20
1.0
 30
0.0
  9
$PUCSORTHOREF
  2

  9
$PUCSORTHOVIEW
 70
     0
  9
$PUCSORGTOP
 10
0.0
 20
0.0
 30
0.0
  9
$PUCSORGBOTTOM
 10
0.0
 20
0.0
 30
0.0
  9
$PUCSORGLEFT
 10
0.0
 20
0.0
 30
0.0
  9
$PUCSORGRIGHT
 10
0.0
 20
0.0
 30
0.0
  9
$PUCSORGFRONT
 10
0.0
 20
0.0
 30
0.0
  9
$PUCSORGBACK
 10
0.0
 20
0.0
 30
0.0
  9
$USERI1
 70
     0
  9
$USERI2
 70
     0
  9
$USERI3
 70
     0
  9
$USERI4
 70
     0
  9
$USERI5
 70
     0
  9
$USERR1
 40
0.0
  9
$USERR2
 40
0.0
  9
$USERR3
 40
0.0
  9
$USERR4
 40
0.0
  9
$USERR5
 40
0.0
  9
$WORLDVIEW
 70
     1
  9
$SHADEDGE
 70
     3
  9
$SHADEDIF
 70
    70
  9
$TILEMODE
 70
     1
  9
$MAXACTVP
 70
    64
  9
$PINSBASE
 10
0.0
 20
0.0
 30
0.0
  9
$PLIMCHECK
 70
     0
  9
$PEXTMIN
 10
1.000000000000000E+20
 20
1.000000000000000E+20
 30
1.000000000000000E+20
  9
$PEXTMAX
 10
-1.000000000000000E+20
 20
-1.000000000000000E+20
 30
-1.000000000000000E+20
  9
$PLIMMIN
 10
0.0
 20
0.0
  9
$PLIMMAX
 10
420.0
 20
297.0
  9
$UNITMODE
 70
     0
  9
$VISRETAIN
 70
     1
  9
$PLINEGEN
 70
     0
  9
$PSLTSCALE
 70
     1
  9
$TREEDEPTH
 70
  3020
  9
$CMLSTYLE
  2
Standard
  9
$CMLJUST
 70
     0
  9
$CMLSCALE
 40
20.0
  9
$PROXYGRAPHICS
 70
     1
  9
$MEASUREMENT
 70
     1
  9
$CELWEIGHT
370
    -1
  9
$ENDCAPS
280
     0
  9
$JOINSTYLE
280
     0
  9
$LWDISPLAY
290
     1
  9
$INSUNITS
 70
     4
  9
$HYPERLINKBASE
  1

  9
$STYLESHEET
  1

  9
$XEDIT
290
     1
  9
$CEPSNTYPE
380
     0
  9
$PSTYLEMODE
290
     1
  9
$FINGERPRINTGUID
  2
{E2760FF2-8B33-43A3-A6F7-D4620693321A}
  9
$VERSIONGUID
  2
{4CDA77D6-1FDC-49E6-99CB-69A170451C42}
  9
$EXTNAMES
290
     1
  9
$PSVPSCALE
 40
0.0
  9
$OLESTARTUP
290
     0
  9
$SORTENTS
280
   127
  9
$INDEXCTL
280
     0
  9
$HIDETEXT
280
     0
  9
$XCLIPFRAME
290
     0
  9
$HALOGAP
280
     0
  9
$OBSCOLOR
 70
   257
  9
$OBSLTYPE
280
     0
  9
$INTERSECTIONDISPLAY
280
     0
  9
$INTERSECTIONCOLOR
 70
   257
  9
$DIMASSOC
280
     1
  9
$PROJECTNAME
  1

  9
$CAMERADISPLAY
290
     0
  9
$LENSLENGTH
 40
50.0
  9
$CAMERAHEIGHT
 40
0.0
  9
$STEPSPERSEC
 40
2.0
  9
$STEPSIZE
 40
6.0
  9
$3DDWFPREC
 40
2.0
  9
$PSOLWIDTH
 40
0.25
  9
$PSOLHEIGHT
 40
4.0
  9
$LOFTANG1
 40
1.570796326794896
  9
$LOFTANG2
 40
1.570796326794896
  9
$LOFTMAG1
 40
0.0
  9
$LOFTMAG2
 40
0.0
  9
$LOFTPARAM
 70
     7
  9
$LOFTNORMALS
280
     1
  9
$LATITUDE
 40
37.795
  9
$LONGITUDE
 40
-122.394
  9
$NORTHDIRECTION
 40
0.0
  9
$TIMEZONE
 70
 -8000
  9
$LIGHTGLYPHDISPLAY
280
     1
  9
$TILEMODELIGHTSYNCH
280
     1
  9
$CMATERIAL
347
D7
  9
$SOLIDHIST
280
     1
  9
$SHOWHIST
280
     1
  9
$DWFFRAME
280
     2
  9
$DGNFRAME
280
     0
  9
$REALWORLDSCALE
290
     1
  9
$INTERFERECOLOR
 62
     1
  9
$INTERFEREOBJVS
345
F9
  9
$INTERFEREVPVS
346
F6
  9
$CSHADOW
280
     0
  9
$SHADOWPLANELOCATION
 40
0.0
  0
ENDSEC
  0
SECTION
  2
CLASSES
  0
CLASS
  1
ACDBDICTIONARYWDFLT
  2
AcDbDictionaryWithDefault
  3
ObjectDBX Classes
 90
        0
 91
        1
280
     0
281
     0
  0
CLASS
  1
VISUALSTYLE
  2
AcDbVisualStyle
  3
ObjectDBX Classes
 90
     4095
 91
       16
280
     0
281
     0
  0
CLASS
  1
MATERIAL
  2
AcDbMaterial
  3
ObjectDBX Classes
 90
     1153
 91
        3
280
     0
281
     0
  0
CLASS
  1
TABLESTYLE
  2
AcDbTableStyle
  3
ObjectDBX Classes
 90
     4095
 91
        1
280
     0
281
     0
  0
CLASS
  1
SCALE
  2
AcDbScale
  3
ObjectDBX Classes
 90
     1153
 91
       17
280
     0
281
     0
  0
CLASS
  1
MLEADERSTYLE
  2
AcDbMLeaderStyle
  3
ACDB_MLEADERSTYLE_CLASS
 90
     4095
 91
        1
280
     0
281
     0
  0
CLASS
  1
DICTIONARYVAR
  2
AcDbDictionaryVar
  3
ObjectDBX Classes
 90
        0
 91
        7
280
     0
281
     0
  0
CLASS
  1
CELLSTYLEMAP
  2
AcDbCellStyleMap
  3
ObjectDBX Classes
 90
     1152
 91
        1
280
     0
281
     0
  0
ENDSEC
  0
SECTION
  2
TABLES
  0
TABLE
  2
VPORT
  5
8
330
0
100
AcDbSymbolTable
 70
     1
  0
VPORT
  5
29
330
8
100
AcDbSymbolTableRecord
100
AcDbViewportTableRecord
  2
*Active
 70
     0
 10
0.0
 20
0.0
 11
1.0
 21
1.0
 12
30339.81503756927
 22
82380.72767088393
 13
0.0
 23
0.0
 14
10.0
 24
10.0
 15
10.0
 25
10.0
 16
0.0
 26
0.0
 36
1.0
 17
0.0
 27
0.0
 37
0.0
 40
738.8609077105282
 41
2.550695825049701
 42
50.0
 43
0.0
 44
0.0
 50
0.0
 51
0.0
 71
     0
 72
  2000
 73
     1
 74
     3
 75
     0
 76
     0
 77
     0
 78
     0
281
     0
 65
     1
110
0.0
120
0.0
130
0.0
111
1.0
121
0.0
131
0.0
112
0.0
122
1.0
132
0.0
 79
     0
146
0.0
348
F5
 60
     3
 61
     5
292
     1
282
     1
141
0.0
142
0.0
 63
   250
421
  3355443
  0
ENDTAB
  0
TABLE
  2
LTYPE
  5
5
330
0
100
AcDbSymbolTable
 70
     6
  0
LTYPE
  5
14
330
5
100
AcDbSymbolTableRecord
100
AcDbLinetypeTableRecord
  2
ByBlock
 70
     0
  3

 72
    65
 73
     0
 40
0.0
  0
LTYPE
  5
15
330
5
100
AcDbSymbolTableRecord
100
AcDbLinetypeTableRecord
  2
ByLayer
 70
     0
  3

 72
    65
 73
     0
 40
0.0
  0
LTYPE
  5
16
330
5
100
AcDbSymbolTableRecord
100
AcDbLinetypeTableRecord
  2
Continuous
 70
     0
  3
Solid line
 72
    65
 73
     0
 40
0.0
  0
LTYPE
  5
3F
330
5
100
AcDbSymbolTableRecord
100
AcDbLinetypeTableRecord
  2
HIDDEN
 70
     0
  3
Hidden __ __ __ __ __ __ __ __ __ __ __ __ __ __
 72
    65
 73
     2
 40
1.905
 49
1.27
 74
     0
 49
-0.635
 74
     0
  0
LTYPE
  5
40
330
5
100
AcDbSymbolTableRecord
100
AcDbLinetypeTableRecord
  2
PHANTOM
 70
     0
  3
Phantom ______  __  __  ______  __  __  ______
 72
    65
 73
     6
 40
12.7
 49
6.349999999999999
 74
     0
 49
-1.27
 74
     0
 49
1.27
 74
     0
 49
-1.27
 74
     0
 49
1.27
 74
     0
 49
-1.27
 74
     0
  0
LTYPE
  5
41
330
5
100
AcDbSymbolTableRecord
100
AcDbLinetypeTableRecord
  2
CENTER
 70
     0
  3
Center ____ _ ____ _ ____ _ ____ _ ____ _ ____
 72
    65
 73
     4
 40
10.16
 49
6.349999999999999
 74
     0
 49
-1.27
 74
     0
 49
1.27
 74
     0
 49
-1.27
 74
     0
  0
LTYPE
  5
42
330
5
100
AcDbSymbolTableRecord
100
AcDbLinetypeTableRecord
  2
CENTERX2
 70
     0
  3
Center (2x) ________  __  ________  __  _____
 72
    65
 73
     4
 40
20.32
 49
12.7
 74
     0
 49
-2.54
 74
     0
 49
2.54
 74
     0
 49
-2.54
 74
     0
  0
LTYPE
  5
43
330
5
100
AcDbSymbolTableRecord
100
AcDbLinetypeTableRecord
  2
DOT2
 70
     0
  3
Dot (.5x) ........................................
 72
    65
 73
     2
 40
0.635
 49
0.0
 74
     0
 49
-0.635
 74
     0
  0
ENDTAB
  0
TABLE
  2
LAYER
  5
2
330
0
100
AcDbSymbolTable
 70
     2
  0
LAYER
  5
10
102
{ACAD_XDICTIONARY
360
144
102
}
330
2
100
AcDbSymbolTableRecord
100
AcDbLayerTableRecord
  2
0
 70
     0
 62
     7
  6
Continuous
370
    -3
390
F
347
E7
  0
LAYER
  5
11B
330
2
100
AcDbSymbolTableRecord
100
AcDbLayerTableRecord
  2
Defpoints
 70
     0
 62
     7
  6
Continuous
290
     0
370
    -3
390
F
347
E7
  0
ENDTAB
  0
TABLE
  2
STYLE
  5
3
330
0
100
AcDbSymbolTable
 70
     1
  0
STYLE
  5
11
330
3
100
AcDbSymbolTableRecord
100
AcDbTextStyleTableRecord
  2
Standard
 70
     0
 40
0.0
 41
1.0
 50
0.0
 71
     0
 42
1750.0
  3
txt
  4

  0
ENDTAB
  0
TABLE
  2
VIEW
  5
6
330
0
100
AcDbSymbolTable
 70
     0
  0
ENDTAB
  0
TABLE
  2
UCS
  5
7
330
0
100
AcDbSymbolTable
 70
     0
  0
ENDTAB
  0
TABLE
  2
APPID
  5
9
330
0
100
AcDbSymbolTable
 70
     2
  0
APPID
  5
12
330
9
100
AcDbSymbolTableRecord
100
AcDbRegAppTableRecord
  2
ACAD
 70
     0
  0
APPID
  5
117
330
9
100
AcDbSymbolTableRecord
100
AcDbRegAppTableRecord
  2
ACAD_MLEADERVER
 70
     0
  0
ENDTAB
  0
TABLE
  2
DIMSTYLE
  5
A
330
0
100
AcDbSymbolTable
 70
     1
100
AcDbDimStyleTable
 71
     1
340
27
  0
DIMSTYLE
105
27
330
A
100
AcDbSymbolTableRecord
100
AcDbDimStyleTableRecord
  2
ISO-25
 70
     0
 41
2.5
 42
0.625
 43
3.75
 44
1.25
 73
     0
 74
     0
 77
     1
 78
     8
140
2.5
141
2.5
143
0.03937007874016
147
0.625
171
     3
172
     1
271
     2
272
     2
274
     3
278
    44
283
     0
284
     8
340
11
  0
ENDTAB
  0
TABLE
  2
BLOCK_RECORD
  5
1
330
0
100
AcDbSymbolTable
 70
     3
  0
BLOCK_RECORD
  5
1F
330
1
100
AcDbSymbolTableRecord
100
AcDbBlockTableRecord
  2
*Model_Space
340
22
 70
     0
280
     1
281
     0
  0
BLOCK_RECORD
  5
1B
330
1
100
AcDbSymbolTableRecord
100
AcDbBlockTableRecord
  2
*Paper_Space
340
1E
 70
     0
280
     1
281
     0
  0
BLOCK_RECORD
  5
23
330
1
100
AcDbSymbolTableRecord
100
AcDbBlockTableRecord
  2
*Paper_Space0
340
26
 70
     0
280
     1
281
     0
  0
BLOCK_RECORD
  5
11C
330
1
100
AcDbSymbolTableRecord
100
AcDbBlockTableRecord
  2
*D1
340
0
 70
     0
280
     1
281
     0
  0
BLOCK_RECORD
  5
129
330
1
100
AcDbSymbolTableRecord
100
AcDbBlockTableRecord
  2
*D2
340
0
 70
     0
280
     1
281
     0
  0
ENDTAB
  0
ENDSEC
  0
SECTION
  2
BLOCKS
  0
BLOCK
  5
20
330
1F
100
AcDbEntity
  8
0
100
AcDbBlockBegin
  2
*Model_Space
 70
     0
 10
0.0
 20
0.0
 30
0.0
  3
*Model_Space
  1

  0
ENDBLK
  5
21
330
1F
100
AcDbEntity
  8
0
100
AcDbBlockEnd
  0
BLOCK
  5
1C
330
1B
100
AcDbEntity
 67
     1
  8
0
100
AcDbBlockBegin
  2
*Paper_Space
 70
     0
 10
0.0
 20
0.0
 30
0.0
  3
*Paper_Space
  1

  0
ENDBLK
  5
1D
330
1B
100
AcDbEntity
 67
     1
  8
0
100
AcDbBlockEnd
  0
BLOCK
  5
24
330
23
100
AcDbEntity
 67
     1
  8
0
100
AcDbBlockBegin
  2
*Paper_Space0
 70
     0
 10
0.0
 20
0.0
 30
0.0
  3
*Paper_Space0
  1

  0
ENDBLK
  5
25
330
23
100
AcDbEntity
 67
     1
  8
0
100
AcDbBlockEnd
  0
BLOCK
  5
11D
330
11C
100
AcDbEntity
  8
0
100
AcDbBlockBegin
  2
*D1
 70
     1
 10
0.0
 20
0.0
 30
0.0
  3
*D1
  1

  0
LINE
  5
11F
330
11C
100
AcDbEntity
  8
0
 62
     0
370
    -2
100
AcDbLine
 10
8400.880877926498
 20
90250.89470735851
 30
0.0
 11
8400.880877926498
 21
83261.65481330759
 31
0.0
  0
LINE
  5
120
330
11C
100
AcDbEntity
  8
0
 62
     0
370
    -2
100
AcDbLine
 10
39519.4807695891
 20
90250.89208475414
 30
0.0
 11
39519.4807695891
 21
83261.65481330759
 31
0.0
  0
LINE
  5
121
330
11C
100
AcDbEntity
  8
0
 62
     0
370
    -2
100
AcDbLine
 10
10150.8808779265
 20
83761.6548133076
 30
0.0
 11
37769.4807695891
 21
83761.6548133076
 31
0.0
  0
SOLID
  5
122
330
11C
100
AcDbEntity
  8
0
 62
     0
100
AcDbTrace
 10
10150.8808779265
 20
84053.32147997427
 30
0.0
 11
10150.8808779265
 21
83469.98814664093
 31
0.0
 12
8400.880877926498
 22
83761.6548133076
 32
0.0
 13
8400.880877926498
 23
83761.6548133076
 33
0.0
  0
SOLID
  5
123
330
11C
100
AcDbEntity
  8
0
 62
     0
100
AcDbTrace
 10
37769.4807695891
 20
84053.32147997427
 30
0.0
 11
37769.4807695891
 21
83469.98814664093
 31
0.0
 12
39519.4807695891
 22
83761.6548133076
 32
0.0
 13
39519.4807695891
 23
83761.6548133076
 33
0.0
  0
MTEXT
  5
124
330
11C
100
AcDbEntity
  8
0
 62
     0
100
AcDbMText
 10
23960.1808237578
 20
86282.48814664093
 30
0.0
 40
1750.0
 41
0.0
 46
0.0
 71
     5
 72
     1
  1
31118,60
 73
     1
 44
1.0
  0
POINT
  5
125
330
11C
100
AcDbEntity
  8
Defpoints
 62
     0
100
AcDbPoint
 10
8400.880877926498
 20
90255.89470735852
 30
0.0
  0
POINT
  5
126
330
11C
100
AcDbEntity
  8
Defpoints
 62
     0
100
AcDbPoint
 10
39519.4807695891
 20
90255.89208475414
 30
0.0
  0
POINT
  5
127
330
11C
100
AcDbEntity
  8
Defpoints
 62
     0
100
AcDbPoint
 10
39519.4807695891
 20
83761.6548133076
 30
0.0
  0
ENDBLK
  5
11E
330
11C
100
AcDbEntity
  8
0
100
AcDbBlockEnd
  0
BLOCK
  5
12A
330
129
100
AcDbEntity
  8
0
100
AcDbBlockBegin
  2
*D2
 70
     1
 10
0.0
 20
0.0
 30
0.0
  3
*D2
  1

  0
LINE
  5
138
330
129
100
AcDbEntity
  8
0
 62
     0
370
    -2
100
AcDbLine
 10
30708.75338826356
 20
82726.70393287512
 30
0.0
 11
31440.77953723687
 21
82726.70393287512
 31
0.0
  0
LINE
  5
139
330
129
100
AcDbEntity
  8
0
 62
     0
370
    -2
100
AcDbLine
 10
30708.75338826356
 20
82486.70410945075
 30
0.0
 11
31440.77953723687
 21
82486.70410945075
 31
0.0
  0
LINE
  5
13A
330
129
100
AcDbEntity
  8
0
 62
     0
370
    -2
100
AcDbLine
 10
30940.77953723687
 20
84476.70393287511
 30
0.0
 11
30940.77953723687
 21
86226.70393287512
 31
0.0
  0
LINE
  5
13B
330
129
100
AcDbEntity
  8
0
 62
     0
370
    -2
100
AcDbLine
 10
30940.77953723687
 20
80736.70410945076
 30
0.0
 11
30940.77953723687
 21
78986.70410945076
 31
0.0
  0
LINE
  5
13C
330
129
100
AcDbEntity
  8
0
 62
     0
370
    -2
100
AcDbLine
 10
30940.77953723687
 20
78986.70410945076
 30
0.0
 11
21274.1128705702
 21
78986.70410945076
 31
0.0
  0
LINE
  5
13D
330
129
100
AcDbEntity
  8
0
 62
     0
370
    -2
100
AcDbLine
 10
30940.77953723687
 20
82726.70393287512
 30
0.0
 11
30940.77953723687
 21
82486.70410945075
 31
0.0
  0
SOLID
  5
13E
330
129
100
AcDbEntity
  8
0
 62
     0
100
AcDbTrace
 10
30649.1128705702
 20
84476.70393287511
 30
0.0
 11
31232.44620390354
 21
84476.70393287511
 31
0.0
 12
30940.77953723687
 22
82726.70393287512
 32
0.0
 13
30940.77953723687
 23
82726.70393287512
 33
0.0
  0
SOLID
  5
13F
330
129
100
AcDbEntity
  8
0
 62
     0
100
AcDbTrace
 10
30649.1128705702
 20
80736.70410945076
 30
0.0
 11
31232.44620390354
 21
80736.70410945076
 31
0.0
 12
30940.77953723687
 22
82486.70410945075
 32
0.0
 13
30940.77953723687
 23
82486.70410945075
 33
0.0
  0
MTEXT
  5
140
330
129
100
AcDbEntity
  8
0
 62
     0
100
AcDbMText
 10
25357.44620390352
 20
81507.53744278409
 30
0.0
 40
1750.0
 41
0.0
 46
0.0
 71
     5
 72
     1
  1
240,00
 73
     1
 44
1.0
  0
POINT
  5
141
330
129
100
AcDbEntity
  8
Defpoints
 62
     0
100
AcDbPoint
 10
30703.75338826356
 20
82726.70393287512
 30
0.0
  0
POINT
  5
142
330
129
100
AcDbEntity
  8
Defpoints
 62
     0
100
AcDbPoint
 10
30703.75338826356
 20
82486.70410945075
 30
0.0
  0
POINT
  5
143
330
129
100
AcDbEntity
  8
Defpoints
 62
     0
100
AcDbPoint
 10
30940.77953723687
 20
82486.70410945075
 30
0.0
  0
ENDBLK
  5
12B
330
129
100
AcDbEntity
  8
0
100
AcDbBlockEnd
  0
ENDSEC
  0
SECTION
  2
ENTITIES
  0
SPLINE
  5
44
330
1F
100
AcDbEntity
  8
0
  6
Continuous
 62
     7
370
    15
100
AcDbSpline
210
0.0
220
0.0
230
1.0
 70
     8
 71
     3
 72
    10
 73
     6
 74
     0
 42
0.0000000001
 43
0.0000000001
 40
0.0
 40
0.0
 40
0.0
 40
0.0
 40
0.2765637210580267
 40
0.6327600107877806
 40
1.0
 40
1.0
 40
1.0
 40
1.0
 10
30703.74642167897
 20
82726.70373410027
 30
0.0
 10
30703.74240975067
 20
82726.70364022383
 30
0.0
 10
30703.73323071667
 20
82726.70342544053
 30
0.0
 10
30703.68548746556
 20
82726.70283177184
 30
0.0
 10
30703.6252498718
 20
82726.70238807011
 30
0.0
 10
30703.59467129297
 20
82726.70216283255
 30
0.0
  0
SPLINE
  5
45
330
1F
100
AcDbEntity
  8
0
  6
Continuous
 62
     7
370
    15
100
AcDbSpline
210
0.0
220
0.0
230
1.0
 70
     8
 71
     3
 72
    10
 73
     6
 74
     0
 42
0.0000000001
 43
0.0000000001
 40
0.0
 40
0.0
 40
0.0
 40
0.0
 40
0.5416171638129494
 40
0.7922912134368251
 40
1.0
 40
1.0
 40
1.0
 40
1.0
 10
30703.59467129297
 20
82486.7058794933
 30
0.0
 10
30703.61958590594
 20
82486.70565814654
 30
0.0
 10
30703.65603162859
 20
82486.7053343549
 30
0.0
 10
30703.68259064699
 20
82486.70508300268
 30
0.0
 10
30703.68409904425
 20
82486.70510350164
 30
0.0
 10
30703.68478255013
 20
82486.70511279041
 30
0.0
  0
SPLINE
  5
46
330
1F
100
AcDbEntity
  8
0
  6
Continuous
 62
     7
370
    15
100
AcDbSpline
210
0.0
220
0.0
230
1.0
 70
     8
 71
     3
 72
    12
 73
     8
 74
     0
 42
0.0000000001
 43
0.0000000001
 40
0.0
 40
0.0
 40
0.0
 40
0.0
 40
0.2165426131021871
 40
0.4426927704814378
 40
0.6782062976452506
 40
0.903176108584857
 40
1.0
 40
1.0
 40
1.0
 40
1.0
 10
30703.68546406384
 20
82486.70512225587
 30
0.0
 10
30703.6833862668
 20
82486.70518292064
 30
0.0
 10
30703.6791384852
 20
82486.70530694177
 30
0.0
 10
30703.65484528553
 20
82486.70584681272
 30
0.0
 10
30703.62411089207
 20
82486.70664214616
 30
0.0
 10
30703.60037615682
 20
82486.70742509034
 30
0.0
 10
30703.60274307113
 20
82486.70761945135
 30
0.0
 10
30703.60345524745
 20
82486.70767793226
 30
0.0
  0
LINE
  5
47
330
1F
100
AcDbEntity
  8
0
  6
Continuous
 62
     7
370
    15
100
AcDbLine
 10
30703.75338826356
 20
82726.70393287512
 30
0.0
 11
30703.75338826356
 21
82712.14869313213
 31
0.0
  0
LINE
  5
48
330
1F
100
AcDbEntity
  8
0
  6
Continuous
 62
     7
370
    15
100
AcDbLine
 10
29403.92046368175
 20
82712.14872152853
 30
0.0
 11
30703.75338826356
 21
82712.14869313213
 31
0.0
  0
LINE
  5
4A
330
1F
100
AcDbEntity
  8
0
  6
Continuous
 62
     7
370
    15
100
AcDbLine
 10
29403.92046368175
 20
82712.90594005268
 30
0.0
 11
29403.92046368175
 21
82712.14872152853
 31
0.0
  0
LINE
  5
4B
330
1F
100
AcDbEntity
  8
0
  6
Continuous
 62
     7
370
    15
100
AcDbLine
 10
29403.92046368175
 20
82712.90594005268
 30
0.0
 11
29403.92046368175
 21
82726.70395180604
 31
0.0
  0
LINE
  5
4C
330
1F
100
AcDbEntity
  8
0
  6
Continuous
 62
     7
370
    15
100
AcDbLine
 10
30703.75338826356
 20
82726.70393287512
 30
0.0
 11
29403.92046368175
 21
82726.70395180604
 31
0.0
  0
LINE
  5
4D
330
1F
100
AcDbEntity
  8
0
  6
Continuous
 62
     7
370
    15
100
AcDbLine
 10
30703.75338826356
 20
82712.14869313213
 30
0.0
 11
30703.75338826356
 21
82501.25934919374
 31
0.0
  0
LINE
  5
4E
330
1F
100
AcDbEntity
  8
0
  6
Continuous
 62
     7
370
    15
100
AcDbLine
 10
29403.92046368175
 20
82712.14872152853
 30
0.0
 11
29403.92046368175
 21
82501.25934919374
 31
0.0
  0
LINE
  5
4F
330
1F
100
AcDbEntity
  8
0
  6
Continuous
 62
     7
370
    15
100
AcDbLine
 10
29403.92046368175
 20
82501.25934919374
 30
0.0
 11
30703.75338826356
 21
82501.25934919374
 31
0.0
  0
LINE
  5
50
330
1F
100
AcDbEntity
  8
0
  6
Continuous
 62
     7
370
    15
100
AcDbLine
 10
29403.92046368175
 20
82500.50214960053
 30
0.0
 11
29403.92046368175
 21
82501.25934919374
 31
0.0
  0
LINE
  5
52
330
1F
100
AcDbEntity
  8
0
  6
Continuous
 62
     7
370
    15
100
AcDbLine
 10
29403.92046368175
 20
82486.70410945075
 30
0.0
 11
29403.92046368175
 21
82500.50214960053
 31
0.0
  0
LINE
  5
53
330
1F
100
AcDbEntity
  8
0
  6
Continuous
 62
     7
370
    15
100
AcDbLine
 10
29403.92046368175
 20
82486.70410945075
 30
0.0
 11
30703.75338826356
 21
82486.70410945075
 31
0.0
  0
LINE
  5
54
330
1F
100
AcDbEntity
  8
0
  6
Continuous
 62
     7
370
    15
100
AcDbLine
 10
30703.75338826356
 20
82501.25934919374
 30
0.0
 11
30703.75338826356
 21
82486.70410945075
 31
0.0
  0
LINE
  5
55
330
1F
100
AcDbEntity
  8
0
  6
Continuous
 62
     7
370
    15
100
AcDbLine
 10
29439.51149489397
 20
82678.3879095816
 30
0.0
 11
30674.95261889674
 21
82678.38778179777
 31
0.0
  0
LINE
  5
56
330
1F
100
AcDbEntity
  8
0
  6
Continuous
 62
     7
370
    15
100
AcDbLine
 10
30674.95261889674
 20
82536.26150996629
 30
0.0
 11
29439.51149489397
 21
82536.26161408643
 31
0.0
  0
LINE
  5
57
330
1F
100
AcDbEntity
  8
0
  6
Continuous
 62
     7
370
    15
100
AcDbLine
 10
30674.95261889674
 20
82536.26150996629
 30
0.0
 11
30674.95261889674
 21
82678.38778179777
 31
0.0
  0
LINE
  5
58
330
1F
100
AcDbEntity
  8
0
  6
Continuous
 62
     7
370
    15
100
AcDbLine
 10
29439.51149489397
 20
82678.3879095816
 30
0.0
 11
29439.51149489397
 21
82536.26161408643
 31
0.0
  0
ARC
  5
59
330
1F
100
AcDbEntity
  8
0
  6
Continuous
 62
     7
370
    15
100
AcDbCircle
 10
31202.02085324613
 20
82713.13100962819
 30
0.0
 40
3.915359545161019
100
AcDbArc
 50
170.6310560566959
 51
180.1378165958931
  0
LINE
  5
5A
330
1F
100
AcDbEntity
  8
0
  6
Continuous
 62
     7
370
    15
100
AcDbLine
 10
31198.1103927587
 20
82712.90594005268
 30
0.0
 11
31198.86760418374
 21
82726.70395180604
 31
0.0
  0
LINE
  5
5B
330
1F
100
AcDbEntity
  8
0
  6
Continuous
 62
     7
370
    15
100
AcDbLine
 10
31197.79674855434
 20
82726.70395180604
 30
0.0
 11
31198.10550502756
 21
82713.12161074536
 31
0.0
  0
LINE
  5
5C
330
1F
100
AcDbEntity
  8
0
  6
Continuous
 62
     7
370
    15
100
AcDbLine
 10
31198.10550502756
 20
82713.12159181443
 30
0.0
 11
31198.11040340735
 21
82712.90611989657
 31
0.0
  0
LINE
  5
5D
330
1F
100
AcDbEntity
  8
0
  6
Continuous
 62
     7
370
    15
100
AcDbLine
 10
31198.86760418374
 20
82726.70395180604
 30
0.0
 11
31197.79674855434
 21
82726.70395180604
 31
0.0
  0
LINE
  5
5E
330
1F
100
AcDbEntity
  8
0
  6
Continuous
 62
     7
370
    15
100
AcDbLine
 10
31198.86761719876
 20
82726.70393287512
 30
0.0
 11
31198.86760418374
 21
82712.14872152853
 31
0.0
  0
LINE
  5
5F
330
1F
100
AcDbEntity
  8
0
  6
Continuous
 62
     7
370
    15
100
AcDbLine
 10
31198.1103927587
 20
82712.90594005268
 30
0.0
 11
31198.86760418374
 21
82712.14872152853
 31
0.0
  0
LINE
  5
60
330
1F
100
AcDbEntity
  8
0
  6
Continuous
 62
     7
370
    15
100
AcDbLine
 10
31198.86761719876
 20
82726.70393287512
 30
0.0
 11
31198.86760418374
 21
82726.70395180604
 31
0.0
  0
LINE
  5
61
330
1F
100
AcDbEntity
  8
0
  6
Continuous
 62
     7
370
    15
100
AcDbLine
 10
31198.86760418374
 20
82712.14887297603
 30
0.0
 11
31198.86761719876
 21
82712.14869313213
 31
0.0
  0
LINE
  5
62
330
1F
100
AcDbEntity
  8
0
  6
Continuous
 62
     7
370
    15
100
AcDbLine
 10
31198.86760418374
 20
82712.14872152853
 30
0.0
 11
31198.86760655011
 21
82712.14871206305
 31
0.0
  0
LINE
  5
63
330
1F
100
AcDbEntity
  8
0
  6
Continuous
 62
     7
370
    15
100
AcDbLine
 10
31198.86760418374
 20
82712.14872152853
 30
0.0
 11
31189.87445694183
 21
82712.14872152853
 31
0.0
  0
LINE
  5
64
330
1F
100
AcDbEntity
  8
0
  6
Continuous
 62
     7
370
    15
100
AcDbLine
 10
31189.11725320748
 20
82712.90594005268
 30
0.0
 11
31189.87445694183
 21
82712.14872152853
 31
0.0
  0
LINE
  5
65
330
1F
100
AcDbEntity
  8
0
  6
Continuous
 62
     7
370
    15
100
AcDbLine
 10
31198.1103927587
 20
82712.90594005268
 30
0.0
 11
31189.11725320748
 21
82712.90594005268
 31
0.0
  0
LINE
  5
66
330
1F
100
AcDbEntity
  8
0
  6
Continuous
 62
     7
370
    15
100
AcDbLine
 10
31198.86760773329
 20
82712.14871206305
 30
0.0
 11
31198.86761719876
 21
82712.14869313213
 31
0.0
  0
LINE
  5
67
330
1F
100
AcDbEntity
  8
0
  6
Continuous
 62
     7
370
    15
100
AcDbLine
 10
31198.86761719876
 20
82712.14869313213
 30
0.0
 11
31189.8744735064
 21
82712.14869313213
 31
0.0
  0
LINE
  5
68
330
1F
100
AcDbEntity
  8
0
  6
Continuous
 62
     7
370
    15
100
AcDbLine
 10
31189.87445694183
 20
82712.14872152853
 30
0.0
 11
31189.8744735064
 21
82712.14869313213
 31
0.0
  0
LINE
  5
69
330
1F
100
AcDbEntity
  8
0
  6
Continuous
 62
     7
370
    15
100
AcDbLine
 10
31189.11725320748
 20
82500.50214960053
 30
0.0
 11
31189.11725320748
 21
82712.90594005268
 31
0.0
  0
LINE
  5
6A
330
1F
100
AcDbEntity
  8
0
  6
Continuous
 62
     7
370
    15
100
AcDbLine
 10
31189.11725794021
 20
82500.50212120411
 30
0.0
 11
31189.11725320748
 21
82500.50214960053
 31
0.0
  0
LINE
  5
6B
330
1F
100
AcDbEntity
  8
0
  6
Continuous
 62
     7
370
    15
100
AcDbLine
 10
31189.87445694183
 20
82712.14872152853
 30
0.0
 11
31189.87445694183
 21
82501.25934919374
 31
0.0
  0
LINE
  5
6C
330
1F
100
AcDbEntity
  8
0
  6
Continuous
 62
     7
370
    15
100
AcDbLine
 10
31189.11725320748
 20
82500.50214960053
 30
0.0
 11
31189.87445694183
 21
82501.25934919374
 31
0.0
  0
LINE
  5
6D
330
1F
100
AcDbEntity
  8
0
  6
Continuous
 62
     7
370
    15
100
AcDbLine
 10
31189.8744735064
 20
82712.14869313213
 30
0.0
 11
31189.87447232322
 21
82678.3879095816
 31
0.0
  0
LINE
  5
6E
330
1F
100
AcDbEntity
  8
0
  6
Continuous
 62
     7
370
    15
100
AcDbLine
 10
31189.87446581571
 20
82536.26152416448
 30
0.0
 11
31189.87446404094
 21
82501.25934919374
 31
0.0
  0
LINE
  5
6F
330
1F
100
AcDbEntity
  8
0
  6
Continuous
 62
     7
370
    15
100
AcDbLine
 10
31189.87445694183
 20
82501.25934919374
 30
0.0
 11
31198.86760418374
 21
82501.25934919374
 31
0.0
  0
LINE
  5
70
330
1F
100
AcDbEntity
  8
0
  6
Continuous
 62
     7
370
    15
100
AcDbLine
 10
31198.11039630824
 20
82500.50214960053
 30
0.0
 11
31198.86760418374
 21
82501.25934919374
 31
0.0
  0
LINE
  5
71
330
1F
100
AcDbEntity
  8
0
  6
Continuous
 62
     7
370
    15
100
AcDbLine
 10
31189.11725320748
 20
82500.50214960053
 30
0.0
 11
31198.11039630824
 21
82500.50214960053
 31
0.0
  0
LINE
  5
72
330
1F
100
AcDbEntity
  8
0
  6
Continuous
 62
     7
370
    15
100
AcDbLine
 10
31189.11725794021
 20
82500.50212120411
 30
0.0
 11
31198.11040340735
 21
82500.50212120411
 31
0.0
  0
LINE
  5
73
330
1F
100
AcDbEntity
  8
0
  6
Continuous
 62
     7
370
    15
100
AcDbLine
 10
31198.86760418374
 20
82501.25934919374
 30
0.0
 11
31198.8676148324
 21
82501.25934919374
 31
0.0
  0
LINE
  5
74
330
1F
100
AcDbEntity
  8
0
  6
Continuous
 62
     7
370
    15
100
AcDbLine
 10
31198.86760418374
 20
82486.70410945075
 30
0.0
 11
31198.11039630824
 21
82500.50214960053
 31
0.0
  0
LINE
  5
75
330
1F
100
AcDbEntity
  8
0
  6
Continuous
 62
     7
370
    15
100
AcDbLine
 10
31197.79674855434
 20
82486.70410945075
 30
0.0
 11
31198.86760418374
 21
82486.70410945075
 31
0.0
  0
LINE
  5
76
330
1F
100
AcDbEntity
  8
0
  6
Continuous
 62
     7
370
    15
100
AcDbLine
 10
31198.11040340735
 20
82500.50212120411
 30
0.0
 11
31197.79674855434
 21
82486.70410945075
 31
0.0
  0
LINE
  5
77
330
1F
100
AcDbEntity
  8
0
  6
Continuous
 62
     7
370
    15
100
AcDbLine
 10
31197.796759203
 20
82486.70410945075
 30
0.0
 11
31197.79674855434
 21
82486.70410945075
 31
0.0
  0
LINE
  5
78
330
1F
100
AcDbEntity
  8
0
  6
Continuous
 62
     7
370
    15
100
AcDbLine
 10
31198.86760418374
 20
82501.25934919374
 30
0.0
 11
31198.86761719876
 21
82486.70410945075
 31
0.0
  0
LINE
  5
79
330
1F
100
AcDbEntity
  8
0
  6
Continuous
 62
     7
370
    15
100
AcDbLine
 10
31198.86760418374
 20
82486.70410945075
 30
0.0
 11
31198.86761719876
 21
82486.70410945075
 31
0.0
  0
LINE
  5
7A
330
1F
100
AcDbEntity
  8
0
  6
Continuous
 62
     7
370
    15
100
AcDbLine
 10
31189.87445694183
 20
82678.3879095816
 30
0.0
 11
31271.59424762311
 21
82678.3879095816
 31
0.0
  0
LINE
  5
7B
330
1F
100
AcDbEntity
  8
0
  6
Continuous
 62
     7
370
    15
100
AcDbLine
 10
31271.59424762311
 20
82678.3879095816
 30
0.0
 11
31271.59420976124
 21
82536.26161408643
 31
0.0
  0
LINE
  5
7C
330
1F
100
AcDbEntity
  8
0
  6
Continuous
 62
     7
370
    15
100
AcDbLine
 10
31189.87445694183
 20
82536.2616377501
 30
0.0
 11
31271.59420976124
 21
82536.26161408643
 31
0.0
  0
LINE
  5
7D
330
1F
100
AcDbEntity
  8
0
  6
Continuous
 62
     7
370
    15
100
AcDbLine
 10
31271.59424762311
 20
82678.3879095816
 30
0.0
 11
31271.59426655405
 21
82678.38778179777
 31
0.0
  0
LINE
  5
7E
330
1F
100
AcDbEntity
  8
0
  6
Continuous
 62
     7
370
    15
100
AcDbLine
 10
31189.87446581571
 20
82536.26152416448
 30
0.0
 11
31271.59426655405
 21
82536.26150996629
 31
0.0
  0
LINE
  5
7F
330
1F
100
AcDbEntity
  8
0
  6
Continuous
 62
     7
370
    15
100
AcDbLine
 10
31271.59426655405
 20
82536.26150996629
 30
0.0
 11
31271.59420976124
 21
82536.26161408643
 31
0.0
  0
LINE
  5
80
330
1F
100
AcDbEntity
  8
0
  6
Continuous
 62
     7
370
    15
100
AcDbLine
 10
31271.59426655405
 20
82536.26150996629
 30
0.0
 11
31271.59426655405
 21
82678.38778179777
 31
0.0
  0
LINE
  5
81
330
1F
100
AcDbEntity
  8
0
  6
Continuous
 62
     7
370
    15
100
AcDbLine
 10
31271.59426655405
 20
82678.38778179777
 30
0.0
 11
31271.59423815764
 21
82536.26157149183
 31
0.0
  0
LINE
  5
82
330
1F
100
AcDbEntity
  8
0
  6
Continuous
 62
     7
370
    15
100
AcDbLine
 10
31271.59423815764
 20
82536.26150996629
 30
0.0
 11
31271.59420976124
 21
82536.26161408643
 31
0.0
  0
LINE
  5
83
330
1F
100
AcDbEntity
  8
0
  6
Continuous
 62
     7
370
    15
100
AcDbLine
 10
31182.85426450556
 20
82510.50388388936
 30
0.0
 11
31182.85426429362
 21
82510.50388388936
 31
0.0
  0
LINE
  5
84
330
1F
100
AcDbEntity
  8
0
  6
Continuous
 62
     7
370
    15
100
AcDbLine
 10
31184.33984077224
 20
82707.30272364188
 30
0.0
 11
31184.33984077224
 21
82509.45339676432
 31
0.0
  0
LINE
  5
85
330
1F
100
AcDbEntity
  8
0
  6
Continuous
 62
     7
370
    15
100
AcDbLine
 10
31184.33984077224
 20
82707.30272364188
 30
0.0
 11
31188.52214443267
 21
82707.30272364188
 31
0.0
  0
LINE
  5
86
330
1F
100
AcDbEntity
  8
0
  6
Continuous
 62
     7
370
    15
100
AcDbLine
 10
31188.52214443267
 20
82707.30272364188
 30
0.0
 11
31188.5221420663
 21
82509.45339676432
 31
0.0
  0
LINE
  5
87
330
1F
100
AcDbEntity
  8
0
  6
Continuous
 62
     7
370
    15
100
AcDbLine
 10
31184.33984077224
 20
82509.45339676432
 30
0.0
 11
31188.5221420663
 21
82509.45339676432
 31
0.0
  0
LINE
  5
88
330
1F
100
AcDbEntity
  8
0
  6
Continuous
 62
     7
370
    15
100
AcDbLine
 10
31184.33984077224
 20
82509.45339676432
 30
0.0
 11
31184.33982391188
 21
82509.45339676432
 31
0.0
  0
LINE
  5
89
330
1F
100
AcDbEntity
  8
0
  6
Continuous
 62
     7
370
    15
100
AcDbLine
 10
31184.33982391188
 20
82707.30272364188
 30
0.0
 11
31184.33984077224
 21
82707.30272364188
 31
0.0
  0
LINE
  5
8A
330
1F
100
AcDbEntity
  8
0
  6
Continuous
 62
     7
370
    15
100
AcDbLine
 10
31188.5221420663
 20
82509.45339676432
 30
0.0
 11
31188.52214384107
 21
82526.5408101607
 31
0.0
  0
LINE
  5
8B
330
1F
100
AcDbEntity
  8
0
  6
Continuous
 62
     7
370
    15
100
AcDbLine
 10
31183.68990090658
 20
82509.51904925168
 30
0.0
 11
31183.68990090658
 21
82707.23708062
 31
0.0
  0
LINE
  5
8C
330
1F
100
AcDbEntity
  8
0
  6
Continuous
 62
     7
370
    15
100
AcDbLine
 10
31183.68990090658
 20
82707.23708062
 30
0.0
 11
31184.33984077224
 21
82707.30272364188
 31
0.0
  0
LINE
  5
8D
330
1F
100
AcDbEntity
  8
0
  6
Continuous
 62
     7
370
    15
100
AcDbLine
 10
31183.68990090658
 20
82509.51904925168
 30
0.0
 11
31184.33984077224
 21
82509.45339676432
 31
0.0
  0
LINE
  5
8E
330
1F
100
AcDbEntity
  8
0
  6
Continuous
 62
     7
370
    15
100
AcDbLine
 10
31183.22565980925
 20
82509.71601617921
 30
0.0
 11
31183.22565980925
 21
82707.04011369247
 31
0.0
  0
LINE
  5
8F
330
1F
100
AcDbEntity
  8
0
  6
Continuous
 62
     7
370
    15
100
AcDbLine
 10
31183.22565980925
 20
82707.04011369247
 30
0.0
 11
31183.68990090658
 21
82707.23708062
 31
0.0
  0
LINE
  5
90
330
1F
100
AcDbEntity
  8
0
  6
Continuous
 62
     7
370
    15
100
AcDbLine
 10
31183.22565980925
 20
82509.71601617921
 30
0.0
 11
31183.68990090658
 21
82509.51904925168
 31
0.0
  0
LINE
  5
91
330
1F
100
AcDbEntity
  8
0
  6
Continuous
 62
     7
370
    15
100
AcDbLine
 10
31182.94711271977
 20
82510.04428808146
 30
0.0
 11
31182.94711271977
 21
82706.71182285926
 31
0.0
  0
LINE
  5
92
330
1F
100
AcDbEntity
  8
0
  6
Continuous
 62
     7
370
    15
100
AcDbLine
 10
31182.94711271977
 20
82706.71182285926
 30
0.0
 11
31183.22565980925
 21
82707.04011369247
 31
0.0
  0
LINE
  5
93
330
1F
100
AcDbEntity
  8
0
  6
Continuous
 62
     7
370
    15
100
AcDbLine
 10
31182.94711271977
 20
82510.04428808146
 30
0.0
 11
31183.22565980925
 21
82509.71601617921
 31
0.0
  0
LINE
  5
94
330
1F
100
AcDbEntity
  8
0
  6
Continuous
 62
     7
370
    15
100
AcDbLine
 10
31182.85426450556
 20
82706.25227437873
 30
0.0
 11
31182.94711271977
 21
82706.71182285926
 31
0.0
  0
LINE
  5
95
330
1F
100
AcDbEntity
  8
0
  6
Continuous
 62
     7
370
    15
100
AcDbLine
 10
31182.85426450556
 20
82510.50388388936
 30
0.0
 11
31182.85426450556
 21
82706.25227437873
 31
0.0
  0
LINE
  5
96
330
1F
100
AcDbEntity
  8
0
  6
Continuous
 62
     7
370
    15
100
AcDbLine
 10
31182.85426450556
 20
82510.50388388936
 30
0.0
 11
31182.94711271977
 21
82510.04428808146
 31
0.0
  0
LINE
  5
97
330
1F
100
AcDbEntity
  8
0
  6
Continuous
 62
     7
370
    15
100
AcDbLine
 10
31182.94709817956
 20
82706.7118133938
 30
0.0
 11
31182.94709817956
 21
82706.71174713553
 31
0.0
  0
LINE
  5
98
330
1F
100
AcDbEntity
  8
0
  6
Continuous
 62
     7
370
    15
100
AcDbLine
 10
31182.94709817956
 20
82510.04436380521
 30
0.0
 11
31182.94709817956
 21
82510.04426915052
 31
0.0
  0
LINE
  5
99
330
1F
100
AcDbEntity
  8
0
  6
Continuous
 62
     7
370
    15
100
AcDbLine
 10
31182.8542499666
 20
82510.50388388936
 30
0.0
 11
31182.85425723608
 21
82608.37806848538
 31
0.0
  0
LINE
  5
9A
330
1F
100
AcDbEntity
  8
0
  6
Continuous
 62
     7
370
    15
100
AcDbLine
 10
31182.85426316905
 20
82688.25791768238
 30
0.0
 11
31182.85426429362
 21
82703.39877647671
 31
0.0
  0
LINE
  5
9B
330
1F
100
AcDbEntity
  8
0
  6
Continuous
 62
     7
370
    15
100
AcDbLine
 10
31182.94709817956
 20
82510.04426915052
 30
0.0
 11
31182.8542499666
 21
82510.50388388936
 31
0.0
  0
LINE
  5
9C
330
1F
100
AcDbEntity
  8
0
  6
Continuous
 62
     7
370
    15
100
AcDbLine
 10
31182.87630431379
 20
82706.36136389958
 30
0.0
 11
31182.94709817956
 21
82706.7118133938
 31
0.0
  0
LINE
  5
9D
330
1F
100
AcDbEntity
  8
0
  6
Continuous
 62
     7
370
    15
100
AcDbLine
 10
31182.94709817956
 20
82510.04426915052
 30
0.0
 11
31183.21732450317
 21
82509.72584133519
 31
0.0
  0
LINE
  5
9E
330
1F
100
AcDbEntity
  8
0
  6
Continuous
 62
     7
370
    15
100
AcDbLine
 10
31182.94709817956
 20
82706.7118133938
 30
0.0
 11
31183.02126533622
 21
82706.79921752707
 31
0.0
  0
LINE
  5
9F
330
1F
100
AcDbEntity
  8
0
  6
Continuous
 62
     7
370
    15
100
AcDbLine
 10
31183.60084571467
 20
82707.19930393646
 30
0.0
 11
31183.68988633863
 21
82707.23708062
 31
0.0
  0
LINE
  5
A0
330
1F
100
AcDbEntity
  8
0
  6
Continuous
 62
     7
370
    15
100
AcDbLine
 10
31184.3018487493
 20
82509.45723974441
 30
0.0
 11
31184.33982391188
 21
82509.45339676432
 31
0.0
  0
LINE
  5
A1
330
1F
100
AcDbEntity
  8
0
  6
Continuous
 62
     7
370
    15
100
AcDbLine
 10
31183.68988633863
 20
82707.23708062
 30
0.0
 11
31184.33982391188
 21
82707.30272364188
 31
0.0
  0
LINE
  5
A2
330
1F
100
AcDbEntity
  8
0
  6
Continuous
 62
     7
370
    15
100
AcDbLine
 10
31182.8542499666
 20
82688.25798394065
 30
0.0
 11
31182.85426450291
 21
82528.52729010756
 31
0.0
  0
LINE
  5
A3
330
1F
100
AcDbEntity
  8
0
  6
Continuous
 62
     7
370
    15
100
AcDbLine
 10
31182.85426450556
 20
82688.25791768238
 30
0.0
 11
31182.8542499666
 21
82688.25798394065
 31
0.0
  0
LINE
  5
A4
330
1F
100
AcDbEntity
  8
0
  6
Continuous
 62
     7
370
    15
100
AcDbLine
 10
31188.66779787397
 20
82526.5408101607
 30
0.0
 11
31188.66779787397
 21
82689.31683853956
 31
0.0
  0
LINE
  5
A5
330
1F
100
AcDbEntity
  8
0
  6
Continuous
 62
     7
370
    15
100
AcDbLine
 10
31188.52214443267
 20
82689.31683853956
 30
0.0
 11
31188.66779787397
 21
82689.31683853956
 31
0.0
  0
LINE
  5
A6
330
1F
100
AcDbEntity
  8
0
  6
Continuous
 62
     7
370
    15
100
AcDbLine
 10
31188.52214384107
 20
82526.5408101607
 30
0.0
 11
31188.66779787397
 21
82526.5408101607
 31
0.0
  0
SPLINE
  5
A7
330
1F
100
AcDbEntity
  8
0
  6
Continuous
 62
     7
370
    15
100
AcDbSpline
210
0.0
220
0.0
230
1.0
 70
     8
 71
     3
 72
   479
 73
   475
 74
     0
 42
0.0000000001
 43
0.0000000001
 40
0.0
 40
0.0
 40
0.0
 40
0.0
 40
0.0000131401187887
 40
0.0000271398317375
 40
0.0000719160733256
 40
0.0001097756926731
 40
0.0001244963183641
 40
0.0001424618055917
 40
0.0001716546580416
 40
0.0002357583447998
 40
0.0003401039983769
 40
0.0004877516016405
 40
0.0006325219884929
 40
0.0007727296534244
 40
0.0009229743141799
 40
0.0012879061900049
 40
0.0016509643303772
 40
0.0019560549362228
 40
0.0022964436230786
 40
0.002598016488931
 40
0.0028771745014931
 40
0.0032029301086566
 40
0.0035905848728605
 40
0.0038349235694855
 40
0.0040429644800324
 40
0.0042371452104341
 40
0.0044321788346826
 40
0.0046475135819461
 40
0.0048880603439089
 40
0.0051533046556199
 40
0.0054184754111587
 40
0.0056726588789094
 40
0.00597636665735
 40
0.006245484504544
 40
0.0064972219760032
 40
0.0067401792006053
 40
0.0069838521925216
 40
0.0072355690081777
 40
0.0075250401188116
 40
0.0078859596033932
 40
0.0082670358981393
 40
0.008650784872549
 40
0.0090125774266797
 40
0.0093424720292567
 40
0.0097073811151142
 40
0.0100514547733021
 40
0.0103868375201164
 40
0.0107127186630124
 40
0.0110593535360834
 40
0.0114459327609233
 40
0.0118699639615658
 40
0.0123264584526583
 40
0.0128078480705951
 40
0.0133007502784352
 40
0.0137935318650548
 40
0.014264092914533
 40
0.0146949060773507
 40
0.0150868112232067
 40
0.0154600865886751
 40
0.0158184741336429
 40
0.0162597494565653
 40
0.0166998824737049
 40
0.0171429016739783
 40
0.0176136833466347
 40
0.0181182050352462
 40
0.0186620694605578
 40
0.0192493005676268
 40
0.0200987932788538
 40
0.0209451238686394
 40
0.0217705282174971
 40
0.0225553341036511
 40
0.0232165192349234
 40
0.0238356647718277
 40
0.0244125278911456
 40
0.0249707379452853
 40
0.0255174805106899
 40
0.0260522582320323
 40
0.0265829167439782
 40
0.0271170522084548
 40
0.0276277690596285
 40
0.0281469026511618
 40
0.0287059503939224
 40
0.0293110950513568
 40
0.0299635779813273
 40
0.0306511555167458
 40
0.0314824701776174
 40
0.0323367950146899
 40
0.0332058707213384
 40
0.0340526790916102
 40
0.0348882590771659
 40
0.0356924895364128
 40
0.0364510688053554
 40
0.0371583601435912
 40
0.0378126239683802
 40
0.0384373397200085
 40
0.0390557383310115
 40
0.0396676534009803
 40
0.0402727133556706
 40
0.0408703409748107
 40
0.0414602470387893
 40
0.0420421419331068
 40
0.0426262307788063
 40
0.0432448713871541
 40
0.0439688415861449
 40
0.0447392661327228
 40
0.0455535728729671
 40
0.0464003547809877
 40
0.047279362227638
 40
0.0483374937643534
 40
0.0494400840300788
 40
0.0505592132353744
 40
0.0516790345962138
 40
0.0527991338628036
 40
0.0539191799946321
 40
0.0550319135166586
 40
0.0560135515720239
 40
0.0569525788523682
 40
0.0578477107942137
 40
0.0586977456986787
 40
0.0595064178222993
 40
0.060296584380606
 40
0.0614752497478894
 40
0.0626153692380289
 40
0.0637228346221104
 40
0.0648264337039149
 40
0.0659292363923058
 40
0.06703091091693
 40
0.0681521968435993
 40
0.0691751719960735
 40
0.0702382492239653
 40
0.071342133420886
 40
0.0724798975701448
 40
0.073637770765366
 40
0.0748157119011431
 40
0.0760139694152874
 40
0.077226861087186
 40
0.0784725533959202
 40
0.0796846025899004
 40
0.0808620549011697
 40
0.0820039573877608
 40
0.0831093570898167
 40
0.0841977470308535
 40
0.0861750204834032
 40
0.0881550587343654
 40
0.0901376547023206
 40
0.0913401533472951
 40
0.092597391501957
 40
0.0939102810685763
 40
0.0952797754022377
 40
0.0964168474175149
 40
0.0975914066384136
 40
0.0988006740158866
 40
0.1000179412660633
 40
0.1012371119299492
 40
0.1060432515962912
 40
0.1074128627128931
 40
0.1087836717900379
 40
0.1101334085560771
 40
0.1114483459597092
 40
0.1127278210659601
 40
0.1139710463439109
 40
0.1151773169263543
 40
0.1163459284095912
 40
0.1175290513234811
 40
0.1186757596182049
 40
0.1198035963675038
 40
0.1209134327337513
 40
0.122004978344156
 40
0.1230778186959861
 40
0.1246796939640148
 40
0.1262371505846758
 40
0.1277805035277457
 40
0.12932464096594
 40
0.1308694800129587
 40
0.1323872358192318
 40
0.1339053616529193
 40
0.1354399063247731
 40
0.1370172023963337
 40
0.1383105119448438
 40
0.1396321010209479
 40
0.1409823014653333
 40
0.1423614447003377
 40
0.1437727654890433
 40
0.145199841159367
 40
0.1466686316238083
 40
0.1481796757827154
 40
0.1497335121382582
 40
0.1512071448061722
 40
0.1527181791992456
 40
0.154262924399621
 40
0.1558116476994981
 40
0.1573581289386007
 40
0.1634096284896637
 40
0.1660972128984163
 40
0.1687577110621783
 40
0.1713689379833136
 40
0.1739291528442517
 40
0.175939625838974
 40
0.1779156354880822
 40
0.1798557719979628
 40
0.181756719044013
 40
0.1836173984599533
 40
0.1854049270247732
 40
0.1871522303489858
 40
0.1888585618993899
 40
0.1905232998677774
 40
0.1926231497281873
 40
0.1946867540351349
 40
0.1967308653403342
 40
0.1987549865567689
 40
0.2007587028040077
 40
0.2027414755328498
 40
0.2047028898620436
 40
0.2073655838041523
 40
0.2100222189105652
 40
0.2126871841125049
 40
0.2153604381522399
 40
0.2166334540526057
 40
0.2179082936528315
 40
0.2191849153286917
 40
0.2204633189177323
 40
0.2217447902113147
 40
0.223054208685236
 40
0.2246458856640527
 40
0.226290430594165
 40
0.2279883819108711
 40
0.2297402374168678
 40
0.2315840210009356
 40
0.2334850671923477
 40
0.2354440391283545
 40
0.2374616002746408
 40
0.2395343086751552
 40
0.2416297382817616
 40
0.2437407569245501
 40
0.2474726648414371
 40
0.2512528325102803
 40
0.2550817992149386
 40
0.2589599376396678
 40
0.262027920093352
 40
0.2650608605961469
 40
0.2680531201870319
 40
0.2710037039285412
 40
0.2732456860626906
 40
0.2754619164890939
 40
0.2776520637122716
 40
0.279815671565296
 40
0.2819523669478743
 40
0.2840481763131715
 40
0.2859749311522861
 40
0.2878531704854832
 40
0.2896823969849251
 40
0.2914621130266726
 40
0.2931917798236723
 40
0.2945945780864672
 40
0.2959620060110749
 40
0.2972938148578555
 40
0.2985897147169561
 40
0.2998494564205069
 40
0.3010801309600221
 40
0.3030487531108941
 40
0.3050746787318916
 40
0.3071584467637897
 40
0.3089804056333368
 40
0.3108451138828444
 40
0.3127528617130695
 40
0.3147040219590664
 40
0.3166989267004226
 40
0.3187379486326018
 40
0.3208214198328797
 40
0.3229476811857426
 40
0.325660747032861
 40
0.3284146115786573
 40
0.3312096892705749
 40
0.3340463535081853
 40
0.3369250184703786
 40
0.3392450321014903
 40
0.3415920788919604
 40
0.3439663245458318
 40
0.3463678937064124
 40
0.3487971177753586
 40
0.3512540799382041
 40
0.3537356700976728
 40
0.3561886485140744
 40
0.3587075533398246
 40
0.3611737144722535
 40
0.3635865512513074
 40
0.3659453798891934
 40
0.3682496404558094
 40
0.3704987319481135
 40
0.3726920946905149
 40
0.374829189610625
 40
0.3769094365572111
 40
0.3789323585170528
 40
0.3808974373969889
 40
0.3828041549779755
 40
0.3842610716132099
 40
0.3856842569144622
 40
0.3870998332010454
 40
0.3885142067086928
 40
0.3899273153755623
 40
0.3913391796835409
 40
0.3986110406391975
 40
0.4058458875354529
 40
0.4130409428688112
 40
0.4202317619151026
 40
0.427462088637634
 40
0.4347314462030005
 40
0.4365285605807699
 40
0.4383279758832597
 40
0.4401297127215445
 40
0.4419337709782683
 40
0.4437449398993769
 40
0.4455871852582786
 40
0.4478027674185762
 40
0.4500666537783961
 40
0.4523791552754363
 40
0.4547405827328165
 40
0.4572010241116537
 40
0.459713148661837
 40
0.4622773088973043
 40
0.4648938986750183
 40
0.4675632911215271
 40
0.4702858799800371
 40
0.4730620799510574
 40
0.4757833398575479
 40
0.4785499804878887
 40
0.4813368127078843
 40
0.4841402706467529
 40
0.4869603958789538
 40
0.4897972920523638
 40
0.4942893169083693
 40
0.4988231964184877
 40
0.5033992623724159
 40
0.5075208687365425
 40
0.5116765558757468
 40
0.5158664895222561
 40
0.5200905040685822
 40
0.5243059747837043
 40
0.5284835459634399
 40
0.5326225333380128
 40
0.5367223151473258
 40
0.5407822486877987
 40
0.5448017121964033
 40
0.5487800838039896
 40
0.552716752003917
 40
0.5557801987417336
 40
0.5588172427656808
 40
0.561827593766153
 40
0.5648089197914263
 40
0.5677494666510051
 40
0.5706470576536154
 40
0.5737586383693296
 40
0.5768181414664995
 40
0.5798251005329897
 40
0.582779028427834
 40
0.5856794795703028
 40
0.5885259979130568
 40
0.5913181272054603
 40
0.5938294390586333
 40
0.5962943644390311
 40
0.598712571573707
 40
0.6010837598866594
 40
0.6034227211474815
 40
0.6057559599655519
 40
0.6119795304470788
 40
0.6181641319636388
 40
0.6243086972786859
 40
0.6304121948303654
 40
0.6365833764232804
 40
0.6427085209983582
 40
0.6487848932504081
 40
0.654811384254074
 40
0.6607869108002451
 40
0.6633997215328234
 40
0.6660023632722695
 40
0.668594753100816
 40
0.6711767977361486
 40
0.673759904470744
 40
0.6763377888960366
 40
0.6789599520963709
 40
0.6816266246902459
 40
0.6843380374861909
 40
0.6871449585684194
 40
0.6899987574977602
 40
0.6928996884020026
 40
0.6958480115104035
 40
0.6988439898319015
 40
0.7018331132191676
 40
0.7048687179178815
 40
0.7079510631433333
 40
0.7110804121356934
 40
0.7143223540937879
 40
0.7176131293035106
 40
0.7209407663282402
 40
0.7243008918251072
 40
0.727693679406525
 40
0.7311193034230268
 40
0.7345779374863504
 40
0.7390180904080689
 40
0.7435121305047662
 40
0.7480604284120013
 40
0.7526633546745277
 40
0.7573212849307578
 40
0.7619499391012374
 40
0.7666323742216764
 40
0.7713689581574533
 40
0.7761600537691905
 40
0.7800324306625149
 40
0.7839401172284248
 40
0.7878585626731905
 40
0.7917465481330421
 40
0.7956031356788667
 40
0.8006054663935811
 40
0.805552801443955
 40
0.8104444723871417
 40
0.8151549625777095
 40
0.8198114575807263
 40
0.8244133874179023
 40
0.8289601612944986
 40
0.8334512401539905
 40
0.8378860540167492
 40
0.8422640638264679
 40
0.8455960945963289
 40
0.848893887412278
 40
0.8521571937728458
 40
0.855385806127219
 40
0.8573973462737681
 40
0.8593950275765514
 40
0.8613912160004314
 40
0.863424139885887
 40
0.8654965977483433
 40
0.8679439775112427
 40
0.8704446774569621
 40
0.8729988840696615
 40
0.8756068358257273
 40
0.8782687606693434
 40
0.880984865981993
 40
0.8837554108027935
 40
0.8863430760746384
 40
0.8889768781709722
 40
0.891656951669918
 40
0.8943835454948183
 40
0.8971568254840086
 40
0.8999769988532081
 40
0.9028442521709266
 40
0.905758792817742
 40
0.9087208488214074
 40
0.9117306065868177
 40
0.9147882735760218
 40
0.9178940778171257
 40
0.9208666846261836
 40
0.9238824738620708
 40
0.9269416322558324
 40
0.930044325484099
 40
0.9331907816562059
 40
0.9365759348494279
 40
0.9400107384926508
 40
0.9434954621545784
 40
0.9470303131337843
 40
0.9506155607582368
 40
0.9542514332968494
 40
0.9577261422190995
 40
0.9612463139345461
 40
0.9648121350121996
 40
0.9684238542105914
 40
0.9720816580988593
 40
0.9757857953565924
 40
0.9795364941706491
 40
0.9833339409525782
 40
0.9871784259996525
 40
0.9910701358811861
 40
0.9949385436270315
 40
0.9988529738784318
 40
1.0
 40
1.0
 40
1.0
 40
1.0
 10
29403.92046368175
 20
82105.88673462481
 30
0.0
 10
29403.92179981395
 20
82105.88768537419
 30
0.0
 10
29403.9245594848
 20
82105.88964906865
 30
0.0
 10
29403.93877613432
 20
82105.89385403071
 30
0.0
 10
29403.9633933338
 20
82105.89795276616
 30
0.0
 10
29403.98935102297
 20
82105.90093186107
 30
0.0
 10
29404.00929841871
 20
82105.90299375928
 30
0.0
 10
29404.02253625473
 20
82105.90343630693
 30
0.0
 10
29404.0460421268
 20
82105.90444322559
 30
0.0
 10
29404.08292067451
 20
82105.90597889265
 30
0.0
 10
29404.15148899151
 20
82105.91003624582
 30
0.0
 10
29404.26477749004
 20
82105.915224174
 30
0.0
 10
29404.38926286536
 20
82105.91992304628
 30
0.0
 10
29404.51841578594
 20
82105.92420208181
 30
0.0
 10
29404.7091180169
 20
82105.92988672512
 30
0.0
 10
29404.97084784014
 20
82105.93652398955
 30
0.0
 10
29405.27845108753
 20
82105.94320352708
 30
0.0
 10
29405.580536451
 20
82105.94907104134
 30
0.0
 10
29405.86463917113
 20
82105.95410865034
 30
0.0
 10
29406.14159858064
 20
82105.95865500691
 30
0.0
 10
29406.41456051776
 20
82105.96286897782
 30
0.0
 10
29406.71374230683
 20
82105.96722826966
 30
0.0
 10
29407.00274182212
 20
82105.97118594504
 30
0.0
 10
29407.25639682366
 20
82105.97449885367
 30
0.0
 10
29407.45173018704
 20
82105.9769656648
 30
0.0
 10
29407.63223523243
 20
82105.97918571034
 30
0.0
 10
29407.81500628777
 20
82105.98137460719
 30
0.0
 10
29408.01186023407
 20
82105.98367777466
 30
0.0
 10
29408.23001739051
 20
82105.98615585503
 30
0.0
 10
29408.4633253653
 20
82105.98873464
 30
0.0
 10
29408.70082348979
 20
82105.99128682607
 30
0.0
 10
29408.95002842278
 20
82105.99388956351
 30
0.0
 10
29409.20048556041
 20
82105.99644080019
 30
0.0
 10
29409.45029345246
 20
82105.99891561333
 30
0.0
 10
29409.68173828303
 20
82106.0011565704
 30
0.0
 10
29409.90550143981
 20
82106.00327774765
 30
0.0
 10
29410.12929109875
 20
82106.00535653094
 30
0.0
 10
29410.3672086058
 20
82106.00752430982
 30
0.0
 10
29410.64071712827
 20
82106.00996503377
 30
0.0
 10
29410.95350298789
 20
82106.01268774921
 30
0.0
 10
29411.29493914088
 20
82106.0155852184
 30
0.0
 10
29411.6367030016
 20
82106.01840912401
 30
0.0
 10
29411.96301404956
 20
82106.02104143209
 30
0.0
 10
29412.28364783371
 20
82106.0235743225
 30
0.0
 10
29412.5988888305
 20
82106.02601073881
 30
0.0
 10
29412.91584432749
 20
82106.02841182872
 30
0.0
 10
29413.22099702069
 20
82106.03068044282
 30
0.0
 10
29413.52693890543
 20
82106.03291363579
 30
0.0
 10
29413.8484559547
 20
82106.03521792803
 30
0.0
 10
29414.19981814898
 20
82106.03769162565
 30
0.0
 10
29414.58457108555
 20
82106.04034496471
 30
0.0
 10
29414.99814798511
 20
82106.04313736164
 30
0.0
 10
29415.43267620271
 20
82106.04601061712
 30
0.0
 10
29415.87826087559
 20
82106.04889155272
 30
0.0
 10
29416.32059044603
 20
82106.05169128502
 30
0.0
 10
29416.74408932281
 20
82106.05432092378
 30
0.0
 10
29417.13697252455
 20
82106.05671344438
 30
0.0
 10
29417.50032217339
 20
82106.0588940303
 30
0.0
 10
29417.84168605018
 20
82106.06090978124
 30
0.0
 10
29418.19806590703
 20
82106.06298871518
 30
0.0
 10
29418.57477860574
 20
82106.06515134069
 30
0.0
 10
29418.97722470626
 20
82106.06742992876
 30
0.0
 10
29419.3886569116
 20
82106.06971988367
 30
0.0
 10
29419.81967588153
 20
82106.07208496076
 30
0.0
 10
29420.2813627402
 20
82106.07457574262
 30
0.0
 10
29420.77846285164
 20
82106.07721318755
 30
0.0
 10
29421.38043628336
 20
82106.08035243421
 30
0.0
 10
29422.07437679135
 20
82106.08389149962
 30
0.0
 10
29422.84075410253
 20
82106.08770385567
 30
0.0
 10
29423.58750650674
 20
82106.091334281
 30
0.0
 10
29424.27800808678
 20
82106.09461664697
 30
0.0
 10
29424.90583509306
 20
82106.09754831082
 30
0.0
 10
29425.4704710434
 20
82106.10013710992
 30
0.0
 10
29426.00382320383
 20
82106.10255144196
 30
0.0
 10
29426.5151748972
 20
82106.10483083977
 30
0.0
 10
29427.01374014074
 20
82106.10702476778
 30
0.0
 10
29427.50393810884
 20
82106.1091557086
 30
0.0
 10
29427.99031204165
 20
82106.11124262953
 30
0.0
 10
29428.46937806521
 20
82106.11327516152
 30
0.0
 10
29428.94494922605
 20
82106.11526923393
 30
0.0
 10
29429.42810241177
 20
82106.11727115422
 30
0.0
 10
29429.93998266704
 20
82106.11937000859
 30
0.0
 10
29430.49242367205
 20
82106.12160633301
 30
0.0
 10
29431.08396531719
 20
82106.12396915454
 30
0.0
 10
29431.74429999863
 20
82106.12657242226
 30
0.0
 10
29432.46603413223
 20
82106.1293739743
 30
0.0
 10
29433.24298488576
 20
82106.13234302405
 30
0.0
 10
29434.02466685951
 20
82106.1352784908
 30
0.0
 10
29434.80067165567
 20
82106.13815031397
 30
0.0
 10
29435.55697608517
 20
82106.14090396861
 30
0.0
 10
29436.28646756556
 20
82106.14352304959
 30
0.0
 10
29436.97694419608
 20
82106.14597015554
 30
0.0
 10
29437.62180952884
 20
82106.14822528176
 30
0.0
 10
29438.22595576009
 20
82106.15031454336
 30
0.0
 10
29438.80306915863
 20
82106.1522897493
 30
0.0
 10
29439.3673119205
 20
82106.15420161875
 30
0.0
 10
29439.92558595106
 20
82106.15607428294
 30
0.0
 10
29440.47755079843
 20
82106.15790684816
 30
0.0
 10
29441.02282524219
 20
82106.15970335968
 30
0.0
 10
29441.56105744703
 20
82106.16145889165
 30
0.0
 10
29442.09517428849
 20
82106.1631837448
 30
0.0
 10
29442.63803581258
 20
82106.16492422374
 30
0.0
 10
29443.22412476991
 20
82106.16678648301
 30
0.0
 10
29443.8669045517
 20
82106.168807246
 30
0.0
 10
29444.56921746248
 20
82106.17099283211
 30
0.0
 10
29445.30890089204
 20
82106.17326773286
 30
0.0
 10
29446.08162353757
 20
82106.17561686261
 30
0.0
 10
29446.92852937105
 20
82106.17816329255
 30
0.0
 10
29447.85326702497
 20
82106.18090355254
 30
0.0
 10
29448.85106619294
 20
82106.18382236631
 30
0.0
 10
29449.86764505633
 20
82106.18674975188
 30
0.0
 10
29450.88956249149
 20
82106.18965340621
 30
0.0
 10
29451.91177038227
 20
82106.19251587434
 30
0.0
 10
29452.9318323439
 20
82106.19533372605
 30
0.0
 10
29453.90977966666
 20
82106.19800010016
 30
0.0
 10
29454.83266378631
 20
82106.20048317016
 30
0.0
 10
29455.68935219982
 20
82106.20276376836
 30
0.0
 10
29456.506008
 20
82106.20491303973
 30
0.0
 10
29457.28300957014
 20
82106.20693995656
 30
0.0
 10
29458.02808127878
 20
82106.20886319368
 30
0.0
 10
29458.87314411061
 20
82106.21102783731
 30
0.0
 10
29459.81905881734
 20
82106.21342293388
 30
0.0
 10
29460.86152296467
 20
82106.21603080346
 30
0.0
 10
29461.88115616248
 20
82106.21854930217
 30
0.0
 10
29462.88944328899
 20
82106.22101339579
 30
0.0
 10
29463.89597591974
 20
82106.22344219489
 30
0.0
 10
29464.90789772923
 20
82106.2258601848
 30
0.0
 10
29465.8955376266
 20
82106.22819048305
 30
0.0
 10
29466.87144001548
 20
82106.23047085116
 30
0.0
 10
29467.84205443428
 20
82106.23271627667
 30
0.0
 10
29468.84760267351
 20
82106.23501548795
 30
0.0
 10
29469.88200147072
 20
82106.23735697492
 30
0.0
 10
29470.93894120989
 20
82106.23972477891
 30
0.0
 10
29472.01429389494
 20
82106.24210652303
 30
0.0
 10
29473.10639451335
 20
82106.24449820173
 30
0.0
 10
29474.21911701249
 20
82106.246909921
 30
0.0
 10
29475.33604280332
 20
82106.24930355308
 30
0.0
 10
29476.44218991836
 20
82106.25164945408
 30
0.0
 10
29477.51676076635
 20
82106.25390360851
 30
0.0
 10
29478.5588840229
 20
82106.2560685784
 30
0.0
 10
29479.5739099981
 20
82106.25815533466
 30
0.0
 10
29480.84313927232
 20
82106.26074349582
 30
0.0
 10
29482.3785241074
 20
82106.26383279951
 30
0.0
 10
29484.18602492067
 20
82106.26740960808
 30
0.0
 10
29485.75777396139
 20
82106.27047293439
 30
0.0
 10
29487.10958327903
 20
82106.27307358077
 30
0.0
 10
29488.25760565893
 20
82106.27526030977
 30
0.0
 10
29489.45645126608
 20
82106.27752205462
 30
0.0
 10
29490.61873540554
 20
82106.2796919786
 30
0.0
 10
29491.73892997898
 20
82106.28176419607
 30
0.0
 10
29492.8103703513
 20
82106.28372954007
 30
0.0
 10
29493.90621937429
 20
82106.28571929493
 30
0.0
 10
29495.01564795811
 20
82106.2877186759
 30
0.0
 10
29497.21965265899
 20
82106.29165142533
 30
0.0
 10
29499.47003637795
 20
82106.29558345798
 30
0.0
 10
29501.76658376597
 20
82106.29950737894
 30
0.0
 10
29503.01129287556
 20
82106.30161511575
 30
0.0
 10
29504.23936790781
 20
82106.30367531251
 30
0.0
 10
29505.43965263218
 20
82106.30566928657
 30
0.0
 10
29506.60752749005
 20
82106.30759394971
 30
0.0
 10
29507.74233613052
 20
82106.30944939701
 30
0.0
 10
29508.84341014693
 20
82106.3112325692
 30
0.0
 10
29509.9261965648
 20
82106.31297399416
 30
0.0
 10
29510.99085985859
 20
82106.31467280606
 30
0.0
 10
29512.04311747705
 20
82106.31634069407
 30
0.0
 10
29513.07307409783
 20
82106.31795907415
 30
0.0
 10
29514.08624511561
 20
82106.31954107483
 30
0.0
 10
29515.08268135267
 20
82106.32108596479
 30
0.0
 10
29516.22886079363
 20
82106.32285164182
 30
0.0
 10
29517.51683292132
 20
82106.32481670856
 30
0.0
 10
29518.94799912731
 20
82106.32698299678
 30
0.0
 10
29520.36159759289
 20
82106.32909827481
 30
0.0
 10
29521.7713591967
 20
82106.3311902785
 30
0.0
 10
29523.17333385106
 20
82106.33325225199
 30
0.0
 10
29524.56739547231
 20
82106.33528267305
 30
0.0
 10
29525.95832713826
 20
82106.33729039821
 30
0.0
 10
29527.36738160857
 20
82106.33930634882
 30
0.0
 10
29528.70802046812
 20
82106.34120601934
 30
0.0
 10
29529.98385211212
 20
82106.34299973628
 30
0.0
 10
29531.19057322787
 20
82106.34468349509
 30
0.0
 10
29532.42341870331
 20
82106.34639067482
 30
0.0
 10
29533.68357562746
 20
82106.34812388784
 30
0.0
 10
29534.96713046009
 20
82106.34987167917
 30
0.0
 10
29536.27797184649
 20
82106.3516459937
 30
0.0
 10
29537.61916552403
 20
82106.35344605202
 30
0.0
 10
29538.99894022373
 20
82106.3552802992
 30
0.0
 10
29540.38019216401
 20
82106.3571050263
 30
0.0
 10
29541.76144375496
 20
82106.35891158956
 30
0.0
 10
29543.13993136803
 20
82106.36070181486
 30
0.0
 10
29544.54127515988
 20
82106.36250635966
 30
0.0
 10
29545.95340947121
 20
82106.36430906388
 30
0.0
 10
29548.73714599329
 20
82106.36783661692
 30
0.0
 10
29551.86750110909
 20
82106.37172177442
 30
0.0
 10
29555.33691708834
 20
82106.37593402463
 30
0.0
 10
29557.75930716057
 20
82106.37883499353
 30
0.0
 10
29560.14293960896
 20
82106.38165296989
 30
0.0
 10
29562.32874389039
 20
82106.38420275319
 30
0.0
 10
29564.32122577191
 20
82106.38650116118
 30
0.0
 10
29566.12499054319
 20
82106.38856376101
 30
0.0
 10
29567.89542491817
 20
82106.39056610329
 30
0.0
 10
29569.63076063602
 20
82106.39251228565
 30
0.0
 10
29571.31965270278
 20
82106.39438945589
 30
0.0
 10
29572.96178552277
 20
82106.39619907416
 30
0.0
 10
29574.5569439585
 20
82106.39794147354
 30
0.0
 10
29576.11473291082
 20
82106.3996293612
 30
0.0
 10
29577.77982241244
 20
82106.40142118926
 30
0.0
 10
29579.55365047547
 20
82106.40331111202
 30
0.0
 10
29581.44294523684
 20
82106.40530520995
 30
0.0
 10
29583.3091951058
 20
82106.40725788733
 30
0.0
 10
29585.15722028271
 20
82106.40917128355
 30
0.0
 10
29586.98658009144
 20
82106.41105064897
 30
0.0
 10
29588.79685700006
 20
82106.41289223838
 30
0.0
 10
29590.80770070498
 20
82106.4149211992
 30
0.0
 10
29593.02364218146
 20
82106.41713278636
 30
0.0
 10
29595.45371811802
 20
82106.41952897967
 30
0.0
 10
29597.88701251459
 20
82106.42190233519
 30
0.0
 10
29599.89919503243
 20
82106.42384386455
 30
0.0
 10
29601.48828402813
 20
82106.42535959413
 30
0.0
 10
29602.65229673224
 20
82106.42646833763
 30
0.0
 10
29603.81795010761
 20
82106.42756931509
 30
0.0
 10
29604.98562309293
 20
82106.42866624819
 30
0.0
 10
29606.16327865113
 20
82106.42976803434
 30
0.0
 10
29607.43628289324
 20
82106.43095238022
 30
0.0
 10
29608.819793776
 20
82106.43223035633
 30
0.0
 10
29610.32155933019
 20
82106.43360926031
 30
0.0
 10
29611.87207897343
 20
82106.43502190077
 30
0.0
 10
29613.48324023591
 20
82106.43647934846
 30
0.0
 10
29615.15621770661
 20
82106.43798176494
 30
0.0
 10
29616.89223487505
 20
82106.43953032379
 30
0.0
 10
29618.68114534679
 20
82106.44111007892
 30
0.0
 10
29620.52230495543
 20
82106.44272627435
 30
0.0
 10
29622.40499935602
 20
82106.44436321757
 30
0.0
 10
29624.3161404308
 20
82106.44601037222
 30
0.0
 10
29626.73228242795
 20
82106.44807677043
 30
0.0
 10
29629.66120005785
 20
82106.4505502961
 30
0.0
 10
29633.11300412152
 20
82106.45342348851
 30
0.0
 10
29636.6093205963
 20
82106.45628897244
 30
0.0
 10
29639.88887898071
 20
82106.4589358651
 30
0.0
 10
29642.92615881345
 20
82106.46135574302
 30
0.0
 10
29645.6938113894
 20
82106.46353306433
 30
0.0
 10
29648.42573488357
 20
82106.46565966216
 30
0.0
 10
29650.91692030805
 20
82106.46757497675
 30
0.0
 10
29653.17191058874
 20
82106.46929145564
 30
0.0
 10
29655.19545112337
 20
82106.47081834025
 30
0.0
 10
29657.19513849829
 20
82106.47231724108
 30
0.0
 10
29659.17061960125
 20
82106.47378180299
 30
0.0
 10
29661.11738885404
 20
82106.4752170613
 30
0.0
 10
29662.99206891089
 20
82106.47658685696
 30
0.0
 10
29664.78808477157
 20
82106.47788916649
 30
0.0
 10
29666.50296270013
 20
82106.47912224818
 30
0.0
 10
29668.17308769828
 20
82106.48031830366
 30
0.0
 10
29669.79799319409
 20
82106.48147077133
 30
0.0
 10
29671.29310819612
 20
82106.48252671154
 30
0.0
 10
29672.6627361981
 20
82106.48348618656
 30
0.0
 10
29673.91126930388
 20
82106.48435863971
 30
0.0
 10
29675.12726667319
 20
82106.48520339619
 30
0.0
 10
29676.3104877718
 20
82106.48602054126
 30
0.0
 10
29677.46292778051
 20
82106.4868140448
 30
0.0
 10
29678.82012417121
 20
82106.48774252423
 30
0.0
 10
29680.41052483997
 20
82106.48882481876
 30
0.0
 10
29682.26058208253
 20
82106.49007635458
 30
0.0
 10
29684.06600017824
 20
82106.49128545261
 30
0.0
 10
29685.82234949754
 20
82106.49245668706
 30
0.0
 10
29687.52512412087
 20
82106.49358280397
 30
0.0
 10
29689.2672243945
 20
82106.49472716037
 30
0.0
 10
29691.04895392372
 20
82106.49588853121
 30
0.0
 10
29692.87063973615
 20
82106.49707012526
 30
0.0
 10
29694.7325985872
 20
82106.4982673972
 30
0.0
 10
29696.6345389594
 20
82106.49948055884
 30
0.0
 10
29698.74164033162
 20
82106.50081657959
 30
0.0
 10
29701.05279187515
 20
82106.50226765052
 30
0.0
 10
29703.56751425581
 20
82106.50383182288
 30
0.0
 10
29706.11985901203
 20
82106.50540469899
 30
0.0
 10
29708.71019136286
 20
82106.50698366746
 30
0.0
 10
29711.15592998292
 20
82106.50846166071
 30
0.0
 10
29713.45264390473
 20
82106.5098355892
 30
0.0
 10
29715.59582774726
 20
82106.51110534547
 30
0.0
 10
29717.76383662782
 20
82106.51238337609
 30
0.0
 10
29719.95685918765
 20
82106.51366130914
 30
0.0
 10
29722.17506031341
 20
82106.51494572989
 30
0.0
 10
29724.41761883823
 20
82106.51623190834
 30
0.0
 10
29726.66740937485
 20
82106.51751323664
 30
0.0
 10
29728.93605480728
 20
82106.51879093772
 30
0.0
 10
29731.20000567888
 20
82106.52005746149
 30
0.0
 10
29733.45173943031
 20
82106.52130509568
 30
0.0
 10
29735.65475165797
 20
82106.52251724784
 30
0.0
 10
29737.80848627699
 20
82106.52369018953
 30
0.0
 10
29739.91238232464
 20
82106.5248284002
 30
0.0
 10
29741.96591567734
 20
82106.52593162839
 30
0.0
 10
29743.96856888633
 20
82106.52699673664
 30
0.0
 10
29745.91983118474
 20
82106.52802919018
 30
0.0
 10
29747.81921605248
 20
82106.52902447609
 30
0.0
 10
29749.66624453006
 20
82106.52998818714
 30
0.0
 10
29751.46045558382
 20
82106.53091651414
 30
0.0
 10
29753.08238891603
 20
82106.5317509222
 30
0.0
 10
29754.53938324899
 20
82106.53249660067
 30
0.0
 10
29755.84688627256
 20
82106.53315968144
 30
0.0
 10
29757.14144051345
 20
82106.53381721479
 30
0.0
 10
29758.43292801706
 20
82106.53446785677
 30
0.0
 10
29759.72328572081
 20
82106.53511320121
 30
0.0
 10
29762.79652661671
 20
82106.53664863237
 30
0.0
 10
29767.64177122713
 20
82106.53903000608
 30
0.0
 10
29774.24729275244
 20
82106.54219898396
 30
0.0
 10
29780.82815321739
 20
82106.54528145813
 30
0.0
 10
29787.40764420578
 20
82106.54828919373
 30
0.0
 10
29794.00975786163
 20
82106.55123326704
 30
0.0
 10
29798.97015079943
 20
82106.55339298748
 30
0.0
 10
29802.27749405017
 20
82106.55481197527
 30
0.0
 10
29803.92061091866
 20
82106.55551239794
 30
0.0
 10
29805.5658417345
 20
82106.55620931531
 30
0.0
 10
29807.21465069933
 20
82106.55690319253
 30
0.0
 10
29808.87578979471
 20
82106.55759815278
 30
0.0
 10
29810.66218854394
 20
82106.55834271467
 30
0.0
 10
29812.58638571139
 20
82106.55913609015
 30
0.0
 10
29814.65371967828
 20
82106.55998545211
 30
0.0
 10
29816.76544661548
 20
82106.56084381572
 30
0.0
 10
29818.93700179767
 20
82106.56172094997
 30
0.0
 10
29821.16931875915
 20
82106.56261577247
 30
0.0
 10
29823.46334446034
 20
82106.56352686129
 30
0.0
 10
29825.80489933223
 20
82106.56444803303
 30
0.0
 10
29828.19432426279
 20
82106.56538243791
 30
0.0
 10
29830.63197250789
 20
82106.56632474913
 30
0.0
 10
29833.11820400793
 20
82106.56727897355
 30
0.0
 10
29835.62022374686
 20
82106.5682289776
 30
0.0
 10
29838.13565313423
 20
82106.56917705279
 30
0.0
 10
29840.65431946559
 20
82106.5701152345
 30
0.0
 10
29843.19800628
 20
82106.57105608584
 30
0.0
 10
29845.75797376561
 20
82106.57199245696
 30
0.0
 10
29848.33318058846
 20
82106.57292810237
 30
0.0
 10
29851.42235565136
 20
82106.57403625079
 30
0.0
 10
29855.03316640574
 20
82106.57531776112
 30
0.0
 10
29859.17334963291
 20
82106.57676484494
 30
0.0
 10
29863.20078648661
 20
82106.57815053284
 30
0.0
 10
29867.11311075321
 20
82106.57947551828
 30
0.0
 10
29870.90790519906
 20
82106.58074637438
 30
0.0
 10
29874.73387288802
 20
82106.58200531266
 30
0.0
 10
29878.57803891681
 20
82106.58325446518
 30
0.0
 10
29882.41844454863
 20
82106.58448433852
 30
0.0
 10
29886.23297131199
 20
82106.58568893038
 30
0.0
 10
29890.01228677401
 20
82106.58686467299
 30
0.0
 10
29893.75579735419
 20
82106.58801355275
 30
0.0
 10
29897.46292913561
 20
82106.58913544051
 30
0.0
 10
29901.13310764435
 20
82106.59022893331
 30
0.0
 10
29904.76576821905
 20
82106.5912996751
 30
0.0
 10
29908.10743515422
 20
82106.59226752834
 30
0.0
 10
29911.16257933452
 20
82106.59314411151
 30
0.0
 10
29913.93576898234
 20
82106.59393070335
 30
0.0
 10
29916.68396370624
 20
82106.59470245786
 30
0.0
 10
29919.40278719882
 20
82106.5954553098
 30
0.0
 10
29922.0872886447
 20
82106.59619430375
 30
0.0
 10
29924.81143788494
 20
82106.59693460002
 30
0.0
 10
29927.5717954941
 20
82106.59767687339
 30
0.0
 10
29930.36544327477
 20
82106.59842159689
 30
0.0
 10
29933.11110426378
 20
82106.599144096
 30
0.0
 10
29935.80835259908
 20
82106.59984701194
 30
0.0
 10
29938.45676538975
 20
82106.60052978253
 30
0.0
 10
29941.05592920539
 20
82106.60119207082
 30
0.0
 10
29943.5366455749
 20
82106.60181835622
 30
0.0
 10
29945.90121100938
 20
82106.60240992199
 30
0.0
 10
29948.15196048201
 20
82106.60296895424
 30
0.0
 10
29950.36005860896
 20
82106.60351001795
 30
0.0
 10
29952.52981523578
 20
82106.604039319
 30
0.0
 10
29954.6737087865
 20
82106.60455704314
 30
0.0
 10
29957.99020623131
 20
82106.60535071017
 30
0.0
 10
29962.47725676179
 20
82106.60640845933
 30
0.0
 10
29968.12441844224
 20
82106.60770846727
 30
0.0
 10
29973.73503511715
 20
82106.60897064551
 30
0.0
 10
29979.34157086285
 20
82106.61020394605
 30
0.0
 10
29984.9421988344
 20
82106.61140649699
 30
0.0
 10
29990.53457317143
 20
82106.61258026959
 30
0.0
 10
29996.08290725948
 20
82106.61371685283
 30
0.0
 10
30001.58570135555
 20
82106.61481890802
 30
0.0
 10
30006.0342398739
 20
82106.61568683534
 30
0.0
 10
30009.44060972296
 20
82106.61634272886
 30
0.0
 10
30011.81720263197
 20
82106.61679469325
 30
0.0
 10
30014.18443104517
 20
82106.61723931581
 30
0.0
 10
30016.54571350569
 20
82106.61767878455
 30
0.0
 10
30018.90258105119
 20
82106.61811424058
 30
0.0
 10
30021.27166070301
 20
82106.6185463524
 30
0.0
 10
30023.66617724852
 20
82106.61897821317
 30
0.0
 10
30026.10133864875
 20
82106.61941243118
 30
0.0
 10
30028.5927380658
 20
82106.61985164479
 30
0.0
 10
30031.14109689425
 20
82106.62029628036
 30
0.0
 10
30033.74714311283
 20
82106.62074628952
 30
0.0
 10
30036.39623056082
 20
82106.62119650859
 30
0.0
 10
30039.08859622216
 20
82106.62165023276
 30
0.0
 10
30041.80780721955
 20
82106.6221011608
 30
0.0
 10
30044.55358603852
 20
82106.62255303983
 30
0.0
 10
30047.32565455891
 20
82106.62300094041
 30
0.0
 10
30050.1404063794
 20
82106.62345048177
 30
0.0
 10
30053.01796526877
 20
82106.62390510027
 30
0.0
 10
30055.95896799305
 20
82106.62436032833
 30
0.0
 10
30058.96032778238
 20
82106.62482021566
 30
0.0
 10
30061.99766151648
 20
82106.62527967157
 30
0.0
 10
30065.06604703822
 20
82106.62573421362
 30
0.0
 10
30068.16425908723
 20
82106.62618941077
 30
0.0
 10
30071.2924563094
 20
82106.6266400215
 30
0.0
 10
30074.73945825811
 20
82106.62712781243
 30
0.0
 10
30078.51167282962
 20
82106.62765317367
 30
0.0
 10
30082.61556779764
 20
82106.62821245211
 30
0.0
 10
30086.76900971078
 20
82106.62876824617
 30
0.0
 10
30090.9723385372
 20
82106.62931494203
 30
0.0
 10
30095.20012777915
 20
82106.62985564201
 30
0.0
 10
30099.45211947741
 20
82106.63038480277
 30
0.0
 10
30103.72805316245
 20
82106.63090525333
 30
0.0
 10
30108.0534330049
 20
82106.63142076032
 30
0.0
 10
30112.13224209764
 20
82106.63189182049
 30
0.0
 10
30115.95874603892
 20
82106.63232625567
 30
0.0
 10
30119.51962684388
 20
82106.63272205259
 30
0.0
 10
30123.08525916175
 20
82106.63310826749
 30
0.0
 10
30126.6353383208
 20
82106.63348578298
 30
0.0
 10
30130.51533927844
 20
82106.63389005604
 30
0.0
 10
30134.71779407745
 20
82106.63431635545
 30
0.0
 10
30139.23531661496
 20
82106.63476320025
 30
0.0
 10
30143.66400730257
 20
82106.63518548541
 30
0.0
 10
30148.0041705251
 20
82106.63559111617
 30
0.0
 10
30152.25614093833
 20
82106.63597526911
 30
0.0
 10
30156.45827876429
 20
82106.63634414883
 30
0.0
 10
30160.61006655021
 20
82106.6366996116
 30
0.0
 10
30164.71098703374
 20
82106.63703886702
 30
0.0
 10
30168.76053827752
 20
82106.6373641033
 30
0.0
 10
30172.45728969438
 20
82106.63765288504
 30
0.0
 10
30175.80794545078
 20
82106.63790844876
 30
0.0
 10
30178.8192991526
 20
82106.63813234756
 30
0.0
 10
30181.79917350338
 20
82106.63834657037
 30
0.0
 10
30184.3875280234
 20
82106.63853210704
 30
0.0
 10
30186.59064104162
 20
82106.63868270341
 30
0.0
 10
30188.41861847136
 20
82106.63880919081
 30
0.0
 10
30190.25310520582
 20
82106.63893277956
 30
0.0
 10
30192.11035299196
 20
82106.63905600059
 30
0.0
 10
30194.10493858978
 20
82106.63918551476
 30
0.0
 10
30196.24190999396
 20
82106.6393221746
 30
0.0
 10
30198.52552039867
 20
82106.63946727489
 30
0.0
 10
30200.85800743593
 20
82106.6396098679
 30
0.0
 10
30203.23956964806
 20
82106.63975317835
 30
0.0
 10
30205.67041236973
 20
82106.63989620272
 30
0.0
 10
30208.15074674055
 20
82106.64003964728
 30
0.0
 10
30210.60847772181
 20
82106.64017761557
 30
0.0
 10
30213.04115668328
 20
82106.64030991654
 30
0.0
 10
30215.44629734155
 20
82106.64043943161
 30
0.0
 10
30217.89372675676
 20
82106.64056652776
 30
0.0
 10
30220.38361184117
 20
82106.64069522604
 30
0.0
 10
30222.91614198185
 20
82106.64081989257
 30
0.0
 10
30225.49148763352
 20
82106.64094485705
 30
0.0
 10
30228.10983179244
 20
82106.64106556235
 30
0.0
 10
30230.77136369291
 20
82106.64118886855
 30
0.0
 10
30233.47627257058
 20
82106.64130599198
 30
0.0
 10
30236.22474804912
 20
82106.64142390157
 30
0.0
 10
30239.01697911214
 20
82106.6415378111
 30
0.0
 10
30241.79790210592
 20
82106.64165050562
 30
0.0
 10
30244.56607823292
 20
82106.64175423195
 30
0.0
 10
30247.32005630825
 20
82106.64185663755
 30
0.0
 10
30250.11363137361
 20
82106.64195572118
 30
0.0
 10
30252.94698050595
 20
82106.6420531562
 30
0.0
 10
30255.87955921534
 20
82106.64214821822
 30
0.0
 10
30258.91322911387
 20
82106.64224249072
 30
0.0
 10
30262.04986444903
 20
82106.64233420622
 30
0.0
 10
30265.23206651708
 20
82106.64242485551
 30
0.0
 10
30268.46006239798
 20
82106.64250989323
 30
0.0
 10
30271.73406704166
 20
82106.64258996969
 30
0.0
 10
30274.98976516277
 20
82106.64266566613
 30
0.0
 10
30278.22565544681
 20
82106.6427354045
 30
0.0
 10
30281.44022308406
 20
82106.64280079004
 30
0.0
 10
30284.69649558496
 20
82106.64286113665
 30
0.0
 10
30287.99466225779
 20
82106.64291620224
 30
0.0
 10
30291.3349312642
 20
82106.64296909028
 30
0.0
 10
30294.7175047698
 20
82106.64301463877
 30
0.0
 10
30298.1425843248
 20
82106.64305619468
 30
0.0
 10
30301.61038485377
 20
82106.64309271017
 30
0.0
 10
30305.12110807245
 20
82106.6431249833
 30
0.0
 10
30308.65343144398
 20
82106.64315068944
 30
0.0
 10
30312.20704599292
 20
82106.64317072605
 30
0.0
 10
30314.92520647706
 20
82106.64318249639
 30
0.0
 10
30316.46586311921
 20
82106.64318571634
 30
0.0
 10
30316.81500638603
 20
82106.64318644605
 30
0.0
  0
SPLINE
  5
A8
330
1F
100
AcDbEntity
  8
0
  6
Continuous
 62
     7
370
    15
100
AcDbSpline
210
0.0
220
0.0
230
1.0
 70
     8
 71
     3
 72
   355
 73
   351
 74
     0
 42
0.0000000001
 43
0.0000000001
 40
0.0
 40
0.0
 40
0.0
 40
0.0
 40
0.0019276307823865
 40
0.0055431885011977
 40
0.0091010911147553
 40
0.0126015796152075
 40
0.0160449190210201
 40
0.0194312778452198
 40
0.0227609454001041
 40
0.0263583375587355
 40
0.02988766637098
 40
0.0333492208794503
 40
0.0367432902625886
 40
0.0400701634950688
 40
0.0433300816380278
 40
0.0465233578258343
 40
0.0496502330524653
 40
0.0527109721994781
 40
0.0557058404201787
 40
0.0585833261351638
 40
0.0613977357251227
 40
0.0641492618613736
 40
0.0668381937227413
 40
0.0695118503817317
 40
0.0721210575738037
 40
0.0746659597854672
 40
0.0771468461265275
 40
0.0795638611533114
 40
0.0818757811991373
 40
0.0841265043362146
 40
0.0863161991434966
 40
0.0884450583611301
 40
0.0905548115292441
 40
0.0926016089661491
 40
0.094585570997699
 40
0.0965068904322396
 40
0.0983657118933778
 40
0.1001622279848274
 40
0.1018965591698953
 40
0.1035652843096822
 40
0.105172402898926
 40
0.1067180593580013
 40
0.1082023742169848
 40
0.1096254437786446
 40
0.110963656758591
 40
0.1122430338299782
 40
0.1134744893119792
 40
0.1147023789654643
 40
0.1235099427472521
 40
0.1314277203571441
 40
0.1393953377213264
 40
0.1461941431237226
 40
0.1530275726628642
 40
0.1598950722302314
 40
0.1631498635726529
 40
0.1664511792849299
 40
0.1698043441631055
 40
0.1732090930478459
 40
0.1766651007625562
 40
0.1801720901726129
 40
0.1837297602666241
 40
0.1873377856525762
 40
0.190995865174946
 40
0.1947036737313977
 40
0.1983933764354377
 40
0.2021304228033501
 40
0.2059145117511157
 40
0.2097453059860033
 40
0.2133326010508208
 40
0.2169662279706221
 40
0.2206503668612419
 40
0.2243846563368463
 40
0.228168771223604
 40
0.2320023741536166
 40
0.2358850916950027
 40
0.2402124044941912
 40
0.2445982525002122
 40
0.2490421479160823
 40
0.2535435907511608
 40
0.2581020811622973
 40
0.2613927906340037
 40
0.2647121533925858
 40
0.2680599827216121
 40
0.2714360858826419
 40
0.2748340540622387
 40
0.278205646222793
 40
0.2815408576051114
 40
0.2860676799747303
 40
0.2905264720906552
 40
0.2949176614414
 40
0.2992416787554115
 40
0.3035757252324091
 40
0.3078410034747401
 40
0.3120379411228172
 40
0.316166964312347
 40
0.3202284915710653
 40
0.3233726099492067
 40
0.3264755107700978
 40
0.3295373934706053
 40
0.3325547495949266
 40
0.3355241817386365
 40
0.3387819664568803
 40
0.3419806488752344
 40
0.3451205347471007
 40
0.3482019243985459
 40
0.3512251136072545
 40
0.3541903932068215
 40
0.3570980502094355
 40
0.3599483638582793
 40
0.3627857308756093
 40
0.3655644791541571
 40
0.3683008308708342
 40
0.3710481481110405
 40
0.3753959308909329
 40
0.3797807181521572
 40
0.3850483862880405
 40
0.3903672260286479
 40
0.3957365265686474
 40
0.3980699665163728
 40
0.4004675736115474
 40
0.4029304561036384
 40
0.4054582767824877
 40
0.4080506983552935
 40
0.4107073653786559
 40
0.4134279165507659
 40
0.4159775608587652
 40
0.4185802773826967
 40
0.4212357829563853
 40
0.4239437583555987
 40
0.4267038964880734
 40
0.4295158780481571
 40
0.4338758128391491
 40
0.4382777132974422
 40
0.4427209408098097
 40
0.4472049835011863
 40
0.4517293474835807
 40
0.4562116569938585
 40
0.4607318665241224
 40
0.4652894699689511
 40
0.4698810702313083
 40
0.4745341338181584
 40
0.4791276028982775
 40
0.4836619108712823
 40
0.488137503709709
 40
0.4925548028553146
 40
0.4969142419690336
 40
0.5012162427561411
 40
0.5042475739048968
 40
0.5072481860133812
 40
0.5101960941017144
 40
0.5130852746636935
 40
0.5159160529471845
 40
0.5186887904267586
 40
0.5214038002143351
 40
0.5243240277771307
 40
0.5271752277633814
 40
0.5299578219715229
 40
0.5326722198798965
 40
0.5353188070577724
 40
0.5386102966338998
 40
0.5418787531485619
 40
0.545135054693641
 40
0.5483791892217765
 40
0.5516112531960369
 40
0.5548312223391577
 40
0.558039145020736
 40
0.5636240980081621
 40
0.5692007156810748
 40
0.5748029462679906
 40
0.5804301875668619
 40
0.5837428486693348
 40
0.5870637021585632
 40
0.590393278062261
 40
0.59240054578206
 40
0.5944752279307126
 40
0.5966169630308781
 40
0.5988253175219329
 40
0.6009941346004708
 40
0.6032228488835683
 40
0.6055111231783261
 40
0.6078585479208282
 40
0.6102647134487748
 40
0.6127292342882972
 40
0.6152516527892336
 40
0.6176144027745419
 40
0.620025099596104
 40
0.6224612879373338
 40
0.6249014039871048
 40
0.627345399562382
 40
0.6297932263805831
 40
0.6350510344761052
 40
0.640325445038824
 40
0.6456157836018737
 40
0.6509213996921383
 40
0.656232824535084
 40
0.659969409170189
 40
0.6636408694536927
 40
0.667247711219385
 40
0.6707905609674167
 40
0.6742699246345623
 40
0.6776863321435545
 40
0.6810403376138165
 40
0.6840604517578905
 40
0.6870279699407491
 40
0.6899363143121578
 40
0.6927846416546684
 40
0.6955733856270379
 40
0.6983030281758694
 40
0.701213929536514
 40
0.7040555618161028
 40
0.7068285032248446
 40
0.709533259584847
 40
0.7121789385197025
 40
0.7148281838305966
 40
0.7174932836016938
 40
0.7224198153415609
 40
0.7273976691487309
 40
0.7324255442953343
 40
0.7345953006615788
 40
0.7367913199726857
 40
0.739033576069454
 40
0.7413217078029901
 40
0.7436552812955793
 40
0.7460339352844164
 40
0.7484571157745686
 40
0.7511736653426824
 40
0.7539429818549057
 40
0.7567645832498153
 40
0.759639529800062
 40
0.7625691707675407
 40
0.7659563584535415
 40
0.7694118783866279
 40
0.7729347667852834
 40
0.7765238190702073
 40
0.7787995045838596
 40
0.7810311467188935
 40
0.7832130592282459
 40
0.7853456277015056
 40
0.7874291891841104
 40
0.7894640812018026
 40
0.7914506892236773
 40
0.7933893021080535
 40
0.7952803055667465
 40
0.7971283736304397
 40
0.7995058870243699
 40
0.8018370924374742
 40
0.804122375217657
 40
0.8063044875586735
 40
0.8084437613742739
 40
0.8105404856398306
 40
0.8126072856197719
 40
0.8146736525791963
 40
0.8167408394110131
 40
0.8188087498761673
 40
0.8210842086770039
 40
0.8233603911163241
 40
0.8256373455092544
 40
0.8279474544925381
 40
0.8303154389507934
 40
0.8324732740854221
 40
0.8346759735955977
 40
0.8369230557839792
 40
0.8392139906427116
 40
0.8410488209005322
 40
0.8429350692165101
 40
0.8448750485071743
 40
0.8468681807128909
 40
0.8489561972781569
 40
0.8510983790018494
 40
0.8532941474286253
 40
0.8555428281354538
 40
0.8578397468533385
 40
0.8601444250330994
 40
0.8624465985219165
 40
0.8644588205530904
 40
0.8664690194581964
 40
0.8684770990085292
 40
0.8704830590729795
 40
0.8724868031522156
 40
0.8744883315222375
 40
0.8764853791867311
 40
0.8784403588328276
 40
0.880429168112567
 40
0.8823579347564018
 40
0.8842271407342796
 40
0.8860373642373565
 40
0.8877890386324855
 40
0.8894826942107798
 40
0.8913185569164106
 40
0.893107002380715
 40
0.8948782450040599
 40
0.8966324778022249
 40
0.8983698451842668
 40
0.9000904436616233
 40
0.9017943693136365
 40
0.9048774752659436
 40
0.9079481029069343
 40
0.9110210945935943
 40
0.9125583384540528
 40
0.9140960167037825
 40
0.9156340813094423
 40
0.9171779292747421
 40
0.9187621610532069
 40
0.9203925594005697
 40
0.9223726225015983
 40
0.9244152855924259
 40
0.9265195845880683
 40
0.9286847008595209
 40
0.9305714745441134
 40
0.932512366849323
 40
0.9345071365614034
 40
0.936555013091109
 40
0.9386552253801452
 40
0.9408069063237059
 40
0.9425330230711661
 40
0.9442899827605566
 40
0.9460461723549583
 40
0.9477630881944326
 40
0.9494410188928771
 40
0.951080302042583
 40
0.9529970167785652
 40
0.9548592293460115
 40
0.9566675180902484
 40
0.9584225573879068
 40
0.9601202039617756
 40
0.9617276407167567
 40
0.9632763838740654
 40
0.964766963611399
 40
0.966199958121032
 40
0.9676834591309699
 40
0.9691428177076858
 40
0.9706192359649772
 40
0.9721124244783116
 40
0.973622190692507
 40
0.9751482937030495
 40
0.9762088750203259
 40
0.9773215513027098
 40
0.978485696027513
 40
0.9797009239251812
 40
0.9809666566563947
 40
0.9822823164029898
 40
0.9836471801106512
 40
0.985833990912257
 40
0.9880617671649758
 40
0.9903294489218581
 40
0.9926360725911232
 40
0.9949540730247784
 40
0.9972165118790242
 40
0.9994210276061698
 40
1.0
 40
1.0
 40
1.0
 40
1.0
 10
29785.97597020857
 20
82106.86465710434
 30
0.0
 10
29786.48083935461
 20
82106.8645349125
 30
0.0
 10
29787.93266553964
 20
82106.86418353169
 30
0.0
 10
29790.31634805971
 20
82106.86360374729
 30
0.0
 10
29793.11198043479
 20
82106.86291945254
 30
0.0
 10
29795.86250666842
 20
82106.8622443623
 30
0.0
 10
29798.56810339303
 20
82106.86157545172
 30
0.0
 10
29801.22896020298
 20
82106.86091525955
 30
0.0
 10
29803.93016492216
 20
82106.86024245786
 30
0.0
 10
29806.66881522984
 20
82106.85955567889
 30
0.0
 10
29809.44200804451
 20
82106.85885601476
 30
0.0
 10
29812.16194823978
 20
82106.85816795889
 30
0.0
 10
29814.82886274736
 20
82106.85748820361
 30
0.0
 10
29817.44296641846
 20
82106.85682042331
 30
0.0
 10
29820.00447981346
 20
82106.85616037546
 30
0.0
 10
29822.51361141232
 20
82106.85551413289
 30
0.0
 10
29824.97057552415
 20
82106.85487595194
 30
0.0
 10
29827.37557438505
 20
82106.85424859974
 30
0.0
 10
29829.71525504293
 20
82106.85363717013
 30
0.0
 10
29831.99041921731
 20
82106.85303984167
 30
0.0
 10
29834.20184911902
 20
82106.85245453444
 30
0.0
 10
29836.36389461853
 20
82106.85188244097
 30
0.0
 10
29838.48907513603
 20
82106.8513168146
 30
0.0
 10
29840.57698081492
 20
82106.85075979162
 30
0.0
 10
29842.62716331736
 20
82106.85020941776
 30
0.0
 10
29844.62685705907
 20
82106.84967040799
 30
0.0
 10
29846.5762134418
 20
82106.84914658633
 30
0.0
 10
29848.46454907576
 20
82106.84863195865
 30
0.0
 10
29850.29260237956
 20
82106.848136644
 30
0.0
 10
29852.06111779233
 20
82106.8476533051
 30
0.0
 10
29853.78168750429
 20
82106.84718252034
 30
0.0
 10
29855.46533554066
 20
82106.84672052718
 30
0.0
 10
29857.11155721321
 20
82106.84626706914
 30
0.0
 10
29858.71982852458
 20
82106.84582190223
 30
0.0
 10
29860.27874699553
 20
82106.84538997371
 30
0.0
 10
29861.78843241274
 20
82106.84497159025
 30
0.0
 10
29863.24902349718
 20
82106.84456401578
 30
0.0
 10
29864.66064031891
 20
82106.84417060283
 30
0.0
 10
29866.02246882464
 20
82106.84378813734
 30
0.0
 10
29867.33469193061
 20
82106.84341999494
 30
0.0
 10
29868.59749889765
 20
82106.84306538944
 30
0.0
 10
29869.81200685485
 20
82106.84272200559
 30
0.0
 10
29870.97831024112
 20
82106.84239151174
 30
0.0
 10
29872.09028196452
 20
82106.84207785824
 30
0.0
 10
29873.14857805352
 20
82106.84177782882
 30
0.0
 10
29874.15668831213
 20
82106.84149029281
 30
0.0
 10
29875.13590362629
 20
82106.84121162049
 30
0.0
 10
29878.0868396901
 20
82106.84036789171
 30
0.0
 10
29882.78900080285
 20
82106.83901843905
 30
0.0
 10
29889.2563734598
 20
82106.83713560531
 30
0.0
 10
29895.1976267388
 20
82106.83538783301
 30
0.0
 10
29900.85487513817
 20
82106.83370481932
 30
0.0
 10
29906.22398842239
 20
82106.83209244768
 30
0.0
 10
29910.66488288798
 20
82106.83074497829
 30
0.0
 10
29914.18067599259
 20
82106.82966939396
 30
0.0
 10
29916.77602544358
 20
82106.82887302183
 30
0.0
 10
29919.41065008129
 20
82106.82806006946
 30
0.0
 10
29922.08579022462
 20
82106.82723072347
 30
0.0
 10
29924.80121844628
 20
82106.82638463577
 30
0.0
 10
29927.5566983578
 20
82106.82552251244
 30
0.0
 10
29930.35199302036
 20
82106.82464186376
 30
0.0
 10
29933.18685973127
 20
82106.82374487737
 30
0.0
 10
29936.06104922196
 20
82106.82283243864
 30
0.0
 10
29938.95663054885
 20
82106.82190434164
 30
0.0
 10
29941.87289394939
 20
82106.82096929224
 30
0.0
 10
29944.80913585683
 20
82106.82001764972
 30
0.0
 10
29947.78233091892
 20
82106.81905319265
 30
0.0
 10
29950.7163041942
 20
82106.81809471156
 30
0.0
 10
29953.61086965335
 20
82106.81714310091
 30
0.0
 10
29956.46702414972
 20
82106.81619971012
 30
0.0
 10
29959.36167791402
 20
82106.81523927107
 30
0.0
 10
29962.29574592242
 20
82106.81425962201
 30
0.0
 10
29965.26895987589
 20
82106.81326061394
 30
0.0
 10
29968.28104854602
 20
82106.81224472493
 30
0.0
 10
29971.43540642063
 20
82106.81117406585
 30
0.0
 10
29974.73440285149
 20
82106.81004824209
 30
0.0
 10
29978.18037759179
 20
82106.80886324576
 30
0.0
 10
29981.67195843986
 20
82106.8076574323
 30
0.0
 10
29985.20875591387
 20
82106.80642468805
 30
0.0
 10
29988.44352126722
 20
82106.80529278633
 30
0.0
 10
29991.36868688674
 20
82106.804262137
 30
0.0
 10
29993.97676729053
 20
82106.80333765697
 30
0.0
 10
29996.6072130117
 20
82106.80240222046
 30
0.0
 10
29999.25824614275
 20
82106.80145368996
 30
0.0
 10
30001.91550276917
 20
82106.80049841716
 30
0.0
 10
30004.56204927273
 20
82106.79954399997
 30
0.0
 10
30007.50425436905
 20
82106.7984753529
 30
0.0
 10
30010.73120848539
 20
82106.79729828592
 30
0.0
 10
30014.23473391039
 20
82106.79601093616
 30
0.0
 10
30017.6851424267
 20
82106.79473401494
 30
0.0
 10
30021.10287842709
 20
82106.79346164299
 30
0.0
 10
30024.48763680682
 20
82106.79219425484
 30
0.0
 10
30027.83911140208
 20
82106.79093007106
 30
0.0
 10
30031.13688801272
 20
82106.78968011487
 30
0.0
 10
30034.38129985393
 20
82106.78844038737
 30
0.0
 10
30037.34996721692
 20
82106.7873018852
 30
0.0
 10
30040.04988243401
 20
82106.78625987911
 30
0.0
 10
30042.4879801241
 20
82106.78531255725
 30
0.0
 10
30044.89287741674
 20
82106.78437638039
 30
0.0
 10
30047.26281763955
 20
82106.78344889775
 30
0.0
 10
30049.68406623789
 20
82106.78249769841
 30
0.0
 10
30052.15280562931
 20
82106.78152153299
 30
0.0
 10
30054.66618820669
 20
82106.78052413006
 30
0.0
 10
30057.13337057268
 20
82106.77954129931
 30
0.0
 10
30059.55458912935
 20
82106.77857066984
 30
0.0
 10
30061.93007596091
 20
82106.77761475437
 30
0.0
 10
30064.26006020905
 20
82106.77667292433
 30
0.0
 10
30066.54476604783
 20
82106.77574524948
 30
0.0
 10
30068.79596991702
 20
82106.77482734258
 30
0.0
 10
30071.01341086647
 20
82106.77391797728
 30
0.0
 10
30073.20100352407
 20
82106.77302073408
 30
0.0
 10
30075.36501089508
 20
82106.77212506732
 30
0.0
 10
30077.93996380991
 20
82106.77105917564
 30
0.0
 10
30080.94665785275
 20
82106.76980439668
 30
0.0
 10
30084.61345645607
 20
82106.76826609059
 30
0.0
 10
30088.53458425433
 20
82106.7666079184
 30
0.0
 10
30092.71356555518
 20
82106.76482751011
 30
0.0
 10
30096.12404397634
 20
82106.76336264075
 30
0.0
 10
30098.76942310664
 20
82106.76221822026
 30
0.0
 10
30100.65358287941
 20
82106.76140227683
 30
0.0
 10
30102.58865276265
 20
82106.76055978932
 30
0.0
 10
30104.57474620544
 20
82106.75969096719
 30
0.0
 10
30106.6115934465
 20
82106.75879812573
 30
0.0
 10
30108.69891854639
 20
82106.75787862642
 30
0.0
 10
30110.77503958649
 20
82106.75696069825
 30
0.0
 10
30112.83703035238
 20
82106.75604435939
 30
0.0
 10
30114.88198476497
 20
82106.75513426577
 30
0.0
 10
30116.96840744
 20
82106.75419861892
 30
0.0
 10
30119.09606016026
 20
82106.75324308896
 30
0.0
 10
30121.26469511285
 20
82106.75226495057
 30
0.0
 10
30123.8659935989
 20
82106.75108422609
 30
0.0
 10
30126.89728468651
 20
82106.74970462813
 30
0.0
 10
30130.35581365683
 20
82106.7481162521
 30
0.0
 10
30133.8468471846
 20
82106.7465021176
 30
0.0
 10
30137.36995439921
 20
82106.74486415452
 30
0.0
 10
30140.90329689969
 20
82106.74320817975
 30
0.0
 10
30144.44611130418
 20
82106.74153545536
 30
0.0
 10
30147.9976306006
 20
82106.73984910778
 30
0.0
 10
30151.57777362893
 20
82106.73813458477
 30
0.0
 10
30155.19271157038
 20
82106.73639169474
 30
0.0
 10
30158.81704258872
 20
82106.73463328049
 30
0.0
 10
30162.42636742854
 20
82106.73286543739
 30
0.0
 10
30165.98921082434
 20
82106.73111169656
 30
0.0
 10
30169.50591295672
 20
82106.72936647229
 30
0.0
 10
30172.97681495751
 20
82106.72762999431
 30
0.0
 10
30176.4022511848
 20
82106.7259067078
 30
0.0
 10
30179.46468976326
 20
82106.72435405312
 30
0.0
 10
30182.17123929094
 20
82106.7229749404
 30
0.0
 10
30184.52314015406
 20
82106.72176977887
 30
0.0
 10
30186.83780989626
 20
82106.72057761227
 30
0.0
 10
30189.10799832422
 20
82106.71940442361
 30
0.0
 10
30191.33230766978
 20
82106.71824783203
 30
0.0
 10
30193.51099966906
 20
82106.7171114633
 30
0.0
 10
30195.7131188195
 20
82106.71595513209
 30
0.0
 10
30197.93578738195
 20
82106.71478567613
 30
0.0
 10
30200.1761565308
 20
82106.71359996679
 30
0.0
 10
30202.36261651048
 20
82106.7124367611
 30
0.0
 10
30204.49548629895
 20
82106.71129678665
 30
0.0
 10
30206.76163920217
 20
82106.71008334555
 30
0.0
 10
30209.1729040621
 20
82106.70878122234
 30
0.0
 10
30211.74385766705
 20
82106.70738955482
 30
0.0
 10
30214.30240842327
 20
82106.70599357735
 30
0.0
 10
30216.85142751138
 20
82106.70459785999
 30
0.0
 10
30219.39093048543
 20
82106.70319974637
 30
0.0
 10
30221.92094927477
 20
82106.70179688309
 30
0.0
 10
30225.06720783249
 20
82106.70004580624
 30
0.0
 10
30228.83069084634
 20
82106.6979352971
 30
0.0
 10
30233.22126099515
 20
82106.6954485817
 30
0.0
 10
30237.62290569298
 20
82106.69293423407
 30
0.0
 10
30241.43160160379
 20
82106.69073477227
 30
0.0
 10
30244.64278679575
 20
82106.68886849974
 30
0.0
 10
30247.25219548161
 20
82106.68734131843
 30
0.0
 10
30249.51971149435
 20
82106.68600909816
 30
0.0
 10
30251.46084548445
 20
82106.68486117089
 30
0.0
 10
30253.09087478117
 20
82106.68389452537
 30
0.0
 10
30254.77357005601
 20
82106.68289402935
 30
0.0
 10
30256.48091962661
 20
82106.68187360038
 30
0.0
 10
30258.21104944459
 20
82106.68083760181
 30
0.0
 10
30259.9621106272
 20
82106.67978281243
 30
0.0
 10
30261.75995010987
 20
82106.67869715424
 30
0.0
 10
30263.60426499731
 20
82106.67757785799
 30
0.0
 10
30265.49473986305
 20
82106.67642512428
 30
0.0
 10
30267.43104656869
 20
82106.67524108179
 30
0.0
 10
30269.35598205579
 20
82106.67405905603
 30
0.0
 10
30271.26682021328
 20
82106.67287819946
 30
0.0
 10
30273.15507385686
 20
82106.67170868489
 30
0.0
 10
30275.06358992402
 20
82106.67052052823
 30
0.0
 10
30276.98082682272
 20
82106.66932202924
 30
0.0
 10
30278.90111154102
 20
82106.66811634721
 30
0.0
 10
30281.55936875807
 20
82106.66644021541
 30
0.0
 10
30284.95892973628
 20
82106.66428160635
 30
0.0
 10
30289.10296228918
 20
82106.6616254124
 30
0.0
 10
30293.25951440847
 20
82106.65893653398
 30
0.0
 10
30297.42575920063
 20
82106.65621426123
 30
0.0
 10
30301.18506431362
 20
82106.65373447227
 30
0.0
 10
30304.51637258618
 20
82106.65151769264
 30
0.0
 10
30307.40123898439
 20
82106.64958562295
 30
0.0
 10
30310.23536427433
 20
82106.6476746753
 30
0.0
 10
30313.01917739322
 20
82106.64578521651
 30
0.0
 10
30315.75311375739
 20
82106.64391659296
 30
0.0
 10
30318.43758993876
 20
82106.64207086898
 30
0.0
 10
30321.00178529145
 20
82106.64029680959
 30
0.0
 10
30323.44841316232
 20
82106.6385940073
 30
0.0
 10
30325.77831911696
 20
82106.63696227273
 30
0.0
 10
30328.063232711
 20
82106.63535312322
 30
0.0
 10
30330.30132370757
 20
82106.63376940393
 30
0.0
 10
30332.49261120813
 20
82106.6322078277
 30
0.0
 10
30334.70028640498
 20
82106.63062893457
 30
0.0
 10
30336.92181296431
 20
82106.62902972636
 30
0.0
 10
30339.15467903651
 20
82106.62741535386
 30
0.0
 10
30341.33355401388
 20
82106.62582882255
 30
0.0
 10
30343.46110740268
 20
82106.62427460357
 30
0.0
 10
30345.55626336012
 20
82106.62273308157
 30
0.0
 10
30347.64103284634
 20
82106.62119308155
 30
0.0
 10
30350.32316811639
 20
82106.61919990977
 30
0.0
 10
30353.61517621128
 20
82106.61673575613
 30
0.0
 10
30357.52600493263
 20
82106.61377971975
 30
0.0
 10
30360.71481974089
 20
82106.61134343162
 30
0.0
 10
30363.17505873704
 20
82106.60945225304
 30
0.0
 10
30364.90573120008
 20
82106.60811398307
 30
0.0
 10
30366.6674064164
 20
82106.60674836761
 30
0.0
 10
30368.4651069471
 20
82106.60534581979
 30
0.0
 10
30370.29853034288
 20
82106.60390951655
 30
0.0
 10
30372.1673230488
 20
82106.60243934306
 30
0.0
 10
30374.1364179678
 20
82106.60088103304
 30
0.0
 10
30376.20782864244
 20
82106.59923510345
 30
0.0
 10
30378.38358626789
 20
82106.59749457869
 30
0.0
 10
30380.60082809677
 20
82106.59570974081
 30
0.0
 10
30382.86005864833
 20
82106.59388185622
 30
0.0
 10
30385.26741749606
 20
82106.59192137498
 30
0.0
 10
30387.82682983891
 20
82106.58982515983
 30
0.0
 10
30390.54161440808
 20
82106.58758242367
 30
0.0
 10
30393.30926687546
 20
82106.58528099431
 30
0.0
 10
30395.76791573463
 20
82106.58321870436
 30
0.0
 10
30397.88838233907
 20
82106.581432376
 30
0.0
 10
30399.64031427095
 20
82106.57994520266
 30
0.0
 10
30401.35476304141
 20
82106.5784858346
 30
0.0
 10
30403.03042841896
 20
82106.5770512013
 30
0.0
 10
30404.66758853713
 20
82106.57564475649
 30
0.0
 10
30406.26652065886
 20
82106.57426406651
 30
0.0
 10
30407.82748980864
 20
82106.57290840522
 30
0.0
 10
30409.35077405243
 20
82106.57158300792
 30
0.0
 10
30410.83777372533
 20
82106.57028082101
 30
0.0
 10
30412.43972240505
 20
82106.56887427056
 30
0.0
 10
30414.15696030917
 20
82106.56735759407
 30
0.0
 10
30415.98870503997
 20
82106.56573211052
 30
0.0
 10
30417.76927315766
 20
82106.56414299414
 30
0.0
 10
30419.49957344487
 20
82106.56259287294
 30
0.0
 10
30421.18048907515
 20
82106.56107571399
 30
0.0
 10
30422.83120359834
 20
82106.55958331299
 30
0.0
 10
30424.46282313625
 20
82106.55809748763
 30
0.0
 10
30426.08670622479
 20
82106.5566141199
 30
0.0
 10
30427.71087967882
 20
82106.55512203103
 30
0.0
 10
30429.38981387437
 20
82106.55357161982
 30
0.0
 10
30431.1234838409
 20
82106.55196273224
 30
0.0
 10
30432.91190208126
 20
82106.55029646366
 30
0.0
 10
30434.7093944571
 20
82106.54861001222
 30
0.0
 10
30436.53092923908
 20
82106.54689358385
 30
0.0
 10
30438.32126567906
 20
82106.5451957852
 30
0.0
 10
30440.08347079008
 20
82106.54351571166
 30
0.0
 10
30441.81401086083
 20
82106.54185840509
 30
0.0
 10
30443.57940905125
 20
82106.54015867358
 30
0.0
 10
30445.24846119766
 20
82106.5385408696
 30
0.0
 10
30446.82301035551
 20
82106.53700873026
 30
0.0
 10
30448.30564332489
 20
82106.53555813227
 30
0.0
 10
30449.82973525998
 20
82106.53406241149
 30
0.0
 10
30451.40666961303
 20
82106.5325045844
 30
0.0
 10
30453.03656025851
 20
82106.5308873473
 30
0.0
 10
30454.71952037217
 20
82106.52920835046
 30
0.0
 10
30456.44455789027
 20
82106.52747911931
 30
0.0
 10
30458.21012011134
 20
82106.52569808354
 30
0.0
 10
30460.00420495926
 20
82106.52387909512
 30
0.0
 10
30461.81229873402
 20
82106.52203263556
 30
0.0
 10
30463.54582967985
 20
82106.52025574054
 30
0.0
 10
30465.20223612919
 20
82106.51854597987
 30
0.0
 10
30466.78161898005
 20
82106.51690700533
 30
0.0
 10
30468.35936102147
 20
82106.51526277914
 30
0.0
 10
30469.93541188891
 20
82106.51361098655
 30
0.0
 10
30471.50974656886
 20
82106.51195225253
 30
0.0
 10
30473.08174620325
 20
82106.5102867257
 30
0.0
 10
30474.64097391061
 20
82106.5086269526
 30
0.0
 10
30476.1968696915
 20
82106.50696068144
 30
0.0
 10
30477.73488204211
 20
82106.50530582595
 30
0.0
 10
30479.25042975806
 20
82106.50366759439
 30
0.0
 10
30480.71920538276
 20
82106.50206931392
 30
0.0
 10
30482.14160005562
 20
82106.50051623032
 30
0.0
 10
30483.51801809253
 20
82106.4990052073
 30
0.0
 10
30484.90115015948
 20
82106.49747857578
 30
0.0
 10
30486.29391177713
 20
82106.49593557633
 30
0.0
 10
30487.70699247521
 20
82106.4943614045
 30
0.0
 10
30489.09869410703
 20
82106.49280269979
 30
0.0
 10
30490.47701761589
 20
82106.49125312684
 30
0.0
 10
30491.84207706111
 20
82106.48971012464
 30
0.0
 10
30493.19396029822
 20
82106.48817443962
 30
0.0
 10
30494.89828781021
 20
82106.48622806173
 30
0.0
 10
30496.9561818213
 20
82106.48386327418
 30
0.0
 10
30499.37262754395
 20
82106.4810618785
 30
0.0
 10
30501.38421580867
 20
82106.47870861913
 30
0.0
 10
30502.9943293931
 20
82106.47681302102
 30
0.0
 10
30504.20245136741
 20
82106.4753832273
 30
0.0
 10
30505.412302131
 20
82106.47394705363
 30
0.0
 10
30506.63434474558
 20
82106.47248773103
 30
0.0
 10
30507.88056826407
 20
82106.47099232954
 30
0.0
 10
30509.24103368407
 20
82106.46935446867
 30
0.0
 10
30510.72155944672
 20
82106.46756010865
 30
0.0
 10
30512.32619586053
 20
82106.46560507401
 30
0.0
 10
30513.9792960309
 20
82106.46357721588
 30
0.0
 10
30515.59156786979
 20
82106.46158646531
 30
0.0
 10
30517.16104359211
 20
82106.45963799541
 30
0.0
 10
30518.68590507482
 20
82106.45773109417
 30
0.0
 10
30520.25295774214
 20
82106.4557622787
 30
0.0
 10
30521.86173387265
 20
82106.45372557646
 30
0.0
 10
30523.51160300404
 20
82106.45162493213
 30
0.0
 10
30525.07720380943
 20
82106.4496176786
 30
0.0
 10
30526.55290823909
 20
82106.44771295747
 30
0.0
 10
30527.92503488909
 20
82106.44593444163
 30
0.0
 10
30529.2947514017
 20
82106.44414610126
 30
0.0
 10
30530.64376964418
 20
82106.44237624164
 30
0.0
 10
30531.9621707061
 20
82106.44063675474
 30
0.0
 10
30533.33289673234
 20
82106.43881883616
 30
0.0
 10
30534.75188392319
 20
82106.43692373807
 30
0.0
 10
30536.21513181255
 20
82106.43496065603
 30
0.0
 10
30537.63603721749
 20
82106.43303908662
 30
0.0
 10
30539.01384390981
 20
82106.43116727506
 30
0.0
 10
30540.3390475439
 20
82106.42935400409
 30
0.0
 10
30541.61022196029
 20
82106.42760592143
 30
0.0
 10
30542.82716575758
 20
82106.42592339722
 30
0.0
 10
30543.99842274544
 20
82106.42429480326
 30
0.0
 10
30545.15259168531
 20
82106.42268308802
 30
0.0
 10
30546.29858145023
 20
82106.42107432368
 30
0.0
 10
30547.45594285842
 20
82106.41944017396
 30
0.0
 10
30548.61584120557
 20
82106.41779497111
 30
0.0
 10
30549.78894096636
 20
82106.41612036214
 30
0.0
 10
30550.97505245582
 20
82106.41441916258
 30
0.0
 10
30552.04786878825
 20
82106.41287243102
 30
0.0
 10
30553.01669113284
 20
82106.41146961899
 30
0.0
 10
30553.89071977074
 20
82106.4101974585
 30
0.0
 10
30554.80524819689
 20
82106.40886217309
 30
0.0
 10
30555.75985950659
 20
82106.40746136508
 30
0.0
 10
30556.75415038376
 20
82106.40599563017
 30
0.0
 10
30557.78762790684
 20
82106.40446483983
 30
0.0
 10
30559.06232402318
 20
82106.40256765836
 30
0.0
 10
30560.57589062119
 20
82106.40029919215
 30
0.0
 10
30562.32589171688
 20
82106.39765617164
 30
0.0
 10
30564.10726764223
 20
82106.39493882009
 30
0.0
 10
30565.91226942287
 20
82106.39216467999
 30
0.0
 10
30567.7158952001
 20
82106.38936473575
 30
0.0
 10
30569.49277792559
 20
82106.3865821468
 30
0.0
 10
30570.81423302371
 20
82106.38449835888
 30
0.0
 10
30571.5431866781
 20
82106.38333509063
 30
0.0
 10
30571.69481083596
 20
82106.38309312798
 30
0.0
  0
SPLINE
  5
A9
330
1F
100
AcDbEntity
  8
0
  6
Continuous
 62
     7
370
    15
100
AcDbSpline
210
0.0
220
0.0
230
1.0
 70
     8
 71
     3
 72
   159
 73
   155
 74
     0
 42
0.0000000001
 43
0.0000000001
 40
0.0
 40
0.0
 40
0.0
 40
0.0
 40
0.0025250063492325
 40
0.0058824810684237
 40
0.0091958375554442
 40
0.0124652675603307
 40
0.0156909307416031
 40
0.0188729868670713
 40
0.0218333966724266
 40
0.0247553427785553
 40
0.0276389210984246
 40
0.0304842912890672
 40
0.0332915492266638
 40
0.036060854642433
 40
0.0387923672299429
 40
0.0414861509575145
 40
0.044142333572671
 40
0.0467610747685566
 40
0.0492967226493815
 40
0.0517964945071424
 40
0.0542604542732349
 40
0.0566887616403295
 40
0.0591246725909032
 40
0.0615238130330907
 40
0.0638863426981835
 40
0.0662123254793753
 40
0.0685019211079592
 40
0.070715259960571
 40
0.0728936812196258
 40
0.0750373126304205
 40
0.0771462181262488
 40
0.0792624397018376
 40
0.0813427533226142
 40
0.0833871909360993
 40
0.0853959122326157
 40
0.0873689492420009
 40
0.0893064616547027
 40
0.0912084814183315
 40
0.0930711429460247
 40
0.0948986632338452
 40
0.0966911700675051
 40
0.0984486953948985
 40
0.1001713989909323
 40
0.1018295062852888
 40
0.1034541335388725
 40
0.1050453766793902
 40
0.1066033314591639
 40
0.1081588266702729
 40
0.109679787679664
 40
0.111166310237965
 40
0.1126184902766701
 40
0.1140363277075881
 40
0.1154199823558335
 40
0.1167694860778699
 40
0.1195135077815439
 40
0.122260884131891
 40
0.125017173801786
 40
0.1277823448455543
 40
0.1305563334193406
 40
0.1333390436381069
 40
0.1396957274613776
 40
0.1460966266747681
 40
0.1525411342137011
 40
0.1590285473201777
 40
0.1655581631884817
 40
0.1721292790130477
 40
0.1783623323365246
 40
0.1846161520050009
 40
0.1908711544046282
 40
0.1971271159661833
 40
0.2033836853376569
 40
0.2457035155255055
 40
0.2880369944171753
 40
0.3303764591059042
 40
0.3681876064571858
 40
0.4060145305930254
 40
0.443849265702839
 40
0.4816926042337683
 40
0.5195507109206861
 40
0.5574273780131325
 40
0.5844289286555
 40
0.6114382612199685
 40
0.6384635295279214
 40
0.6417934091082996
 40
0.6451228981806599
 40
0.6484518690355188
 40
0.6517807289093867
 40
0.6551281512370989
 40
0.6585028658142657
 40
0.6625145691678879
 40
0.6665626862505214
 40
0.6706464103834396
 40
0.6747649111391051
 40
0.6790024185278393
 40
0.6832743672027717
 40
0.6875798147917493
 40
0.6919178348953662
 40
0.6962853127310748
 40
0.7006511313895851
 40
0.7050052753711137
 40
0.7122199307056773
 40
0.7194006319792261
 40
0.7265462771570697
 40
0.7289443952914355
 40
0.7313337124383708
 40
0.7336935582270521
 40
0.7360216644139307
 40
0.7383182864078031
 40
0.7405836478996429
 40
0.7428179725061217
 40
0.7453858178899044
 40
0.7479121155852268
 40
0.7503972331147056
 40
0.7528508026464578
 40
0.7553201873234621
 40
0.7578116809969459
 40
0.7607759579284577
 40
0.7637698202286726
 40
0.7667926607951263
 40
0.7698436172044073
 40
0.7822813011052726
 40
0.7947330826626198
 40
0.8071885504135634
 40
0.8196472279367647
 40
0.8453943270097878
 40
0.8711535859168865
 40
0.8969285022714103
 40
0.9227207106021564
 40
0.9485350460483946
 40
0.9586621851410351
 40
0.9687941557455729
 40
0.9705778719089121
 40
0.9723622309124655
 40
0.9741696307904097
 40
0.9760074523126204
 40
0.9778745138069695
 40
0.9797354776153108
 40
0.9816221992921633
 40
0.9835311008762223
 40
0.9854374844817581
 40
0.9866458920629012
 40
0.9878505002290033
 40
0.9890512770551239
 40
0.9902481265959755
 40
0.9914409531949216
 40
0.9926188608621709
 40
0.993765649473004
 40
0.9948815423261255
 40
0.995857678517191
 40
0.9968096284801507
 40
0.9977504926082307
 40
0.9987037883588527
 40
0.9996697717312988
 40
1.0
 40
1.0
 40
1.0
 40
1.0
 10
30682.40436552102
 20
82105.88598921919
 30
0.0
 10
30681.40685660717
 20
82105.88599494636
 30
0.0
 10
30679.08297045016
 20
82105.8860082889
 30
0.0
 10
30675.45013641086
 20
82105.88603395095
 30
0.0
 10
30671.52321648265
 20
82105.88606231455
 30
0.0
 10
30667.64836938691
 20
82105.88609806453
 30
0.0
 10
30663.82539295766
 20
82105.88613244228
 30
0.0
 10
30660.12449586561
 20
82105.88617132069
 30
0.0
 10
30656.54358308949
 20
82105.88621098482
 30
0.0
 10
30653.08058469306
 20
82105.8862523116
 30
0.0
 10
30649.6630332965
 20
82105.88629648809
 30
0.0
 10
30646.29078984034
 20
82105.88634104176
 30
0.0
 10
30642.96369039227
 20
82105.88638833419
 30
0.0
 10
30639.68157088338
 20
82105.88643844358
 30
0.0
 10
30636.4442797355
 20
82105.88648879378
 30
0.0
 10
30633.25167830926
 20
82105.88654244618
 30
0.0
 10
30630.1036276873
 20
82105.88659683789
 30
0.0
 10
30627.01804907844
 20
82105.8866517974
 30
0.0
 10
30623.99426113541
 20
82105.88670912569
 30
0.0
 10
30621.03162003535
 20
82105.88676754746
 30
0.0
 10
30618.11138430773
 20
82105.88682470739
 30
0.0
 10
30615.21637714514
 20
82105.88688578399
 30
0.0
 10
30612.34697725812
 20
82105.88694842755
 30
0.0
 10
30609.50356323324
 20
82105.88701071703
 30
0.0
 10
30606.70357677619
 20
82105.88707472822
 30
0.0
 10
30603.94686643996
 20
82105.88713964563
 30
0.0
 10
30601.24909442595
 20
82105.88720592857
 30
0.0
 10
30598.60961705161
 20
82105.88727104498
 30
0.0
 10
30596.0278033626
 20
82105.88733711079
 30
0.0
 10
30593.48724642077
 20
82105.8874055528
 30
0.0
 10
30590.97126189439
 20
82105.88747078377
 30
0.0
 10
30588.48029140763
 20
82105.88754159193
 30
0.0
 10
30586.01478934895
 20
82105.88760910768
 30
0.0
 10
30583.59175573714
 20
82105.8876794639
 30
0.0
 10
30581.21110207103
 20
82105.88774926074
 30
0.0
 10
30578.87268974436
 20
82105.88781853314
 30
0.0
 10
30576.57643025323
 20
82105.88789038267
 30
0.0
 10
30574.32377504275
 20
82105.88795954816
 30
0.0
 10
30572.11457261606
 20
82105.88802957566
 30
0.0
 10
30569.94863370053
 20
82105.88809936925
 30
0.0
 10
30567.82422926212
 20
82105.8881690114
 30
0.0
 10
30565.74123305171
 20
82105.88823940506
 30
0.0
 10
30563.71133189808
 20
82105.88830663995
 30
0.0
 10
30561.73393249261
 20
82105.88837654773
 30
0.0
 10
30559.80846687893
 20
82105.88844385258
 30
0.0
 10
30557.92256706416
 20
82105.88850984086
 30
0.0
 10
30556.06397819132
 20
82105.88857652526
 30
0.0
 10
30554.23315465433
 20
82105.88864388656
 30
0.0
 10
30552.43055096987
 20
82105.88870959757
 30
0.0
 10
30550.66876221418
 20
82105.88877641699
 30
0.0
 10
30548.94771300729
 20
82105.88884092672
 30
0.0
 10
30547.26730203727
 20
82105.88890645706
 30
0.0
 10
30545.62745391943
 20
82105.88897020953
 30
0.0
 10
30543.46369810074
 20
82105.8890551718
 30
0.0
 10
30540.76120640537
 20
82105.88916144864
 30
0.0
 10
30537.50296504811
 20
82105.88929632278
 30
0.0
 10
30534.23636889796
 20
82105.88943178468
 30
0.0
 10
30530.95925969724
 20
82105.88957156558
 30
0.0
 10
30527.67171332384
 20
82105.8897146969
 30
0.0
 10
30522.96534357937
 20
82105.88992404973
 30
0.0
 10
30516.82616685426
 20
82105.89020693735
 30
0.0
 10
30509.24040189596
 20
82105.89057054249
 30
0.0
 10
30501.60299320667
 20
82105.89095574881
 30
0.0
 10
30493.91473607953
 20
82105.89135874746
 30
0.0
 10
30486.17646340067
 20
82105.89178253618
 30
0.0
 10
30478.53867620514
 20
82105.8922175375
 30
0.0
 10
30471.00984275417
 20
82105.89266329973
 30
0.0
 10
30463.60589051678
 20
82105.89312040079
 30
0.0
 10
30456.19288916055
 20
82105.89359162856
 30
0.0
 10
30448.77880243595
 20
82105.89408163984
 30
0.0
 10
30427.11736091776
 20
82105.89556477161
 30
0.0
 10
30391.20356753769
 20
82105.89834314529
 30
0.0
 10
30341.03533413647
 20
82105.90307719318
 30
0.0
 10
30292.64829633486
 20
82105.90853205205
 30
0.0
 10
30246.04161230239
 20
82105.91466534447
 30
0.0
 10
30201.21455918596
 20
82105.92142590423
 30
0.0
 10
30156.37484559953
 20
82105.92912652149
 30
0.0
 10
30111.52287670912
 20
82105.93785064643
 30
0.0
 10
30066.6544140614
 20
82105.94769929237
 30
0.0
 10
30026.06901884222
 20
82105.95772802934
 30
0.0
 10
29989.76943399632
 20
82105.967650324
 30
0.0
 10
29957.75667724521
 20
82105.97715793561
 30
0.0
 10
29935.09528773726
 20
82105.98447564875
 30
0.0
 10
29921.78845085883
 20
82105.98897930999
 30
0.0
 10
29917.84264101424
 20
82105.99032935478
 30
0.0
 10
29913.89723517825
 20
82105.99169355665
 30
0.0
 10
29909.94474589243
 20
82105.99307491413
 30
0.0
 10
29905.97418699697
 20
82105.99447515745
 30
0.0
 10
29901.73387805669
 20
82105.99598841902
 30
0.0
 10
29897.21676713255
 20
82105.99761853478
 30
0.0
 10
29892.41957008566
 20
82105.99936994929
 30
0.0
 10
29887.58018524874
 20
82106.00116199271
 30
0.0
 10
29882.66598555869
 20
82106.00300253096
 30
0.0
 10
29877.67743132554
 20
82106.00489942214
 30
0.0
 10
29872.61502755801
 20
82106.00684705658
 30
0.0
 10
29867.51291930163
 20
82106.0088386072
 30
0.0
 10
29862.37307536095
 20
82106.0108715625
 30
0.0
 10
29857.20938470521
 20
82106.01294366504
 30
0.0
 10
29852.03932697116
 20
82106.01504488472
 30
0.0
 10
29845.74452454025
 20
82106.01764187696
 30
0.0
 10
29838.33773743167
 20
82106.02075405846
 30
0.0
 10
29829.82820574272
 20
82106.02441444084
 30
0.0
 10
29823.22139913801
 20
82106.02732285652
 30
0.0
 10
29818.50737679045
 20
82106.02943028781
 30
0.0
 10
29815.68392866225
 20
82106.0307033246
 30
0.0
 10
29812.88813849531
 20
82106.03197412378
 30
0.0
 10
29810.12896727551
 20
82106.033235499
 30
0.0
 10
29807.40712135067
 20
82106.0344934675
 30
0.0
 10
29804.72232335507
 20
82106.03573944991
 30
0.0
 10
29801.93038247735
 20
82106.03704745199
 30
0.0
 10
29799.0353627637
 20
82106.03841343095
 30
0.0
 10
29796.04127098052
 20
82106.03983968283
 30
0.0
 10
29793.09232342986
 20
82106.0412549192
 30
0.0
 10
29790.16585913967
 20
82106.04267255027
 30
0.0
 10
29787.23687724834
 20
82106.04410104391
 30
0.0
 10
29784.10614826174
 20
82106.04564361457
 30
0.0
 10
29780.76823275389
 20
82106.04730132811
 30
0.0
 10
29777.22041761931
 20
82106.04908168271
 30
0.0
 10
29773.6383624913
 20
82106.05089929412
 30
0.0
 10
29766.3256585457
 20
82106.05464618899
 30
0.0
 10
29755.28819486694
 20
82106.06045235243
 30
0.0
 10
29740.53564195192
 20
82106.06856241529
 30
0.0
 10
29725.77482960345
 20
82106.07704587685
 30
0.0
 10
29705.76196406841
 20
82106.0890854228
 30
0.0
 10
29680.49376601212
 20
82106.10539903317
 30
0.0
 10
29649.96544543792
 20
82106.12722878043
 30
0.0
 10
29619.41956921357
 20
82106.15159740934
 30
0.0
 10
29588.85228011877
 20
82106.17906457441
 30
0.0
 10
29564.46655599149
 20
82106.20405972314
 30
0.0
 10
29546.26713661148
 20
82106.22481888947
 30
0.0
 10
29537.56011228755
 20
82106.23539800417
 30
0.0
 10
29532.14856582793
 20
82106.24224083527
 30
0.0
 10
29530.02524641886
 20
82106.24495748398
 30
0.0
 10
29527.88056068394
 20
82106.24773748694
 30
0.0
 10
29525.70321241587
 20
82106.25059401367
 30
0.0
 10
29523.5047121859
 20
82106.25351489492
 30
0.0
 10
29521.28690239024
 20
82106.2565033017
 30
0.0
 10
29519.05257199398
 20
82106.25955344893
 30
0.0
 10
29516.80030775429
 20
82106.26267164935
 30
0.0
 10
29514.81598051213
 20
82106.26545843258
 30
0.0
 10
29513.10984988727
 20
82106.26788057282
 30
0.0
 10
29511.68243200299
 20
82106.26992999859
 30
0.0
 10
29510.25958291382
 20
82106.27198760413
 30
0.0
 10
29508.84139055885
 20
82106.27405956097
 30
0.0
 10
29507.43223503057
 20
82106.27613766419
 30
0.0
 10
29506.04285601202
 20
82106.27820739931
 30
0.0
 10
29504.68386738829
 20
82106.28024942234
 30
0.0
 10
29503.40457791204
 20
82106.28218936189
 30
0.0
 10
29502.20224896263
 20
82106.28402975746
 30
0.0
 10
29501.06905575696
 20
82106.2857764539
 30
0.0
 10
29499.94488580612
 20
82106.28752437592
 30
0.0
 10
29498.81517577708
 20
82106.28929542933
 30
0.0
 10
29497.92665900194
 20
82106.29069588222
 30
0.0
 10
29497.41467913617
 20
82106.29151254163
 30
0.0
 10
29497.28424501621
 20
82106.2917205972
 30
0.0
  0
SPLINE
  5
AA
330
1F
100
AcDbEntity
  8
0
  6
Continuous
 62
     7
370
    15
100
AcDbSpline
210
0.0
220
0.0
230
1.0
 70
     8
 71
     3
 72
   103
 73
    99
 74
     0
 42
0.0000000001
 43
0.0000000001
 40
0.0
 40
0.0
 40
0.0
 40
0.0
 40
0.0000178524166985
 40
0.0000771161771481
 40
0.0001627331745324
 40
0.0002303385152874
 40
0.0002771730411209
 40
0.0003502086987386
 40
0.0030098423573581
 40
0.0040398380463217
 40
0.0050683694724793
 40
0.0069028401653623
 40
0.0087351569831797
 40
0.0120040109095232
 40
0.0152699736479857
 40
0.0158793637779979
 40
0.0164887083006839
 40
0.0170980113864577
 40
0.017692474606958
 40
0.0182238903418257
 40
0.0186816879958743
 40
0.019214670289799
 40
0.0198137034475135
 40
0.0204729986715038
 40
0.0211880832407757
 40
0.0228909389513143
 40
0.0245772529881761
 40
0.0262640765751698
 40
0.0331141231688876
 40
0.0399693270820761
 40
0.0468285832441917
 40
0.0583587344110822
 40
0.0634339824569017
 40
0.0644310912920868
 40
0.0654282473532006
 40
0.0664149056421331
 40
0.0673480689480854
 40
0.0684721300611466
 40
0.0695754743492475
 40
0.0707131656621575
 40
0.0718859100810853
 40
0.0730920755814354
 40
0.0743308452219347
 40
0.0756027618304135
 40
0.0774056608233296
 40
0.0792218592507466
 40
0.0810232581483382
 40
0.0828086620568407
 40
0.0991735934787472
 40
0.1155499305908774
 40
0.1319350112086714
 40
0.1483276177308848
 40
0.1701943033255403
 40
0.1920697870984387
 40
0.2139528708411998
 40
0.2428483926401744
 40
0.255564878038837
 40
0.2575635051440731
 40
0.2595622392403609
 40
0.2615609171497732
 40
0.2635525835036172
 40
0.265493983847495
 40
0.2673066516169862
 40
0.2690646522331405
 40
0.2707674426219997
 40
0.2724144247806861
 40
0.2740295629448902
 40
0.2756619801921088
 40
0.2782652277644513
 40
0.2809154226846206
 40
0.2836130537165174
 40
0.2865565140562831
 40
0.2895524632419959
 40
0.2925989443068032
 40
0.2956965005581503
 40
0.2988456752979674
 40
0.3020470661638556
 40
0.3053012166503781
 40
0.3086060615377832
 40
0.3119162824918782
 40
0.3152148716556654
 40
0.321658533276064
 40
0.3280519739620378
 40
0.3383439235141976
 40
0.3486291075146558
 40
0.3589133964182495
 40
0.3692001062651355
 40
0.3794887491293121
 40
0.4254297108618565
 40
0.4713905934361465
 40
0.5460406452085467
 40
0.620726545587996
 40
0.6954420094052978
 40
0.770183714729641
 40
0.8449476634771697
 40
0.9115967432628464
 40
0.9782576598124549
 40
1.0
 40
1.0
 40
1.0
 40
1.0
 10
30703.75338826356
 20
82106.95579418162
 30
0.0
 10
30703.75229385077
 20
82106.95492267607
 30
0.0
 10
30703.74756637148
 20
82106.95115807778
 30
0.0
 10
30703.72076802228
 20
82106.94543759025
 30
0.0
 10
30703.6814417427
 20
82106.94050071042
 30
0.0
 10
30703.64414375069
 20
82106.9371805227
 30
0.0
 10
30703.61587794537
 20
82106.93490331189
 30
0.0
 10
30703.05624352515
 20
82106.89296550599
 30
0.0
 10
30702.1334353315
 20
82106.88288383961
 30
0.0
 10
30701.05716657836
 20
82106.86095797289
 30
0.0
 10
30700.15679337734
 20
82106.84689915751
 30
0.0
 10
30699.07250712025
 20
82106.83174306883
 30
0.0
 10
30697.46731920901
 20
82106.81256603159
 30
0.0
 10
30695.52945958577
 20
82106.79272708313
 30
0.0
 10
30693.87357704443
 20
82106.77810588959
 30
0.0
 10
30692.8338888578
 20
82106.76952382067
 30
0.0
 10
30692.41006112466
 20
82106.76610070597
 30
0.0
 10
30691.98966675415
 20
82106.76277389787
 30
0.0
 10
30691.58731409392
 20
82106.75965264801
 30
0.0
 10
30691.22008755242
 20
82106.75685316097
 30
0.0
 10
30690.86708313068
 20
82106.7542030252
 30
0.0
 10
30690.49837931765
 20
82106.7514766376
 30
0.0
 10
30690.08294170361
 20
82106.74845403021
 30
0.0
 10
30689.62524412592
 20
82106.745183699
 30
0.0
 10
30688.91149340807
 20
82106.74017719206
 30
0.0
 10
30687.95945394201
 20
82106.73371483691
 30
0.0
 10
30686.78189152443
 20
82106.72604856789
 30
0.0
 10
30684.41004823619
 20
82106.71119899881
 30
0.0
 10
30680.83833058516
 20
82106.69084565495
 30
0.0
 10
30676.06548665415
 20
82106.66668546021
 30
0.0
 10
30670.20568495015
 20
82106.63985232335
 30
0.0
 10
30664.75837130854
 20
82106.61767580422
 30
0.0
 10
30660.67166673474
 20
82106.60237690362
 30
0.0
 10
30659.03032825252
 20
82106.59641394993
 30
0.0
 10
30658.3382382141
 20
82106.59392101096
 30
0.0
 10
30657.66099034437
 20
82106.59150532952
 30
0.0
 10
30656.95427329683
 20
82106.58900696438
 30
0.0
 10
30656.22045961691
 20
82106.58643798218
 30
0.0
 10
30655.43915471112
 20
82106.58372909277
 30
0.0
 10
30654.64654172535
 20
82106.58100810908
 30
0.0
 10
30653.83005084577
 20
82106.57823571692
 30
0.0
 10
30652.99008569489
 20
82106.57541044518
 30
0.0
 10
30652.12708758362
 20
82106.57253895089
 30
0.0
 10
30651.12552859318
 20
82106.56924004915
 30
0.0
 10
30649.98988848757
 20
82106.56555031645
 30
0.0
 10
30648.73129576563
 20
82106.56151701893
 30
0.0
 10
30647.47675532494
 20
82106.55755607344
 30
0.0
 10
30642.84405715724
 20
82106.54313212755
 30
0.0
 10
30634.82681424114
 20
82106.51988151786
 30
0.0
 10
30623.4189068531
 20
82106.49013957757
 30
0.0
 10
30612.00415975207
 20
82106.46305423255
 30
0.0
 10
30599.31406874198
 20
82106.43537616945
 30
0.0
 10
30585.34857910413
 20
82106.40754228016
 30
0.0
 10
30570.10766231194
 20
82106.37982857328
 30
0.0
 10
30553.23406095487
 20
82106.35161022816
 30
0.0
 10
30538.48735608048
 20
82106.32906602249
 30
0.0
 10
30528.35870227928
 20
82106.31457851954
 30
0.0
 10
30524.47686604002
 20
82106.30914536375
 30
0.0
 10
30523.08426857878
 20
82106.30721008978
 30
0.0
 10
30521.69328640793
 20
82106.30528873286
 30
0.0
 10
30520.31561903997
 20
82106.30339571867
 30
0.0
 10
30518.98115204601
 20
82106.30157560725
 30
0.0
 10
30517.70095373963
 20
82106.29983753035
 30
0.0
 10
30516.47617249512
 20
82106.29818364479
 30
0.0
 10
30515.28987184528
 20
82106.29658992818
 30
0.0
 10
30514.13675045982
 20
82106.29504939674
 30
0.0
 10
30512.99997299565
 20
82106.29353714091
 30
0.0
 10
30511.64109793345
 20
82106.2917396515
 30
0.0
 10
30510.04182525085
 20
82106.28963470663
 30
0.0
 10
30508.19515037822
 20
82106.28722468754
 30
0.0
 10
30506.26945774178
 20
82106.28473163513
 30
0.0
 10
30504.26346016148
 20
82106.28215394985
 30
0.0
 10
30502.17643829172
 20
82106.27949601871
 30
0.0
 10
30500.05362402779
 20
82106.27681656875
 30
0.0
 10
30497.89521964204
 20
82106.27411326129
 30
0.0
 10
30495.70083386481
 20
82106.27139132677
 30
0.0
 10
30493.47007533402
 20
82106.26864702867
 30
0.0
 10
30491.20315895275
 20
82106.26588384446
 30
0.0
 10
30488.91096311697
 20
82106.26311523922
 30
0.0
 10
30486.60844373792
 20
82106.2603578108
 30
0.0
 10
30483.57690809067
 20
82106.25676322941
 30
0.0
 10
30479.82926582545
 20
82106.25237320646
 30
0.0
 10
30474.45735012915
 20
82106.24619112605
 30
0.0
 10
30468.19319456775
 20
82106.23913584397
 30
0.0
 10
30461.02533556204
 20
82106.23127513958
 30
0.0
 10
30453.85867574196
 20
82106.22361687356
 30
0.0
 10
30446.69119568491
 20
82106.21615106401
 30
0.0
 10
30431.2420391174
 20
82106.20046088598
 30
0.0
 10
30407.50702100008
 20
82106.17795139972
 30
0.0
 10
30368.82297266432
 20
82106.14486421972
 30
0.0
 10
30323.46214109263
 20
82106.11079906938
 30
0.0
 10
30271.42221558862
 20
82106.07710676342
 30
0.0
 10
30219.36070622067
 20
82106.0478544547
 30
0.0
 10
30167.28083229196
 20
82106.02236537036
 30
0.0
 10
30117.074354793
 20
82106.00087893805
 30
0.0
 10
30068.74466434806
 20
82105.98277156494
 30
0.0
 10
30032.73032423569
 20
82105.9705329249
 30
0.0
 10
30012.19665939799
 20
82105.96450428067
 30
0.0
 10
30007.14650691859
 20
82105.96302156568
 30
0.0
  0
SPLINE
  5
AB
330
1F
100
AcDbEntity
  8
0
  6
Continuous
 62
     7
370
    15
100
AcDbSpline
210
0.0
220
0.0
230
1.0
 70
     8
 71
     3
 72
    11
 73
     7
 74
     0
 42
0.0000000001
 43
0.0000000001
 40
0.0
 40
0.0
 40
0.0
 40
0.0
 40
0.2487195153143919
 40
0.4982918264086041
 40
0.7487179438245014
 40
1.0
 40
1.0
 40
1.0
 40
1.0
 10
29489.91109963976
 20
82116.23145547779
 30
0.0
 10
29487.64709527202
 20
82116.23145548125
 30
0.0
 10
29483.11132384301
 20
82116.2314554882
 30
0.0
 10
29476.27963085791
 20
82116.2314554359
 30
0.0
 10
29469.41377562659
 20
82116.23145563565
 30
0.0
 10
29464.81801696016
 20
82116.23145513629
 30
0.0
 10
29462.51621733206
 20
82116.23145488619
 30
0.0
  0
LINE
  5
AC
330
1F
100
AcDbEntity
  8
0
  6
Continuous
 62
     7
370
    15
100
AcDbLine
 10
29403.92046368175
 20
82106.95685076451
 30
0.0
 11
29785.97589448483
 21
82106.86465828754
 31
0.0
  0
LINE
  5
AD
330
1F
100
AcDbEntity
  8
0
  6
Continuous
 62
     7
370
    15
100
AcDbLine
 10
29403.92046368175
 20
82105.88599513512
 30
0.0
 11
29403.92046368175
 21
82106.95685076451
 31
0.0
  0
LINE
  5
AE
330
1F
100
AcDbEntity
  8
0
  6
Continuous
 62
     7
370
    15
100
AcDbLine
 10
29403.92046368175
 20
82106.95685076451
 30
0.0
 11
30703.75338826356
 21
82106.95684011586
 31
0.0
  0
LINE
  5
AF
330
1F
100
AcDbEntity
  8
0
  6
Continuous
 62
     7
370
    15
100
AcDbLine
 10
30703.75338826356
 20
82105.88598212009
 30
0.0
 11
29403.92046368175
 21
82105.88599513512
 31
0.0
  0
LINE
  5
B0
330
1F
100
AcDbEntity
  8
0
  6
Continuous
 62
     7
370
    15
100
AcDbLine
 10
30703.75338826356
 20
82106.95684011586
 30
0.0
 11
30703.75338826356
 21
82105.88598212009
 31
0.0
  0
LINE
  5
B1
330
1F
100
AcDbEntity
  8
0
  6
Continuous
 62
     7
370
    15
100
AcDbLine
 10
30323.04356841818
 20
82106.64319591151
 30
0.0
 11
30316.79895295198
 21
82106.64319591151
 31
0.0
  0
LINE
  5
B2
330
1F
100
AcDbEntity
  8
0
  6
Continuous
 62
     7
370
    15
100
AcDbLine
 10
29403.92046368175
 20
82106.95685076451
 30
0.0
 11
29403.92046368175
 21
82115.63634611138
 31
0.0
  0
LINE
  5
B3
330
1F
100
AcDbEntity
  8
0
  6
Continuous
 62
     7
370
    15
100
AcDbLine
 10
30703.75338826356
 20
82115.6363366459
 30
0.0
 11
29403.92046368175
 21
82115.63634611138
 31
0.0
  0
LINE
  5
B4
330
1F
100
AcDbEntity
  8
0
  6
Continuous
 62
     7
370
    15
100
AcDbLine
 10
30703.75338826356
 20
82106.95684011586
 30
0.0
 11
30703.75338826356
 21
82115.6363366459
 31
0.0
  0
LINE
  5
B5
330
1F
100
AcDbEntity
  8
0
  6
Continuous
 62
     7
370
    15
100
AcDbLine
 10
29439.51149489397
 20
82105.88599513512
 30
0.0
 11
29439.51149489397
 21
82033.15935169575
 31
0.0
  0
LINE
  5
B6
330
1F
100
AcDbEntity
  8
0
  6
Continuous
 62
     7
370
    15
100
AcDbLine
 10
30674.95261889674
 20
82033.15933276481
 30
0.0
 11
30674.95261889674
 21
82105.88598212009
 31
0.0
  0
LINE
  5
B7
330
1F
100
AcDbEntity
  8
0
  6
Continuous
 62
     7
370
    15
100
AcDbLine
 10
29439.51149489397
 20
82033.15935169575
 30
0.0
 11
30674.95261889674
 21
82033.15933276481
 31
0.0
  0
LINE
  5
B8
330
1F
100
AcDbEntity
  8
0
  6
Continuous
 62
     7
370
    15
100
AcDbLine
 10
30674.95261889674
 20
82033.15933276481
 30
0.0
 11
30674.95261889674
 21
82033.15936116121
 31
0.0
  0
LINE
  5
B9
330
1F
100
AcDbEntity
  8
0
  6
Continuous
 62
     7
370
    15
100
AcDbLine
 10
30697.08735122267
 20
82121.89933502525
 30
0.0
 11
29411.04674964784
 21
82121.8993200677
 31
0.0
  0
LINE
  5
BA
330
1F
100
AcDbEntity
  8
0
  6
Continuous
 62
     7
370
    15
100
AcDbLine
 10
29409.9962341264
 20
82120.4137585466
 30
0.0
 11
29409.9962341264
 21
82116.23145488619
 31
0.0
  0
LINE
  5
BB
330
1F
100
AcDbEntity
  8
0
  6
Continuous
 62
     7
370
    15
100
AcDbLine
 10
30698.13786674412
 20
82120.41377540698
 30
0.0
 11
29409.9962341264
 21
82120.4137585466
 31
0.0
  0
LINE
  5
BC
330
1F
100
AcDbEntity
  8
0
  6
Continuous
 62
     7
370
    15
100
AcDbLine
 10
30698.13786674412
 20
82120.41377540698
 30
0.0
 11
30698.13786674412
 21
82116.2314619853
 31
0.0
  0
LINE
  5
BD
330
1F
100
AcDbEntity
  8
0
  6
Continuous
 62
     7
370
    15
100
AcDbLine
 10
30698.13786674412
 20
82116.2314619853
 30
0.0
 11
29409.9962341264
 21
82116.23145488619
 31
0.0
  0
LINE
  5
BE
330
1F
100
AcDbEntity
  8
0
  6
Continuous
 62
     7
370
    15
100
AcDbLine
 10
29410.06181089001
 20
82121.06369841226
 30
0.0
 11
29409.9962341264
 21
82120.4137585466
 31
0.0
  0
LINE
  5
BF
330
1F
100
AcDbEntity
  8
0
  6
Continuous
 62
     7
370
    15
100
AcDbLine
 10
29410.25899552331
 20
82121.52793950961
 30
0.0
 11
29410.06181089001
 21
82121.06369841226
 31
0.0
  0
LINE
  5
C0
330
1F
100
AcDbEntity
  8
0
  6
Continuous
 62
     7
370
    15
100
AcDbLine
 10
29410.58718223635
 20
82121.80648659909
 30
0.0
 11
29410.25899552331
 21
82121.52793950961
 31
0.0
  0
LINE
  5
C1
330
1F
100
AcDbEntity
  8
0
  6
Continuous
 62
     7
370
    15
100
AcDbLine
 10
29411.04674964784
 20
82121.89933481329
 30
0.0
 11
29410.58718223635
 21
82121.80648659909
 31
0.0
  0
LINE
  5
C2
330
1F
100
AcDbEntity
  8
0
  6
Continuous
 62
     7
370
    15
100
AcDbLine
 10
29429.0409832931
 20
82121.89933481329
 30
0.0
 11
29429.50062642834
 21
82121.80648659909
 31
0.0
  0
LINE
  5
C3
330
1F
100
AcDbEntity
  8
0
  6
Continuous
 62
     7
370
    15
100
AcDbLine
 10
29429.50062642834
 20
82121.80648659909
 30
0.0
 11
29429.82881314138
 21
82121.52793950961
 31
0.0
  0
LINE
  5
C4
330
1F
100
AcDbEntity
  8
0
  6
Continuous
 62
     7
370
    15
100
AcDbLine
 10
29429.82881314138
 20
82121.52793950961
 30
0.0
 11
29430.02584632719
 21
82121.06369841226
 31
0.0
  0
LINE
  5
C5
330
1F
100
AcDbEntity
  8
0
  6
Continuous
 62
     7
370
    15
100
AcDbLine
 10
29430.02584632719
 20
82121.06369841226
 30
0.0
 11
29430.09149881455
 21
82120.4137585466
 31
0.0
  0
LINE
  5
C6
330
1F
100
AcDbEntity
  8
0
  6
Continuous
 62
     7
370
    15
100
AcDbLine
 10
30698.07221425676
 20
82121.06371298022
 30
0.0
 11
30698.13786674412
 21
82120.41377540698
 31
0.0
  0
LINE
  5
C7
330
1F
100
AcDbEntity
  8
0
  6
Continuous
 62
     7
370
    15
100
AcDbLine
 10
30697.87518107095
 20
82121.5279467936
 30
0.0
 11
30698.07221425676
 21
82121.06371298022
 31
0.0
  0
LINE
  5
C8
330
1F
100
AcDbEntity
  8
0
  6
Continuous
 62
     7
370
    15
100
AcDbLine
 10
30697.54699435791
 20
82121.8065011393
 30
0.0
 11
30697.87518107095
 21
82121.5279467936
 31
0.0
  0
LINE
  5
C9
330
1F
100
AcDbEntity
  8
0
  6
Continuous
 62
     7
370
    15
100
AcDbLine
 10
30697.08735122267
 20
82121.89934935226
 30
0.0
 11
30697.08735122267
 21
82121.89933481329
 31
0.0
  0
LINE
  5
CA
330
1F
100
AcDbEntity
  8
0
  6
Continuous
 62
     7
370
    15
100
AcDbLine
 10
30697.54699435791
 20
82121.8065011393
 30
0.0
 11
30697.08735122267
 21
82121.89934935226
 31
0.0
  0
LINE
  5
CB
330
1F
100
AcDbEntity
  8
0
  6
Continuous
 62
     7
370
    15
100
AcDbLine
 10
30697.08735122267
 20
82121.89933481329
 30
0.0
 11
30697.54699435791
 21
82121.8065011393
 31
0.0
  0
LINE
  5
CC
330
1F
100
AcDbEntity
  8
0
  6
Continuous
 62
     7
370
    15
100
AcDbLine
 10
30679.09307971554
 20
82121.89934935226
 30
0.0
 11
30679.09307971554
 21
82121.89933481329
 31
0.0
  0
LINE
  5
CD
330
1F
100
AcDbEntity
  8
0
  6
Continuous
 62
     7
370
    15
100
AcDbLine
 10
30678.63358802779
 20
82121.8065011393
 30
0.0
 11
30679.09307971554
 21
82121.89934935226
 31
0.0
  0
LINE
  5
CE
330
1F
100
AcDbEntity
  8
0
  6
Continuous
 62
     7
370
    15
100
AcDbLine
 10
30679.09307971554
 20
82121.89933481329
 30
0.0
 11
30678.63358802779
 21
82121.8065011393
 31
0.0
  0
LINE
  5
CF
330
1F
100
AcDbEntity
  8
0
  6
Continuous
 62
     7
370
    15
100
AcDbLine
 10
30678.63358802779
 20
82121.8065011393
 30
0.0
 11
30678.30524986727
 21
82121.5279467936
 31
0.0
  0
LINE
  5
D0
330
1F
100
AcDbEntity
  8
0
  6
Continuous
 62
     7
370
    15
100
AcDbLine
 10
30678.30524986727
 20
82121.5279467936
 30
0.0
 11
30678.10821668145
 21
82121.06371298022
 31
0.0
  0
LINE
  5
D1
330
1F
100
AcDbEntity
  8
0
  6
Continuous
 62
     7
370
    15
100
AcDbLine
 10
30678.10821668145
 20
82121.06371298022
 30
0.0
 11
30678.04271564159
 21
82120.41377540698
 31
0.0
  0
LINE
  5
D2
330
1F
100
AcDbEntity
  8
0
  6
Continuous
 62
     7
370
    15
100
AcDbLine
 10
30680.14897162292
 20
82116.08581091036
 30
0.0
 11
30680.14897162292
 21
82116.2314619853
 31
0.0
  0
LINE
  5
D3
330
1F
100
AcDbEntity
  8
0
  6
Continuous
 62
     7
370
    15
100
AcDbLine
 10
29427.08091200248
 20
82116.08580144488
 30
0.0
 11
30680.14897162292
 21
82116.08581091036
 31
0.0
  0
LINE
  5
D4
330
1F
100
AcDbEntity
  8
0
  6
Continuous
 62
     7
370
    15
100
AcDbLine
 10
29427.08091200248
 20
82116.23145547779
 30
0.0
 11
29427.08091200248
 21
82116.08580144488
 31
0.0
  0
ENDSEC
  0
SECTION
  2
OBJECTS
  0
DICTIONARY
  5
C
330
0
100
AcDbDictionary
281
     1
  3
ACAD_COLOR
350
100
  3
ACAD_GROUP
350
D
  3
ACAD_LAYOUT
350
1A
  3
ACAD_MATERIAL
350
D6
  3
ACAD_MLEADERSTYLE
350
115
  3
ACAD_MLINESTYLE
350
17
  3
ACAD_PLOTSETTINGS
350
19
  3
ACAD_PLOTSTYLENAME
350
E
  3
ACAD_SCALELIST
350
103
  3
ACAD_TABLESTYLE
350
101
  3
ACAD_VISUALSTYLE
350
EF
  3
ACDB_RECOMPOSE_DATA
350
150
  3
AcDbVariableDictionary
350
146
  0
DICTIONARY
  5
144
330
10
100
AcDbDictionary
280
     1
281
     1
  3
ADSK_XREC_LAYER_RECONCILED
360
145
  0
DICTIONARY
  5
100
102
{ACAD_REACTORS
330
C
102
}
330
C
100
AcDbDictionary
281
     1
  0
DICTIONARY
  5
D
102
{ACAD_REACTORS
330
C
102
}
330
C
100
AcDbDictionary
281
     1
  0
DICTIONARY
  5
1A
102
{ACAD_REACTORS
330
C
102
}
330
C
100
AcDbDictionary
281
     1
  3
Layout1
350
1E
  3
Layout2
350
26
  3
Model
350
22
  0
DICTIONARY
  5
D6
102
{ACAD_REACTORS
330
C
102
}
330
C
100
AcDbDictionary
281
     1
  3
ByBlock
350
DF
  3
ByLayer
350
D7
  3
Global
350
E7
  0
DICTIONARY
  5
115
102
{ACAD_REACTORS
330
C
102
}
330
C
100
AcDbDictionary
281
     1
  3
Standard
350
116
  0
DICTIONARY
  5
17
102
{ACAD_REACTORS
330
C
102
}
330
C
100
AcDbDictionary
281
     1
  3
Standard
350
18
  0
DICTIONARY
  5
19
102
{ACAD_REACTORS
330
C
102
}
330
C
100
AcDbDictionary
281
     1
  0
ACDBDICTIONARYWDFLT
  5
E
102
{ACAD_REACTORS
330
C
102
}
330
C
100
AcDbDictionary
281
     1
  3
Normal
350
F
100
AcDbDictionaryWithDefault
340
F
  0
DICTIONARY
  5
103
102
{ACAD_REACTORS
330
C
102
}
330
C
100
AcDbDictionary
281
     1
  3
A0
350
104
  3
A1
350
105
  3
A2
350
106
  3
A3
350
107
  3
A4
350
108
  3
A5
350
109
  3
A6
350
10A
  3
A7
350
10B
  3
A8
350
10C
  3
A9
350
10D
  3
B0
350
10E
  3
B1
350
10F
  3
B2
350
110
  3
B3
350
111
  3
B4
350
112
  3
B5
350
113
  3
B6
350
114
  0
DICTIONARY
  5
101
102
{ACAD_REACTORS
330
C
102
}
330
C
100
AcDbDictionary
281
     1
  3
Standard
350
102
  0
DICTIONARY
  5
EF
102
{ACAD_REACTORS
330
C
102
}
330
C
100
AcDbDictionary
281
     1
  3
2dWireframe
350
F5
  3
3D Hidden
350
F7
  3
3dWireframe
350
F6
  3
Basic
350
F4
  3
Brighten
350
FB
  3
ColorChange
350
FF
  3
Conceptual
350
F8
  3
Dim
350
FA
  3
Facepattern
350
FE
  3
Flat
350
F0
  3
FlatWithEdges
350
F1
  3
Gouraud
350
F2
  3
GouraudWithEdges
350
F3
  3
Linepattern
350
FD
  3
Realistic
350
F9
  3
Thicken
350
FC
  0
XRECORD
  5
150
102
{ACAD_REACTORS
330
C
102
}
330
C
100
AcDbXrecord
280
     1
 90
        1
330
102
  0
DICTIONARY
  5
146
102
{ACAD_REACTORS
330
C
102
}
330
C
100
AcDbDictionary
281
     1
  3
CANNOSCALE
350
14A
  3
CMLEADERSTYLE
350
148
  3
CTABLESTYLE
350
147
  3
LAYEREVAL
350
14C
  3
LAYERNOTIFY
350
14D
  3
LIGHTINGUNITS
350
14B
  3
MSLTSCALE
350
149
  0
XRECORD
  5
145
102
{ACAD_REACTORS
330
144
102
}
330
144
100
AcDbXrecord
280
     1
290
     1
  0
LAYOUT
  5
1E
102
{ACAD_REACTORS
330
1A
102
}
330
1A
100
AcDbPlotSettings
  1

  2
none_device
  4

  6

 40
0.0
 41
0.0
 42
0.0
 43
0.0
 44
0.0
 45
0.0
 46
0.0
 47
0.0
 48
0.0
 49
0.0
140
0.0
141
0.0
142
1.0
143
1.0
 70
   688
 72
     0
 73
     0
 74
     5
  7

 75
    16
147
1.0
 76
     0
 77
     2
 78
   300
148
0.0
149
0.0
100
AcDbLayout
  1
Layout1
 70
     1
 71
     1
 10
0.0
 20
0.0
 11
420.0
 21
297.0
 12
0.0
 22
0.0
 32
0.0
 14
1.000000000000000E+20
 24
1.000000000000000E+20
 34
1.000000000000000E+20
 15
-1.000000000000000E+20
 25
-1.000000000000000E+20
 35
-1.000000000000000E+20
146
0.0
 13
0.0
 23
0.0
 33
0.0
 16
1.0
 26
0.0
 36
0.0
 17
0.0
 27
1.0
 37
0.0
 76
     0
330
1B
  0
LAYOUT
  5
26
102
{ACAD_REACTORS
330
1A
102
}
330
1A
100
AcDbPlotSettings
  1

  2
none_device
  4

  6

 40
0.0
 41
0.0
 42
0.0
 43
0.0
 44
0.0
 45
0.0
 46
0.0
 47
0.0
 48
0.0
 49
0.0
140
0.0
141
0.0
142
1.0
143
1.0
 70
   688
 72
     0
 73
     0
 74
     5
  7

 75
    16
147
1.0
 76
     0
 77
     2
 78
   300
148
0.0
149
0.0
100
AcDbLayout
  1
Layout2
 70
     1
 71
     2
 10
0.0
 20
0.0
 11
0.0
 21
0.0
 12
0.0
 22
0.0
 32
0.0
 14
0.0
 24
0.0
 34
0.0
 15
0.0
 25
0.0
 35
0.0
146
0.0
 13
0.0
 23
0.0
 33
0.0
 16
1.0
 26
0.0
 36
0.0
 17
0.0
 27
1.0
 37
0.0
 76
     0
330
23
  0
LAYOUT
  5
22
102
{ACAD_REACTORS
330
1A
102
}
330
1A
100
AcDbPlotSettings
  1

  2
none_device
  4

  6

 40
0.0
 41
0.0
 42
0.0
 43
0.0
 44
0.0
 45
0.0
 46
0.0
 47
0.0
 48
0.0
 49
0.0
140
0.0
141
0.0
142
1.0
143
1.0
 70
  1712
 72
     0
 73
     0
 74
     0
  7

 75
     0
147
1.0
 76
     0
 77
     2
 78
   300
148
0.0
149
0.0
100
AcDbLayout
  1
Model
 70
     1
 71
     0
 10
0.0
 20
0.0
 11
139700.0
 21
107950.0
 12
0.0
 22
0.0
 32
0.0
 14
0.0
 24
0.0
 34
0.0
 15
139700.0
 25
107950.0
 35
0.0
146
0.0
 13
0.0
 23
0.0
 33
0.0
 16
1.0
 26
0.0
 36
0.0
 17
0.0
 27
1.0
 37
0.0
 76
     0
330
1F
331
29
  0
MATERIAL
  5
DF
102
{ACAD_XDICTIONARY
360
E0
102
}
102
{ACAD_REACTORS
330
D6
102
}
330
D6
100
AcDbMaterial
  1
ByBlock
 72
     0
 43
0.0008202099737533
 43
0.0
 43
0.0
 43
0.0
 43
0.0
 43
0.0008202099737533
 43
0.0
 43
0.0
 43
0.0
 43
0.0
 43
1.0
 43
0.0
 43
0.0
 43
0.0
 43
0.0
 43
1.0
 77
     0
 47
0.0008202099737533
 47
0.0
 47
0.0
 47
0.0
 47
0.0
 47
0.0008202099737533
 47
0.0
 47
0.0
 47
0.0
 47
0.0
 47
1.0
 47
0.0
 47
0.0
 47
0.0
 47
0.0
 47
1.0
171
     0
 49
0.0008202099737533
 49
0.0
 49
0.0
 49
0.0
 49
0.0
 49
0.0008202099737533
 49
0.0
 49
0.0
 49
0.0
 49
0.0
 49
1.0
 49
0.0
 49
0.0
 49
0.0
 49
0.0
 49
1.0
175
     0
142
0.0008202099737533
142
0.0
142
0.0
142
0.0
142
0.0
142
0.0008202099737533
142
0.0
142
0.0
142
0.0
142
0.0
142
1.0
142
0.0
142
0.0
142
0.0
142
0.0
142
1.0
179
     0
144
0.0008202099737533
144
0.0
144
0.0
144
0.0
144
0.0
144
0.0008202099737533
144
0.0
144
0.0
144
0.0
144
0.0
144
1.0
144
0.0
144
0.0
144
0.0
144
0.0
144
1.0
147
0.0008202099737533
147
0.0
147
0.0
147
0.0
147
0.0
147
0.0008202099737533
147
0.0
147
0.0
147
0.0
147
0.0
147
1.0
147
0.0
147
0.0
147
0.0
147
0.0
147
1.0
  0
MATERIAL
  5
D7
102
{ACAD_XDICTIONARY
360
D8
102
}
102
{ACAD_REACTORS
330
D6
102
}
330
D6
100
AcDbMaterial
  1
ByLayer
 72
     0
 43
0.0008202099737533
 43
0.0
 43
0.0
 43
0.0
 43
0.0
 43
0.0008202099737533
 43
0.0
 43
0.0
 43
0.0
 43
0.0
 43
1.0
 43
0.0
 43
0.0
 43
0.0
 43
0.0
 43
1.0
 77
     0
 47
0.0008202099737533
 47
0.0
 47
0.0
 47
0.0
 47
0.0
 47
0.0008202099737533
 47
0.0
 47
0.0
 47
0.0
 47
0.0
 47
1.0
 47
0.0
 47
0.0
 47
0.0
 47
0.0
 47
1.0
171
     0
 49
0.0008202099737533
 49
0.0
 49
0.0
 49
0.0
 49
0.0
 49
0.0008202099737533
 49
0.0
 49
0.0
 49
0.0
 49
0.0
 49
1.0
 49
0.0
 49
0.0
 49
0.0
 49
0.0
 49
1.0
175
     0
142
0.0008202099737533
142
0.0
142
0.0
142
0.0
142
0.0
142
0.0008202099737533
142
0.0
142
0.0
142
0.0
142
0.0
142
1.0
142
0.0
142
0.0
142
0.0
142
0.0
142
1.0
179
     0
144
0.0008202099737533
144
0.0
144
0.0
144
0.0
144
0.0
144
0.0008202099737533
144
0.0
144
0.0
144
0.0
144
0.0
144
1.0
144
0.0
144
0.0
144
0.0
144
0.0
144
1.0
147
0.0008202099737533
147
0.0
147
0.0
147
0.0
147
0.0
147
0.0008202099737533
147
0.0
147
0.0
147
0.0
147
0.0
147
1.0
147
0.0
147
0.0
147
0.0
147
0.0
147
1.0
  0
MATERIAL
  5
E7
102
{ACAD_XDICTIONARY
360
E8
102
}
102
{ACAD_REACTORS
330
D6
102
}
330
D6
100
AcDbMaterial
  1
Global
 72
     0
 43
0.0008202099737533
 43
0.0
 43
0.0
 43
0.0
 43
0.0
 43
0.0008202099737533
 43
0.0
 43
0.0
 43
0.0
 43
0.0
 43
1.0
 43
0.0
 43
0.0
 43
0.0
 43
0.0
 43
1.0
 77
     0
 47
0.0008202099737533
 47
0.0
 47
0.0
 47
0.0
 47
0.0
 47
0.0008202099737533
 47
0.0
 47
0.0
 47
0.0
 47
0.0
 47
1.0
 47
0.0
 47
0.0
 47
0.0
 47
0.0
 47
1.0
171
     0
 49
0.0008202099737533
 49
0.0
 49
0.0
 49
0.0
 49
0.0
 49
0.0008202099737533
 49
0.0
 49
0.0
 49
0.0
 49
0.0
 49
1.0
 49
0.0
 49
0.0
 49
0.0
 49
0.0
 49
1.0
175
     0
142
0.0008202099737533
142
0.0
142
0.0
142
0.0
142
0.0
142
0.0008202099737533
142
0.0
142
0.0
142
0.0
142
0.0
142
1.0
142
0.0
142
0.0
142
0.0
142
0.0
142
1.0
179
     0
144
0.0008202099737533
144
0.0
144
0.0
144
0.0
144
0.0
144
0.0008202099737533
144
0.0
144
0.0
144
0.0
144
0.0
144
1.0
144
0.0
144
0.0
144
0.0
144
0.0
144
1.0
147
0.0008202099737533
147
0.0
147
0.0
147
0.0
147
0.0
147
0.0008202099737533
147
0.0
147
0.0
147
0.0
147
0.0
147
1.0
147
0.0
147
0.0
147
0.0
147
0.0
147
1.0
  0
MLEADERSTYLE
  5
116
102
{ACAD_REACTORS
330
115
102
}
330
115
100
AcDbMLeaderStyle
170
     2
171
     1
172
     0
 90
        2
 40
0.0
 41
0.0
173
     1
 91
-1056964608
340
14
 92
       -2
290
     1
 42
2.0
291
     1
 43
0.36
  3
Standard
 44
4.0
300

342
11
174
     1
178
     6
175
     1
176
     0
 93
-1056964608
 45
4.0
292
     0
297
     0
 46
4.0
 94
-1056964608
 47
1.0
 49
1.0
140
1.0
293
     1
141
0.0
294
     1
177
     0
142
1.0
295
     1
296
     0
143
0.125
1001
ACAD_MLEADERVER
1070
     2
  0
MLINESTYLE
  5
18
102
{ACAD_REACTORS
330
17
102
}
330
17
100
AcDbMlineStyle
  2
STANDARD
 70
     0
  3

 62
   256
 51
90.0
 52
90.0
 71
     2
 49
0.5
 62
   256
  6
BYLAYER
 49
-0.5
 62
   256
  6
BYLAYER
  0
ACDBPLACEHOLDER
  5
F
102
{ACAD_REACTORS
330
E
102
}
330
E
  0
SCALE
  5
104
102
{ACAD_REACTORS
330
103
102
}
330
103
100
AcDbScale
 70
     0
300
1:1
140
1.0
141
1.0
290
     1
  0
SCALE
  5
105
102
{ACAD_REACTORS
330
103
102
}
330
103
100
AcDbScale
 70
     0
300
1:2
140
1.0
141
2.0
290
     0
  0
SCALE
  5
106
102
{ACAD_REACTORS
330
103
102
}
330
103
100
AcDbScale
 70
     0
300
1:4
140
1.0
141
4.0
290
     0
  0
SCALE
  5
107
102
{ACAD_REACTORS
330
103
102
}
330
103
100
AcDbScale
 70
     0
300
1:5
140
1.0
141
5.0
290
     0
  0
SCALE
  5
108
102
{ACAD_REACTORS
330
103
102
}
330
103
100
AcDbScale
 70
     0
300
1:8
140
1.0
141
8.0
290
     0
  0
SCALE
  5
109
102
{ACAD_REACTORS
330
103
102
}
330
103
100
AcDbScale
 70
     0
300
1:10
140
1.0
141
10.0
290
     0
  0
SCALE
  5
10A
102
{ACAD_REACTORS
330
103
102
}
330
103
100
AcDbScale
 70
     0
300
1:16
140
1.0
141
16.0
290
     0
  0
SCALE
  5
10B
102
{ACAD_REACTORS
330
103
102
}
330
103
100
AcDbScale
 70
     0
300
1:20
140
1.0
141
20.0
290
     0
  0
SCALE
  5
10C
102
{ACAD_REACTORS
330
103
102
}
330
103
100
AcDbScale
 70
     0
300
1:30
140
1.0
141
30.0
290
     0
  0
SCALE
  5
10D
102
{ACAD_REACTORS
330
103
102
}
330
103
100
AcDbScale
 70
     0
300
1:40
140
1.0
141
40.0
290
     0
  0
SCALE
  5
10E
102
{ACAD_REACTORS
330
103
102
}
330
103
100
AcDbScale
 70
     0
300
1:50
140
1.0
141
50.0
290
     0
  0
SCALE
  5
10F
102
{ACAD_REACTORS
330
103
102
}
330
103
100
AcDbScale
 70
     0
300
1:100
140
1.0
141
100.0
290
     0
  0
SCALE
  5
110
102
{ACAD_REACTORS
330
103
102
}
330
103
100
AcDbScale
 70
     0
300
2:1
140
2.0
141
1.0
290
     0
  0
SCALE
  5
111
102
{ACAD_REACTORS
330
103
102
}
330
103
100
AcDbScale
 70
     0
300
4:1
140
4.0
141
1.0
290
     0
  0
SCALE
  5
112
102
{ACAD_REACTORS
330
103
102
}
330
103
100
AcDbScale
 70
     0
300
8:1
140
8.0
141
1.0
290
     0
  0
SCALE
  5
113
102
{ACAD_REACTORS
330
103
102
}
330
103
100
AcDbScale
 70
     0
300
10:1
140
10.0
141
1.0
290
     0
  0
SCALE
  5
114
102
{ACAD_REACTORS
330
103
102
}
330
103
100
AcDbScale
 70
     0
300
100:1
140
100.0
141
1.0
290
     0
  0
TABLESTYLE
  5
102
102
{ACAD_XDICTIONARY
360
14E
102
}
102
{ACAD_REACTORS
330
101
102
}
330
101
100
AcDbTableStyle
  3
Standard
 70
     0
 71
     0
 40
1.5
 41
1.5
280
     0
281
     0
  7
Standard
140
4.5
170
     2
 62
     0
 63
     7
283
     0
 90
      512
 91
        0
  1

274
    -2
284
     1
 64
     0
275
    -2
285
     1
 65
     0
276
    -2
286
     1
 66
     0
277
    -2
287
     1
 67
     0
278
    -2
288
     1
 68
     0
279
    -2
289
     1
 69
     0
  7
Standard
140
6.0
170
     5
 62
     0
 63
     7
283
     0
 90
      512
 91
        0
  1

274
    -2
284
     1
 64
     0
275
    -2
285
     1
 65
     0
276
    -2
286
     1
 66
     0
277
    -2
287
     1
 67
     0
278
    -2
288
     1
 68
     0
279
    -2
289
     1
 69
     0
  7
Standard
140
4.5
170
     5
 62
     0
 63
     7
283
     0
 90
      512
 91
        0
  1

274
    -2
284
     1
 64
     0
275
    -2
285
     1
 65
     0
276
    -2
286
     1
 66
     0
277
    -2
287
     1
 67
     0
278
    -2
288
     1
 68
     0
279
    -2
289
     1
 69
     0
  0
VISUALSTYLE
  5
F5
102
{ACAD_REACTORS
330
EF
102
}
330
EF
100
AcDbVisualStyle
  2
2dWireframe
 70
     4
 71
     0
 72
     2
 73
     0
 90
        0
 40
-0.6
 41
-30.0
 62
     5
 63
     7
421
 16777215
 74
     1
 91
        4
 64
     7
 65
   257
 75
     1
175
     1
 42
1.0
 92
        0
 66
   257
 43
1.0
 76
     1
 77
     6
 78
     2
 67
     7
 79
     5
170
     0
171
     0
290
     0
174
     0
 93
        1
 44
0.0
173
     0
291
     0
 45
0.0
  0
VISUALSTYLE
  5
F7
102
{ACAD_REACTORS
330
EF
102
}
330
EF
100
AcDbVisualStyle
  2
3D Hidden
 70
     6
 71
     1
 72
     2
 73
     2
 90
        0
 40
-0.6
 41
-30.0
 62
     5
 63
     7
421
 16777215
 74
     2
 91
        2
 64
     7
 65
   257
 75
     2
175
     1
 42
40.0
 92
        0
 66
   257
 43
1.0
 76
     1
 77
     6
 78
     2
 67
     7
 79
     3
170
     0
171
     0
290
     0
174
     0
 93
        1
 44
0.0
173
     0
291
     0
 45
0.0
  0
VISUALSTYLE
  5
F6
102
{ACAD_REACTORS
330
EF
102
}
330
EF
100
AcDbVisualStyle
  2
3dWireframe
 70
     5
 71
     0
 72
     2
 73
     0
 90
        0
 40
-0.6
 41
-30.0
 62
     5
 63
     7
421
 16777215
 74
     1
 91
        4
 64
     7
 65
   257
 75
     1
175
     1
 42
1.0
 92
        0
 66
   257
 43
1.0
 76
     1
 77
     6
 78
     2
 67
     7
 79
     5
170
     0
171
     0
290
     0
174
     0
 93
        1
 44
0.0
173
     0
291
     0
 45
0.0
  0
VISUALSTYLE
  5
F4
102
{ACAD_REACTORS
330
EF
102
}
330
EF
100
AcDbVisualStyle
  2
Basic
 70
     7
 71
     1
 72
     0
 73
     1
 90
        0
 40
-0.6
 41
-30.0
 62
     5
 63
     7
421
 16777215
 74
     0
 91
        4
 64
     7
 65
   257
 75
     1
175
     1
 42
1.0
 92
        8
 66
     7
 43
1.0
 76
     1
 77
     6
 78
     2
 67
     7
 79
     5
170
     0
171
     0
290
     0
174
     0
 93
        1
 44
0.0
173
     0
291
     1
 45
0.0
  0
VISUALSTYLE
  5
FB
102
{ACAD_REACTORS
330
EF
102
}
330
EF
100
AcDbVisualStyle
  2
Brighten
 70
    12
 71
     2
 72
     2
 73
     0
 90
        0
 40
-0.6
 41
-30.0
 62
     5
 63
     7
421
 16777215
 74
     1
 91
        4
 64
     7
 65
   257
 75
     1
175
     1
 42
1.0
 92
        8
 66
     7
 43
1.0
 76
     1
 77
     6
 78
     2
 67
     7
 79
     5
170
     0
171
     0
290
     0
174
     0
 93
        1
 44
50.0
173
     0
291
     1
 45
0.0
  0
VISUALSTYLE
  5
FF
102
{ACAD_REACTORS
330
EF
102
}
330
EF
100
AcDbVisualStyle
  2
ColorChange
 70
    16
 71
     2
 72
     2
 73
     3
 90
        0
 40
-0.6
 41
-30.0
 62
     5
 63
     8
421
  8421504
 74
     1
 91
        4
 64
     7
 65
   257
 75
     1
175
     1
 42
1.0
 92
        8
 66
     8
424
  8421504
 43
1.0
 76
     1
 77
     6
 78
     2
 67
     7
 79
     5
170
     0
171
     0
290
     0
174
     0
 93
        1
 44
0.0
173
     0
291
     1
 45
0.0
  0
VISUALSTYLE
  5
F8
102
{ACAD_REACTORS
330
EF
102
}
330
EF
100
AcDbVisualStyle
  2
Conceptual
 70
     9
 71
     3
 72
     2
 73
     0
 90
        0
 40
-0.6
 41
-30.0
 62
     5
 63
     7
421
 16777215
 74
     2
 91
        2
 64
     7
 65
   257
 75
     1
175
     1
 42
40.0
 92
        8
 66
     7
 43
1.0
 76
     1
 77
     6
 78
     2
 67
     7
 79
     3
170
     0
171
     0
290
     0
174
     0
 93
        1
 44
0.0
173
     0
291
     0
 45
0.0
  0
VISUALSTYLE
  5
FA
102
{ACAD_REACTORS
330
EF
102
}
330
EF
100
AcDbVisualStyle
  2
Dim
 70
    11
 71
     2
 72
     2
 73
     0
 90
        0
 40
-0.6
 41
-30.0
 62
     5
 63
     7
421
 16777215
 74
     1
 91
        4
 64
     7
 65
   257
 75
     1
175
     1
 42
1.0
 92
        8
 66
     7
 43
1.0
 76
     1
 77
     6
 78
     2
 67
     7
 79
     5
170
     0
171
     0
290
     0
174
     0
 93
        1
 44
-50.0
173
     0
291
     1
 45
0.0
  0
VISUALSTYLE
  5
FE
102
{ACAD_REACTORS
330
EF
102
}
330
EF
100
AcDbVisualStyle
  2
Facepattern
 70
    15
 71
     2
 72
     2
 73
     0
 90
        0
 40
-0.6
 41
-30.0
 62
     5
 63
     7
421
 16777215
 74
     1
 91
        4
 64
     7
 65
   257
 75
     1
175
     1
 42
1.0
 92
        8
 66
     7
 43
1.0
 76
     1
 77
     6
 78
     2
 67
     7
 79
     5
170
     0
171
     0
290
     0
174
     0
 93
        1
 44
0.0
173
     0
291
     1
 45
0.0
  0
VISUALSTYLE
  5
F0
102
{ACAD_REACTORS
330
EF
102
}
330
EF
100
AcDbVisualStyle
  2
Flat
 70
     0
 71
     2
 72
     1
 73
     1
 90
        2
 40
-0.6
 41
30.0
 62
     5
 63
     7
421
 16777215
 74
     0
 91
        4
 64
     7
 65
   257
 75
     1
175
     1
 42
1.0
 92
        8
 66
     7
 43
1.0
 76
     1
 77
     6
 78
     2
 67
     7
 79
     5
170
     0
171
     0
290
     0
174
     0
 93
       13
 44
0.0
173
     0
291
     1
 45
0.0
  0
VISUALSTYLE
  5
F1
102
{ACAD_REACTORS
330
EF
102
}
330
EF
100
AcDbVisualStyle
  2
FlatWithEdges
 70
     1
 71
     2
 72
     1
 73
     1
 90
        2
 40
-0.6
 41
30.0
 62
     5
 63
     7
421
 16777215
 74
     1
 91
        4
 64
     7
 65
   257
 75
     1
175
     1
 42
1.0
 92
        0
 66
   257
 43
1.0
 76
     1
 77
     6
 78
     2
 67
     7
 79
     5
170
     0
171
     0
290
     0
174
     0
 93
       13
 44
0.0
173
     0
291
     1
 45
0.0
  0
VISUALSTYLE
  5
F2
102
{ACAD_REACTORS
330
EF
102
}
330
EF
100
AcDbVisualStyle
  2
Gouraud
 70
     2
 71
     2
 72
     2
 73
     1
 90
        2
 40
-0.6
 41
30.0
 62
     5
 63
     7
421
 16777215
 74
     0
 91
        4
 64
     7
 65
   257
 75
     1
175
     1
 42
1.0
 92
        0
 66
     7
 43
1.0
 76
     1
 77
     6
 78
     2
 67
     7
 79
     5
170
     0
171
     0
290
     0
174
     0
 93
       13
 44
0.0
173
     0
291
     1
 45
0.0
  0
VISUALSTYLE
  5
F3
102
{ACAD_REACTORS
330
EF
102
}
330
EF
100
AcDbVisualStyle
  2
GouraudWithEdges
 70
     3
 71
     2
 72
     2
 73
     1
 90
        2
 40
-0.6
 41
30.0
 62
     5
 63
     7
421
 16777215
 74
     1
 91
        4
 64
     7
 65
   257
 75
     1
175
     1
 42
1.0
 92
        0
 66
   257
 43
1.0
 76
     1
 77
     6
 78
     2
 67
     7
 79
     5
170
     0
171
     0
290
     0
174
     0
 93
       13
 44
0.0
173
     0
291
     1
 45
0.0
  0
VISUALSTYLE
  5
FD
102
{ACAD_REACTORS
330
EF
102
}
330
EF
100
AcDbVisualStyle
  2
Linepattern
 70
    14
 71
     2
 72
     2
 73
     0
 90
        0
 40
-0.6
 41
-30.0
 62
     5
 63
     7
421
 16777215
 74
     1
 91
        4
 64
     7
 65
   257
 75
     7
175
     7
 42
1.0
 92
        8
 66
     7
 43
1.0
 76
     1
 77
     6
 78
     2
 67
     7
 79
     5
170
     0
171
     0
290
     0
174
     0
 93
        1
 44
0.0
173
     0
291
     1
 45
0.0
  0
VISUALSTYLE
  5
F9
102
{ACAD_REACTORS
330
EF
102
}
330
EF
100
AcDbVisualStyle
  2
Realistic
 70
     8
 71
     2
 72
     2
 73
     0
 90
        0
 40
-0.6
 41
-30.0
 62
     5
 63
     7
421
 16777215
 74
     1
 91
        0
 64
     7
 65
   257
 75
     1
175
     1
 42
1.0
 92
        8
 66
     8
424
  7895160
 43
1.0
 76
     1
 77
     6
 78
     2
 67
     7
 79
     5
170
     0
171
     0
290
     0
174
     0
 93
       13
 44
0.0
173
     0
291
     0
 45
0.0
  0
VISUALSTYLE
  5
FC
102
{ACAD_REACTORS
330
EF
102
}
330
EF
100
AcDbVisualStyle
  2
Thicken
 70
    13
 71
     2
 72
     2
 73
     0
 90
        0
 40
-0.6
 41
-30.0
 62
     5
 63
     7
421
 16777215
 74
     1
 91
        4
 64
     7
 65
   257
 75
     1
175
     1
 42
1.0
 92
       12
 66
     7
 43
1.0
 76
     1
 77
     6
 78
     2
 67
     7
 79
     5
170
     0
171
     0
290
     0
174
     0
 93
        1
 44
0.0
173
     0
291
     1
 45
0.0
  0
DICTIONARYVAR
  5
14A
102
{ACAD_REACTORS
330
146
102
}
330
146
100
DictionaryVariables
280
     0
  1
1:1
  0
DICTIONARYVAR
  5
148
102
{ACAD_REACTORS
330
146
102
}
330
146
100
DictionaryVariables
280
     0
  1
STANDARD
  0
DICTIONARYVAR
  5
147
102
{ACAD_REACTORS
330
146
102
}
330
146
100
DictionaryVariables
280
     0
  1
STANDARD
  0
DICTIONARYVAR
  5
14C
102
{ACAD_REACTORS
330
146
102
}
330
146
100
DictionaryVariables
280
     0
  1
1
  0
DICTIONARYVAR
  5
14D
102
{ACAD_REACTORS
330
146
102
}
330
146
100
DictionaryVariables
280
     0
  1
15
  0
DICTIONARYVAR
  5
14B
102
{ACAD_REACTORS
330
146
102
}
330
146
100
DictionaryVariables
280
     0
  1
0
  0
DICTIONARYVAR
  5
149
102
{ACAD_REACTORS
330
146
102
}
330
146
100
DictionaryVariables
280
     0
  1
0
  0
DICTIONARY
  5
E0
330
DF
100
AcDbDictionary
280
     1
281
     1
  3
BUMPTILE
360
E2
  3
DIFFUSETILE
360
E1
  3
OPACITYTILE
360
E5
  3
REFLECTIONTILE
360
E4
  3
REFRACTIONTILE
360
E6
  3
SPECULARTILE
360
E3
  0
DICTIONARY
  5
D8
330
D7
100
AcDbDictionary
280
     1
281
     1
  3
BUMPTILE
360
DA
  3
DIFFUSETILE
360
D9
  3
OPACITYTILE
360
DD
  3
REFLECTIONTILE
360
DC
  3
REFRACTIONTILE
360
DE
  3
SPECULARTILE
360
DB
  0
DICTIONARY
  5
E8
330
E7
100
AcDbDictionary
280
     1
281
     1
  3
BUMPTILE
360
EA
  3
DIFFUSETILE
360
E9
  3
OPACITYTILE
360
ED
  3
REFLECTIONTILE
360
EC
  3
REFRACTIONTILE
360
EE
  3
SPECULARTILE
360
EB
  0
DICTIONARY
  5
14E
330
102
100
AcDbDictionary
280
     1
281
     1
  3
ACAD_ROUNDTRIP_2008_TABLESTYLE_CELLSTYLEMAP
360
14F
  0
XRECORD
  5
E2
102
{ACAD_REACTORS
330
E0
102
}
330
E0
100
AcDbXrecord
280
     1
270
     1
271
     1
  0
XRECORD
  5
E1
102
{ACAD_REACTORS
330
E0
102
}
330
E0
100
AcDbXrecord
280
     1
270
     1
271
     1
  0
XRECORD
  5
E5
102
{ACAD_REACTORS
330
E0
102
}
330
E0
100
AcDbXrecord
280
     1
270
     1
271
     1
  0
XRECORD
  5
E4
102
{ACAD_REACTORS
330
E0
102
}
330
E0
100
AcDbXrecord
280
     1
270
     1
271
     1
  0
XRECORD
  5
E6
102
{ACAD_REACTORS
330
E0
102
}
330
E0
100
AcDbXrecord
280
     1
270
     1
271
     1
  0
XRECORD
  5
E3
102
{ACAD_REACTORS
330
E0
102
}
330
E0
100
AcDbXrecord
280
     1
270
     1
271
     1
  0
XRECORD
  5
DA
102
{ACAD_REACTORS
330
D8
102
}
330
D8
100
AcDbXrecord
280
     1
270
     1
271
     1
  0
XRECORD
  5
D9
102
{ACAD_REACTORS
330
D8
102
}
330
D8
100
AcDbXrecord
280
     1
270
     1
271
     1
  0
XRECORD
  5
DD
102
{ACAD_REACTORS
330
D8
102
}
330
D8
100
AcDbXrecord
280
     1
270
     1
271
     1
  0
XRECORD
  5
DC
102
{ACAD_REACTORS
330
D8
102
}
330
D8
100
AcDbXrecord
280
     1
270
     1
271
     1
  0
XRECORD
  5
DE
102
{ACAD_REACTORS
330
D8
102
}
330
D8
100
AcDbXrecord
280
     1
270
     1
271
     1
  0
XRECORD
  5
DB
102
{ACAD_REACTORS
330
D8
102
}
330
D8
100
AcDbXrecord
280
     1
270
     1
271
     1
  0
XRECORD
  5
EA
102
{ACAD_REACTORS
330
E8
102
}
330
E8
100
AcDbXrecord
280
     1
270
     1
271
     1
  0
XRECORD
  5
E9
102
{ACAD_REACTORS
330
E8
102
}
330
E8
100
AcDbXrecord
280
     1
270
     1
271
     1
  0
XRECORD
  5
ED
102
{ACAD_REACTORS
330
E8
102
}
330
E8
100
AcDbXrecord
280
     1
270
     1
271
     1
  0
XRECORD
  5
EC
102
{ACAD_REACTORS
330
E8
102
}
330
E8
100
AcDbXrecord
280
     1
270
     1
271
     1
  0
XRECORD
  5
EE
102
{ACAD_REACTORS
330
E8
102
}
330
E8
100
AcDbXrecord
280
     1
270
     1
271
     1
  0
XRECORD
  5
EB
102
{ACAD_REACTORS
330
E8
102
}
330
E8
100
AcDbXrecord
280
     1
270
     1
271
     1
  0
CELLSTYLEMAP
  5
14F
102
{ACAD_REACTORS
330
14E
102
}
330
14E
100
AcDbCellStyleMap
 90
        3
300
CELLSTYLE
  1
TABLEFORMAT_BEGIN
 90
        5
170
     1
 91
        0
 92
    32768
 62
   257
 93
        1
300
CONTENTFORMAT
  1
CONTENTFORMAT_BEGIN
 90
        0
 91
        0
 92
      512
 93
        0
300

 40
0.0
140
1.0
 94
        5
 62
     0
340
11
144
6.0
309
CONTENTFORMAT_END
171
     1
301
MARGIN
  1
CELLMARGIN_BEGIN
 40
1.5
 40
1.5
 40
1.5
 40
1.5
 40
4.5
 40
4.5
309
CELLMARGIN_END
 94
        6
 95
        1
302
GRIDFORMAT
  1
GRIDFORMAT_BEGIN
 90
        0
 91
        1
 62
     0
 92
       -2
340
0
 93
        0
 40
1.125
309
GRIDFORMAT_END
 95
        2
302
GRIDFORMAT
  1
GRIDFORMAT_BEGIN
 90
        0
 91
        1
 62
     0
 92
       -2
340
0
 93
        0
 40
1.125
309
GRIDFORMAT_END
 95
        4
302
GRIDFORMAT
  1
GRIDFORMAT_BEGIN
 90
        0
 91
        1
 62
     0
 92
       -2
340
0
 93
        0
 40
1.125
309
GRIDFORMAT_END
 95
        8
302
GRIDFORMAT
  1
GRIDFORMAT_BEGIN
 90
        0
 91
        1
 62
     0
 92
       -2
340
0
 93
        0
 40
1.125
309
GRIDFORMAT_END
 95
       16
302
GRIDFORMAT
  1
GRIDFORMAT_BEGIN
 90
        0
 91
        1
 62
     0
 92
       -2
340
0
 93
        0
 40
1.125
309
GRIDFORMAT_END
 95
       32
302
GRIDFORMAT
  1
GRIDFORMAT_BEGIN
 90
        0
 91
        1
 62
     0
 92
       -2
340
0
 93
        0
 40
1.125
309
GRIDFORMAT_END
309
TABLEFORMAT_END
  1
CELLSTYLE_BEGIN
 90
        1
 91
        1
300
_TITLE
309
CELLSTYLE_END
300
CELLSTYLE
  1
TABLEFORMAT_BEGIN
 90
        5
170
     1
 91
        0
 92
        0
 62
   257
 93
        1
300
CONTENTFORMAT
  1
CONTENTFORMAT_BEGIN
 90
        0
 91
        0
 92
      512
 93
        0
300

 40
0.0
140
1.0
 94
        5
 62
     0
340
11
144
4.5
309
CONTENTFORMAT_END
171
     1
301
MARGIN
  1
CELLMARGIN_BEGIN
 40
1.5
 40
1.5
 40
1.5
 40
1.5
 40
4.5
 40
4.5
309
CELLMARGIN_END
 94
        6
 95
        1
302
GRIDFORMAT
  1
GRIDFORMAT_BEGIN
 90
        0
 91
        1
 62
     0
 92
       -2
340
0
 93
        0
 40
1.125
309
GRIDFORMAT_END
 95
        2
302
GRIDFORMAT
  1
GRIDFORMAT_BEGIN
 90
        0
 91
        1
 62
     0
 92
       -2
340
0
 93
        0
 40
1.125
309
GRIDFORMAT_END
 95
        4
302
GRIDFORMAT
  1
GRIDFORMAT_BEGIN
 90
        0
 91
        1
 62
     0
 92
       -2
340
0
 93
        0
 40
1.125
309
GRIDFORMAT_END
 95
        8
302
GRIDFORMAT
  1
GRIDFORMAT_BEGIN
 90
        0
 91
        1
 62
     0
 92
       -2
340
0
 93
        0
 40
1.125
309
GRIDFORMAT_END
 95
       16
302
GRIDFORMAT
  1
GRIDFORMAT_BEGIN
 90
        0
 91
        1
 62
     0
 92
       -2
340
0
 93
        0
 40
1.125
309
GRIDFORMAT_END
 95
       32
302
GRIDFORMAT
  1
GRIDFORMAT_BEGIN
 90
        0
 91
        1
 62
     0
 92
       -2
340
0
 93
        0
 40
1.125
309
GRIDFORMAT_END
309
TABLEFORMAT_END
  1
CELLSTYLE_BEGIN
 90
        2
 91
        1
300
_HEADER
309
CELLSTYLE_END
300
CELLSTYLE
  1
TABLEFORMAT_BEGIN
 90
        5
170
     1
 91
        0
 92
        0
 62
   257
 93
        1
300
CONTENTFORMAT
  1
CONTENTFORMAT_BEGIN
 90
        0
 91
        0
 92
      512
 93
        0
300

 40
0.0
140
1.0
 94
        2
 62
     0
340
11
144
4.5
309
CONTENTFORMAT_END
171
     1
301
MARGIN
  1
CELLMARGIN_BEGIN
 40
1.5
 40
1.5
 40
1.5
 40
1.5
 40
4.5
 40
4.5
309
CELLMARGIN_END
 94
        6
 95
        1
302
GRIDFORMAT
  1
GRIDFORMAT_BEGIN
 90
        0
 91
        1
 62
     0
 92
       -2
340
0
 93
        0
 40
1.125
309
GRIDFORMAT_END
 95
        2
302
GRIDFORMAT
  1
GRIDFORMAT_BEGIN
 90
        0
 91
        1
 62
     0
 92
       -2
340
0
 93
        0
 40
1.125
309
GRIDFORMAT_END
 95
        4
302
GRIDFORMAT
  1
GRIDFORMAT_BEGIN
 90
        0
 91
        1
 62
     0
 92
       -2
340
0
 93
        0
 40
1.125
309
GRIDFORMAT_END
 95
        8
302
GRIDFORMAT
  1
GRIDFORMAT_BEGIN
 90
        0
 91
        1
 62
     0
 92
       -2
340
0
 93
        0
 40
1.125
309
GRIDFORMAT_END
 95
       16
302
GRIDFORMAT
  1
GRIDFORMAT_BEGIN
 90
        0
 91
        1
 62
     0
 92
       -2
340
0
 93
        0
 40
1.125
309
GRIDFORMAT_END
 95
       32
302
GRIDFORMAT
  1
GRIDFORMAT_BEGIN
 90
        0
 91
        1
 62
     0
 92
       -2
340
0
 93
        0
 40
1.125
309
GRIDFORMAT_END
309
TABLEFORMAT_END
  1
CELLSTYLE_BEGIN
 90
        3
 91
        2
300
_DATA
309
CELLSTYLE_END
  0
ENDSEC
  0
EOF
