  0
SECTION
  2
HEADER
  9
$ACADVER
  1
AC1015
  9
$ACADMAINTVER
 70
     6
  9
$DWGCODEPAGE
  3
ANSI_1251
  9
$INSBASE
 10
0.0
 20
0.0
 30
0.0
  9
$EXTMIN
 10
0.0
 20
0.0
 30
0.0
  9
$EXTMAX
 10
1397.0
 20
1079.5
 30
0.0
  9
$LIMMIN
 10
0.0
 20
0.0
  9
$LIMMAX
 10
1397.0
 20
1079.5
  9
$ORTHOMODE
 70
     0
  9
$REGENMODE
 70
     1
  9
$FILLMODE
 70
     1
  9
$QTEXTMODE
 70
     0
  9
$MIRRTEXT
 70
     1
  9
$LTSCALE
 40
5.0
  9
$ATTMODE
 70
     1
  9
$TEXTSIZE
 40
17.5
  9
$TRACEWID
 40
1.0
  9
$TEXTSTYLE
  7
Standard
  9
$CLAYER
  8
0
  9
$CELTYPE
  6
ByLayer
  9
$CECOLOR
 62
   256
  9
$CELTSCALE
 40
1.0
  9
$DISPSILH
 70
     0
  9
$DIMSCALE
 40
1.0
  9
$DIMASZ
 40
17.78
  9
$DIMEXO
 40
5.0
  9
$DIMDLI
 40
3.75
  9
$DIMRND
 40
0.0
  9
$DIMDLE
 40
0.0
  9
$DIMEXE
 40
5.0
  9
$DIMTP
 40
0.0
  9
$DIMTM
 40
0.0
  9
$DIMTXT
 40
17.5
  9
$DIMCEN
 40
2.5
  9
$DIMTSZ
 40
0.0
  9
$DIMTOL
 70
     0
  9
$DIMLIM
 70
     0
  9
$DIMTIH
 70
     1
  9
$DIMTOH
 70
     1
  9
$DIMSE1
 70
     0
  9
$DIMSE2
 70
     0
  9
$DIMTAD
 70
     1
  9
$DIMZIN
 70
     0
  9
$DIMBLK
  1

  9
$DIMASO
 70
     1
  9
$DIMSHO
 70
     1
  9
$DIMPOST
  1

  9
$DIMAPOST
  1

  9
$DIMALT
 70
     0
  9
$DIMALTD
 70
     3
  9
$DIMALTF
 40
0.0393700787
  9
$DIMLFAC
 40
1.0
  9
$DIMTOFL
 70
     1
  9
$DIMTVP
 40
0.0
  9
$DIMTIX
 70
     0
  9
$DIMSOXD
 70
     0
  9
$DIMSAH
 70
     0
  9
$DIMBLK1
  1

  9
$DIMBLK2
  1

  9
$DIMSTYLE
  2
ISO-25
  9
$DIMCLRD
 70
     0
  9
$DIMCLRE
 70
     0
  9
$DIMCLRT
 70
     0
  9
$DIMTFAC
 40
1.0
  9
$DIMGAP
 40
7.62
  9
$DIMJUST
 70
     0
  9
$DIMSD1
 70
     0
  9
$DIMSD2
 70
     0
  9
$DIMTOLJ
 70
     0
  9
$DIMTZIN
 70
     0
  9
$DIMALTZ
 70
     0
  9
$DIMALTTZ
 70
     0
  9
$DIMUPT
 70
     0
  9
$DIMDEC
 70
     2
  9
$DIMTDEC
 70
     2
  9
$DIMALTU
 70
     2
  9
$DIMALTTD
 70
     3
  9
$DIMTXSTY
  7
Standard
  9
$DIMAUNIT
 70
     0
  9
$DIMADEC
 70
     2
  9
$DIMALTRND
 40
0.0
  9
$DIMAZIN
 70
     0
  9
$DIMDSEP
 70
    44
  9
$DIMATFIT
 70
     3
  9
$DIMFRAC
 70
     0
  9
$DIMLDRBLK
  1

  9
$DIMLUNIT
 70
     2
  9
$DIMLWD
 70
    -2
  9
$DIMLWE
 70
    -2
  9
$DIMTMOVE
 70
     0
  9
$LUNITS
 70
     2
  9
$LUPREC
 70
     2
  9
$SKETCHINC
 40
1.0
  9
$FILLETRAD
 40
10.0
  9
$AUNITS
 70
     0
  9
$AUPREC
 70
     2
  9
$MENU
  1
.
  9
$ELEVATION
 40
0.0
  9
$PELEVATION
 40
0.0
  9
$THICKNESS
 40
0.0
  9
$LIMCHECK
 70
     0
  9
$CHAMFERA
 40
10.0
  9
$CHAMFERB
 40
10.0
  9
$CHAMFERC
 40
20.0
  9
$CHAMFERD
 40
0.0
  9
$SKPOLY
 70
     0
  9
$TDCREATE
 40
2458256.687532905
  9
$TDUCREATE
 40
2458256.562532905
  9
$TDUPDATE
 40
2458256.68753544
  9
$TDUUPDATE
 40
2458256.56253544
  9
$TDINDWG
 40
0.0000000116
  9
$TDUSRTIMER
 40
0.0000000116
  9
$USRTIMER
 70
     1
  9
$ANGBASE
 50
0.0
  9
$ANGDIR
 70
     0
  9
$PDMODE
 70
     0
  9
$PDSIZE
 40
-1.0
  9
$PLINEWID
 40
0.0
  9
$SPLFRAME
 70
     0
  9
$SPLINETYPE
 70
     6
  9
$SPLINESEGS
 70
     8
  9
$HANDSEED
  5
4A2
  9
$SURFTAB1
 70
     6
  9
$SURFTAB2
 70
     6
  9
$SURFTYPE
 70
     6
  9
$SURFU
 70
     6
  9
$SURFV
 70
     6
  9
$UCSBASE
  2

  9
$UCSNAME
  2

  9
$UCSORG
 10
0.0
 20
0.0
 30
0.0
  9
$UCSXDIR
 10
1.0
 20
0.0
 30
0.0
  9
$UCSYDIR
 10
0.0
 20
1.0
 30
0.0
  9
$UCSORTHOREF
  2

  9
$UCSORTHOVIEW
 70
     0
  9
$UCSORGTOP
 10
0.0
 20
0.0
 30
0.0
  9
$UCSORGBOTTOM
 10
0.0
 20
0.0
 30
0.0
  9
$UCSORGLEFT
 10
0.0
 20
0.0
 30
0.0
  9
$UCSORGRIGHT
 10
0.0
 20
0.0
 30
0.0
  9
$UCSORGFRONT
 10
0.0
 20
0.0
 30
0.0
  9
$UCSORGBACK
 10
0.0
 20
0.0
 30
0.0
  9
$PUCSBASE
  2

  9
$PUCSNAME
  2

  9
$PUCSORG
 10
0.0
 20
0.0
 30
0.0
  9
$PUCSXDIR
 10
1.0
 20
0.0
 30
0.0
  9
$PUCSYDIR
 10
0.0
 20
1.0
 30
0.0
  9
$PUCSORTHOREF
  2

  9
$PUCSORTHOVIEW
 70
     0
  9
$PUCSORGTOP
 10
0.0
 20
0.0
 30
0.0
  9
$PUCSORGBOTTOM
 10
0.0
 20
0.0
 30
0.0
  9
$PUCSORGLEFT
 10
0.0
 20
0.0
 30
0.0
  9
$PUCSORGRIGHT
 10
0.0
 20
0.0
 30
0.0
  9
$PUCSORGFRONT
 10
0.0
 20
0.0
 30
0.0
  9
$PUCSORGBACK
 10
0.0
 20
0.0
 30
0.0
  9
$USERI1
 70
     0
  9
$USERI2
 70
     0
  9
$USERI3
 70
     0
  9
$USERI4
 70
     0
  9
$USERI5
 70
     0
  9
$USERR1
 40
0.0
  9
$USERR2
 40
0.0
  9
$USERR3
 40
0.0
  9
$USERR4
 40
0.0
  9
$USERR5
 40
0.0
  9
$WORLDVIEW
 70
     1
  9
$SHADEDGE
 70
     3
  9
$SHADEDIF
 70
    70
  9
$TILEMODE
 70
     1
  9
$MAXACTVP
 70
    64
  9
$PINSBASE
 10
0.0
 20
0.0
 30
0.0
  9
$PLIMCHECK
 70
     0
  9
$PEXTMIN
 10
1.0000000000E+20
 20
1.0000000000E+20
 30
1.0000000000E+20
  9
$PEXTMAX
 10
-1.0000000000E+20
 20
-1.0000000000E+20
 30
-1.0000000000E+20
  9
$PLIMMIN
 10
0.0
 20
0.0
  9
$PLIMMAX
 10
420.0
 20
297.0
  9
$UNITMODE
 70
     0
  9
$VISRETAIN
 70
     1
  9
$PLINEGEN
 70
     0
  9
$PSLTSCALE
 70
     1
  9
$TREEDEPTH
 70
  3020
  9
$CMLSTYLE
  2
Standard
  9
$CMLJUST
 70
     0
  9
$CMLSCALE
 40
20.0
  9
$PROXYGRAPHICS
 70
     1
  9
$MEASUREMENT
 70
     1
  9
$CELWEIGHT
370
    -1
  9
$ENDCAPS
280
     0
  9
$JOINSTYLE
280
     0
  9
$LWDISPLAY
290
     1
  9
$INSUNITS
 70
     4
  9
$HYPERLINKBASE
  1

  9
$STYLESHEET
  1

  9
$XEDIT
290
     1
  9
$CEPSNTYPE
380
     0
  9
$PSTYLEMODE
290
     1
  9
$FINGERPRINTGUID
  2
{2AC6D8F6-BE20-4955-8E40-86A2771BE0FE}
  9
$VERSIONGUID
  2
{FAEB1C32-E019-11D5-929B-00C0DF256EC4}
  9
$EXTNAMES
290
     1
  9
$PSVPSCALE
 40
0.0
  9
$OLESTARTUP
290
     0
  0
ENDSEC
  0
SECTION
  2
CLASSES
  0
CLASS
  1
ACDBDICTIONARYWDFLT
  2
AcDbDictionaryWithDefault
  3
ObjectDBX Classes
 90
        0
280
     0
281
     0
  0
CLASS
  1
VISUALSTYLE
  2
AcDbVisualStyle
  3
ObjectDBX Classes
 90
     4095
280
     0
281
     0
  0
CLASS
  1
MATERIAL
  2
AcDbMaterial
  3
ObjectDBX Classes
 90
     1153
280
     0
281
     0
  0
CLASS
  1
ACDBPLACEHOLDER
  2
AcDbPlaceHolder
  3
ObjectDBX Classes
 90
        0
280
     0
281
     0
  0
CLASS
  1
LAYOUT
  2
AcDbLayout
  3
ObjectDBX Classes
 90
        0
280
     0
281
     0
  0
ENDSEC
  0
SECTION
  2
TABLES
  0
TABLE
  2
VPORT
  5
8
330
0
100
AcDbSymbolTable
 70
     1
  0
VPORT
  5
29
330
8
100
AcDbSymbolTableRecord
100
AcDbViewportTableRecord
  2
*Active
 70
     0
 10
0.0
 20
0.0
 11
1.0
 21
1.0
 12
698.5
 22
539.75
 13
0.0
 23
0.0
 14
10.0
 24
10.0
 15
10.0
 25
10.0
 16
0.0
 26
0.0
 36
1.0
 17
0.0
 27
0.0
 37
0.0
 40
1079.5
 41
1.2941176471
 42
50.0
 43
0.0
 44
0.0
 50
0.0
 51
0.0
 71
     0
 72
  2000
 73
     1
 74
     3
 75
     0
 76
     0
 77
     0
 78
     0
281
     0
 65
     1
110
0.0
120
0.0
130
0.0
111
1.0
121
0.0
131
0.0
112
0.0
122
1.0
132
0.0
 79
     0
146
0.0
  0
ENDTAB
  0
TABLE
  2
LTYPE
  5
5
330
0
100
AcDbSymbolTable
 70
     6
  0
LTYPE
  5
14
330
5
100
AcDbSymbolTableRecord
100
AcDbLinetypeTableRecord
  2
ByBlock
 70
     0
  3

 72
    65
 73
     0
 40
0.0
  0
LTYPE
  5
15
330
5
100
AcDbSymbolTableRecord
100
AcDbLinetypeTableRecord
  2
ByLayer
 70
     0
  3

 72
    65
 73
     0
 40
0.0
  0
LTYPE
  5
16
330
5
100
AcDbSymbolTableRecord
100
AcDbLinetypeTableRecord
  2
Continuous
 70
     0
  3
Solid line
 72
    65
 73
     0
 40
0.0
  0
LTYPE
  5
3F
330
5
100
AcDbSymbolTableRecord
100
AcDbLinetypeTableRecord
  2
HIDDEN
 70
     0
  3
Hidden __ __ __ __ __ __ __ __ __ __ __ __ __ __
 72
    65
 73
     2
 40
1.905
 49
1.27
 74
     0
 49
-0.635
 74
     0
  0
LTYPE
  5
40
330
5
100
AcDbSymbolTableRecord
100
AcDbLinetypeTableRecord
  2
PHANTOM
 70
     0
  3
Phantom ______  __  __  ______  __  __  ______
 72
    65
 73
     6
 40
12.7
 49
6.35
 74
     0
 49
-1.27
 74
     0
 49
1.27
 74
     0
 49
-1.27
 74
     0
 49
1.27
 74
     0
 49
-1.27
 74
     0
  0
LTYPE
  5
41
330
5
100
AcDbSymbolTableRecord
100
AcDbLinetypeTableRecord
  2
CENTER
 70
     0
  3
Center ____ _ ____ _ ____ _ ____ _ ____ _ ____
 72
    65
 73
     4
 40
10.16
 49
6.35
 74
     0
 49
-1.27
 74
     0
 49
1.27
 74
     0
 49
-1.27
 74
     0
  0
LTYPE
  5
42
330
5
100
AcDbSymbolTableRecord
100
AcDbLinetypeTableRecord
  2
CENTERX2
 70
     0
  3
Center (2x) ________  __  ________  __  _____
 72
    65
 73
     4
 40
20.32
 49
12.7
 74
     0
 49
-2.54
 74
     0
 49
2.54
 74
     0
 49
-2.54
 74
     0
  0
LTYPE
  5
43
330
5
100
AcDbSymbolTableRecord
100
AcDbLinetypeTableRecord
  2
DOT2
 70
     0
  3
Dot (.5x) ........................................
 72
    65
 73
     2
 40
0.635
 49
0.0
 74
     0
 49
-0.635
 74
     0
  0
ENDTAB
  0
TABLE
  2
LAYER
  5
2
330
0
100
AcDbSymbolTable
 70
     1
  0
LAYER
  5
10
330
2
100
AcDbSymbolTableRecord
100
AcDbLayerTableRecord
  2
0
 70
     0
 62
     7
  6
Continuous
370
    -3
390
F
  0
ENDTAB
  0
TABLE
  2
STYLE
  5
3
330
0
100
AcDbSymbolTable
 70
     1
  0
STYLE
  5
11
330
3
100
AcDbSymbolTableRecord
100
AcDbTextStyleTableRecord
  2
Standard
 70
     0
 40
0.0
 41
1.0
 50
0.0
 71
     0
 42
17.5
  3
txt
  4

  0
ENDTAB
  0
TABLE
  2
VIEW
  5
6
330
0
100
AcDbSymbolTable
 70
     0
  0
ENDTAB
  0
TABLE
  2
UCS
  5
7
330
0
100
AcDbSymbolTable
 70
     0
  0
ENDTAB
  0
TABLE
  2
APPID
  5
9
330
0
100
AcDbSymbolTable
 70
     1
  0
APPID
  5
12
330
9
100
AcDbSymbolTableRecord
100
AcDbRegAppTableRecord
  2
ACAD
 70
     0
  0
ENDTAB
  0
TABLE
  2
DIMSTYLE
  5
A
330
0
100
AcDbSymbolTable
 70
     1
100
AcDbDimStyleTable
  0
DIMSTYLE
105
27
330
A
100
AcDbSymbolTableRecord
100
AcDbDimStyleTableRecord
  2
ISO-25
 70
     0
 41
2.5
 42
0.625
 43
3.75
 44
1.25
 73
     0
 74
     0
 77
     1
 78
     8
140
2.5
141
2.5
143
0.0393700787
147
0.625
171
     3
172
     1
178
     0
271
     2
272
     2
274
     3
278
    44
283
     0
284
     8
340
11
  0
ENDTAB
  0
TABLE
  2
BLOCK_RECORD
  5
1
330
0
100
AcDbSymbolTable
 70
     1
  0
BLOCK_RECORD
  5
1F
330
1
100
AcDbSymbolTableRecord
100
AcDbBlockTableRecord
  2
*Model_Space
340
22
  0
BLOCK_RECORD
  5
1B
330
1
100
AcDbSymbolTableRecord
100
AcDbBlockTableRecord
  2
*Paper_Space
340
1E
  0
BLOCK_RECORD
  5
23
330
1
100
AcDbSymbolTableRecord
100
AcDbBlockTableRecord
  2
*Paper_Space0
340
26
  0
ENDTAB
  0
ENDSEC
  0
SECTION
  2
BLOCKS
  0
BLOCK
  5
20
330
1F
100
AcDbEntity
  8
0
100
AcDbBlockBegin
  2
*Model_Space
 70
     0
 10
0.0
 20
0.0
 30
0.0
  3
*Model_Space
  1

  0
ENDBLK
  5
21
330
1F
100
AcDbEntity
  8
0
100
AcDbBlockEnd
  0
BLOCK
  5
1C
330
1B
100
AcDbEntity
 67
     1
  8
0
100
AcDbBlockBegin
  2
*Paper_Space
 70
     0
 10
0.0
 20
0.0
 30
0.0
  3
*Paper_Space
  1

  0
ENDBLK
  5
1D
330
1B
100
AcDbEntity
 67
     1
  8
0
100
AcDbBlockEnd
  0
BLOCK
  5
24
330
23
100
AcDbEntity
  8
0
100
AcDbBlockBegin
  2
*Paper_Space0
 70
     0
 10
0.0
 20
0.0
 30
0.0
  3
*Paper_Space0
  1

  0
ENDBLK
  5
25
330
23
100
AcDbEntity
  8
0
100
AcDbBlockEnd
  0
ENDSEC
  0
SECTION
  2
ENTITIES
  0
LINE
  5
44
330
1F
100
AcDbEntity
  8
0
  6
Continuous
 62
     7
370
    15
100
AcDbLine
 10
1153.5324625624
 20
600.2252329451
 30
0.0
 11
1153.5324625624
 21
600.1252329451
 31
0.0
  0
LINE
  5
45
330
1F
100
AcDbEntity
  8
0
  6
Continuous
 62
     7
370
    15
100
AcDbLine
 10
153.5324625624
 20
600.1252329451
 30
0.0
 11
1153.5324625624
 21
600.1252329451
 31
0.0
  0
LINE
  5
46
330
1F
100
AcDbEntity
  8
0
  6
Continuous
 62
     7
370
    15
100
AcDbLine
 10
153.5324625624
 20
600.2252329451
 30
0.0
 11
153.5324625624
 21
600.1252329451
 31
0.0
  0
LINE
  5
47
330
1F
100
AcDbEntity
  8
0
  6
Continuous
 62
     7
370
    15
100
AcDbLine
 10
153.5324625624
 20
600.2252329451
 30
0.0
 11
1153.5324625624
 21
600.2252329451
 31
0.0
  0
LINE
  5
48
330
1F
100
AcDbEntity
  8
0
  6
Continuous
 62
     7
370
    15
100
AcDbLine
 10
156.0110686291
 20
602.1252329451
 30
0.0
 11
158.3260654877
 21
602.1252329451
 31
0.0
  0
LINE
  5
49
330
1F
100
AcDbEntity
  8
0
  6
Continuous
 62
     7
370
    15
100
AcDbLine
 10
158.3260654877
 20
602.1252329451
 30
0.0
 11
158.3260654877
 21
600.2252329451
 31
0.0
  0
LINE
  5
4A
330
1F
100
AcDbEntity
  8
0
  6
Continuous
 62
     7
370
    15
100
AcDbLine
 10
156.0110686291
 20
602.1252329451
 30
0.0
 11
156.0110686291
 21
600.2252329451
 31
0.0
  0
LINE
  5
4B
330
1F
100
AcDbEntity
  8
0
  6
Continuous
 62
     7
370
    15
100
AcDbLine
 10
786.0110686291
 20
602.1252329451
 30
0.0
 11
786.0110686291
 21
600.2252329451
 31
0.0
  0
LINE
  5
4C
330
1F
100
AcDbEntity
  8
0
  6
Continuous
 62
     7
370
    15
100
AcDbLine
 10
786.0110686291
 20
602.1252329451
 30
0.0
 11
788.3260654877
 21
602.1252329451
 31
0.0
  0
LINE
  5
4D
330
1F
100
AcDbEntity
  8
0
  6
Continuous
 62
     7
370
    15
100
AcDbLine
 10
788.3260654877
 20
602.1252329451
 30
0.0
 11
788.3260654877
 21
600.2252329451
 31
0.0
  0
LINE
  5
4E
330
1F
100
AcDbEntity
  8
0
  6
Continuous
 62
     7
370
    15
100
AcDbLine
 10
406.0110686291
 20
602.1252329451
 30
0.0
 11
406.0110686291
 21
600.2252329451
 31
0.0
  0
LINE
  5
4F
330
1F
100
AcDbEntity
  8
0
  6
Continuous
 62
     7
370
    15
100
AcDbLine
 10
406.0110686291
 20
602.1252329451
 30
0.0
 11
408.3260654877
 21
602.1252329451
 31
0.0
  0
LINE
  5
50
330
1F
100
AcDbEntity
  8
0
  6
Continuous
 62
     7
370
    15
100
AcDbLine
 10
408.3260654877
 20
602.1252329451
 30
0.0
 11
408.3260654877
 21
600.2252329451
 31
0.0
  0
LINE
  5
51
330
1F
100
AcDbEntity
  8
0
  6
Continuous
 62
     7
370
    15
100
AcDbLine
 10
666.0110686291
 20
602.1252329451
 30
0.0
 11
668.3260654877
 21
602.1252329451
 31
0.0
  0
LINE
  5
52
330
1F
100
AcDbEntity
  8
0
  6
Continuous
 62
     7
370
    15
100
AcDbLine
 10
668.3260654877
 20
602.1252329451
 30
0.0
 11
668.3260654877
 21
600.2252329451
 31
0.0
  0
LINE
  5
53
330
1F
100
AcDbEntity
  8
0
  6
Continuous
 62
     7
370
    15
100
AcDbLine
 10
666.0110686291
 20
602.1252329451
 30
0.0
 11
666.0110686291
 21
600.2252329451
 31
0.0
  0
LINE
  5
54
330
1F
100
AcDbEntity
  8
0
  6
Continuous
 62
     7
370
    15
100
AcDbLine
 10
656.0110686291
 20
602.1252329451
 30
0.0
 11
658.3260654877
 21
602.1252329451
 31
0.0
  0
LINE
  5
55
330
1F
100
AcDbEntity
  8
0
  6
Continuous
 62
     7
370
    15
100
AcDbLine
 10
658.3260654877
 20
602.1252329451
 30
0.0
 11
658.3260654877
 21
600.2252329451
 31
0.0
  0
LINE
  5
56
330
1F
100
AcDbEntity
  8
0
  6
Continuous
 62
     7
370
    15
100
AcDbLine
 10
656.0110686291
 20
602.1252329451
 30
0.0
 11
656.0110686291
 21
600.2252329451
 31
0.0
  0
LINE
  5
57
330
1F
100
AcDbEntity
  8
0
  6
Continuous
 62
     7
370
    15
100
AcDbLine
 10
796.0110686291
 20
602.1252329451
 30
0.0
 11
796.0110686291
 21
600.2252329451
 31
0.0
  0
LINE
  5
58
330
1F
100
AcDbEntity
  8
0
  6
Continuous
 62
     7
370
    15
100
AcDbLine
 10
796.0110686291
 20
602.1252329451
 30
0.0
 11
798.3260654877
 21
602.1252329451
 31
0.0
  0
LINE
  5
59
330
1F
100
AcDbEntity
  8
0
  6
Continuous
 62
     7
370
    15
100
AcDbLine
 10
798.3260654877
 20
602.1252329451
 30
0.0
 11
798.3260654877
 21
600.2252329451
 31
0.0
  0
LINE
  5
5A
330
1F
100
AcDbEntity
  8
0
  6
Continuous
 62
     7
370
    15
100
AcDbLine
 10
166.0110686291
 20
602.1252329451
 30
0.0
 11
168.3260654877
 21
602.1252329451
 31
0.0
  0
LINE
  5
5B
330
1F
100
AcDbEntity
  8
0
  6
Continuous
 62
     7
370
    15
100
AcDbLine
 10
168.3260654877
 20
602.1252329451
 30
0.0
 11
168.3260654877
 21
600.2252329451
 31
0.0
  0
LINE
  5
5C
330
1F
100
AcDbEntity
  8
0
  6
Continuous
 62
     7
370
    15
100
AcDbLine
 10
166.0110686291
 20
602.1252329451
 30
0.0
 11
166.0110686291
 21
600.2252329451
 31
0.0
  0
LINE
  5
5D
330
1F
100
AcDbEntity
  8
0
  6
Continuous
 62
     7
370
    15
100
AcDbLine
 10
676.0110686291
 20
602.1252329451
 30
0.0
 11
676.0110686291
 21
600.2252329451
 31
0.0
  0
LINE
  5
5E
330
1F
100
AcDbEntity
  8
0
  6
Continuous
 62
     7
370
    15
100
AcDbLine
 10
676.0110686291
 20
602.1252329451
 30
0.0
 11
678.3260654877
 21
602.1252329451
 31
0.0
  0
LINE
  5
5F
330
1F
100
AcDbEntity
  8
0
  6
Continuous
 62
     7
370
    15
100
AcDbLine
 10
678.3260654877
 20
602.1252329451
 30
0.0
 11
678.3260654877
 21
600.2252329451
 31
0.0
  0
LINE
  5
60
330
1F
100
AcDbEntity
  8
0
  6
Continuous
 62
     7
370
    15
100
AcDbLine
 10
806.0110686291
 20
602.1252329451
 30
0.0
 11
806.0110686291
 21
600.2252329451
 31
0.0
  0
LINE
  5
61
330
1F
100
AcDbEntity
  8
0
  6
Continuous
 62
     7
370
    15
100
AcDbLine
 10
806.0110686291
 20
602.1252329451
 30
0.0
 11
808.3260654877
 21
602.1252329451
 31
0.0
  0
LINE
  5
62
330
1F
100
AcDbEntity
  8
0
  6
Continuous
 62
     7
370
    15
100
AcDbLine
 10
808.3260654877
 20
602.1252329451
 30
0.0
 11
808.3260654877
 21
600.2252329451
 31
0.0
  0
LINE
  5
63
330
1F
100
AcDbEntity
  8
0
  6
Continuous
 62
     7
370
    15
100
AcDbLine
 10
176.0110686291
 20
602.1252329451
 30
0.0
 11
178.3260654877
 21
602.1252329451
 31
0.0
  0
LINE
  5
64
330
1F
100
AcDbEntity
  8
0
  6
Continuous
 62
     7
370
    15
100
AcDbLine
 10
178.3260654877
 20
602.1252329451
 30
0.0
 11
178.3260654877
 21
600.2252329451
 31
0.0
  0
LINE
  5
65
330
1F
100
AcDbEntity
  8
0
  6
Continuous
 62
     7
370
    15
100
AcDbLine
 10
176.0110686291
 20
602.1252329451
 30
0.0
 11
176.0110686291
 21
600.2252329451
 31
0.0
  0
LINE
  5
66
330
1F
100
AcDbEntity
  8
0
  6
Continuous
 62
     7
370
    15
100
AcDbLine
 10
686.0110686291
 20
602.1252329451
 30
0.0
 11
686.0110686291
 21
600.2252329451
 31
0.0
  0
LINE
  5
67
330
1F
100
AcDbEntity
  8
0
  6
Continuous
 62
     7
370
    15
100
AcDbLine
 10
686.0110686291
 20
602.1252329451
 30
0.0
 11
688.3260654877
 21
602.1252329451
 31
0.0
  0
LINE
  5
68
330
1F
100
AcDbEntity
  8
0
  6
Continuous
 62
     7
370
    15
100
AcDbLine
 10
688.3260654877
 20
602.1252329451
 30
0.0
 11
688.3260654877
 21
600.2252329451
 31
0.0
  0
LINE
  5
69
330
1F
100
AcDbEntity
  8
0
  6
Continuous
 62
     7
370
    15
100
AcDbLine
 10
816.0110686291
 20
602.1252329451
 30
0.0
 11
816.0110686291
 21
600.2252329451
 31
0.0
  0
LINE
  5
6A
330
1F
100
AcDbEntity
  8
0
  6
Continuous
 62
     7
370
    15
100
AcDbLine
 10
816.0110686291
 20
602.1252329451
 30
0.0
 11
818.3260654877
 21
602.1252329451
 31
0.0
  0
LINE
  5
6B
330
1F
100
AcDbEntity
  8
0
  6
Continuous
 62
     7
370
    15
100
AcDbLine
 10
818.3260654877
 20
602.1252329451
 30
0.0
 11
818.3260654877
 21
600.2252329451
 31
0.0
  0
LINE
  5
6C
330
1F
100
AcDbEntity
  8
0
  6
Continuous
 62
     7
370
    15
100
AcDbLine
 10
186.0110686291
 20
602.1252329451
 30
0.0
 11
188.3260654877
 21
602.1252329451
 31
0.0
  0
LINE
  5
6D
330
1F
100
AcDbEntity
  8
0
  6
Continuous
 62
     7
370
    15
100
AcDbLine
 10
188.3260654877
 20
602.1252329451
 30
0.0
 11
188.3260654877
 21
600.2252329451
 31
0.0
  0
LINE
  5
6E
330
1F
100
AcDbEntity
  8
0
  6
Continuous
 62
     7
370
    15
100
AcDbLine
 10
186.0110686291
 20
602.1252329451
 30
0.0
 11
186.0110686291
 21
600.2252329451
 31
0.0
  0
LINE
  5
6F
330
1F
100
AcDbEntity
  8
0
  6
Continuous
 62
     7
370
    15
100
AcDbLine
 10
696.0110686291
 20
602.1252329451
 30
0.0
 11
696.0110686291
 21
600.2252329451
 31
0.0
  0
LINE
  5
70
330
1F
100
AcDbEntity
  8
0
  6
Continuous
 62
     7
370
    15
100
AcDbLine
 10
696.0110686291
 20
602.1252329451
 30
0.0
 11
698.3260654877
 21
602.1252329451
 31
0.0
  0
LINE
  5
71
330
1F
100
AcDbEntity
  8
0
  6
Continuous
 62
     7
370
    15
100
AcDbLine
 10
698.3260654877
 20
602.1252329451
 30
0.0
 11
698.3260654877
 21
600.2252329451
 31
0.0
  0
LINE
  5
72
330
1F
100
AcDbEntity
  8
0
  6
Continuous
 62
     7
370
    15
100
AcDbLine
 10
826.0110686291
 20
602.1252329451
 30
0.0
 11
826.0110686291
 21
600.2252329451
 31
0.0
  0
LINE
  5
73
330
1F
100
AcDbEntity
  8
0
  6
Continuous
 62
     7
370
    15
100
AcDbLine
 10
826.0110686291
 20
602.1252329451
 30
0.0
 11
828.3260654877
 21
602.1252329451
 31
0.0
  0
LINE
  5
74
330
1F
100
AcDbEntity
  8
0
  6
Continuous
 62
     7
370
    15
100
AcDbLine
 10
828.3260654877
 20
602.1252329451
 30
0.0
 11
828.3260654877
 21
600.2252329451
 31
0.0
  0
LINE
  5
75
330
1F
100
AcDbEntity
  8
0
  6
Continuous
 62
     7
370
    15
100
AcDbLine
 10
196.0110686291
 20
602.1252329451
 30
0.0
 11
198.3260654877
 21
602.1252329451
 31
0.0
  0
LINE
  5
76
330
1F
100
AcDbEntity
  8
0
  6
Continuous
 62
     7
370
    15
100
AcDbLine
 10
198.3260654877
 20
602.1252329451
 30
0.0
 11
198.3260654877
 21
600.2252329451
 31
0.0
  0
LINE
  5
77
330
1F
100
AcDbEntity
  8
0
  6
Continuous
 62
     7
370
    15
100
AcDbLine
 10
196.0110686291
 20
602.1252329451
 30
0.0
 11
196.0110686291
 21
600.2252329451
 31
0.0
  0
LINE
  5
78
330
1F
100
AcDbEntity
  8
0
  6
Continuous
 62
     7
370
    15
100
AcDbLine
 10
706.0110686291
 20
602.1252329451
 30
0.0
 11
706.0110686291
 21
600.2252329451
 31
0.0
  0
LINE
  5
79
330
1F
100
AcDbEntity
  8
0
  6
Continuous
 62
     7
370
    15
100
AcDbLine
 10
706.0110686291
 20
602.1252329451
 30
0.0
 11
708.3260654877
 21
602.1252329451
 31
0.0
  0
LINE
  5
7A
330
1F
100
AcDbEntity
  8
0
  6
Continuous
 62
     7
370
    15
100
AcDbLine
 10
708.3260654877
 20
602.1252329451
 30
0.0
 11
708.3260654877
 21
600.2252329451
 31
0.0
  0
LINE
  5
7B
330
1F
100
AcDbEntity
  8
0
  6
Continuous
 62
     7
370
    15
100
AcDbLine
 10
836.0110686291
 20
602.1252329451
 30
0.0
 11
836.0110686291
 21
600.2252329451
 31
0.0
  0
LINE
  5
7C
330
1F
100
AcDbEntity
  8
0
  6
Continuous
 62
     7
370
    15
100
AcDbLine
 10
836.0110686291
 20
602.1252329451
 30
0.0
 11
838.3260654877
 21
602.1252329451
 31
0.0
  0
LINE
  5
7D
330
1F
100
AcDbEntity
  8
0
  6
Continuous
 62
     7
370
    15
100
AcDbLine
 10
838.3260654877
 20
602.1252329451
 30
0.0
 11
838.3260654877
 21
600.2252329451
 31
0.0
  0
LINE
  5
7E
330
1F
100
AcDbEntity
  8
0
  6
Continuous
 62
     7
370
    15
100
AcDbLine
 10
206.0110686291
 20
602.1252329451
 30
0.0
 11
208.3260654877
 21
602.1252329451
 31
0.0
  0
LINE
  5
7F
330
1F
100
AcDbEntity
  8
0
  6
Continuous
 62
     7
370
    15
100
AcDbLine
 10
208.3260654877
 20
602.1252329451
 30
0.0
 11
208.3260654877
 21
600.2252329451
 31
0.0
  0
LINE
  5
80
330
1F
100
AcDbEntity
  8
0
  6
Continuous
 62
     7
370
    15
100
AcDbLine
 10
206.0110686291
 20
602.1252329451
 30
0.0
 11
206.0110686291
 21
600.2252329451
 31
0.0
  0
LINE
  5
81
330
1F
100
AcDbEntity
  8
0
  6
Continuous
 62
     7
370
    15
100
AcDbLine
 10
716.0110686291
 20
602.1252329451
 30
0.0
 11
716.0110686291
 21
600.2252329451
 31
0.0
  0
LINE
  5
82
330
1F
100
AcDbEntity
  8
0
  6
Continuous
 62
     7
370
    15
100
AcDbLine
 10
716.0110686291
 20
602.1252329451
 30
0.0
 11
718.3260654877
 21
602.1252329451
 31
0.0
  0
LINE
  5
83
330
1F
100
AcDbEntity
  8
0
  6
Continuous
 62
     7
370
    15
100
AcDbLine
 10
718.3260654877
 20
602.1252329451
 30
0.0
 11
718.3260654877
 21
600.2252329451
 31
0.0
  0
LINE
  5
84
330
1F
100
AcDbEntity
  8
0
  6
Continuous
 62
     7
370
    15
100
AcDbLine
 10
846.0110686291
 20
602.1252329451
 30
0.0
 11
846.0110686291
 21
600.2252329451
 31
0.0
  0
LINE
  5
85
330
1F
100
AcDbEntity
  8
0
  6
Continuous
 62
     7
370
    15
100
AcDbLine
 10
846.0110686291
 20
602.1252329451
 30
0.0
 11
848.3260654877
 21
602.1252329451
 31
0.0
  0
LINE
  5
86
330
1F
100
AcDbEntity
  8
0
  6
Continuous
 62
     7
370
    15
100
AcDbLine
 10
848.3260654877
 20
602.1252329451
 30
0.0
 11
848.3260654877
 21
600.2252329451
 31
0.0
  0
LINE
  5
87
330
1F
100
AcDbEntity
  8
0
  6
Continuous
 62
     7
370
    15
100
AcDbLine
 10
216.0110686291
 20
602.1252329451
 30
0.0
 11
218.3260654877
 21
602.1252329451
 31
0.0
  0
LINE
  5
88
330
1F
100
AcDbEntity
  8
0
  6
Continuous
 62
     7
370
    15
100
AcDbLine
 10
218.3260654877
 20
602.1252329451
 30
0.0
 11
218.3260654877
 21
600.2252329451
 31
0.0
  0
LINE
  5
89
330
1F
100
AcDbEntity
  8
0
  6
Continuous
 62
     7
370
    15
100
AcDbLine
 10
216.0110686291
 20
602.1252329451
 30
0.0
 11
216.0110686291
 21
600.2252329451
 31
0.0
  0
LINE
  5
8A
330
1F
100
AcDbEntity
  8
0
  6
Continuous
 62
     7
370
    15
100
AcDbLine
 10
726.0110686291
 20
602.1252329451
 30
0.0
 11
726.0110686291
 21
600.2252329451
 31
0.0
  0
LINE
  5
8B
330
1F
100
AcDbEntity
  8
0
  6
Continuous
 62
     7
370
    15
100
AcDbLine
 10
726.0110686291
 20
602.1252329451
 30
0.0
 11
728.3260654877
 21
602.1252329451
 31
0.0
  0
LINE
  5
8C
330
1F
100
AcDbEntity
  8
0
  6
Continuous
 62
     7
370
    15
100
AcDbLine
 10
728.3260654877
 20
602.1252329451
 30
0.0
 11
728.3260654877
 21
600.2252329451
 31
0.0
  0
LINE
  5
8D
330
1F
100
AcDbEntity
  8
0
  6
Continuous
 62
     7
370
    15
100
AcDbLine
 10
856.0110686291
 20
602.1252329451
 30
0.0
 11
856.0110686291
 21
600.2252329451
 31
0.0
  0
LINE
  5
8E
330
1F
100
AcDbEntity
  8
0
  6
Continuous
 62
     7
370
    15
100
AcDbLine
 10
856.0110686291
 20
602.1252329451
 30
0.0
 11
858.3260654877
 21
602.1252329451
 31
0.0
  0
LINE
  5
8F
330
1F
100
AcDbEntity
  8
0
  6
Continuous
 62
     7
370
    15
100
AcDbLine
 10
858.3260654877
 20
602.1252329451
 30
0.0
 11
858.3260654877
 21
600.2252329451
 31
0.0
  0
LINE
  5
90
330
1F
100
AcDbEntity
  8
0
  6
Continuous
 62
     7
370
    15
100
AcDbLine
 10
226.0110686291
 20
602.1252329451
 30
0.0
 11
228.3260654877
 21
602.1252329451
 31
0.0
  0
LINE
  5
91
330
1F
100
AcDbEntity
  8
0
  6
Continuous
 62
     7
370
    15
100
AcDbLine
 10
228.3260654877
 20
602.1252329451
 30
0.0
 11
228.3260654877
 21
600.2252329451
 31
0.0
  0
LINE
  5
92
330
1F
100
AcDbEntity
  8
0
  6
Continuous
 62
     7
370
    15
100
AcDbLine
 10
226.0110686291
 20
602.1252329451
 30
0.0
 11
226.0110686291
 21
600.2252329451
 31
0.0
  0
LINE
  5
93
330
1F
100
AcDbEntity
  8
0
  6
Continuous
 62
     7
370
    15
100
AcDbLine
 10
736.0110686291
 20
602.1252329451
 30
0.0
 11
736.0110686291
 21
600.2252329451
 31
0.0
  0
LINE
  5
94
330
1F
100
AcDbEntity
  8
0
  6
Continuous
 62
     7
370
    15
100
AcDbLine
 10
736.0110686291
 20
602.1252329451
 30
0.0
 11
738.3260654877
 21
602.1252329451
 31
0.0
  0
LINE
  5
95
330
1F
100
AcDbEntity
  8
0
  6
Continuous
 62
     7
370
    15
100
AcDbLine
 10
738.3260654877
 20
602.1252329451
 30
0.0
 11
738.3260654877
 21
600.2252329451
 31
0.0
  0
LINE
  5
96
330
1F
100
AcDbEntity
  8
0
  6
Continuous
 62
     7
370
    15
100
AcDbLine
 10
866.0110686291
 20
602.1252329451
 30
0.0
 11
866.0110686291
 21
600.2252329451
 31
0.0
  0
LINE
  5
97
330
1F
100
AcDbEntity
  8
0
  6
Continuous
 62
     7
370
    15
100
AcDbLine
 10
866.0110686291
 20
602.1252329451
 30
0.0
 11
868.3260654877
 21
602.1252329451
 31
0.0
  0
LINE
  5
98
330
1F
100
AcDbEntity
  8
0
  6
Continuous
 62
     7
370
    15
100
AcDbLine
 10
868.3260654877
 20
602.1252329451
 30
0.0
 11
868.3260654877
 21
600.2252329451
 31
0.0
  0
LINE
  5
99
330
1F
100
AcDbEntity
  8
0
  6
Continuous
 62
     7
370
    15
100
AcDbLine
 10
236.0110686291
 20
602.1252329451
 30
0.0
 11
238.3260654877
 21
602.1252329451
 31
0.0
  0
LINE
  5
9A
330
1F
100
AcDbEntity
  8
0
  6
Continuous
 62
     7
370
    15
100
AcDbLine
 10
238.3260654877
 20
602.1252329451
 30
0.0
 11
238.3260654877
 21
600.2252329451
 31
0.0
  0
LINE
  5
9B
330
1F
100
AcDbEntity
  8
0
  6
Continuous
 62
     7
370
    15
100
AcDbLine
 10
236.0110686291
 20
602.1252329451
 30
0.0
 11
236.0110686291
 21
600.2252329451
 31
0.0
  0
LINE
  5
9C
330
1F
100
AcDbEntity
  8
0
  6
Continuous
 62
     7
370
    15
100
AcDbLine
 10
746.0110686291
 20
602.1252329451
 30
0.0
 11
746.0110686291
 21
600.2252329451
 31
0.0
  0
LINE
  5
9D
330
1F
100
AcDbEntity
  8
0
  6
Continuous
 62
     7
370
    15
100
AcDbLine
 10
746.0110686291
 20
602.1252329451
 30
0.0
 11
748.3260654877
 21
602.1252329451
 31
0.0
  0
LINE
  5
9E
330
1F
100
AcDbEntity
  8
0
  6
Continuous
 62
     7
370
    15
100
AcDbLine
 10
748.3260654877
 20
602.1252329451
 30
0.0
 11
748.3260654877
 21
600.2252329451
 31
0.0
  0
LINE
  5
9F
330
1F
100
AcDbEntity
  8
0
  6
Continuous
 62
     7
370
    15
100
AcDbLine
 10
876.0110686291
 20
602.1252329451
 30
0.0
 11
876.0110686291
 21
600.2252329451
 31
0.0
  0
LINE
  5
A0
330
1F
100
AcDbEntity
  8
0
  6
Continuous
 62
     7
370
    15
100
AcDbLine
 10
876.0110686291
 20
602.1252329451
 30
0.0
 11
878.3260654877
 21
602.1252329451
 31
0.0
  0
LINE
  5
A1
330
1F
100
AcDbEntity
  8
0
  6
Continuous
 62
     7
370
    15
100
AcDbLine
 10
878.3260654877
 20
602.1252329451
 30
0.0
 11
878.3260654877
 21
600.2252329451
 31
0.0
  0
LINE
  5
A2
330
1F
100
AcDbEntity
  8
0
  6
Continuous
 62
     7
370
    15
100
AcDbLine
 10
246.0110686291
 20
602.1252329451
 30
0.0
 11
248.3260654877
 21
602.1252329451
 31
0.0
  0
LINE
  5
A3
330
1F
100
AcDbEntity
  8
0
  6
Continuous
 62
     7
370
    15
100
AcDbLine
 10
248.3260654877
 20
602.1252329451
 30
0.0
 11
248.3260654877
 21
600.2252329451
 31
0.0
  0
LINE
  5
A4
330
1F
100
AcDbEntity
  8
0
  6
Continuous
 62
     7
370
    15
100
AcDbLine
 10
246.0110686291
 20
602.1252329451
 30
0.0
 11
246.0110686291
 21
600.2252329451
 31
0.0
  0
LINE
  5
A5
330
1F
100
AcDbEntity
  8
0
  6
Continuous
 62
     7
370
    15
100
AcDbLine
 10
756.0110686291
 20
602.1252329451
 30
0.0
 11
756.0110686291
 21
600.2252329451
 31
0.0
  0
LINE
  5
A6
330
1F
100
AcDbEntity
  8
0
  6
Continuous
 62
     7
370
    15
100
AcDbLine
 10
756.0110686291
 20
602.1252329451
 30
0.0
 11
758.3260654877
 21
602.1252329451
 31
0.0
  0
LINE
  5
A7
330
1F
100
AcDbEntity
  8
0
  6
Continuous
 62
     7
370
    15
100
AcDbLine
 10
758.3260654877
 20
602.1252329451
 30
0.0
 11
758.3260654877
 21
600.2252329451
 31
0.0
  0
LINE
  5
A8
330
1F
100
AcDbEntity
  8
0
  6
Continuous
 62
     7
370
    15
100
AcDbLine
 10
886.0110686291
 20
602.1252329451
 30
0.0
 11
886.0110686291
 21
600.2252329451
 31
0.0
  0
LINE
  5
A9
330
1F
100
AcDbEntity
  8
0
  6
Continuous
 62
     7
370
    15
100
AcDbLine
 10
886.0110686291
 20
602.1252329451
 30
0.0
 11
888.3260654877
 21
602.1252329451
 31
0.0
  0
LINE
  5
AA
330
1F
100
AcDbEntity
  8
0
  6
Continuous
 62
     7
370
    15
100
AcDbLine
 10
888.3260654877
 20
602.1252329451
 30
0.0
 11
888.3260654877
 21
600.2252329451
 31
0.0
  0
LINE
  5
AB
330
1F
100
AcDbEntity
  8
0
  6
Continuous
 62
     7
370
    15
100
AcDbLine
 10
256.0110686291
 20
602.1252329451
 30
0.0
 11
258.3260654877
 21
602.1252329451
 31
0.0
  0
LINE
  5
AC
330
1F
100
AcDbEntity
  8
0
  6
Continuous
 62
     7
370
    15
100
AcDbLine
 10
258.3260654877
 20
602.1252329451
 30
0.0
 11
258.3260654877
 21
600.2252329451
 31
0.0
  0
LINE
  5
AD
330
1F
100
AcDbEntity
  8
0
  6
Continuous
 62
     7
370
    15
100
AcDbLine
 10
256.0110686291
 20
602.1252329451
 30
0.0
 11
256.0110686291
 21
600.2252329451
 31
0.0
  0
LINE
  5
AE
330
1F
100
AcDbEntity
  8
0
  6
Continuous
 62
     7
370
    15
100
AcDbLine
 10
766.0110686291
 20
602.1252329451
 30
0.0
 11
766.0110686291
 21
600.2252329451
 31
0.0
  0
LINE
  5
AF
330
1F
100
AcDbEntity
  8
0
  6
Continuous
 62
     7
370
    15
100
AcDbLine
 10
766.0110686291
 20
602.1252329451
 30
0.0
 11
768.3260654877
 21
602.1252329451
 31
0.0
  0
LINE
  5
B0
330
1F
100
AcDbEntity
  8
0
  6
Continuous
 62
     7
370
    15
100
AcDbLine
 10
768.3260654877
 20
602.1252329451
 30
0.0
 11
768.3260654877
 21
600.2252329451
 31
0.0
  0
LINE
  5
B1
330
1F
100
AcDbEntity
  8
0
  6
Continuous
 62
     7
370
    15
100
AcDbLine
 10
896.0110686291
 20
602.1252329451
 30
0.0
 11
896.0110686291
 21
600.2252329451
 31
0.0
  0
LINE
  5
B2
330
1F
100
AcDbEntity
  8
0
  6
Continuous
 62
     7
370
    15
100
AcDbLine
 10
896.0110686291
 20
602.1252329451
 30
0.0
 11
898.3260654877
 21
602.1252329451
 31
0.0
  0
LINE
  5
B3
330
1F
100
AcDbEntity
  8
0
  6
Continuous
 62
     7
370
    15
100
AcDbLine
 10
898.3260654877
 20
602.1252329451
 30
0.0
 11
898.3260654877
 21
600.2252329451
 31
0.0
  0
LINE
  5
B4
330
1F
100
AcDbEntity
  8
0
  6
Continuous
 62
     7
370
    15
100
AcDbLine
 10
266.0110686291
 20
602.1252329451
 30
0.0
 11
268.3260654877
 21
602.1252329451
 31
0.0
  0
LINE
  5
B5
330
1F
100
AcDbEntity
  8
0
  6
Continuous
 62
     7
370
    15
100
AcDbLine
 10
268.3260654877
 20
602.1252329451
 30
0.0
 11
268.3260654877
 21
600.2252329451
 31
0.0
  0
LINE
  5
B6
330
1F
100
AcDbEntity
  8
0
  6
Continuous
 62
     7
370
    15
100
AcDbLine
 10
266.0110686291
 20
602.1252329451
 30
0.0
 11
266.0110686291
 21
600.2252329451
 31
0.0
  0
LINE
  5
B7
330
1F
100
AcDbEntity
  8
0
  6
Continuous
 62
     7
370
    15
100
AcDbLine
 10
776.0110686291
 20
602.1252329451
 30
0.0
 11
776.0110686291
 21
600.2252329451
 31
0.0
  0
LINE
  5
B8
330
1F
100
AcDbEntity
  8
0
  6
Continuous
 62
     7
370
    15
100
AcDbLine
 10
776.0110686291
 20
602.1252329451
 30
0.0
 11
778.3260654877
 21
602.1252329451
 31
0.0
  0
LINE
  5
B9
330
1F
100
AcDbEntity
  8
0
  6
Continuous
 62
     7
370
    15
100
AcDbLine
 10
778.3260654877
 20
602.1252329451
 30
0.0
 11
778.3260654877
 21
600.2252329451
 31
0.0
  0
LINE
  5
BA
330
1F
100
AcDbEntity
  8
0
  6
Continuous
 62
     7
370
    15
100
AcDbLine
 10
906.0110686291
 20
602.1252329451
 30
0.0
 11
906.0110686291
 21
600.2252329451
 31
0.0
  0
LINE
  5
BB
330
1F
100
AcDbEntity
  8
0
  6
Continuous
 62
     7
370
    15
100
AcDbLine
 10
906.0110686291
 20
602.1252329451
 30
0.0
 11
908.3260654877
 21
602.1252329451
 31
0.0
  0
LINE
  5
BC
330
1F
100
AcDbEntity
  8
0
  6
Continuous
 62
     7
370
    15
100
AcDbLine
 10
908.3260654877
 20
602.1252329451
 30
0.0
 11
908.3260654877
 21
600.2252329451
 31
0.0
  0
LINE
  5
BD
330
1F
100
AcDbEntity
  8
0
  6
Continuous
 62
     7
370
    15
100
AcDbLine
 10
276.0110686291
 20
602.1252329451
 30
0.0
 11
278.3260654877
 21
602.1252329451
 31
0.0
  0
LINE
  5
BE
330
1F
100
AcDbEntity
  8
0
  6
Continuous
 62
     7
370
    15
100
AcDbLine
 10
278.3260654877
 20
602.1252329451
 30
0.0
 11
278.3260654877
 21
600.2252329451
 31
0.0
  0
LINE
  5
BF
330
1F
100
AcDbEntity
  8
0
  6
Continuous
 62
     7
370
    15
100
AcDbLine
 10
276.0110686291
 20
602.1252329451
 30
0.0
 11
276.0110686291
 21
600.2252329451
 31
0.0
  0
LINE
  5
C0
330
1F
100
AcDbEntity
  8
0
  6
Continuous
 62
     7
370
    15
100
AcDbLine
 10
1036.0110686291
 20
602.1252329451
 30
0.0
 11
1036.0110686291
 21
600.2252329451
 31
0.0
  0
LINE
  5
C1
330
1F
100
AcDbEntity
  8
0
  6
Continuous
 62
     7
370
    15
100
AcDbLine
 10
1036.0110686291
 20
602.1252329451
 30
0.0
 11
1038.3260654877
 21
602.1252329451
 31
0.0
  0
LINE
  5
C2
330
1F
100
AcDbEntity
  8
0
  6
Continuous
 62
     7
370
    15
100
AcDbLine
 10
1038.3260654877
 20
602.1252329451
 30
0.0
 11
1038.3260654877
 21
600.2252329451
 31
0.0
  0
LINE
  5
C3
330
1F
100
AcDbEntity
  8
0
  6
Continuous
 62
     7
370
    15
100
AcDbLine
 10
916.0110686291
 20
602.1252329451
 30
0.0
 11
916.0110686291
 21
600.2252329451
 31
0.0
  0
LINE
  5
C4
330
1F
100
AcDbEntity
  8
0
  6
Continuous
 62
     7
370
    15
100
AcDbLine
 10
916.0110686291
 20
602.1252329451
 30
0.0
 11
918.3260654877
 21
602.1252329451
 31
0.0
  0
LINE
  5
C5
330
1F
100
AcDbEntity
  8
0
  6
Continuous
 62
     7
370
    15
100
AcDbLine
 10
918.3260654877
 20
602.1252329451
 30
0.0
 11
918.3260654877
 21
600.2252329451
 31
0.0
  0
LINE
  5
C6
330
1F
100
AcDbEntity
  8
0
  6
Continuous
 62
     7
370
    15
100
AcDbLine
 10
286.0110686291
 20
602.1252329451
 30
0.0
 11
288.3260654877
 21
602.1252329451
 31
0.0
  0
LINE
  5
C7
330
1F
100
AcDbEntity
  8
0
  6
Continuous
 62
     7
370
    15
100
AcDbLine
 10
288.3260654877
 20
602.1252329451
 30
0.0
 11
288.3260654877
 21
600.2252329451
 31
0.0
  0
LINE
  5
C8
330
1F
100
AcDbEntity
  8
0
  6
Continuous
 62
     7
370
    15
100
AcDbLine
 10
286.0110686291
 20
602.1252329451
 30
0.0
 11
286.0110686291
 21
600.2252329451
 31
0.0
  0
LINE
  5
C9
330
1F
100
AcDbEntity
  8
0
  6
Continuous
 62
     7
370
    15
100
AcDbLine
 10
926.0110686291
 20
602.1252329451
 30
0.0
 11
926.0110686291
 21
600.2252329451
 31
0.0
  0
LINE
  5
CA
330
1F
100
AcDbEntity
  8
0
  6
Continuous
 62
     7
370
    15
100
AcDbLine
 10
928.3260654877
 20
602.1252329451
 30
0.0
 11
928.3260654877
 21
600.2252329451
 31
0.0
  0
LINE
  5
CB
330
1F
100
AcDbEntity
  8
0
  6
Continuous
 62
     7
370
    15
100
AcDbLine
 10
926.0110686291
 20
602.1252329451
 30
0.0
 11
928.3260654877
 21
602.1252329451
 31
0.0
  0
LINE
  5
CC
330
1F
100
AcDbEntity
  8
0
  6
Continuous
 62
     7
370
    15
100
AcDbLine
 10
296.0110686291
 20
602.1252329451
 30
0.0
 11
298.3260654877
 21
602.1252329451
 31
0.0
  0
LINE
  5
CD
330
1F
100
AcDbEntity
  8
0
  6
Continuous
 62
     7
370
    15
100
AcDbLine
 10
296.0110686291
 20
602.1252329451
 30
0.0
 11
296.0110686291
 21
600.2252329451
 31
0.0
  0
LINE
  5
CE
330
1F
100
AcDbEntity
  8
0
  6
Continuous
 62
     7
370
    15
100
AcDbLine
 10
298.3260654877
 20
602.1252329451
 30
0.0
 11
298.3260654877
 21
600.2252329451
 31
0.0
  0
LINE
  5
CF
330
1F
100
AcDbEntity
  8
0
  6
Continuous
 62
     7
370
    15
100
AcDbLine
 10
1056.0110686291
 20
602.1252329451
 30
0.0
 11
1056.0110686291
 21
600.2252329451
 31
0.0
  0
LINE
  5
D0
330
1F
100
AcDbEntity
  8
0
  6
Continuous
 62
     7
370
    15
100
AcDbLine
 10
1056.0110686291
 20
602.1252329451
 30
0.0
 11
1058.3260654877
 21
602.1252329451
 31
0.0
  0
LINE
  5
D1
330
1F
100
AcDbEntity
  8
0
  6
Continuous
 62
     7
370
    15
100
AcDbLine
 10
1058.3260654877
 20
602.1252329451
 30
0.0
 11
1058.3260654877
 21
600.2252329451
 31
0.0
  0
LINE
  5
D2
330
1F
100
AcDbEntity
  8
0
  6
Continuous
 62
     7
370
    15
100
AcDbLine
 10
936.0110686291
 20
602.1252329451
 30
0.0
 11
936.0110686291
 21
600.2252329451
 31
0.0
  0
LINE
  5
D3
330
1F
100
AcDbEntity
  8
0
  6
Continuous
 62
     7
370
    15
100
AcDbLine
 10
938.3260654877
 20
602.1252329451
 30
0.0
 11
938.3260654877
 21
600.2252329451
 31
0.0
  0
LINE
  5
D4
330
1F
100
AcDbEntity
  8
0
  6
Continuous
 62
     7
370
    15
100
AcDbLine
 10
936.0110686291
 20
602.1252329451
 30
0.0
 11
938.3260654877
 21
602.1252329451
 31
0.0
  0
LINE
  5
D5
330
1F
100
AcDbEntity
  8
0
  6
Continuous
 62
     7
370
    15
100
AcDbLine
 10
306.0110686291
 20
602.1252329451
 30
0.0
 11
308.3260654877
 21
602.1252329451
 31
0.0
  0
LINE
  5
D6
330
1F
100
AcDbEntity
  8
0
  6
Continuous
 62
     7
370
    15
100
AcDbLine
 10
306.0110686291
 20
602.1252329451
 30
0.0
 11
306.0110686291
 21
600.2252329451
 31
0.0
  0
LINE
  5
D7
330
1F
100
AcDbEntity
  8
0
  6
Continuous
 62
     7
370
    15
100
AcDbLine
 10
308.3260654877
 20
602.1252329451
 30
0.0
 11
308.3260654877
 21
600.2252329451
 31
0.0
  0
LINE
  5
D8
330
1F
100
AcDbEntity
  8
0
  6
Continuous
 62
     7
370
    15
100
AcDbLine
 10
1066.0110686291
 20
602.1252329451
 30
0.0
 11
1066.0110686291
 21
600.2252329451
 31
0.0
  0
LINE
  5
D9
330
1F
100
AcDbEntity
  8
0
  6
Continuous
 62
     7
370
    15
100
AcDbLine
 10
1066.0110686291
 20
602.1252329451
 30
0.0
 11
1068.3260654877
 21
602.1252329451
 31
0.0
  0
LINE
  5
DA
330
1F
100
AcDbEntity
  8
0
  6
Continuous
 62
     7
370
    15
100
AcDbLine
 10
1068.3260654877
 20
602.1252329451
 30
0.0
 11
1068.3260654877
 21
600.2252329451
 31
0.0
  0
LINE
  5
DB
330
1F
100
AcDbEntity
  8
0
  6
Continuous
 62
     7
370
    15
100
AcDbLine
 10
946.0110686291
 20
602.1252329451
 30
0.0
 11
946.0110686291
 21
600.2252329451
 31
0.0
  0
LINE
  5
DC
330
1F
100
AcDbEntity
  8
0
  6
Continuous
 62
     7
370
    15
100
AcDbLine
 10
948.3260654877
 20
602.1252329451
 30
0.0
 11
948.3260654877
 21
600.2252329451
 31
0.0
  0
LINE
  5
DD
330
1F
100
AcDbEntity
  8
0
  6
Continuous
 62
     7
370
    15
100
AcDbLine
 10
946.0110686291
 20
602.1252329451
 30
0.0
 11
948.3260654877
 21
602.1252329451
 31
0.0
  0
LINE
  5
DE
330
1F
100
AcDbEntity
  8
0
  6
Continuous
 62
     7
370
    15
100
AcDbLine
 10
316.0110686291
 20
602.1252329451
 30
0.0
 11
318.3260654877
 21
602.1252329451
 31
0.0
  0
LINE
  5
DF
330
1F
100
AcDbEntity
  8
0
  6
Continuous
 62
     7
370
    15
100
AcDbLine
 10
316.0110686291
 20
602.1252329451
 30
0.0
 11
316.0110686291
 21
600.2252329451
 31
0.0
  0
LINE
  5
E0
330
1F
100
AcDbEntity
  8
0
  6
Continuous
 62
     7
370
    15
100
AcDbLine
 10
318.3260654877
 20
602.1252329451
 30
0.0
 11
318.3260654877
 21
600.2252329451
 31
0.0
  0
LINE
  5
E1
330
1F
100
AcDbEntity
  8
0
  6
Continuous
 62
     7
370
    15
100
AcDbLine
 10
1076.0110686291
 20
602.1252329451
 30
0.0
 11
1076.0110686291
 21
600.2252329451
 31
0.0
  0
LINE
  5
E2
330
1F
100
AcDbEntity
  8
0
  6
Continuous
 62
     7
370
    15
100
AcDbLine
 10
1076.0110686291
 20
602.1252329451
 30
0.0
 11
1078.3260654877
 21
602.1252329451
 31
0.0
  0
LINE
  5
E3
330
1F
100
AcDbEntity
  8
0
  6
Continuous
 62
     7
370
    15
100
AcDbLine
 10
1078.3260654877
 20
602.1252329451
 30
0.0
 11
1078.3260654877
 21
600.2252329451
 31
0.0
  0
LINE
  5
E4
330
1F
100
AcDbEntity
  8
0
  6
Continuous
 62
     7
370
    15
100
AcDbLine
 10
956.0110686291
 20
602.1252329451
 30
0.0
 11
956.0110686291
 21
600.2252329451
 31
0.0
  0
LINE
  5
E5
330
1F
100
AcDbEntity
  8
0
  6
Continuous
 62
     7
370
    15
100
AcDbLine
 10
958.3260654877
 20
602.1252329451
 30
0.0
 11
958.3260654877
 21
600.2252329451
 31
0.0
  0
LINE
  5
E6
330
1F
100
AcDbEntity
  8
0
  6
Continuous
 62
     7
370
    15
100
AcDbLine
 10
956.0110686291
 20
602.1252329451
 30
0.0
 11
958.3260654877
 21
602.1252329451
 31
0.0
  0
LINE
  5
E7
330
1F
100
AcDbEntity
  8
0
  6
Continuous
 62
     7
370
    15
100
AcDbLine
 10
326.0110686291
 20
602.1252329451
 30
0.0
 11
328.3260654877
 21
602.1252329451
 31
0.0
  0
LINE
  5
E8
330
1F
100
AcDbEntity
  8
0
  6
Continuous
 62
     7
370
    15
100
AcDbLine
 10
326.0110686291
 20
602.1252329451
 30
0.0
 11
326.0110686291
 21
600.2252329451
 31
0.0
  0
LINE
  5
E9
330
1F
100
AcDbEntity
  8
0
  6
Continuous
 62
     7
370
    15
100
AcDbLine
 10
328.3260654877
 20
602.1252329451
 30
0.0
 11
328.3260654877
 21
600.2252329451
 31
0.0
  0
LINE
  5
EA
330
1F
100
AcDbEntity
  8
0
  6
Continuous
 62
     7
370
    15
100
AcDbLine
 10
1086.0110686291
 20
602.1252329451
 30
0.0
 11
1086.0110686291
 21
600.2252329451
 31
0.0
  0
LINE
  5
EB
330
1F
100
AcDbEntity
  8
0
  6
Continuous
 62
     7
370
    15
100
AcDbLine
 10
1086.0110686291
 20
602.1252329451
 30
0.0
 11
1088.3260654877
 21
602.1252329451
 31
0.0
  0
LINE
  5
EC
330
1F
100
AcDbEntity
  8
0
  6
Continuous
 62
     7
370
    15
100
AcDbLine
 10
1088.3260654877
 20
602.1252329451
 30
0.0
 11
1088.3260654877
 21
600.2252329451
 31
0.0
  0
LINE
  5
ED
330
1F
100
AcDbEntity
  8
0
  6
Continuous
 62
     7
370
    15
100
AcDbLine
 10
966.0110686291
 20
602.1252329451
 30
0.0
 11
966.0110686291
 21
600.2252329451
 31
0.0
  0
LINE
  5
EE
330
1F
100
AcDbEntity
  8
0
  6
Continuous
 62
     7
370
    15
100
AcDbLine
 10
968.3260654877
 20
602.1252329451
 30
0.0
 11
968.3260654877
 21
600.2252329451
 31
0.0
  0
LINE
  5
EF
330
1F
100
AcDbEntity
  8
0
  6
Continuous
 62
     7
370
    15
100
AcDbLine
 10
966.0110686291
 20
602.1252329451
 30
0.0
 11
968.3260654877
 21
602.1252329451
 31
0.0
  0
LINE
  5
F0
330
1F
100
AcDbEntity
  8
0
  6
Continuous
 62
     7
370
    15
100
AcDbLine
 10
336.0110686291
 20
602.1252329451
 30
0.0
 11
338.3260654877
 21
602.1252329451
 31
0.0
  0
LINE
  5
F1
330
1F
100
AcDbEntity
  8
0
  6
Continuous
 62
     7
370
    15
100
AcDbLine
 10
336.0110686291
 20
602.1252329451
 30
0.0
 11
336.0110686291
 21
600.2252329451
 31
0.0
  0
LINE
  5
F2
330
1F
100
AcDbEntity
  8
0
  6
Continuous
 62
     7
370
    15
100
AcDbLine
 10
338.3260654877
 20
602.1252329451
 30
0.0
 11
338.3260654877
 21
600.2252329451
 31
0.0
  0
LINE
  5
F3
330
1F
100
AcDbEntity
  8
0
  6
Continuous
 62
     7
370
    15
100
AcDbLine
 10
1096.0110686291
 20
602.1252329451
 30
0.0
 11
1096.0110686291
 21
600.2252329451
 31
0.0
  0
LINE
  5
F4
330
1F
100
AcDbEntity
  8
0
  6
Continuous
 62
     7
370
    15
100
AcDbLine
 10
1096.0110686291
 20
602.1252329451
 30
0.0
 11
1098.3260654877
 21
602.1252329451
 31
0.0
  0
LINE
  5
F5
330
1F
100
AcDbEntity
  8
0
  6
Continuous
 62
     7
370
    15
100
AcDbLine
 10
1098.3260654877
 20
602.1252329451
 30
0.0
 11
1098.3260654877
 21
600.2252329451
 31
0.0
  0
LINE
  5
F6
330
1F
100
AcDbEntity
  8
0
  6
Continuous
 62
     7
370
    15
100
AcDbLine
 10
976.0110686291
 20
602.1252329451
 30
0.0
 11
976.0110686291
 21
600.2252329451
 31
0.0
  0
LINE
  5
F7
330
1F
100
AcDbEntity
  8
0
  6
Continuous
 62
     7
370
    15
100
AcDbLine
 10
978.3260654877
 20
602.1252329451
 30
0.0
 11
978.3260654877
 21
600.2252329451
 31
0.0
  0
LINE
  5
F8
330
1F
100
AcDbEntity
  8
0
  6
Continuous
 62
     7
370
    15
100
AcDbLine
 10
976.0110686291
 20
602.1252329451
 30
0.0
 11
978.3260654877
 21
602.1252329451
 31
0.0
  0
LINE
  5
F9
330
1F
100
AcDbEntity
  8
0
  6
Continuous
 62
     7
370
    15
100
AcDbLine
 10
346.0110686291
 20
602.1252329451
 30
0.0
 11
348.3260654877
 21
602.1252329451
 31
0.0
  0
LINE
  5
FA
330
1F
100
AcDbEntity
  8
0
  6
Continuous
 62
     7
370
    15
100
AcDbLine
 10
346.0110686291
 20
602.1252329451
 30
0.0
 11
346.0110686291
 21
600.2252329451
 31
0.0
  0
LINE
  5
FB
330
1F
100
AcDbEntity
  8
0
  6
Continuous
 62
     7
370
    15
100
AcDbLine
 10
348.3260654877
 20
602.1252329451
 30
0.0
 11
348.3260654877
 21
600.2252329451
 31
0.0
  0
LINE
  5
FC
330
1F
100
AcDbEntity
  8
0
  6
Continuous
 62
     7
370
    15
100
AcDbLine
 10
1106.0110686291
 20
602.1252329451
 30
0.0
 11
1106.0110686291
 21
600.2252329451
 31
0.0
  0
LINE
  5
FD
330
1F
100
AcDbEntity
  8
0
  6
Continuous
 62
     7
370
    15
100
AcDbLine
 10
1106.0110686291
 20
602.1252329451
 30
0.0
 11
1108.3260654877
 21
602.1252329451
 31
0.0
  0
LINE
  5
FE
330
1F
100
AcDbEntity
  8
0
  6
Continuous
 62
     7
370
    15
100
AcDbLine
 10
1108.3260654877
 20
602.1252329451
 30
0.0
 11
1108.3260654877
 21
600.2252329451
 31
0.0
  0
LINE
  5
FF
330
1F
100
AcDbEntity
  8
0
  6
Continuous
 62
     7
370
    15
100
AcDbLine
 10
986.0110686291
 20
602.1252329451
 30
0.0
 11
986.0110686291
 21
600.2252329451
 31
0.0
  0
LINE
  5
100
330
1F
100
AcDbEntity
  8
0
  6
Continuous
 62
     7
370
    15
100
AcDbLine
 10
988.3260654877
 20
602.1252329451
 30
0.0
 11
988.3260654877
 21
600.2252329451
 31
0.0
  0
LINE
  5
101
330
1F
100
AcDbEntity
  8
0
  6
Continuous
 62
     7
370
    15
100
AcDbLine
 10
986.0110686291
 20
602.1252329451
 30
0.0
 11
988.3260654877
 21
602.1252329451
 31
0.0
  0
LINE
  5
102
330
1F
100
AcDbEntity
  8
0
  6
Continuous
 62
     7
370
    15
100
AcDbLine
 10
356.0110686291
 20
602.1252329451
 30
0.0
 11
358.3260654877
 21
602.1252329451
 31
0.0
  0
LINE
  5
103
330
1F
100
AcDbEntity
  8
0
  6
Continuous
 62
     7
370
    15
100
AcDbLine
 10
356.0110686291
 20
602.1252329451
 30
0.0
 11
356.0110686291
 21
600.2252329451
 31
0.0
  0
LINE
  5
104
330
1F
100
AcDbEntity
  8
0
  6
Continuous
 62
     7
370
    15
100
AcDbLine
 10
358.3260654877
 20
602.1252329451
 30
0.0
 11
358.3260654877
 21
600.2252329451
 31
0.0
  0
LINE
  5
105
330
1F
100
AcDbEntity
  8
0
  6
Continuous
 62
     7
370
    15
100
AcDbLine
 10
1116.0110686291
 20
602.1252329451
 30
0.0
 11
1116.0110686291
 21
600.2252329451
 31
0.0
  0
LINE
  5
106
330
1F
100
AcDbEntity
  8
0
  6
Continuous
 62
     7
370
    15
100
AcDbLine
 10
1116.0110686291
 20
602.1252329451
 30
0.0
 11
1118.3260654877
 21
602.1252329451
 31
0.0
  0
LINE
  5
107
330
1F
100
AcDbEntity
  8
0
  6
Continuous
 62
     7
370
    15
100
AcDbLine
 10
1118.3260654877
 20
602.1252329451
 30
0.0
 11
1118.3260654877
 21
600.2252329451
 31
0.0
  0
LINE
  5
108
330
1F
100
AcDbEntity
  8
0
  6
Continuous
 62
     7
370
    15
100
AcDbLine
 10
996.0110686291
 20
602.1252329451
 30
0.0
 11
996.0110686291
 21
600.2252329451
 31
0.0
  0
LINE
  5
109
330
1F
100
AcDbEntity
  8
0
  6
Continuous
 62
     7
370
    15
100
AcDbLine
 10
998.3260654877
 20
602.1252329451
 30
0.0
 11
998.3260654877
 21
600.2252329451
 31
0.0
  0
LINE
  5
10A
330
1F
100
AcDbEntity
  8
0
  6
Continuous
 62
     7
370
    15
100
AcDbLine
 10
996.0110686291
 20
602.1252329451
 30
0.0
 11
998.3260654877
 21
602.1252329451
 31
0.0
  0
LINE
  5
10B
330
1F
100
AcDbEntity
  8
0
  6
Continuous
 62
     7
370
    15
100
AcDbLine
 10
366.0110686291
 20
602.1252329451
 30
0.0
 11
368.3260654877
 21
602.1252329451
 31
0.0
  0
LINE
  5
10C
330
1F
100
AcDbEntity
  8
0
  6
Continuous
 62
     7
370
    15
100
AcDbLine
 10
366.0110686291
 20
602.1252329451
 30
0.0
 11
366.0110686291
 21
600.2252329451
 31
0.0
  0
LINE
  5
10D
330
1F
100
AcDbEntity
  8
0
  6
Continuous
 62
     7
370
    15
100
AcDbLine
 10
368.3260654877
 20
602.1252329451
 30
0.0
 11
368.3260654877
 21
600.2252329451
 31
0.0
  0
LINE
  5
10E
330
1F
100
AcDbEntity
  8
0
  6
Continuous
 62
     7
370
    15
100
AcDbLine
 10
1126.0110686291
 20
602.1252329451
 30
0.0
 11
1126.0110686291
 21
600.2252329451
 31
0.0
  0
LINE
  5
10F
330
1F
100
AcDbEntity
  8
0
  6
Continuous
 62
     7
370
    15
100
AcDbLine
 10
1126.0110686291
 20
602.1252329451
 30
0.0
 11
1128.3260654877
 21
602.1252329451
 31
0.0
  0
LINE
  5
110
330
1F
100
AcDbEntity
  8
0
  6
Continuous
 62
     7
370
    15
100
AcDbLine
 10
1128.3260654877
 20
602.1252329451
 30
0.0
 11
1128.3260654877
 21
600.2252329451
 31
0.0
  0
LINE
  5
111
330
1F
100
AcDbEntity
  8
0
  6
Continuous
 62
     7
370
    15
100
AcDbLine
 10
1006.0110686291
 20
602.1252329451
 30
0.0
 11
1006.0110686291
 21
600.2252329451
 31
0.0
  0
LINE
  5
112
330
1F
100
AcDbEntity
  8
0
  6
Continuous
 62
     7
370
    15
100
AcDbLine
 10
1008.3260654877
 20
602.1252329451
 30
0.0
 11
1008.3260654877
 21
600.2252329451
 31
0.0
  0
LINE
  5
113
330
1F
100
AcDbEntity
  8
0
  6
Continuous
 62
     7
370
    15
100
AcDbLine
 10
1006.0110686291
 20
602.1252329451
 30
0.0
 11
1008.3260654877
 21
602.1252329451
 31
0.0
  0
LINE
  5
114
330
1F
100
AcDbEntity
  8
0
  6
Continuous
 62
     7
370
    15
100
AcDbLine
 10
376.0110686291
 20
602.1252329451
 30
0.0
 11
378.3260654877
 21
602.1252329451
 31
0.0
  0
LINE
  5
115
330
1F
100
AcDbEntity
  8
0
  6
Continuous
 62
     7
370
    15
100
AcDbLine
 10
376.0110686291
 20
602.1252329451
 30
0.0
 11
376.0110686291
 21
600.2252329451
 31
0.0
  0
LINE
  5
116
330
1F
100
AcDbEntity
  8
0
  6
Continuous
 62
     7
370
    15
100
AcDbLine
 10
378.3260654877
 20
602.1252329451
 30
0.0
 11
378.3260654877
 21
600.2252329451
 31
0.0
  0
LINE
  5
117
330
1F
100
AcDbEntity
  8
0
  6
Continuous
 62
     7
370
    15
100
AcDbLine
 10
1136.0110686291
 20
602.1252329451
 30
0.0
 11
1136.0110686291
 21
600.2252329451
 31
0.0
  0
LINE
  5
118
330
1F
100
AcDbEntity
  8
0
  6
Continuous
 62
     7
370
    15
100
AcDbLine
 10
1136.0110686291
 20
602.1252329451
 30
0.0
 11
1138.3260654877
 21
602.1252329451
 31
0.0
  0
LINE
  5
119
330
1F
100
AcDbEntity
  8
0
  6
Continuous
 62
     7
370
    15
100
AcDbLine
 10
1138.3260654877
 20
602.1252329451
 30
0.0
 11
1138.3260654877
 21
600.2252329451
 31
0.0
  0
LINE
  5
11A
330
1F
100
AcDbEntity
  8
0
  6
Continuous
 62
     7
370
    15
100
AcDbLine
 10
1016.0110686291
 20
602.1252329451
 30
0.0
 11
1016.0110686291
 21
600.2252329451
 31
0.0
  0
LINE
  5
11B
330
1F
100
AcDbEntity
  8
0
  6
Continuous
 62
     7
370
    15
100
AcDbLine
 10
1018.3260654877
 20
602.1252329451
 30
0.0
 11
1018.3260654877
 21
600.2252329451
 31
0.0
  0
LINE
  5
11C
330
1F
100
AcDbEntity
  8
0
  6
Continuous
 62
     7
370
    15
100
AcDbLine
 10
1016.0110686291
 20
602.1252329451
 30
0.0
 11
1018.3260654877
 21
602.1252329451
 31
0.0
  0
LINE
  5
11D
330
1F
100
AcDbEntity
  8
0
  6
Continuous
 62
     7
370
    15
100
AcDbLine
 10
386.0110686291
 20
602.1252329451
 30
0.0
 11
388.3260654877
 21
602.1252329451
 31
0.0
  0
LINE
  5
11E
330
1F
100
AcDbEntity
  8
0
  6
Continuous
 62
     7
370
    15
100
AcDbLine
 10
386.0110686291
 20
602.1252329451
 30
0.0
 11
386.0110686291
 21
600.2252329451
 31
0.0
  0
LINE
  5
11F
330
1F
100
AcDbEntity
  8
0
  6
Continuous
 62
     7
370
    15
100
AcDbLine
 10
388.3260654877
 20
602.1252329451
 30
0.0
 11
388.3260654877
 21
600.2252329451
 31
0.0
  0
LINE
  5
120
330
1F
100
AcDbEntity
  8
0
  6
Continuous
 62
     7
370
    15
100
AcDbLine
 10
1146.0110686291
 20
602.1252329451
 30
0.0
 11
1146.0110686291
 21
600.2252329451
 31
0.0
  0
LINE
  5
121
330
1F
100
AcDbEntity
  8
0
  6
Continuous
 62
     7
370
    15
100
AcDbLine
 10
1146.0110686291
 20
602.1252329451
 30
0.0
 11
1148.3260654877
 21
602.1252329451
 31
0.0
  0
LINE
  5
122
330
1F
100
AcDbEntity
  8
0
  6
Continuous
 62
     7
370
    15
100
AcDbLine
 10
1148.3260654877
 20
602.1252329451
 30
0.0
 11
1148.3260654877
 21
600.2252329451
 31
0.0
  0
LINE
  5
123
330
1F
100
AcDbEntity
  8
0
  6
Continuous
 62
     7
370
    15
100
AcDbLine
 10
1026.0110686291
 20
602.1252329451
 30
0.0
 11
1026.0110686291
 21
600.2252329451
 31
0.0
  0
LINE
  5
124
330
1F
100
AcDbEntity
  8
0
  6
Continuous
 62
     7
370
    15
100
AcDbLine
 10
1028.3260654877
 20
602.1252329451
 30
0.0
 11
1028.3260654877
 21
600.2252329451
 31
0.0
  0
LINE
  5
125
330
1F
100
AcDbEntity
  8
0
  6
Continuous
 62
     7
370
    15
100
AcDbLine
 10
1026.0110686291
 20
602.1252329451
 30
0.0
 11
1028.3260654877
 21
602.1252329451
 31
0.0
  0
LINE
  5
126
330
1F
100
AcDbEntity
  8
0
  6
Continuous
 62
     7
370
    15
100
AcDbLine
 10
396.0110686291
 20
602.1252329451
 30
0.0
 11
396.0110686291
 21
600.2252329451
 31
0.0
  0
LINE
  5
127
330
1F
100
AcDbEntity
  8
0
  6
Continuous
 62
     7
370
    15
100
AcDbLine
 10
398.3260654877
 20
602.1252329451
 30
0.0
 11
398.3260654877
 21
600.2252329451
 31
0.0
  0
LINE
  5
128
330
1F
100
AcDbEntity
  8
0
  6
Continuous
 62
     7
370
    15
100
AcDbLine
 10
396.0110686291
 20
602.1252329451
 30
0.0
 11
398.3260654877
 21
602.1252329451
 31
0.0
  0
LINE
  5
129
330
1F
100
AcDbEntity
  8
0
  6
Continuous
 62
     7
370
    15
100
AcDbLine
 10
1046.0110686291
 20
602.1252329451
 30
0.0
 11
1046.0110686291
 21
600.2252329451
 31
0.0
  0
LINE
  5
12A
330
1F
100
AcDbEntity
  8
0
  6
Continuous
 62
     7
370
    15
100
AcDbLine
 10
1048.3260654877
 20
602.1252329451
 30
0.0
 11
1048.3260654877
 21
600.2252329451
 31
0.0
  0
LINE
  5
12B
330
1F
100
AcDbEntity
  8
0
  6
Continuous
 62
     7
370
    15
100
AcDbLine
 10
1046.0110686291
 20
602.1252329451
 30
0.0
 11
1048.3260654877
 21
602.1252329451
 31
0.0
  0
LINE
  5
12C
330
1F
100
AcDbEntity
  8
0
  6
Continuous
 62
     7
370
    15
100
AcDbLine
 10
416.0110686291
 20
602.1252329451
 30
0.0
 11
418.3260654877
 21
602.1252329451
 31
0.0
  0
LINE
  5
12D
330
1F
100
AcDbEntity
  8
0
  6
Continuous
 62
     7
370
    15
100
AcDbLine
 10
416.0110686291
 20
602.1252329451
 30
0.0
 11
416.0110686291
 21
600.2252329451
 31
0.0
  0
LINE
  5
12E
330
1F
100
AcDbEntity
  8
0
  6
Continuous
 62
     7
370
    15
100
AcDbLine
 10
418.3260654877
 20
602.1252329451
 30
0.0
 11
418.3260654877
 21
600.2252329451
 31
0.0
  0
LINE
  5
12F
330
1F
100
AcDbEntity
  8
0
  6
Continuous
 62
     7
370
    15
100
AcDbLine
 10
426.0110686291
 20
602.1252329451
 30
0.0
 11
428.3260654877
 21
602.1252329451
 31
0.0
  0
LINE
  5
130
330
1F
100
AcDbEntity
  8
0
  6
Continuous
 62
     7
370
    15
100
AcDbLine
 10
428.3260654877
 20
602.1252329451
 30
0.0
 11
428.3260654877
 21
600.2252329451
 31
0.0
  0
LINE
  5
131
330
1F
100
AcDbEntity
  8
0
  6
Continuous
 62
     7
370
    15
100
AcDbLine
 10
426.0110686291
 20
602.1252329451
 30
0.0
 11
426.0110686291
 21
600.2252329451
 31
0.0
  0
LINE
  5
132
330
1F
100
AcDbEntity
  8
0
  6
Continuous
 62
     7
370
    15
100
AcDbLine
 10
436.0110686291
 20
602.1252329451
 30
0.0
 11
438.3260654877
 21
602.1252329451
 31
0.0
  0
LINE
  5
133
330
1F
100
AcDbEntity
  8
0
  6
Continuous
 62
     7
370
    15
100
AcDbLine
 10
438.3260654877
 20
602.1252329451
 30
0.0
 11
438.3260654877
 21
600.2252329451
 31
0.0
  0
LINE
  5
134
330
1F
100
AcDbEntity
  8
0
  6
Continuous
 62
     7
370
    15
100
AcDbLine
 10
436.0110686291
 20
602.1252329451
 30
0.0
 11
436.0110686291
 21
600.2252329451
 31
0.0
  0
LINE
  5
135
330
1F
100
AcDbEntity
  8
0
  6
Continuous
 62
     7
370
    15
100
AcDbLine
 10
446.0110686291
 20
602.1252329451
 30
0.0
 11
448.3260654877
 21
602.1252329451
 31
0.0
  0
LINE
  5
136
330
1F
100
AcDbEntity
  8
0
  6
Continuous
 62
     7
370
    15
100
AcDbLine
 10
448.3260654877
 20
602.1252329451
 30
0.0
 11
448.3260654877
 21
600.2252329451
 31
0.0
  0
LINE
  5
137
330
1F
100
AcDbEntity
  8
0
  6
Continuous
 62
     7
370
    15
100
AcDbLine
 10
446.0110686291
 20
602.1252329451
 30
0.0
 11
446.0110686291
 21
600.2252329451
 31
0.0
  0
LINE
  5
138
330
1F
100
AcDbEntity
  8
0
  6
Continuous
 62
     7
370
    15
100
AcDbLine
 10
456.0110686291
 20
602.1252329451
 30
0.0
 11
458.3260654877
 21
602.1252329451
 31
0.0
  0
LINE
  5
139
330
1F
100
AcDbEntity
  8
0
  6
Continuous
 62
     7
370
    15
100
AcDbLine
 10
458.3260654877
 20
602.1252329451
 30
0.0
 11
458.3260654877
 21
600.2252329451
 31
0.0
  0
LINE
  5
13A
330
1F
100
AcDbEntity
  8
0
  6
Continuous
 62
     7
370
    15
100
AcDbLine
 10
456.0110686291
 20
602.1252329451
 30
0.0
 11
456.0110686291
 21
600.2252329451
 31
0.0
  0
LINE
  5
13B
330
1F
100
AcDbEntity
  8
0
  6
Continuous
 62
     7
370
    15
100
AcDbLine
 10
586.0110686291
 20
602.1252329451
 30
0.0
 11
588.3260654877
 21
602.1252329451
 31
0.0
  0
LINE
  5
13C
330
1F
100
AcDbEntity
  8
0
  6
Continuous
 62
     7
370
    15
100
AcDbLine
 10
588.3260654877
 20
602.1252329451
 30
0.0
 11
588.3260654877
 21
600.2252329451
 31
0.0
  0
LINE
  5
13D
330
1F
100
AcDbEntity
  8
0
  6
Continuous
 62
     7
370
    15
100
AcDbLine
 10
586.0110686291
 20
602.1252329451
 30
0.0
 11
586.0110686291
 21
600.2252329451
 31
0.0
  0
LINE
  5
13E
330
1F
100
AcDbEntity
  8
0
  6
Continuous
 62
     7
370
    15
100
AcDbLine
 10
466.0110686291
 20
602.1252329451
 30
0.0
 11
468.3260654877
 21
602.1252329451
 31
0.0
  0
LINE
  5
13F
330
1F
100
AcDbEntity
  8
0
  6
Continuous
 62
     7
370
    15
100
AcDbLine
 10
468.3260654877
 20
602.1252329451
 30
0.0
 11
468.3260654877
 21
600.2252329451
 31
0.0
  0
LINE
  5
140
330
1F
100
AcDbEntity
  8
0
  6
Continuous
 62
     7
370
    15
100
AcDbLine
 10
466.0110686291
 20
602.1252329451
 30
0.0
 11
466.0110686291
 21
600.2252329451
 31
0.0
  0
LINE
  5
141
330
1F
100
AcDbEntity
  8
0
  6
Continuous
 62
     7
370
    15
100
AcDbLine
 10
566.0110686291
 20
602.1252329451
 30
0.0
 11
568.3260654877
 21
602.1252329451
 31
0.0
  0
LINE
  5
142
330
1F
100
AcDbEntity
  8
0
  6
Continuous
 62
     7
370
    15
100
AcDbLine
 10
568.3260654877
 20
602.1252329451
 30
0.0
 11
568.3260654877
 21
600.2252329451
 31
0.0
  0
LINE
  5
143
330
1F
100
AcDbEntity
  8
0
  6
Continuous
 62
     7
370
    15
100
AcDbLine
 10
566.0110686291
 20
602.1252329451
 30
0.0
 11
566.0110686291
 21
600.2252329451
 31
0.0
  0
LINE
  5
144
330
1F
100
AcDbEntity
  8
0
  6
Continuous
 62
     7
370
    15
100
AcDbLine
 10
476.0110686291
 20
602.1252329451
 30
0.0
 11
478.3260654877
 21
602.1252329451
 31
0.0
  0
LINE
  5
145
330
1F
100
AcDbEntity
  8
0
  6
Continuous
 62
     7
370
    15
100
AcDbLine
 10
478.3260654877
 20
602.1252329451
 30
0.0
 11
478.3260654877
 21
600.2252329451
 31
0.0
  0
LINE
  5
146
330
1F
100
AcDbEntity
  8
0
  6
Continuous
 62
     7
370
    15
100
AcDbLine
 10
476.0110686291
 20
602.1252329451
 30
0.0
 11
476.0110686291
 21
600.2252329451
 31
0.0
  0
LINE
  5
147
330
1F
100
AcDbEntity
  8
0
  6
Continuous
 62
     7
370
    15
100
AcDbLine
 10
546.0110686291
 20
602.1252329451
 30
0.0
 11
548.3260654877
 21
602.1252329451
 31
0.0
  0
LINE
  5
148
330
1F
100
AcDbEntity
  8
0
  6
Continuous
 62
     7
370
    15
100
AcDbLine
 10
548.3260654877
 20
602.1252329451
 30
0.0
 11
548.3260654877
 21
600.2252329451
 31
0.0
  0
LINE
  5
149
330
1F
100
AcDbEntity
  8
0
  6
Continuous
 62
     7
370
    15
100
AcDbLine
 10
546.0110686291
 20
602.1252329451
 30
0.0
 11
546.0110686291
 21
600.2252329451
 31
0.0
  0
LINE
  5
14A
330
1F
100
AcDbEntity
  8
0
  6
Continuous
 62
     7
370
    15
100
AcDbLine
 10
486.0110686291
 20
602.1252329451
 30
0.0
 11
488.3260654877
 21
602.1252329451
 31
0.0
  0
LINE
  5
14B
330
1F
100
AcDbEntity
  8
0
  6
Continuous
 62
     7
370
    15
100
AcDbLine
 10
488.3260654877
 20
602.1252329451
 30
0.0
 11
488.3260654877
 21
600.2252329451
 31
0.0
  0
LINE
  5
14C
330
1F
100
AcDbEntity
  8
0
  6
Continuous
 62
     7
370
    15
100
AcDbLine
 10
486.0110686291
 20
602.1252329451
 30
0.0
 11
486.0110686291
 21
600.2252329451
 31
0.0
  0
LINE
  5
14D
330
1F
100
AcDbEntity
  8
0
  6
Continuous
 62
     7
370
    15
100
AcDbLine
 10
556.0110686291
 20
602.1252329451
 30
0.0
 11
558.3260654877
 21
602.1252329451
 31
0.0
  0
LINE
  5
14E
330
1F
100
AcDbEntity
  8
0
  6
Continuous
 62
     7
370
    15
100
AcDbLine
 10
558.3260654877
 20
602.1252329451
 30
0.0
 11
558.3260654877
 21
600.2252329451
 31
0.0
  0
LINE
  5
14F
330
1F
100
AcDbEntity
  8
0
  6
Continuous
 62
     7
370
    15
100
AcDbLine
 10
556.0110686291
 20
602.1252329451
 30
0.0
 11
556.0110686291
 21
600.2252329451
 31
0.0
  0
LINE
  5
150
330
1F
100
AcDbEntity
  8
0
  6
Continuous
 62
     7
370
    15
100
AcDbLine
 10
496.0110686291
 20
602.1252329451
 30
0.0
 11
498.3260654877
 21
602.1252329451
 31
0.0
  0
LINE
  5
151
330
1F
100
AcDbEntity
  8
0
  6
Continuous
 62
     7
370
    15
100
AcDbLine
 10
498.3260654877
 20
602.1252329451
 30
0.0
 11
498.3260654877
 21
600.2252329451
 31
0.0
  0
LINE
  5
152
330
1F
100
AcDbEntity
  8
0
  6
Continuous
 62
     7
370
    15
100
AcDbLine
 10
496.0110686291
 20
602.1252329451
 30
0.0
 11
496.0110686291
 21
600.2252329451
 31
0.0
  0
LINE
  5
153
330
1F
100
AcDbEntity
  8
0
  6
Continuous
 62
     7
370
    15
100
AcDbLine
 10
576.0110686291
 20
602.1252329451
 30
0.0
 11
578.3260654877
 21
602.1252329451
 31
0.0
  0
LINE
  5
154
330
1F
100
AcDbEntity
  8
0
  6
Continuous
 62
     7
370
    15
100
AcDbLine
 10
578.3260654877
 20
602.1252329451
 30
0.0
 11
578.3260654877
 21
600.2252329451
 31
0.0
  0
LINE
  5
155
330
1F
100
AcDbEntity
  8
0
  6
Continuous
 62
     7
370
    15
100
AcDbLine
 10
576.0110686291
 20
602.1252329451
 30
0.0
 11
576.0110686291
 21
600.2252329451
 31
0.0
  0
LINE
  5
156
330
1F
100
AcDbEntity
  8
0
  6
Continuous
 62
     7
370
    15
100
AcDbLine
 10
506.0110686291
 20
602.1252329451
 30
0.0
 11
508.3260654877
 21
602.1252329451
 31
0.0
  0
LINE
  5
157
330
1F
100
AcDbEntity
  8
0
  6
Continuous
 62
     7
370
    15
100
AcDbLine
 10
508.3260654877
 20
602.1252329451
 30
0.0
 11
508.3260654877
 21
600.2252329451
 31
0.0
  0
LINE
  5
158
330
1F
100
AcDbEntity
  8
0
  6
Continuous
 62
     7
370
    15
100
AcDbLine
 10
506.0110686291
 20
602.1252329451
 30
0.0
 11
506.0110686291
 21
600.2252329451
 31
0.0
  0
LINE
  5
159
330
1F
100
AcDbEntity
  8
0
  6
Continuous
 62
     7
370
    15
100
AcDbLine
 10
516.0110686291
 20
602.1252329451
 30
0.0
 11
518.3260654877
 21
602.1252329451
 31
0.0
  0
LINE
  5
15A
330
1F
100
AcDbEntity
  8
0
  6
Continuous
 62
     7
370
    15
100
AcDbLine
 10
518.3260654877
 20
602.1252329451
 30
0.0
 11
518.3260654877
 21
600.2252329451
 31
0.0
  0
LINE
  5
15B
330
1F
100
AcDbEntity
  8
0
  6
Continuous
 62
     7
370
    15
100
AcDbLine
 10
516.0110686291
 20
602.1252329451
 30
0.0
 11
516.0110686291
 21
600.2252329451
 31
0.0
  0
LINE
  5
15C
330
1F
100
AcDbEntity
  8
0
  6
Continuous
 62
     7
370
    15
100
AcDbLine
 10
596.0110686291
 20
602.1252329451
 30
0.0
 11
598.3260654877
 21
602.1252329451
 31
0.0
  0
LINE
  5
15D
330
1F
100
AcDbEntity
  8
0
  6
Continuous
 62
     7
370
    15
100
AcDbLine
 10
598.3260654877
 20
602.1252329451
 30
0.0
 11
598.3260654877
 21
600.2252329451
 31
0.0
  0
LINE
  5
15E
330
1F
100
AcDbEntity
  8
0
  6
Continuous
 62
     7
370
    15
100
AcDbLine
 10
596.0110686291
 20
602.1252329451
 30
0.0
 11
596.0110686291
 21
600.2252329451
 31
0.0
  0
LINE
  5
15F
330
1F
100
AcDbEntity
  8
0
  6
Continuous
 62
     7
370
    15
100
AcDbLine
 10
646.0110686291
 20
602.1252329451
 30
0.0
 11
648.3260654877
 21
602.1252329451
 31
0.0
  0
LINE
  5
160
330
1F
100
AcDbEntity
  8
0
  6
Continuous
 62
     7
370
    15
100
AcDbLine
 10
648.3260654877
 20
602.1252329451
 30
0.0
 11
648.3260654877
 21
600.2252329451
 31
0.0
  0
LINE
  5
161
330
1F
100
AcDbEntity
  8
0
  6
Continuous
 62
     7
370
    15
100
AcDbLine
 10
646.0110686291
 20
602.1252329451
 30
0.0
 11
646.0110686291
 21
600.2252329451
 31
0.0
  0
LINE
  5
162
330
1F
100
AcDbEntity
  8
0
  6
Continuous
 62
     7
370
    15
100
AcDbLine
 10
526.0110686291
 20
602.1252329451
 30
0.0
 11
528.3260654877
 21
602.1252329451
 31
0.0
  0
LINE
  5
163
330
1F
100
AcDbEntity
  8
0
  6
Continuous
 62
     7
370
    15
100
AcDbLine
 10
528.3260654877
 20
602.1252329451
 30
0.0
 11
528.3260654877
 21
600.2252329451
 31
0.0
  0
LINE
  5
164
330
1F
100
AcDbEntity
  8
0
  6
Continuous
 62
     7
370
    15
100
AcDbLine
 10
526.0110686291
 20
602.1252329451
 30
0.0
 11
526.0110686291
 21
600.2252329451
 31
0.0
  0
LINE
  5
165
330
1F
100
AcDbEntity
  8
0
  6
Continuous
 62
     7
370
    15
100
AcDbLine
 10
606.0110686291
 20
602.1252329451
 30
0.0
 11
608.3260654877
 21
602.1252329451
 31
0.0
  0
LINE
  5
166
330
1F
100
AcDbEntity
  8
0
  6
Continuous
 62
     7
370
    15
100
AcDbLine
 10
608.3260654877
 20
602.1252329451
 30
0.0
 11
608.3260654877
 21
600.2252329451
 31
0.0
  0
LINE
  5
167
330
1F
100
AcDbEntity
  8
0
  6
Continuous
 62
     7
370
    15
100
AcDbLine
 10
606.0110686291
 20
602.1252329451
 30
0.0
 11
606.0110686291
 21
600.2252329451
 31
0.0
  0
LINE
  5
168
330
1F
100
AcDbEntity
  8
0
  6
Continuous
 62
     7
370
    15
100
AcDbLine
 10
616.0110686291
 20
602.1252329451
 30
0.0
 11
618.3260654877
 21
602.1252329451
 31
0.0
  0
LINE
  5
169
330
1F
100
AcDbEntity
  8
0
  6
Continuous
 62
     7
370
    15
100
AcDbLine
 10
618.3260654877
 20
602.1252329451
 30
0.0
 11
618.3260654877
 21
600.2252329451
 31
0.0
  0
LINE
  5
16A
330
1F
100
AcDbEntity
  8
0
  6
Continuous
 62
     7
370
    15
100
AcDbLine
 10
616.0110686291
 20
602.1252329451
 30
0.0
 11
616.0110686291
 21
600.2252329451
 31
0.0
  0
LINE
  5
16B
330
1F
100
AcDbEntity
  8
0
  6
Continuous
 62
     7
370
    15
100
AcDbLine
 10
536.0110686291
 20
602.1252329451
 30
0.0
 11
538.3260654877
 21
602.1252329451
 31
0.0
  0
LINE
  5
16C
330
1F
100
AcDbEntity
  8
0
  6
Continuous
 62
     7
370
    15
100
AcDbLine
 10
538.3260654877
 20
602.1252329451
 30
0.0
 11
538.3260654877
 21
600.2252329451
 31
0.0
  0
LINE
  5
16D
330
1F
100
AcDbEntity
  8
0
  6
Continuous
 62
     7
370
    15
100
AcDbLine
 10
536.0110686291
 20
602.1252329451
 30
0.0
 11
536.0110686291
 21
600.2252329451
 31
0.0
  0
LINE
  5
16E
330
1F
100
AcDbEntity
  8
0
  6
Continuous
 62
     7
370
    15
100
AcDbLine
 10
626.0110686291
 20
602.1252329451
 30
0.0
 11
628.3260654877
 21
602.1252329451
 31
0.0
  0
LINE
  5
16F
330
1F
100
AcDbEntity
  8
0
  6
Continuous
 62
     7
370
    15
100
AcDbLine
 10
628.3260654877
 20
602.1252329451
 30
0.0
 11
628.3260654877
 21
600.2252329451
 31
0.0
  0
LINE
  5
170
330
1F
100
AcDbEntity
  8
0
  6
Continuous
 62
     7
370
    15
100
AcDbLine
 10
626.0110686291
 20
602.1252329451
 30
0.0
 11
626.0110686291
 21
600.2252329451
 31
0.0
  0
LINE
  5
171
330
1F
100
AcDbEntity
  8
0
  6
Continuous
 62
     7
370
    15
100
AcDbLine
 10
636.0110686291
 20
602.1252329451
 30
0.0
 11
638.3260654877
 21
602.1252329451
 31
0.0
  0
LINE
  5
172
330
1F
100
AcDbEntity
  8
0
  6
Continuous
 62
     7
370
    15
100
AcDbLine
 10
638.3260654877
 20
602.1252329451
 30
0.0
 11
638.3260654877
 21
600.2252329451
 31
0.0
  0
LINE
  5
173
330
1F
100
AcDbEntity
  8
0
  6
Continuous
 62
     7
370
    15
100
AcDbLine
 10
636.0110686291
 20
602.1252329451
 30
0.0
 11
636.0110686291
 21
600.2252329451
 31
0.0
  0
LINE
  5
174
330
1F
100
AcDbEntity
  8
0
  6
Continuous
 62
     7
370
    15
100
AcDbLine
 10
898.3260654877
 20
676.3686733576
 30
0.0
 11
896.0110686291
 21
676.3686733576
 31
0.0
  0
LINE
  5
175
330
1F
100
AcDbEntity
  8
0
  6
Continuous
 62
     7
370
    15
100
AcDbLine
 10
898.3260654877
 20
673.3973793849
 30
0.0
 11
898.3260654877
 21
676.3686733576
 31
0.0
  0
LINE
  5
176
330
1F
100
AcDbEntity
  8
0
  6
Continuous
 62
     7
370
    15
100
AcDbLine
 10
896.0110686291
 20
673.3973793849
 30
0.0
 11
898.3260654877
 21
673.3973793849
 31
0.0
  0
LINE
  5
177
330
1F
100
AcDbEntity
  8
0
  6
Continuous
 62
     7
370
    15
100
AcDbLine
 10
896.0110686291
 20
676.3686733576
 30
0.0
 11
896.0110686291
 21
673.3973793849
 31
0.0
  0
LINE
  5
178
330
1F
100
AcDbEntity
  8
0
  6
Continuous
 62
     7
370
    15
100
AcDbLine
 10
646.0110686291
 20
673.3973793849
 30
0.0
 11
648.3260654877
 21
673.3973793849
 31
0.0
  0
LINE
  5
179
330
1F
100
AcDbEntity
  8
0
  6
Continuous
 62
     7
370
    15
100
AcDbLine
 10
646.0110686291
 20
676.3686733576
 30
0.0
 11
646.0110686291
 21
673.3973793849
 31
0.0
  0
LINE
  5
17A
330
1F
100
AcDbEntity
  8
0
  6
Continuous
 62
     7
370
    15
100
AcDbLine
 10
648.3260654877
 20
676.3686733576
 30
0.0
 11
646.0110686291
 21
676.3686733576
 31
0.0
  0
LINE
  5
17B
330
1F
100
AcDbEntity
  8
0
  6
Continuous
 62
     7
370
    15
100
AcDbLine
 10
648.3260654877
 20
673.3973793849
 30
0.0
 11
648.3260654877
 21
676.3686733576
 31
0.0
  0
LINE
  5
17C
330
1F
100
AcDbEntity
  8
0
  6
Continuous
 62
     7
370
    15
100
AcDbLine
 10
156.0110686291
 20
673.3973793849
 30
0.0
 11
158.3260654877
 21
673.3973793849
 31
0.0
  0
LINE
  5
17D
330
1F
100
AcDbEntity
  8
0
  6
Continuous
 62
     7
370
    15
100
AcDbLine
 10
156.0110686291
 20
676.3686733576
 30
0.0
 11
156.0110686291
 21
673.3973793849
 31
0.0
  0
LINE
  5
17E
330
1F
100
AcDbEntity
  8
0
  6
Continuous
 62
     7
370
    15
100
AcDbLine
 10
158.3260654877
 20
676.3686733576
 30
0.0
 11
156.0110686291
 21
676.3686733576
 31
0.0
  0
LINE
  5
17F
330
1F
100
AcDbEntity
  8
0
  6
Continuous
 62
     7
370
    15
100
AcDbLine
 10
158.3260654877
 20
673.3973793849
 30
0.0
 11
158.3260654877
 21
676.3686733576
 31
0.0
  0
LINE
  5
180
330
1F
100
AcDbEntity
  8
0
  6
Continuous
 62
     7
370
    15
100
AcDbLine
 10
666.0110686291
 20
673.3973793849
 30
0.0
 11
668.3260654877
 21
673.3973793849
 31
0.0
  0
LINE
  5
181
330
1F
100
AcDbEntity
  8
0
  6
Continuous
 62
     7
370
    15
100
AcDbLine
 10
666.0110686291
 20
676.3686733576
 30
0.0
 11
666.0110686291
 21
673.3973793849
 31
0.0
  0
LINE
  5
182
330
1F
100
AcDbEntity
  8
0
  6
Continuous
 62
     7
370
    15
100
AcDbLine
 10
668.3260654877
 20
676.3686733576
 30
0.0
 11
666.0110686291
 21
676.3686733576
 31
0.0
  0
LINE
  5
183
330
1F
100
AcDbEntity
  8
0
  6
Continuous
 62
     7
370
    15
100
AcDbLine
 10
668.3260654877
 20
673.3973793849
 30
0.0
 11
668.3260654877
 21
676.3686733576
 31
0.0
  0
LINE
  5
184
330
1F
100
AcDbEntity
  8
0
  6
Continuous
 62
     7
370
    15
100
AcDbLine
 10
288.3260654877
 20
673.3973793849
 30
0.0
 11
288.3260654877
 21
676.3686733576
 31
0.0
  0
LINE
  5
185
330
1F
100
AcDbEntity
  8
0
  6
Continuous
 62
     7
370
    15
100
AcDbLine
 10
286.0110686291
 20
673.3973793849
 30
0.0
 11
288.3260654877
 21
673.3973793849
 31
0.0
  0
LINE
  5
186
330
1F
100
AcDbEntity
  8
0
  6
Continuous
 62
     7
370
    15
100
AcDbLine
 10
286.0110686291
 20
676.3686733576
 30
0.0
 11
286.0110686291
 21
673.3973793849
 31
0.0
  0
LINE
  5
187
330
1F
100
AcDbEntity
  8
0
  6
Continuous
 62
     7
370
    15
100
AcDbLine
 10
288.3260654877
 20
676.3686733576
 30
0.0
 11
286.0110686291
 21
676.3686733576
 31
0.0
  0
LINE
  5
188
330
1F
100
AcDbEntity
  8
0
  6
Continuous
 62
     7
370
    15
100
AcDbLine
 10
166.0110686291
 20
673.3973793849
 30
0.0
 11
168.3260654877
 21
673.3973793849
 31
0.0
  0
LINE
  5
189
330
1F
100
AcDbEntity
  8
0
  6
Continuous
 62
     7
370
    15
100
AcDbLine
 10
166.0110686291
 20
676.3686733576
 30
0.0
 11
166.0110686291
 21
673.3973793849
 31
0.0
  0
LINE
  5
18A
330
1F
100
AcDbEntity
  8
0
  6
Continuous
 62
     7
370
    15
100
AcDbLine
 10
168.3260654877
 20
676.3686733576
 30
0.0
 11
166.0110686291
 21
676.3686733576
 31
0.0
  0
LINE
  5
18B
330
1F
100
AcDbEntity
  8
0
  6
Continuous
 62
     7
370
    15
100
AcDbLine
 10
168.3260654877
 20
673.3973793849
 30
0.0
 11
168.3260654877
 21
676.3686733576
 31
0.0
  0
LINE
  5
18C
330
1F
100
AcDbEntity
  8
0
  6
Continuous
 62
     7
370
    15
100
AcDbLine
 10
678.3260654877
 20
676.3686733576
 30
0.0
 11
676.0110686291
 21
676.3686733576
 31
0.0
  0
LINE
  5
18D
330
1F
100
AcDbEntity
  8
0
  6
Continuous
 62
     7
370
    15
100
AcDbLine
 10
678.3260654877
 20
673.3973793849
 30
0.0
 11
678.3260654877
 21
676.3686733576
 31
0.0
  0
LINE
  5
18E
330
1F
100
AcDbEntity
  8
0
  6
Continuous
 62
     7
370
    15
100
AcDbLine
 10
676.0110686291
 20
673.3973793849
 30
0.0
 11
678.3260654877
 21
673.3973793849
 31
0.0
  0
LINE
  5
18F
330
1F
100
AcDbEntity
  8
0
  6
Continuous
 62
     7
370
    15
100
AcDbLine
 10
676.0110686291
 20
676.3686733576
 30
0.0
 11
676.0110686291
 21
673.3973793849
 31
0.0
  0
LINE
  5
190
330
1F
100
AcDbEntity
  8
0
  6
Continuous
 62
     7
370
    15
100
AcDbLine
 10
298.3260654877
 20
673.3973793849
 30
0.0
 11
298.3260654877
 21
676.3686733576
 31
0.0
  0
LINE
  5
191
330
1F
100
AcDbEntity
  8
0
  6
Continuous
 62
     7
370
    15
100
AcDbLine
 10
296.0110686291
 20
673.3973793849
 30
0.0
 11
298.3260654877
 21
673.3973793849
 31
0.0
  0
LINE
  5
192
330
1F
100
AcDbEntity
  8
0
  6
Continuous
 62
     7
370
    15
100
AcDbLine
 10
296.0110686291
 20
676.3686733576
 30
0.0
 11
296.0110686291
 21
673.3973793849
 31
0.0
  0
LINE
  5
193
330
1F
100
AcDbEntity
  8
0
  6
Continuous
 62
     7
370
    15
100
AcDbLine
 10
298.3260654877
 20
676.3686733576
 30
0.0
 11
296.0110686291
 21
676.3686733576
 31
0.0
  0
LINE
  5
194
330
1F
100
AcDbEntity
  8
0
  6
Continuous
 62
     7
370
    15
100
AcDbLine
 10
176.0110686291
 20
673.3973793849
 30
0.0
 11
178.3260654877
 21
673.3973793849
 31
0.0
  0
LINE
  5
195
330
1F
100
AcDbEntity
  8
0
  6
Continuous
 62
     7
370
    15
100
AcDbLine
 10
176.0110686291
 20
676.3686733576
 30
0.0
 11
176.0110686291
 21
673.3973793849
 31
0.0
  0
LINE
  5
196
330
1F
100
AcDbEntity
  8
0
  6
Continuous
 62
     7
370
    15
100
AcDbLine
 10
178.3260654877
 20
676.3686733576
 30
0.0
 11
176.0110686291
 21
676.3686733576
 31
0.0
  0
LINE
  5
197
330
1F
100
AcDbEntity
  8
0
  6
Continuous
 62
     7
370
    15
100
AcDbLine
 10
178.3260654877
 20
673.3973793849
 30
0.0
 11
178.3260654877
 21
676.3686733576
 31
0.0
  0
LINE
  5
198
330
1F
100
AcDbEntity
  8
0
  6
Continuous
 62
     7
370
    15
100
AcDbLine
 10
688.3260654877
 20
676.3686733576
 30
0.0
 11
686.0110686291
 21
676.3686733576
 31
0.0
  0
LINE
  5
199
330
1F
100
AcDbEntity
  8
0
  6
Continuous
 62
     7
370
    15
100
AcDbLine
 10
688.3260654877
 20
673.3973793849
 30
0.0
 11
688.3260654877
 21
676.3686733576
 31
0.0
  0
LINE
  5
19A
330
1F
100
AcDbEntity
  8
0
  6
Continuous
 62
     7
370
    15
100
AcDbLine
 10
686.0110686291
 20
673.3973793849
 30
0.0
 11
688.3260654877
 21
673.3973793849
 31
0.0
  0
LINE
  5
19B
330
1F
100
AcDbEntity
  8
0
  6
Continuous
 62
     7
370
    15
100
AcDbLine
 10
686.0110686291
 20
676.3686733576
 30
0.0
 11
686.0110686291
 21
673.3973793849
 31
0.0
  0
LINE
  5
19C
330
1F
100
AcDbEntity
  8
0
  6
Continuous
 62
     7
370
    15
100
AcDbLine
 10
308.3260654877
 20
673.3973793849
 30
0.0
 11
308.3260654877
 21
676.3686733576
 31
0.0
  0
LINE
  5
19D
330
1F
100
AcDbEntity
  8
0
  6
Continuous
 62
     7
370
    15
100
AcDbLine
 10
306.0110686291
 20
673.3973793849
 30
0.0
 11
308.3260654877
 21
673.3973793849
 31
0.0
  0
LINE
  5
19E
330
1F
100
AcDbEntity
  8
0
  6
Continuous
 62
     7
370
    15
100
AcDbLine
 10
306.0110686291
 20
676.3686733576
 30
0.0
 11
306.0110686291
 21
673.3973793849
 31
0.0
  0
LINE
  5
19F
330
1F
100
AcDbEntity
  8
0
  6
Continuous
 62
     7
370
    15
100
AcDbLine
 10
308.3260654877
 20
676.3686733576
 30
0.0
 11
306.0110686291
 21
676.3686733576
 31
0.0
  0
LINE
  5
1A0
330
1F
100
AcDbEntity
  8
0
  6
Continuous
 62
     7
370
    15
100
AcDbLine
 10
186.0110686291
 20
673.3973793849
 30
0.0
 11
188.3260654877
 21
673.3973793849
 31
0.0
  0
LINE
  5
1A1
330
1F
100
AcDbEntity
  8
0
  6
Continuous
 62
     7
370
    15
100
AcDbLine
 10
186.0110686291
 20
676.3686733576
 30
0.0
 11
186.0110686291
 21
673.3973793849
 31
0.0
  0
LINE
  5
1A2
330
1F
100
AcDbEntity
  8
0
  6
Continuous
 62
     7
370
    15
100
AcDbLine
 10
188.3260654877
 20
676.3686733576
 30
0.0
 11
186.0110686291
 21
676.3686733576
 31
0.0
  0
LINE
  5
1A3
330
1F
100
AcDbEntity
  8
0
  6
Continuous
 62
     7
370
    15
100
AcDbLine
 10
188.3260654877
 20
673.3973793849
 30
0.0
 11
188.3260654877
 21
676.3686733576
 31
0.0
  0
LINE
  5
1A4
330
1F
100
AcDbEntity
  8
0
  6
Continuous
 62
     7
370
    15
100
AcDbLine
 10
698.3260654877
 20
676.3686733576
 30
0.0
 11
696.0110686291
 21
676.3686733576
 31
0.0
  0
LINE
  5
1A5
330
1F
100
AcDbEntity
  8
0
  6
Continuous
 62
     7
370
    15
100
AcDbLine
 10
698.3260654877
 20
673.3973793849
 30
0.0
 11
698.3260654877
 21
676.3686733576
 31
0.0
  0
LINE
  5
1A6
330
1F
100
AcDbEntity
  8
0
  6
Continuous
 62
     7
370
    15
100
AcDbLine
 10
696.0110686291
 20
673.3973793849
 30
0.0
 11
698.3260654877
 21
673.3973793849
 31
0.0
  0
LINE
  5
1A7
330
1F
100
AcDbEntity
  8
0
  6
Continuous
 62
     7
370
    15
100
AcDbLine
 10
696.0110686291
 20
676.3686733576
 30
0.0
 11
696.0110686291
 21
673.3973793849
 31
0.0
  0
LINE
  5
1A8
330
1F
100
AcDbEntity
  8
0
  6
Continuous
 62
     7
370
    15
100
AcDbLine
 10
318.3260654877
 20
673.3973793849
 30
0.0
 11
318.3260654877
 21
676.3686733576
 31
0.0
  0
LINE
  5
1A9
330
1F
100
AcDbEntity
  8
0
  6
Continuous
 62
     7
370
    15
100
AcDbLine
 10
316.0110686291
 20
673.3973793849
 30
0.0
 11
318.3260654877
 21
673.3973793849
 31
0.0
  0
LINE
  5
1AA
330
1F
100
AcDbEntity
  8
0
  6
Continuous
 62
     7
370
    15
100
AcDbLine
 10
316.0110686291
 20
676.3686733576
 30
0.0
 11
316.0110686291
 21
673.3973793849
 31
0.0
  0
LINE
  5
1AB
330
1F
100
AcDbEntity
  8
0
  6
Continuous
 62
     7
370
    15
100
AcDbLine
 10
318.3260654877
 20
676.3686733576
 30
0.0
 11
316.0110686291
 21
676.3686733576
 31
0.0
  0
LINE
  5
1AC
330
1F
100
AcDbEntity
  8
0
  6
Continuous
 62
     7
370
    15
100
AcDbLine
 10
196.0110686291
 20
673.3973793849
 30
0.0
 11
198.3260654877
 21
673.3973793849
 31
0.0
  0
LINE
  5
1AD
330
1F
100
AcDbEntity
  8
0
  6
Continuous
 62
     7
370
    15
100
AcDbLine
 10
196.0110686291
 20
676.3686733576
 30
0.0
 11
196.0110686291
 21
673.3973793849
 31
0.0
  0
LINE
  5
1AE
330
1F
100
AcDbEntity
  8
0
  6
Continuous
 62
     7
370
    15
100
AcDbLine
 10
198.3260654877
 20
676.3686733576
 30
0.0
 11
196.0110686291
 21
676.3686733576
 31
0.0
  0
LINE
  5
1AF
330
1F
100
AcDbEntity
  8
0
  6
Continuous
 62
     7
370
    15
100
AcDbLine
 10
198.3260654877
 20
673.3973793849
 30
0.0
 11
198.3260654877
 21
676.3686733576
 31
0.0
  0
LINE
  5
1B0
330
1F
100
AcDbEntity
  8
0
  6
Continuous
 62
     7
370
    15
100
AcDbLine
 10
708.3260654877
 20
676.3686733576
 30
0.0
 11
706.0110686291
 21
676.3686733576
 31
0.0
  0
LINE
  5
1B1
330
1F
100
AcDbEntity
  8
0
  6
Continuous
 62
     7
370
    15
100
AcDbLine
 10
708.3260654877
 20
673.3973793849
 30
0.0
 11
708.3260654877
 21
676.3686733576
 31
0.0
  0
LINE
  5
1B2
330
1F
100
AcDbEntity
  8
0
  6
Continuous
 62
     7
370
    15
100
AcDbLine
 10
706.0110686291
 20
673.3973793849
 30
0.0
 11
708.3260654877
 21
673.3973793849
 31
0.0
  0
LINE
  5
1B3
330
1F
100
AcDbEntity
  8
0
  6
Continuous
 62
     7
370
    15
100
AcDbLine
 10
706.0110686291
 20
676.3686733576
 30
0.0
 11
706.0110686291
 21
673.3973793849
 31
0.0
  0
LINE
  5
1B4
330
1F
100
AcDbEntity
  8
0
  6
Continuous
 62
     7
370
    15
100
AcDbLine
 10
328.3260654877
 20
673.3973793849
 30
0.0
 11
328.3260654877
 21
676.3686733576
 31
0.0
  0
LINE
  5
1B5
330
1F
100
AcDbEntity
  8
0
  6
Continuous
 62
     7
370
    15
100
AcDbLine
 10
326.0110686291
 20
673.3973793849
 30
0.0
 11
328.3260654877
 21
673.3973793849
 31
0.0
  0
LINE
  5
1B6
330
1F
100
AcDbEntity
  8
0
  6
Continuous
 62
     7
370
    15
100
AcDbLine
 10
326.0110686291
 20
676.3686733576
 30
0.0
 11
326.0110686291
 21
673.3973793849
 31
0.0
  0
LINE
  5
1B7
330
1F
100
AcDbEntity
  8
0
  6
Continuous
 62
     7
370
    15
100
AcDbLine
 10
328.3260654877
 20
676.3686733576
 30
0.0
 11
326.0110686291
 21
676.3686733576
 31
0.0
  0
LINE
  5
1B8
330
1F
100
AcDbEntity
  8
0
  6
Continuous
 62
     7
370
    15
100
AcDbLine
 10
206.0110686291
 20
673.3973793849
 30
0.0
 11
208.3260654877
 21
673.3973793849
 31
0.0
  0
LINE
  5
1B9
330
1F
100
AcDbEntity
  8
0
  6
Continuous
 62
     7
370
    15
100
AcDbLine
 10
206.0110686291
 20
676.3686733576
 30
0.0
 11
206.0110686291
 21
673.3973793849
 31
0.0
  0
LINE
  5
1BA
330
1F
100
AcDbEntity
  8
0
  6
Continuous
 62
     7
370
    15
100
AcDbLine
 10
208.3260654877
 20
676.3686733576
 30
0.0
 11
206.0110686291
 21
676.3686733576
 31
0.0
  0
LINE
  5
1BB
330
1F
100
AcDbEntity
  8
0
  6
Continuous
 62
     7
370
    15
100
AcDbLine
 10
208.3260654877
 20
673.3973793849
 30
0.0
 11
208.3260654877
 21
676.3686733576
 31
0.0
  0
LINE
  5
1BC
330
1F
100
AcDbEntity
  8
0
  6
Continuous
 62
     7
370
    15
100
AcDbLine
 10
718.3260654877
 20
676.3686733576
 30
0.0
 11
716.0110686291
 21
676.3686733576
 31
0.0
  0
LINE
  5
1BD
330
1F
100
AcDbEntity
  8
0
  6
Continuous
 62
     7
370
    15
100
AcDbLine
 10
718.3260654877
 20
673.3973793849
 30
0.0
 11
718.3260654877
 21
676.3686733576
 31
0.0
  0
LINE
  5
1BE
330
1F
100
AcDbEntity
  8
0
  6
Continuous
 62
     7
370
    15
100
AcDbLine
 10
716.0110686291
 20
673.3973793849
 30
0.0
 11
718.3260654877
 21
673.3973793849
 31
0.0
  0
LINE
  5
1BF
330
1F
100
AcDbEntity
  8
0
  6
Continuous
 62
     7
370
    15
100
AcDbLine
 10
716.0110686291
 20
676.3686733576
 30
0.0
 11
716.0110686291
 21
673.3973793849
 31
0.0
  0
LINE
  5
1C0
330
1F
100
AcDbEntity
  8
0
  6
Continuous
 62
     7
370
    15
100
AcDbLine
 10
338.3260654877
 20
673.3973793849
 30
0.0
 11
338.3260654877
 21
676.3686733576
 31
0.0
  0
LINE
  5
1C1
330
1F
100
AcDbEntity
  8
0
  6
Continuous
 62
     7
370
    15
100
AcDbLine
 10
336.0110686291
 20
673.3973793849
 30
0.0
 11
338.3260654877
 21
673.3973793849
 31
0.0
  0
LINE
  5
1C2
330
1F
100
AcDbEntity
  8
0
  6
Continuous
 62
     7
370
    15
100
AcDbLine
 10
336.0110686291
 20
676.3686733576
 30
0.0
 11
336.0110686291
 21
673.3973793849
 31
0.0
  0
LINE
  5
1C3
330
1F
100
AcDbEntity
  8
0
  6
Continuous
 62
     7
370
    15
100
AcDbLine
 10
338.3260654877
 20
676.3686733576
 30
0.0
 11
336.0110686291
 21
676.3686733576
 31
0.0
  0
LINE
  5
1C4
330
1F
100
AcDbEntity
  8
0
  6
Continuous
 62
     7
370
    15
100
AcDbLine
 10
216.0110686291
 20
673.3973793849
 30
0.0
 11
218.3260654877
 21
673.3973793849
 31
0.0
  0
LINE
  5
1C5
330
1F
100
AcDbEntity
  8
0
  6
Continuous
 62
     7
370
    15
100
AcDbLine
 10
216.0110686291
 20
676.3686733576
 30
0.0
 11
216.0110686291
 21
673.3973793849
 31
0.0
  0
LINE
  5
1C6
330
1F
100
AcDbEntity
  8
0
  6
Continuous
 62
     7
370
    15
100
AcDbLine
 10
218.3260654877
 20
676.3686733576
 30
0.0
 11
216.0110686291
 21
676.3686733576
 31
0.0
  0
LINE
  5
1C7
330
1F
100
AcDbEntity
  8
0
  6
Continuous
 62
     7
370
    15
100
AcDbLine
 10
218.3260654877
 20
673.3973793849
 30
0.0
 11
218.3260654877
 21
676.3686733576
 31
0.0
  0
LINE
  5
1C8
330
1F
100
AcDbEntity
  8
0
  6
Continuous
 62
     7
370
    15
100
AcDbLine
 10
728.3260654877
 20
676.3686733576
 30
0.0
 11
726.0110686291
 21
676.3686733576
 31
0.0
  0
LINE
  5
1C9
330
1F
100
AcDbEntity
  8
0
  6
Continuous
 62
     7
370
    15
100
AcDbLine
 10
728.3260654877
 20
673.3973793849
 30
0.0
 11
728.3260654877
 21
676.3686733576
 31
0.0
  0
LINE
  5
1CA
330
1F
100
AcDbEntity
  8
0
  6
Continuous
 62
     7
370
    15
100
AcDbLine
 10
726.0110686291
 20
673.3973793849
 30
0.0
 11
728.3260654877
 21
673.3973793849
 31
0.0
  0
LINE
  5
1CB
330
1F
100
AcDbEntity
  8
0
  6
Continuous
 62
     7
370
    15
100
AcDbLine
 10
726.0110686291
 20
676.3686733576
 30
0.0
 11
726.0110686291
 21
673.3973793849
 31
0.0
  0
LINE
  5
1CC
330
1F
100
AcDbEntity
  8
0
  6
Continuous
 62
     7
370
    15
100
AcDbLine
 10
348.3260654877
 20
673.3973793849
 30
0.0
 11
348.3260654877
 21
676.3686733576
 31
0.0
  0
LINE
  5
1CD
330
1F
100
AcDbEntity
  8
0
  6
Continuous
 62
     7
370
    15
100
AcDbLine
 10
346.0110686291
 20
673.3973793849
 30
0.0
 11
348.3260654877
 21
673.3973793849
 31
0.0
  0
LINE
  5
1CE
330
1F
100
AcDbEntity
  8
0
  6
Continuous
 62
     7
370
    15
100
AcDbLine
 10
346.0110686291
 20
676.3686733576
 30
0.0
 11
346.0110686291
 21
673.3973793849
 31
0.0
  0
LINE
  5
1CF
330
1F
100
AcDbEntity
  8
0
  6
Continuous
 62
     7
370
    15
100
AcDbLine
 10
348.3260654877
 20
676.3686733576
 30
0.0
 11
346.0110686291
 21
676.3686733576
 31
0.0
  0
LINE
  5
1D0
330
1F
100
AcDbEntity
  8
0
  6
Continuous
 62
     7
370
    15
100
AcDbLine
 10
226.0110686291
 20
673.3973793849
 30
0.0
 11
228.3260654877
 21
673.3973793849
 31
0.0
  0
LINE
  5
1D1
330
1F
100
AcDbEntity
  8
0
  6
Continuous
 62
     7
370
    15
100
AcDbLine
 10
226.0110686291
 20
676.3686733576
 30
0.0
 11
226.0110686291
 21
673.3973793849
 31
0.0
  0
LINE
  5
1D2
330
1F
100
AcDbEntity
  8
0
  6
Continuous
 62
     7
370
    15
100
AcDbLine
 10
228.3260654877
 20
676.3686733576
 30
0.0
 11
226.0110686291
 21
676.3686733576
 31
0.0
  0
LINE
  5
1D3
330
1F
100
AcDbEntity
  8
0
  6
Continuous
 62
     7
370
    15
100
AcDbLine
 10
228.3260654877
 20
673.3973793849
 30
0.0
 11
228.3260654877
 21
676.3686733576
 31
0.0
  0
LINE
  5
1D4
330
1F
100
AcDbEntity
  8
0
  6
Continuous
 62
     7
370
    15
100
AcDbLine
 10
738.3260654877
 20
676.3686733576
 30
0.0
 11
736.0110686291
 21
676.3686733576
 31
0.0
  0
LINE
  5
1D5
330
1F
100
AcDbEntity
  8
0
  6
Continuous
 62
     7
370
    15
100
AcDbLine
 10
738.3260654877
 20
673.3973793849
 30
0.0
 11
738.3260654877
 21
676.3686733576
 31
0.0
  0
LINE
  5
1D6
330
1F
100
AcDbEntity
  8
0
  6
Continuous
 62
     7
370
    15
100
AcDbLine
 10
736.0110686291
 20
673.3973793849
 30
0.0
 11
738.3260654877
 21
673.3973793849
 31
0.0
  0
LINE
  5
1D7
330
1F
100
AcDbEntity
  8
0
  6
Continuous
 62
     7
370
    15
100
AcDbLine
 10
736.0110686291
 20
676.3686733576
 30
0.0
 11
736.0110686291
 21
673.3973793849
 31
0.0
  0
LINE
  5
1D8
330
1F
100
AcDbEntity
  8
0
  6
Continuous
 62
     7
370
    15
100
AcDbLine
 10
358.3260654877
 20
673.3973793849
 30
0.0
 11
358.3260654877
 21
676.3686733576
 31
0.0
  0
LINE
  5
1D9
330
1F
100
AcDbEntity
  8
0
  6
Continuous
 62
     7
370
    15
100
AcDbLine
 10
356.0110686291
 20
673.3973793849
 30
0.0
 11
358.3260654877
 21
673.3973793849
 31
0.0
  0
LINE
  5
1DA
330
1F
100
AcDbEntity
  8
0
  6
Continuous
 62
     7
370
    15
100
AcDbLine
 10
356.0110686291
 20
676.3686733576
 30
0.0
 11
356.0110686291
 21
673.3973793849
 31
0.0
  0
LINE
  5
1DB
330
1F
100
AcDbEntity
  8
0
  6
Continuous
 62
     7
370
    15
100
AcDbLine
 10
358.3260654877
 20
676.3686733576
 30
0.0
 11
356.0110686291
 21
676.3686733576
 31
0.0
  0
LINE
  5
1DC
330
1F
100
AcDbEntity
  8
0
  6
Continuous
 62
     7
370
    15
100
AcDbLine
 10
236.0110686291
 20
673.3973793849
 30
0.0
 11
238.3260654877
 21
673.3973793849
 31
0.0
  0
LINE
  5
1DD
330
1F
100
AcDbEntity
  8
0
  6
Continuous
 62
     7
370
    15
100
AcDbLine
 10
236.0110686291
 20
676.3686733576
 30
0.0
 11
236.0110686291
 21
673.3973793849
 31
0.0
  0
LINE
  5
1DE
330
1F
100
AcDbEntity
  8
0
  6
Continuous
 62
     7
370
    15
100
AcDbLine
 10
238.3260654877
 20
676.3686733576
 30
0.0
 11
236.0110686291
 21
676.3686733576
 31
0.0
  0
LINE
  5
1DF
330
1F
100
AcDbEntity
  8
0
  6
Continuous
 62
     7
370
    15
100
AcDbLine
 10
238.3260654877
 20
673.3973793849
 30
0.0
 11
238.3260654877
 21
676.3686733576
 31
0.0
  0
LINE
  5
1E0
330
1F
100
AcDbEntity
  8
0
  6
Continuous
 62
     7
370
    15
100
AcDbLine
 10
748.3260654877
 20
676.3686733576
 30
0.0
 11
746.0110686291
 21
676.3686733576
 31
0.0
  0
LINE
  5
1E1
330
1F
100
AcDbEntity
  8
0
  6
Continuous
 62
     7
370
    15
100
AcDbLine
 10
748.3260654877
 20
673.3973793849
 30
0.0
 11
748.3260654877
 21
676.3686733576
 31
0.0
  0
LINE
  5
1E2
330
1F
100
AcDbEntity
  8
0
  6
Continuous
 62
     7
370
    15
100
AcDbLine
 10
746.0110686291
 20
673.3973793849
 30
0.0
 11
748.3260654877
 21
673.3973793849
 31
0.0
  0
LINE
  5
1E3
330
1F
100
AcDbEntity
  8
0
  6
Continuous
 62
     7
370
    15
100
AcDbLine
 10
746.0110686291
 20
676.3686733576
 30
0.0
 11
746.0110686291
 21
673.3973793849
 31
0.0
  0
LINE
  5
1E4
330
1F
100
AcDbEntity
  8
0
  6
Continuous
 62
     7
370
    15
100
AcDbLine
 10
368.3260654877
 20
673.3973793849
 30
0.0
 11
368.3260654877
 21
676.3686733576
 31
0.0
  0
LINE
  5
1E5
330
1F
100
AcDbEntity
  8
0
  6
Continuous
 62
     7
370
    15
100
AcDbLine
 10
366.0110686291
 20
673.3973793849
 30
0.0
 11
368.3260654877
 21
673.3973793849
 31
0.0
  0
LINE
  5
1E6
330
1F
100
AcDbEntity
  8
0
  6
Continuous
 62
     7
370
    15
100
AcDbLine
 10
366.0110686291
 20
676.3686733576
 30
0.0
 11
366.0110686291
 21
673.3973793849
 31
0.0
  0
LINE
  5
1E7
330
1F
100
AcDbEntity
  8
0
  6
Continuous
 62
     7
370
    15
100
AcDbLine
 10
368.3260654877
 20
676.3686733576
 30
0.0
 11
366.0110686291
 21
676.3686733576
 31
0.0
  0
LINE
  5
1E8
330
1F
100
AcDbEntity
  8
0
  6
Continuous
 62
     7
370
    15
100
AcDbLine
 10
246.0110686291
 20
673.3973793849
 30
0.0
 11
248.3260654877
 21
673.3973793849
 31
0.0
  0
LINE
  5
1E9
330
1F
100
AcDbEntity
  8
0
  6
Continuous
 62
     7
370
    15
100
AcDbLine
 10
246.0110686291
 20
676.3686733576
 30
0.0
 11
246.0110686291
 21
673.3973793849
 31
0.0
  0
LINE
  5
1EA
330
1F
100
AcDbEntity
  8
0
  6
Continuous
 62
     7
370
    15
100
AcDbLine
 10
248.3260654877
 20
676.3686733576
 30
0.0
 11
246.0110686291
 21
676.3686733576
 31
0.0
  0
LINE
  5
1EB
330
1F
100
AcDbEntity
  8
0
  6
Continuous
 62
     7
370
    15
100
AcDbLine
 10
248.3260654877
 20
673.3973793849
 30
0.0
 11
248.3260654877
 21
676.3686733576
 31
0.0
  0
LINE
  5
1EC
330
1F
100
AcDbEntity
  8
0
  6
Continuous
 62
     7
370
    15
100
AcDbLine
 10
758.3260654877
 20
676.3686733576
 30
0.0
 11
756.0110686291
 21
676.3686733576
 31
0.0
  0
LINE
  5
1ED
330
1F
100
AcDbEntity
  8
0
  6
Continuous
 62
     7
370
    15
100
AcDbLine
 10
758.3260654877
 20
673.3973793849
 30
0.0
 11
758.3260654877
 21
676.3686733576
 31
0.0
  0
LINE
  5
1EE
330
1F
100
AcDbEntity
  8
0
  6
Continuous
 62
     7
370
    15
100
AcDbLine
 10
756.0110686291
 20
673.3973793849
 30
0.0
 11
758.3260654877
 21
673.3973793849
 31
0.0
  0
LINE
  5
1EF
330
1F
100
AcDbEntity
  8
0
  6
Continuous
 62
     7
370
    15
100
AcDbLine
 10
756.0110686291
 20
676.3686733576
 30
0.0
 11
756.0110686291
 21
673.3973793849
 31
0.0
  0
LINE
  5
1F0
330
1F
100
AcDbEntity
  8
0
  6
Continuous
 62
     7
370
    15
100
AcDbLine
 10
378.3260654877
 20
673.3973793849
 30
0.0
 11
378.3260654877
 21
676.3686733576
 31
0.0
  0
LINE
  5
1F1
330
1F
100
AcDbEntity
  8
0
  6
Continuous
 62
     7
370
    15
100
AcDbLine
 10
376.0110686291
 20
673.3973793849
 30
0.0
 11
378.3260654877
 21
673.3973793849
 31
0.0
  0
LINE
  5
1F2
330
1F
100
AcDbEntity
  8
0
  6
Continuous
 62
     7
370
    15
100
AcDbLine
 10
376.0110686291
 20
676.3686733576
 30
0.0
 11
376.0110686291
 21
673.3973793849
 31
0.0
  0
LINE
  5
1F3
330
1F
100
AcDbEntity
  8
0
  6
Continuous
 62
     7
370
    15
100
AcDbLine
 10
378.3260654877
 20
676.3686733576
 30
0.0
 11
376.0110686291
 21
676.3686733576
 31
0.0
  0
LINE
  5
1F4
330
1F
100
AcDbEntity
  8
0
  6
Continuous
 62
     7
370
    15
100
AcDbLine
 10
256.0110686291
 20
673.3973793849
 30
0.0
 11
258.3260654877
 21
673.3973793849
 31
0.0
  0
LINE
  5
1F5
330
1F
100
AcDbEntity
  8
0
  6
Continuous
 62
     7
370
    15
100
AcDbLine
 10
256.0110686291
 20
676.3686733576
 30
0.0
 11
256.0110686291
 21
673.3973793849
 31
0.0
  0
LINE
  5
1F6
330
1F
100
AcDbEntity
  8
0
  6
Continuous
 62
     7
370
    15
100
AcDbLine
 10
258.3260654877
 20
676.3686733576
 30
0.0
 11
256.0110686291
 21
676.3686733576
 31
0.0
  0
LINE
  5
1F7
330
1F
100
AcDbEntity
  8
0
  6
Continuous
 62
     7
370
    15
100
AcDbLine
 10
258.3260654877
 20
673.3973793849
 30
0.0
 11
258.3260654877
 21
676.3686733576
 31
0.0
  0
LINE
  5
1F8
330
1F
100
AcDbEntity
  8
0
  6
Continuous
 62
     7
370
    15
100
AcDbLine
 10
768.3260654877
 20
676.3686733576
 30
0.0
 11
766.0110686291
 21
676.3686733576
 31
0.0
  0
LINE
  5
1F9
330
1F
100
AcDbEntity
  8
0
  6
Continuous
 62
     7
370
    15
100
AcDbLine
 10
768.3260654877
 20
673.3973793849
 30
0.0
 11
768.3260654877
 21
676.3686733576
 31
0.0
  0
LINE
  5
1FA
330
1F
100
AcDbEntity
  8
0
  6
Continuous
 62
     7
370
    15
100
AcDbLine
 10
766.0110686291
 20
673.3973793849
 30
0.0
 11
768.3260654877
 21
673.3973793849
 31
0.0
  0
LINE
  5
1FB
330
1F
100
AcDbEntity
  8
0
  6
Continuous
 62
     7
370
    15
100
AcDbLine
 10
766.0110686291
 20
676.3686733576
 30
0.0
 11
766.0110686291
 21
673.3973793849
 31
0.0
  0
LINE
  5
1FC
330
1F
100
AcDbEntity
  8
0
  6
Continuous
 62
     7
370
    15
100
AcDbLine
 10
388.3260654877
 20
673.3973793849
 30
0.0
 11
388.3260654877
 21
676.3686733576
 31
0.0
  0
LINE
  5
1FD
330
1F
100
AcDbEntity
  8
0
  6
Continuous
 62
     7
370
    15
100
AcDbLine
 10
386.0110686291
 20
673.3973793849
 30
0.0
 11
388.3260654877
 21
673.3973793849
 31
0.0
  0
LINE
  5
1FE
330
1F
100
AcDbEntity
  8
0
  6
Continuous
 62
     7
370
    15
100
AcDbLine
 10
386.0110686291
 20
676.3686733576
 30
0.0
 11
386.0110686291
 21
673.3973793849
 31
0.0
  0
LINE
  5
1FF
330
1F
100
AcDbEntity
  8
0
  6
Continuous
 62
     7
370
    15
100
AcDbLine
 10
388.3260654877
 20
676.3686733576
 30
0.0
 11
386.0110686291
 21
676.3686733576
 31
0.0
  0
LINE
  5
200
330
1F
100
AcDbEntity
  8
0
  6
Continuous
 62
     7
370
    15
100
AcDbLine
 10
266.0110686291
 20
673.3973793849
 30
0.0
 11
268.3260654877
 21
673.3973793849
 31
0.0
  0
LINE
  5
201
330
1F
100
AcDbEntity
  8
0
  6
Continuous
 62
     7
370
    15
100
AcDbLine
 10
266.0110686291
 20
676.3686733576
 30
0.0
 11
266.0110686291
 21
673.3973793849
 31
0.0
  0
LINE
  5
202
330
1F
100
AcDbEntity
  8
0
  6
Continuous
 62
     7
370
    15
100
AcDbLine
 10
268.3260654877
 20
676.3686733576
 30
0.0
 11
266.0110686291
 21
676.3686733576
 31
0.0
  0
LINE
  5
203
330
1F
100
AcDbEntity
  8
0
  6
Continuous
 62
     7
370
    15
100
AcDbLine
 10
268.3260654877
 20
673.3973793849
 30
0.0
 11
268.3260654877
 21
676.3686733576
 31
0.0
  0
LINE
  5
204
330
1F
100
AcDbEntity
  8
0
  6
Continuous
 62
     7
370
    15
100
AcDbLine
 10
778.3260654877
 20
676.3686733576
 30
0.0
 11
776.0110686291
 21
676.3686733576
 31
0.0
  0
LINE
  5
205
330
1F
100
AcDbEntity
  8
0
  6
Continuous
 62
     7
370
    15
100
AcDbLine
 10
778.3260654877
 20
673.3973793849
 30
0.0
 11
778.3260654877
 21
676.3686733576
 31
0.0
  0
LINE
  5
206
330
1F
100
AcDbEntity
  8
0
  6
Continuous
 62
     7
370
    15
100
AcDbLine
 10
776.0110686291
 20
673.3973793849
 30
0.0
 11
778.3260654877
 21
673.3973793849
 31
0.0
  0
LINE
  5
207
330
1F
100
AcDbEntity
  8
0
  6
Continuous
 62
     7
370
    15
100
AcDbLine
 10
776.0110686291
 20
676.3686733576
 30
0.0
 11
776.0110686291
 21
673.3973793849
 31
0.0
  0
LINE
  5
208
330
1F
100
AcDbEntity
  8
0
  6
Continuous
 62
     7
370
    15
100
AcDbLine
 10
398.3260654877
 20
673.3973793849
 30
0.0
 11
398.3260654877
 21
676.3686733576
 31
0.0
  0
LINE
  5
209
330
1F
100
AcDbEntity
  8
0
  6
Continuous
 62
     7
370
    15
100
AcDbLine
 10
396.0110686291
 20
673.3973793849
 30
0.0
 11
398.3260654877
 21
673.3973793849
 31
0.0
  0
LINE
  5
20A
330
1F
100
AcDbEntity
  8
0
  6
Continuous
 62
     7
370
    15
100
AcDbLine
 10
398.3260654877
 20
676.3686733576
 30
0.0
 11
396.0110686291
 21
676.3686733576
 31
0.0
  0
LINE
  5
20B
330
1F
100
AcDbEntity
  8
0
  6
Continuous
 62
     7
370
    15
100
AcDbLine
 10
396.0110686291
 20
676.3686733576
 30
0.0
 11
396.0110686291
 21
673.3973793849
 31
0.0
  0
LINE
  5
20C
330
1F
100
AcDbEntity
  8
0
  6
Continuous
 62
     7
370
    15
100
AcDbLine
 10
276.0110686291
 20
673.3973793849
 30
0.0
 11
278.3260654877
 21
673.3973793849
 31
0.0
  0
LINE
  5
20D
330
1F
100
AcDbEntity
  8
0
  6
Continuous
 62
     7
370
    15
100
AcDbLine
 10
276.0110686291
 20
676.3686733576
 30
0.0
 11
276.0110686291
 21
673.3973793849
 31
0.0
  0
LINE
  5
20E
330
1F
100
AcDbEntity
  8
0
  6
Continuous
 62
     7
370
    15
100
AcDbLine
 10
278.3260654877
 20
676.3686733576
 30
0.0
 11
276.0110686291
 21
676.3686733576
 31
0.0
  0
LINE
  5
20F
330
1F
100
AcDbEntity
  8
0
  6
Continuous
 62
     7
370
    15
100
AcDbLine
 10
278.3260654877
 20
673.3973793849
 30
0.0
 11
278.3260654877
 21
676.3686733576
 31
0.0
  0
LINE
  5
210
330
1F
100
AcDbEntity
  8
0
  6
Continuous
 62
     7
370
    15
100
AcDbLine
 10
788.3260654877
 20
676.3686733576
 30
0.0
 11
786.0110686291
 21
676.3686733576
 31
0.0
  0
LINE
  5
211
330
1F
100
AcDbEntity
  8
0
  6
Continuous
 62
     7
370
    15
100
AcDbLine
 10
788.3260654877
 20
673.3973793849
 30
0.0
 11
788.3260654877
 21
676.3686733576
 31
0.0
  0
LINE
  5
212
330
1F
100
AcDbEntity
  8
0
  6
Continuous
 62
     7
370
    15
100
AcDbLine
 10
786.0110686291
 20
673.3973793849
 30
0.0
 11
788.3260654877
 21
673.3973793849
 31
0.0
  0
LINE
  5
213
330
1F
100
AcDbEntity
  8
0
  6
Continuous
 62
     7
370
    15
100
AcDbLine
 10
786.0110686291
 20
676.3686733576
 30
0.0
 11
786.0110686291
 21
673.3973793849
 31
0.0
  0
LINE
  5
214
330
1F
100
AcDbEntity
  8
0
  6
Continuous
 62
     7
370
    15
100
AcDbLine
 10
406.0110686291
 20
673.3973793849
 30
0.0
 11
408.3260654877
 21
673.3973793849
 31
0.0
  0
LINE
  5
215
330
1F
100
AcDbEntity
  8
0
  6
Continuous
 62
     7
370
    15
100
AcDbLine
 10
406.0110686291
 20
676.3686733576
 30
0.0
 11
406.0110686291
 21
673.3973793849
 31
0.0
  0
LINE
  5
216
330
1F
100
AcDbEntity
  8
0
  6
Continuous
 62
     7
370
    15
100
AcDbLine
 10
408.3260654877
 20
676.3686733576
 30
0.0
 11
406.0110686291
 21
676.3686733576
 31
0.0
  0
LINE
  5
217
330
1F
100
AcDbEntity
  8
0
  6
Continuous
 62
     7
370
    15
100
AcDbLine
 10
408.3260654877
 20
673.3973793849
 30
0.0
 11
408.3260654877
 21
676.3686733576
 31
0.0
  0
LINE
  5
218
330
1F
100
AcDbEntity
  8
0
  6
Continuous
 62
     7
370
    15
100
AcDbLine
 10
536.0110686291
 20
673.3973793849
 30
0.0
 11
538.3260654877
 21
673.3973793849
 31
0.0
  0
LINE
  5
219
330
1F
100
AcDbEntity
  8
0
  6
Continuous
 62
     7
370
    15
100
AcDbLine
 10
536.0110686291
 20
676.3686733576
 30
0.0
 11
536.0110686291
 21
673.3973793849
 31
0.0
  0
LINE
  5
21A
330
1F
100
AcDbEntity
  8
0
  6
Continuous
 62
     7
370
    15
100
AcDbLine
 10
538.3260654877
 20
676.3686733576
 30
0.0
 11
536.0110686291
 21
676.3686733576
 31
0.0
  0
LINE
  5
21B
330
1F
100
AcDbEntity
  8
0
  6
Continuous
 62
     7
370
    15
100
AcDbLine
 10
538.3260654877
 20
673.3973793849
 30
0.0
 11
538.3260654877
 21
676.3686733576
 31
0.0
  0
LINE
  5
21C
330
1F
100
AcDbEntity
  8
0
  6
Continuous
 62
     7
370
    15
100
AcDbLine
 10
798.3260654877
 20
676.3686733576
 30
0.0
 11
796.0110686291
 21
676.3686733576
 31
0.0
  0
LINE
  5
21D
330
1F
100
AcDbEntity
  8
0
  6
Continuous
 62
     7
370
    15
100
AcDbLine
 10
798.3260654877
 20
673.3973793849
 30
0.0
 11
798.3260654877
 21
676.3686733576
 31
0.0
  0
LINE
  5
21E
330
1F
100
AcDbEntity
  8
0
  6
Continuous
 62
     7
370
    15
100
AcDbLine
 10
796.0110686291
 20
673.3973793849
 30
0.0
 11
798.3260654877
 21
673.3973793849
 31
0.0
  0
LINE
  5
21F
330
1F
100
AcDbEntity
  8
0
  6
Continuous
 62
     7
370
    15
100
AcDbLine
 10
796.0110686291
 20
676.3686733576
 30
0.0
 11
796.0110686291
 21
673.3973793849
 31
0.0
  0
LINE
  5
220
330
1F
100
AcDbEntity
  8
0
  6
Continuous
 62
     7
370
    15
100
AcDbLine
 10
416.0110686291
 20
673.3973793849
 30
0.0
 11
418.3260654877
 21
673.3973793849
 31
0.0
  0
LINE
  5
221
330
1F
100
AcDbEntity
  8
0
  6
Continuous
 62
     7
370
    15
100
AcDbLine
 10
416.0110686291
 20
676.3686733576
 30
0.0
 11
416.0110686291
 21
673.3973793849
 31
0.0
  0
LINE
  5
222
330
1F
100
AcDbEntity
  8
0
  6
Continuous
 62
     7
370
    15
100
AcDbLine
 10
418.3260654877
 20
676.3686733576
 30
0.0
 11
416.0110686291
 21
676.3686733576
 31
0.0
  0
LINE
  5
223
330
1F
100
AcDbEntity
  8
0
  6
Continuous
 62
     7
370
    15
100
AcDbLine
 10
418.3260654877
 20
673.3973793849
 30
0.0
 11
418.3260654877
 21
676.3686733576
 31
0.0
  0
LINE
  5
224
330
1F
100
AcDbEntity
  8
0
  6
Continuous
 62
     7
370
    15
100
AcDbLine
 10
546.0110686291
 20
673.3973793849
 30
0.0
 11
548.3260654877
 21
673.3973793849
 31
0.0
  0
LINE
  5
225
330
1F
100
AcDbEntity
  8
0
  6
Continuous
 62
     7
370
    15
100
AcDbLine
 10
546.0110686291
 20
676.3686733576
 30
0.0
 11
546.0110686291
 21
673.3973793849
 31
0.0
  0
LINE
  5
226
330
1F
100
AcDbEntity
  8
0
  6
Continuous
 62
     7
370
    15
100
AcDbLine
 10
548.3260654877
 20
676.3686733576
 30
0.0
 11
546.0110686291
 21
676.3686733576
 31
0.0
  0
LINE
  5
227
330
1F
100
AcDbEntity
  8
0
  6
Continuous
 62
     7
370
    15
100
AcDbLine
 10
548.3260654877
 20
673.3973793849
 30
0.0
 11
548.3260654877
 21
676.3686733576
 31
0.0
  0
LINE
  5
228
330
1F
100
AcDbEntity
  8
0
  6
Continuous
 62
     7
370
    15
100
AcDbLine
 10
808.3260654877
 20
676.3686733576
 30
0.0
 11
806.0110686291
 21
676.3686733576
 31
0.0
  0
LINE
  5
229
330
1F
100
AcDbEntity
  8
0
  6
Continuous
 62
     7
370
    15
100
AcDbLine
 10
808.3260654877
 20
673.3973793849
 30
0.0
 11
808.3260654877
 21
676.3686733576
 31
0.0
  0
LINE
  5
22A
330
1F
100
AcDbEntity
  8
0
  6
Continuous
 62
     7
370
    15
100
AcDbLine
 10
806.0110686291
 20
673.3973793849
 30
0.0
 11
808.3260654877
 21
673.3973793849
 31
0.0
  0
LINE
  5
22B
330
1F
100
AcDbEntity
  8
0
  6
Continuous
 62
     7
370
    15
100
AcDbLine
 10
806.0110686291
 20
676.3686733576
 30
0.0
 11
806.0110686291
 21
673.3973793849
 31
0.0
  0
LINE
  5
22C
330
1F
100
AcDbEntity
  8
0
  6
Continuous
 62
     7
370
    15
100
AcDbLine
 10
426.0110686291
 20
673.3973793849
 30
0.0
 11
428.3260654877
 21
673.3973793849
 31
0.0
  0
LINE
  5
22D
330
1F
100
AcDbEntity
  8
0
  6
Continuous
 62
     7
370
    15
100
AcDbLine
 10
426.0110686291
 20
676.3686733576
 30
0.0
 11
426.0110686291
 21
673.3973793849
 31
0.0
  0
LINE
  5
22E
330
1F
100
AcDbEntity
  8
0
  6
Continuous
 62
     7
370
    15
100
AcDbLine
 10
428.3260654877
 20
676.3686733576
 30
0.0
 11
426.0110686291
 21
676.3686733576
 31
0.0
  0
LINE
  5
22F
330
1F
100
AcDbEntity
  8
0
  6
Continuous
 62
     7
370
    15
100
AcDbLine
 10
428.3260654877
 20
673.3973793849
 30
0.0
 11
428.3260654877
 21
676.3686733576
 31
0.0
  0
LINE
  5
230
330
1F
100
AcDbEntity
  8
0
  6
Continuous
 62
     7
370
    15
100
AcDbLine
 10
556.0110686291
 20
673.3973793849
 30
0.0
 11
558.3260654877
 21
673.3973793849
 31
0.0
  0
LINE
  5
231
330
1F
100
AcDbEntity
  8
0
  6
Continuous
 62
     7
370
    15
100
AcDbLine
 10
556.0110686291
 20
676.3686733576
 30
0.0
 11
556.0110686291
 21
673.3973793849
 31
0.0
  0
LINE
  5
232
330
1F
100
AcDbEntity
  8
0
  6
Continuous
 62
     7
370
    15
100
AcDbLine
 10
558.3260654877
 20
676.3686733576
 30
0.0
 11
556.0110686291
 21
676.3686733576
 31
0.0
  0
LINE
  5
233
330
1F
100
AcDbEntity
  8
0
  6
Continuous
 62
     7
370
    15
100
AcDbLine
 10
558.3260654877
 20
673.3973793849
 30
0.0
 11
558.3260654877
 21
676.3686733576
 31
0.0
  0
LINE
  5
234
330
1F
100
AcDbEntity
  8
0
  6
Continuous
 62
     7
370
    15
100
AcDbLine
 10
818.3260654877
 20
676.3686733576
 30
0.0
 11
816.0110686291
 21
676.3686733576
 31
0.0
  0
LINE
  5
235
330
1F
100
AcDbEntity
  8
0
  6
Continuous
 62
     7
370
    15
100
AcDbLine
 10
818.3260654877
 20
673.3973793849
 30
0.0
 11
818.3260654877
 21
676.3686733576
 31
0.0
  0
LINE
  5
236
330
1F
100
AcDbEntity
  8
0
  6
Continuous
 62
     7
370
    15
100
AcDbLine
 10
816.0110686291
 20
673.3973793849
 30
0.0
 11
818.3260654877
 21
673.3973793849
 31
0.0
  0
LINE
  5
237
330
1F
100
AcDbEntity
  8
0
  6
Continuous
 62
     7
370
    15
100
AcDbLine
 10
816.0110686291
 20
676.3686733576
 30
0.0
 11
816.0110686291
 21
673.3973793849
 31
0.0
  0
LINE
  5
238
330
1F
100
AcDbEntity
  8
0
  6
Continuous
 62
     7
370
    15
100
AcDbLine
 10
436.0110686291
 20
673.3973793849
 30
0.0
 11
438.3260654877
 21
673.3973793849
 31
0.0
  0
LINE
  5
239
330
1F
100
AcDbEntity
  8
0
  6
Continuous
 62
     7
370
    15
100
AcDbLine
 10
436.0110686291
 20
676.3686733576
 30
0.0
 11
436.0110686291
 21
673.3973793849
 31
0.0
  0
LINE
  5
23A
330
1F
100
AcDbEntity
  8
0
  6
Continuous
 62
     7
370
    15
100
AcDbLine
 10
438.3260654877
 20
676.3686733576
 30
0.0
 11
436.0110686291
 21
676.3686733576
 31
0.0
  0
LINE
  5
23B
330
1F
100
AcDbEntity
  8
0
  6
Continuous
 62
     7
370
    15
100
AcDbLine
 10
438.3260654877
 20
673.3973793849
 30
0.0
 11
438.3260654877
 21
676.3686733576
 31
0.0
  0
LINE
  5
23C
330
1F
100
AcDbEntity
  8
0
  6
Continuous
 62
     7
370
    15
100
AcDbLine
 10
566.0110686291
 20
673.3973793849
 30
0.0
 11
568.3260654877
 21
673.3973793849
 31
0.0
  0
LINE
  5
23D
330
1F
100
AcDbEntity
  8
0
  6
Continuous
 62
     7
370
    15
100
AcDbLine
 10
566.0110686291
 20
676.3686733576
 30
0.0
 11
566.0110686291
 21
673.3973793849
 31
0.0
  0
LINE
  5
23E
330
1F
100
AcDbEntity
  8
0
  6
Continuous
 62
     7
370
    15
100
AcDbLine
 10
568.3260654877
 20
676.3686733576
 30
0.0
 11
566.0110686291
 21
676.3686733576
 31
0.0
  0
LINE
  5
23F
330
1F
100
AcDbEntity
  8
0
  6
Continuous
 62
     7
370
    15
100
AcDbLine
 10
568.3260654877
 20
673.3973793849
 30
0.0
 11
568.3260654877
 21
676.3686733576
 31
0.0
  0
LINE
  5
240
330
1F
100
AcDbEntity
  8
0
  6
Continuous
 62
     7
370
    15
100
AcDbLine
 10
828.3260654877
 20
676.3686733576
 30
0.0
 11
826.0110686291
 21
676.3686733576
 31
0.0
  0
LINE
  5
241
330
1F
100
AcDbEntity
  8
0
  6
Continuous
 62
     7
370
    15
100
AcDbLine
 10
828.3260654877
 20
673.3973793849
 30
0.0
 11
828.3260654877
 21
676.3686733576
 31
0.0
  0
LINE
  5
242
330
1F
100
AcDbEntity
  8
0
  6
Continuous
 62
     7
370
    15
100
AcDbLine
 10
826.0110686291
 20
673.3973793849
 30
0.0
 11
828.3260654877
 21
673.3973793849
 31
0.0
  0
LINE
  5
243
330
1F
100
AcDbEntity
  8
0
  6
Continuous
 62
     7
370
    15
100
AcDbLine
 10
826.0110686291
 20
676.3686733576
 30
0.0
 11
826.0110686291
 21
673.3973793849
 31
0.0
  0
LINE
  5
244
330
1F
100
AcDbEntity
  8
0
  6
Continuous
 62
     7
370
    15
100
AcDbLine
 10
446.0110686291
 20
673.3973793849
 30
0.0
 11
448.3260654877
 21
673.3973793849
 31
0.0
  0
LINE
  5
245
330
1F
100
AcDbEntity
  8
0
  6
Continuous
 62
     7
370
    15
100
AcDbLine
 10
446.0110686291
 20
676.3686733576
 30
0.0
 11
446.0110686291
 21
673.3973793849
 31
0.0
  0
LINE
  5
246
330
1F
100
AcDbEntity
  8
0
  6
Continuous
 62
     7
370
    15
100
AcDbLine
 10
448.3260654877
 20
676.3686733576
 30
0.0
 11
446.0110686291
 21
676.3686733576
 31
0.0
  0
LINE
  5
247
330
1F
100
AcDbEntity
  8
0
  6
Continuous
 62
     7
370
    15
100
AcDbLine
 10
448.3260654877
 20
673.3973793849
 30
0.0
 11
448.3260654877
 21
676.3686733576
 31
0.0
  0
LINE
  5
248
330
1F
100
AcDbEntity
  8
0
  6
Continuous
 62
     7
370
    15
100
AcDbLine
 10
576.0110686291
 20
673.3973793849
 30
0.0
 11
578.3260654877
 21
673.3973793849
 31
0.0
  0
LINE
  5
249
330
1F
100
AcDbEntity
  8
0
  6
Continuous
 62
     7
370
    15
100
AcDbLine
 10
576.0110686291
 20
676.3686733576
 30
0.0
 11
576.0110686291
 21
673.3973793849
 31
0.0
  0
LINE
  5
24A
330
1F
100
AcDbEntity
  8
0
  6
Continuous
 62
     7
370
    15
100
AcDbLine
 10
578.3260654877
 20
676.3686733576
 30
0.0
 11
576.0110686291
 21
676.3686733576
 31
0.0
  0
LINE
  5
24B
330
1F
100
AcDbEntity
  8
0
  6
Continuous
 62
     7
370
    15
100
AcDbLine
 10
578.3260654877
 20
673.3973793849
 30
0.0
 11
578.3260654877
 21
676.3686733576
 31
0.0
  0
LINE
  5
24C
330
1F
100
AcDbEntity
  8
0
  6
Continuous
 62
     7
370
    15
100
AcDbLine
 10
838.3260654877
 20
676.3686733576
 30
0.0
 11
836.0110686291
 21
676.3686733576
 31
0.0
  0
LINE
  5
24D
330
1F
100
AcDbEntity
  8
0
  6
Continuous
 62
     7
370
    15
100
AcDbLine
 10
838.3260654877
 20
673.3973793849
 30
0.0
 11
838.3260654877
 21
676.3686733576
 31
0.0
  0
LINE
  5
24E
330
1F
100
AcDbEntity
  8
0
  6
Continuous
 62
     7
370
    15
100
AcDbLine
 10
836.0110686291
 20
673.3973793849
 30
0.0
 11
838.3260654877
 21
673.3973793849
 31
0.0
  0
LINE
  5
24F
330
1F
100
AcDbEntity
  8
0
  6
Continuous
 62
     7
370
    15
100
AcDbLine
 10
836.0110686291
 20
676.3686733576
 30
0.0
 11
836.0110686291
 21
673.3973793849
 31
0.0
  0
LINE
  5
250
330
1F
100
AcDbEntity
  8
0
  6
Continuous
 62
     7
370
    15
100
AcDbLine
 10
456.0110686291
 20
673.3973793849
 30
0.0
 11
458.3260654877
 21
673.3973793849
 31
0.0
  0
LINE
  5
251
330
1F
100
AcDbEntity
  8
0
  6
Continuous
 62
     7
370
    15
100
AcDbLine
 10
456.0110686291
 20
676.3686733576
 30
0.0
 11
456.0110686291
 21
673.3973793849
 31
0.0
  0
LINE
  5
252
330
1F
100
AcDbEntity
  8
0
  6
Continuous
 62
     7
370
    15
100
AcDbLine
 10
458.3260654877
 20
676.3686733576
 30
0.0
 11
456.0110686291
 21
676.3686733576
 31
0.0
  0
LINE
  5
253
330
1F
100
AcDbEntity
  8
0
  6
Continuous
 62
     7
370
    15
100
AcDbLine
 10
458.3260654877
 20
673.3973793849
 30
0.0
 11
458.3260654877
 21
676.3686733576
 31
0.0
  0
LINE
  5
254
330
1F
100
AcDbEntity
  8
0
  6
Continuous
 62
     7
370
    15
100
AcDbLine
 10
586.0110686291
 20
673.3973793849
 30
0.0
 11
588.3260654877
 21
673.3973793849
 31
0.0
  0
LINE
  5
255
330
1F
100
AcDbEntity
  8
0
  6
Continuous
 62
     7
370
    15
100
AcDbLine
 10
586.0110686291
 20
676.3686733576
 30
0.0
 11
586.0110686291
 21
673.3973793849
 31
0.0
  0
LINE
  5
256
330
1F
100
AcDbEntity
  8
0
  6
Continuous
 62
     7
370
    15
100
AcDbLine
 10
588.3260654877
 20
676.3686733576
 30
0.0
 11
586.0110686291
 21
676.3686733576
 31
0.0
  0
LINE
  5
257
330
1F
100
AcDbEntity
  8
0
  6
Continuous
 62
     7
370
    15
100
AcDbLine
 10
588.3260654877
 20
673.3973793849
 30
0.0
 11
588.3260654877
 21
676.3686733576
 31
0.0
  0
LINE
  5
258
330
1F
100
AcDbEntity
  8
0
  6
Continuous
 62
     7
370
    15
100
AcDbLine
 10
848.3260654877
 20
676.3686733576
 30
0.0
 11
846.0110686291
 21
676.3686733576
 31
0.0
  0
LINE
  5
259
330
1F
100
AcDbEntity
  8
0
  6
Continuous
 62
     7
370
    15
100
AcDbLine
 10
848.3260654877
 20
673.3973793849
 30
0.0
 11
848.3260654877
 21
676.3686733576
 31
0.0
  0
LINE
  5
25A
330
1F
100
AcDbEntity
  8
0
  6
Continuous
 62
     7
370
    15
100
AcDbLine
 10
846.0110686291
 20
673.3973793849
 30
0.0
 11
848.3260654877
 21
673.3973793849
 31
0.0
  0
LINE
  5
25B
330
1F
100
AcDbEntity
  8
0
  6
Continuous
 62
     7
370
    15
100
AcDbLine
 10
846.0110686291
 20
676.3686733576
 30
0.0
 11
846.0110686291
 21
673.3973793849
 31
0.0
  0
LINE
  5
25C
330
1F
100
AcDbEntity
  8
0
  6
Continuous
 62
     7
370
    15
100
AcDbLine
 10
466.0110686291
 20
673.3973793849
 30
0.0
 11
468.3260654877
 21
673.3973793849
 31
0.0
  0
LINE
  5
25D
330
1F
100
AcDbEntity
  8
0
  6
Continuous
 62
     7
370
    15
100
AcDbLine
 10
466.0110686291
 20
676.3686733576
 30
0.0
 11
466.0110686291
 21
673.3973793849
 31
0.0
  0
LINE
  5
25E
330
1F
100
AcDbEntity
  8
0
  6
Continuous
 62
     7
370
    15
100
AcDbLine
 10
468.3260654877
 20
676.3686733576
 30
0.0
 11
466.0110686291
 21
676.3686733576
 31
0.0
  0
LINE
  5
25F
330
1F
100
AcDbEntity
  8
0
  6
Continuous
 62
     7
370
    15
100
AcDbLine
 10
468.3260654877
 20
673.3973793849
 30
0.0
 11
468.3260654877
 21
676.3686733576
 31
0.0
  0
LINE
  5
260
330
1F
100
AcDbEntity
  8
0
  6
Continuous
 62
     7
370
    15
100
AcDbLine
 10
596.0110686291
 20
673.3973793849
 30
0.0
 11
598.3260654877
 21
673.3973793849
 31
0.0
  0
LINE
  5
261
330
1F
100
AcDbEntity
  8
0
  6
Continuous
 62
     7
370
    15
100
AcDbLine
 10
596.0110686291
 20
676.3686733576
 30
0.0
 11
596.0110686291
 21
673.3973793849
 31
0.0
  0
LINE
  5
262
330
1F
100
AcDbEntity
  8
0
  6
Continuous
 62
     7
370
    15
100
AcDbLine
 10
598.3260654877
 20
676.3686733576
 30
0.0
 11
596.0110686291
 21
676.3686733576
 31
0.0
  0
LINE
  5
263
330
1F
100
AcDbEntity
  8
0
  6
Continuous
 62
     7
370
    15
100
AcDbLine
 10
598.3260654877
 20
673.3973793849
 30
0.0
 11
598.3260654877
 21
676.3686733576
 31
0.0
  0
LINE
  5
264
330
1F
100
AcDbEntity
  8
0
  6
Continuous
 62
     7
370
    15
100
AcDbLine
 10
858.3260654877
 20
676.3686733576
 30
0.0
 11
856.0110686291
 21
676.3686733576
 31
0.0
  0
LINE
  5
265
330
1F
100
AcDbEntity
  8
0
  6
Continuous
 62
     7
370
    15
100
AcDbLine
 10
858.3260654877
 20
673.3973793849
 30
0.0
 11
858.3260654877
 21
676.3686733576
 31
0.0
  0
LINE
  5
266
330
1F
100
AcDbEntity
  8
0
  6
Continuous
 62
     7
370
    15
100
AcDbLine
 10
856.0110686291
 20
673.3973793849
 30
0.0
 11
858.3260654877
 21
673.3973793849
 31
0.0
  0
LINE
  5
267
330
1F
100
AcDbEntity
  8
0
  6
Continuous
 62
     7
370
    15
100
AcDbLine
 10
856.0110686291
 20
676.3686733576
 30
0.0
 11
856.0110686291
 21
673.3973793849
 31
0.0
  0
LINE
  5
268
330
1F
100
AcDbEntity
  8
0
  6
Continuous
 62
     7
370
    15
100
AcDbLine
 10
476.0110686291
 20
673.3973793849
 30
0.0
 11
478.3260654877
 21
673.3973793849
 31
0.0
  0
LINE
  5
269
330
1F
100
AcDbEntity
  8
0
  6
Continuous
 62
     7
370
    15
100
AcDbLine
 10
476.0110686291
 20
676.3686733576
 30
0.0
 11
476.0110686291
 21
673.3973793849
 31
0.0
  0
LINE
  5
26A
330
1F
100
AcDbEntity
  8
0
  6
Continuous
 62
     7
370
    15
100
AcDbLine
 10
478.3260654877
 20
676.3686733576
 30
0.0
 11
476.0110686291
 21
676.3686733576
 31
0.0
  0
LINE
  5
26B
330
1F
100
AcDbEntity
  8
0
  6
Continuous
 62
     7
370
    15
100
AcDbLine
 10
478.3260654877
 20
673.3973793849
 30
0.0
 11
478.3260654877
 21
676.3686733576
 31
0.0
  0
LINE
  5
26C
330
1F
100
AcDbEntity
  8
0
  6
Continuous
 62
     7
370
    15
100
AcDbLine
 10
606.0110686291
 20
673.3973793849
 30
0.0
 11
608.3260654877
 21
673.3973793849
 31
0.0
  0
LINE
  5
26D
330
1F
100
AcDbEntity
  8
0
  6
Continuous
 62
     7
370
    15
100
AcDbLine
 10
606.0110686291
 20
676.3686733576
 30
0.0
 11
606.0110686291
 21
673.3973793849
 31
0.0
  0
LINE
  5
26E
330
1F
100
AcDbEntity
  8
0
  6
Continuous
 62
     7
370
    15
100
AcDbLine
 10
608.3260654877
 20
676.3686733576
 30
0.0
 11
606.0110686291
 21
676.3686733576
 31
0.0
  0
LINE
  5
26F
330
1F
100
AcDbEntity
  8
0
  6
Continuous
 62
     7
370
    15
100
AcDbLine
 10
608.3260654877
 20
673.3973793849
 30
0.0
 11
608.3260654877
 21
676.3686733576
 31
0.0
  0
LINE
  5
270
330
1F
100
AcDbEntity
  8
0
  6
Continuous
 62
     7
370
    15
100
AcDbLine
 10
868.3260654877
 20
676.3686733576
 30
0.0
 11
866.0110686291
 21
676.3686733576
 31
0.0
  0
LINE
  5
271
330
1F
100
AcDbEntity
  8
0
  6
Continuous
 62
     7
370
    15
100
AcDbLine
 10
868.3260654877
 20
673.3973793849
 30
0.0
 11
868.3260654877
 21
676.3686733576
 31
0.0
  0
LINE
  5
272
330
1F
100
AcDbEntity
  8
0
  6
Continuous
 62
     7
370
    15
100
AcDbLine
 10
866.0110686291
 20
673.3973793849
 30
0.0
 11
868.3260654877
 21
673.3973793849
 31
0.0
  0
LINE
  5
273
330
1F
100
AcDbEntity
  8
0
  6
Continuous
 62
     7
370
    15
100
AcDbLine
 10
866.0110686291
 20
676.3686733576
 30
0.0
 11
866.0110686291
 21
673.3973793849
 31
0.0
  0
LINE
  5
274
330
1F
100
AcDbEntity
  8
0
  6
Continuous
 62
     7
370
    15
100
AcDbLine
 10
486.0110686291
 20
673.3973793849
 30
0.0
 11
488.3260654877
 21
673.3973793849
 31
0.0
  0
LINE
  5
275
330
1F
100
AcDbEntity
  8
0
  6
Continuous
 62
     7
370
    15
100
AcDbLine
 10
486.0110686291
 20
676.3686733576
 30
0.0
 11
486.0110686291
 21
673.3973793849
 31
0.0
  0
LINE
  5
276
330
1F
100
AcDbEntity
  8
0
  6
Continuous
 62
     7
370
    15
100
AcDbLine
 10
488.3260654877
 20
676.3686733576
 30
0.0
 11
486.0110686291
 21
676.3686733576
 31
0.0
  0
LINE
  5
277
330
1F
100
AcDbEntity
  8
0
  6
Continuous
 62
     7
370
    15
100
AcDbLine
 10
488.3260654877
 20
673.3973793849
 30
0.0
 11
488.3260654877
 21
676.3686733576
 31
0.0
  0
LINE
  5
278
330
1F
100
AcDbEntity
  8
0
  6
Continuous
 62
     7
370
    15
100
AcDbLine
 10
616.0110686291
 20
673.3973793849
 30
0.0
 11
618.3260654877
 21
673.3973793849
 31
0.0
  0
LINE
  5
279
330
1F
100
AcDbEntity
  8
0
  6
Continuous
 62
     7
370
    15
100
AcDbLine
 10
616.0110686291
 20
676.3686733576
 30
0.0
 11
616.0110686291
 21
673.3973793849
 31
0.0
  0
LINE
  5
27A
330
1F
100
AcDbEntity
  8
0
  6
Continuous
 62
     7
370
    15
100
AcDbLine
 10
618.3260654877
 20
676.3686733576
 30
0.0
 11
616.0110686291
 21
676.3686733576
 31
0.0
  0
LINE
  5
27B
330
1F
100
AcDbEntity
  8
0
  6
Continuous
 62
     7
370
    15
100
AcDbLine
 10
618.3260654877
 20
673.3973793849
 30
0.0
 11
618.3260654877
 21
676.3686733576
 31
0.0
  0
LINE
  5
27C
330
1F
100
AcDbEntity
  8
0
  6
Continuous
 62
     7
370
    15
100
AcDbLine
 10
878.3260654877
 20
676.3686733576
 30
0.0
 11
876.0110686291
 21
676.3686733576
 31
0.0
  0
LINE
  5
27D
330
1F
100
AcDbEntity
  8
0
  6
Continuous
 62
     7
370
    15
100
AcDbLine
 10
878.3260654877
 20
673.3973793849
 30
0.0
 11
878.3260654877
 21
676.3686733576
 31
0.0
  0
LINE
  5
27E
330
1F
100
AcDbEntity
  8
0
  6
Continuous
 62
     7
370
    15
100
AcDbLine
 10
876.0110686291
 20
673.3973793849
 30
0.0
 11
878.3260654877
 21
673.3973793849
 31
0.0
  0
LINE
  5
27F
330
1F
100
AcDbEntity
  8
0
  6
Continuous
 62
     7
370
    15
100
AcDbLine
 10
876.0110686291
 20
676.3686733576
 30
0.0
 11
876.0110686291
 21
673.3973793849
 31
0.0
  0
LINE
  5
280
330
1F
100
AcDbEntity
  8
0
  6
Continuous
 62
     7
370
    15
100
AcDbLine
 10
496.0110686291
 20
673.3973793849
 30
0.0
 11
498.3260654877
 21
673.3973793849
 31
0.0
  0
LINE
  5
281
330
1F
100
AcDbEntity
  8
0
  6
Continuous
 62
     7
370
    15
100
AcDbLine
 10
496.0110686291
 20
676.3686733576
 30
0.0
 11
496.0110686291
 21
673.3973793849
 31
0.0
  0
LINE
  5
282
330
1F
100
AcDbEntity
  8
0
  6
Continuous
 62
     7
370
    15
100
AcDbLine
 10
498.3260654877
 20
676.3686733576
 30
0.0
 11
496.0110686291
 21
676.3686733576
 31
0.0
  0
LINE
  5
283
330
1F
100
AcDbEntity
  8
0
  6
Continuous
 62
     7
370
    15
100
AcDbLine
 10
498.3260654877
 20
673.3973793849
 30
0.0
 11
498.3260654877
 21
676.3686733576
 31
0.0
  0
LINE
  5
284
330
1F
100
AcDbEntity
  8
0
  6
Continuous
 62
     7
370
    15
100
AcDbLine
 10
626.0110686291
 20
673.3973793849
 30
0.0
 11
628.3260654877
 21
673.3973793849
 31
0.0
  0
LINE
  5
285
330
1F
100
AcDbEntity
  8
0
  6
Continuous
 62
     7
370
    15
100
AcDbLine
 10
626.0110686291
 20
676.3686733576
 30
0.0
 11
626.0110686291
 21
673.3973793849
 31
0.0
  0
LINE
  5
286
330
1F
100
AcDbEntity
  8
0
  6
Continuous
 62
     7
370
    15
100
AcDbLine
 10
628.3260654877
 20
676.3686733576
 30
0.0
 11
626.0110686291
 21
676.3686733576
 31
0.0
  0
LINE
  5
287
330
1F
100
AcDbEntity
  8
0
  6
Continuous
 62
     7
370
    15
100
AcDbLine
 10
628.3260654877
 20
673.3973793849
 30
0.0
 11
628.3260654877
 21
676.3686733576
 31
0.0
  0
LINE
  5
288
330
1F
100
AcDbEntity
  8
0
  6
Continuous
 62
     7
370
    15
100
AcDbLine
 10
888.3260654877
 20
676.3686733576
 30
0.0
 11
886.0110686291
 21
676.3686733576
 31
0.0
  0
LINE
  5
289
330
1F
100
AcDbEntity
  8
0
  6
Continuous
 62
     7
370
    15
100
AcDbLine
 10
888.3260654877
 20
673.3973793849
 30
0.0
 11
888.3260654877
 21
676.3686733576
 31
0.0
  0
LINE
  5
28A
330
1F
100
AcDbEntity
  8
0
  6
Continuous
 62
     7
370
    15
100
AcDbLine
 10
886.0110686291
 20
673.3973793849
 30
0.0
 11
888.3260654877
 21
673.3973793849
 31
0.0
  0
LINE
  5
28B
330
1F
100
AcDbEntity
  8
0
  6
Continuous
 62
     7
370
    15
100
AcDbLine
 10
886.0110686291
 20
676.3686733576
 30
0.0
 11
886.0110686291
 21
673.3973793849
 31
0.0
  0
LINE
  5
28C
330
1F
100
AcDbEntity
  8
0
  6
Continuous
 62
     7
370
    15
100
AcDbLine
 10
506.0110686291
 20
673.3973793849
 30
0.0
 11
508.3260654877
 21
673.3973793849
 31
0.0
  0
LINE
  5
28D
330
1F
100
AcDbEntity
  8
0
  6
Continuous
 62
     7
370
    15
100
AcDbLine
 10
506.0110686291
 20
676.3686733576
 30
0.0
 11
506.0110686291
 21
673.3973793849
 31
0.0
  0
LINE
  5
28E
330
1F
100
AcDbEntity
  8
0
  6
Continuous
 62
     7
370
    15
100
AcDbLine
 10
508.3260654877
 20
676.3686733576
 30
0.0
 11
506.0110686291
 21
676.3686733576
 31
0.0
  0
LINE
  5
28F
330
1F
100
AcDbEntity
  8
0
  6
Continuous
 62
     7
370
    15
100
AcDbLine
 10
508.3260654877
 20
673.3973793849
 30
0.0
 11
508.3260654877
 21
676.3686733576
 31
0.0
  0
LINE
  5
290
330
1F
100
AcDbEntity
  8
0
  6
Continuous
 62
     7
370
    15
100
AcDbLine
 10
636.0110686291
 20
673.3973793849
 30
0.0
 11
638.3260654877
 21
673.3973793849
 31
0.0
  0
LINE
  5
291
330
1F
100
AcDbEntity
  8
0
  6
Continuous
 62
     7
370
    15
100
AcDbLine
 10
636.0110686291
 20
676.3686733576
 30
0.0
 11
636.0110686291
 21
673.3973793849
 31
0.0
  0
LINE
  5
292
330
1F
100
AcDbEntity
  8
0
  6
Continuous
 62
     7
370
    15
100
AcDbLine
 10
638.3260654877
 20
676.3686733576
 30
0.0
 11
636.0110686291
 21
676.3686733576
 31
0.0
  0
LINE
  5
293
330
1F
100
AcDbEntity
  8
0
  6
Continuous
 62
     7
370
    15
100
AcDbLine
 10
638.3260654877
 20
673.3973793849
 30
0.0
 11
638.3260654877
 21
676.3686733576
 31
0.0
  0
LINE
  5
294
330
1F
100
AcDbEntity
  8
0
  6
Continuous
 62
     7
370
    15
100
AcDbLine
 10
1146.0110686291
 20
676.3686733576
 30
0.0
 11
1146.0110686291
 21
673.3973793849
 31
0.0
  0
LINE
  5
295
330
1F
100
AcDbEntity
  8
0
  6
Continuous
 62
     7
370
    15
100
AcDbLine
 10
1148.3260654877
 20
676.3686733576
 30
0.0
 11
1146.0110686291
 21
676.3686733576
 31
0.0
  0
LINE
  5
296
330
1F
100
AcDbEntity
  8
0
  6
Continuous
 62
     7
370
    15
100
AcDbLine
 10
1148.3260654877
 20
673.3973793849
 30
0.0
 11
1148.3260654877
 21
676.3686733576
 31
0.0
  0
LINE
  5
297
330
1F
100
AcDbEntity
  8
0
  6
Continuous
 62
     7
370
    15
100
AcDbLine
 10
1146.0110686291
 20
673.3973793849
 30
0.0
 11
1148.3260654877
 21
673.3973793849
 31
0.0
  0
LINE
  5
298
330
1F
100
AcDbEntity
  8
0
  6
Continuous
 62
     7
370
    15
100
AcDbLine
 10
516.0110686291
 20
673.3973793849
 30
0.0
 11
518.3260654877
 21
673.3973793849
 31
0.0
  0
LINE
  5
299
330
1F
100
AcDbEntity
  8
0
  6
Continuous
 62
     7
370
    15
100
AcDbLine
 10
516.0110686291
 20
676.3686733576
 30
0.0
 11
516.0110686291
 21
673.3973793849
 31
0.0
  0
LINE
  5
29A
330
1F
100
AcDbEntity
  8
0
  6
Continuous
 62
     7
370
    15
100
AcDbLine
 10
518.3260654877
 20
676.3686733576
 30
0.0
 11
516.0110686291
 21
676.3686733576
 31
0.0
  0
LINE
  5
29B
330
1F
100
AcDbEntity
  8
0
  6
Continuous
 62
     7
370
    15
100
AcDbLine
 10
518.3260654877
 20
673.3973793849
 30
0.0
 11
518.3260654877
 21
676.3686733576
 31
0.0
  0
LINE
  5
29C
330
1F
100
AcDbEntity
  8
0
  6
Continuous
 62
     7
370
    15
100
AcDbLine
 10
1028.3260654877
 20
676.3686733576
 30
0.0
 11
1026.0110686291
 21
676.3686733576
 31
0.0
  0
LINE
  5
29D
330
1F
100
AcDbEntity
  8
0
  6
Continuous
 62
     7
370
    15
100
AcDbLine
 10
1028.3260654877
 20
673.3973793849
 30
0.0
 11
1028.3260654877
 21
676.3686733576
 31
0.0
  0
LINE
  5
29E
330
1F
100
AcDbEntity
  8
0
  6
Continuous
 62
     7
370
    15
100
AcDbLine
 10
1026.0110686291
 20
673.3973793849
 30
0.0
 11
1028.3260654877
 21
673.3973793849
 31
0.0
  0
LINE
  5
29F
330
1F
100
AcDbEntity
  8
0
  6
Continuous
 62
     7
370
    15
100
AcDbLine
 10
1026.0110686291
 20
676.3686733576
 30
0.0
 11
1026.0110686291
 21
673.3973793849
 31
0.0
  0
LINE
  5
2A0
330
1F
100
AcDbEntity
  8
0
  6
Continuous
 62
     7
370
    15
100
AcDbLine
 10
968.3260654877
 20
676.3686733576
 30
0.0
 11
966.0110686291
 21
676.3686733576
 31
0.0
  0
LINE
  5
2A1
330
1F
100
AcDbEntity
  8
0
  6
Continuous
 62
     7
370
    15
100
AcDbLine
 10
968.3260654877
 20
673.3973793849
 30
0.0
 11
968.3260654877
 21
676.3686733576
 31
0.0
  0
LINE
  5
2A2
330
1F
100
AcDbEntity
  8
0
  6
Continuous
 62
     7
370
    15
100
AcDbLine
 10
966.0110686291
 20
673.3973793849
 30
0.0
 11
968.3260654877
 21
673.3973793849
 31
0.0
  0
LINE
  5
2A3
330
1F
100
AcDbEntity
  8
0
  6
Continuous
 62
     7
370
    15
100
AcDbLine
 10
966.0110686291
 20
676.3686733576
 30
0.0
 11
966.0110686291
 21
673.3973793849
 31
0.0
  0
LINE
  5
2A4
330
1F
100
AcDbEntity
  8
0
  6
Continuous
 62
     7
370
    15
100
AcDbLine
 10
908.3260654877
 20
676.3686733576
 30
0.0
 11
906.0110686291
 21
676.3686733576
 31
0.0
  0
LINE
  5
2A5
330
1F
100
AcDbEntity
  8
0
  6
Continuous
 62
     7
370
    15
100
AcDbLine
 10
908.3260654877
 20
673.3973793849
 30
0.0
 11
908.3260654877
 21
676.3686733576
 31
0.0
  0
LINE
  5
2A6
330
1F
100
AcDbEntity
  8
0
  6
Continuous
 62
     7
370
    15
100
AcDbLine
 10
906.0110686291
 20
673.3973793849
 30
0.0
 11
908.3260654877
 21
673.3973793849
 31
0.0
  0
LINE
  5
2A7
330
1F
100
AcDbEntity
  8
0
  6
Continuous
 62
     7
370
    15
100
AcDbLine
 10
906.0110686291
 20
676.3686733576
 30
0.0
 11
906.0110686291
 21
673.3973793849
 31
0.0
  0
LINE
  5
2A8
330
1F
100
AcDbEntity
  8
0
  6
Continuous
 62
     7
370
    15
100
AcDbLine
 10
656.0110686291
 20
673.3973793849
 30
0.0
 11
658.3260654877
 21
673.3973793849
 31
0.0
  0
LINE
  5
2A9
330
1F
100
AcDbEntity
  8
0
  6
Continuous
 62
     7
370
    15
100
AcDbLine
 10
656.0110686291
 20
676.3686733576
 30
0.0
 11
656.0110686291
 21
673.3973793849
 31
0.0
  0
LINE
  5
2AA
330
1F
100
AcDbEntity
  8
0
  6
Continuous
 62
     7
370
    15
100
AcDbLine
 10
658.3260654877
 20
676.3686733576
 30
0.0
 11
656.0110686291
 21
676.3686733576
 31
0.0
  0
LINE
  5
2AB
330
1F
100
AcDbEntity
  8
0
  6
Continuous
 62
     7
370
    15
100
AcDbLine
 10
658.3260654877
 20
673.3973793849
 30
0.0
 11
658.3260654877
 21
676.3686733576
 31
0.0
  0
LINE
  5
2AC
330
1F
100
AcDbEntity
  8
0
  6
Continuous
 62
     7
370
    15
100
AcDbLine
 10
526.0110686291
 20
676.3686733576
 30
0.0
 11
526.0110686291
 21
673.3973793849
 31
0.0
  0
LINE
  5
2AD
330
1F
100
AcDbEntity
  8
0
  6
Continuous
 62
     7
370
    15
100
AcDbLine
 10
526.0110686291
 20
673.3973793849
 30
0.0
 11
528.3260654877
 21
673.3973793849
 31
0.0
  0
LINE
  5
2AE
330
1F
100
AcDbEntity
  8
0
  6
Continuous
 62
     7
370
    15
100
AcDbLine
 10
528.3260654877
 20
676.3686733576
 30
0.0
 11
526.0110686291
 21
676.3686733576
 31
0.0
  0
LINE
  5
2AF
330
1F
100
AcDbEntity
  8
0
  6
Continuous
 62
     7
370
    15
100
AcDbLine
 10
528.3260654877
 20
673.3973793849
 30
0.0
 11
528.3260654877
 21
676.3686733576
 31
0.0
  0
LINE
  5
2B0
330
1F
100
AcDbEntity
  8
0
  6
Continuous
 62
     7
370
    15
100
AcDbLine
 10
1038.3260654877
 20
673.3973793849
 30
0.0
 11
1038.3260654877
 21
676.3686733576
 31
0.0
  0
LINE
  5
2B1
330
1F
100
AcDbEntity
  8
0
  6
Continuous
 62
     7
370
    15
100
AcDbLine
 10
1036.0110686291
 20
673.3973793849
 30
0.0
 11
1038.3260654877
 21
673.3973793849
 31
0.0
  0
LINE
  5
2B2
330
1F
100
AcDbEntity
  8
0
  6
Continuous
 62
     7
370
    15
100
AcDbLine
 10
1036.0110686291
 20
676.3686733576
 30
0.0
 11
1036.0110686291
 21
673.3973793849
 31
0.0
  0
LINE
  5
2B3
330
1F
100
AcDbEntity
  8
0
  6
Continuous
 62
     7
370
    15
100
AcDbLine
 10
1038.3260654877
 20
676.3686733576
 30
0.0
 11
1036.0110686291
 21
676.3686733576
 31
0.0
  0
LINE
  5
2B4
330
1F
100
AcDbEntity
  8
0
  6
Continuous
 62
     7
370
    15
100
AcDbLine
 10
978.3260654877
 20
676.3686733576
 30
0.0
 11
976.0110686291
 21
676.3686733576
 31
0.0
  0
LINE
  5
2B5
330
1F
100
AcDbEntity
  8
0
  6
Continuous
 62
     7
370
    15
100
AcDbLine
 10
978.3260654877
 20
673.3973793849
 30
0.0
 11
978.3260654877
 21
676.3686733576
 31
0.0
  0
LINE
  5
2B6
330
1F
100
AcDbEntity
  8
0
  6
Continuous
 62
     7
370
    15
100
AcDbLine
 10
976.0110686291
 20
673.3973793849
 30
0.0
 11
978.3260654877
 21
673.3973793849
 31
0.0
  0
LINE
  5
2B7
330
1F
100
AcDbEntity
  8
0
  6
Continuous
 62
     7
370
    15
100
AcDbLine
 10
976.0110686291
 20
676.3686733576
 30
0.0
 11
976.0110686291
 21
673.3973793849
 31
0.0
  0
LINE
  5
2B8
330
1F
100
AcDbEntity
  8
0
  6
Continuous
 62
     7
370
    15
100
AcDbLine
 10
918.3260654877
 20
676.3686733576
 30
0.0
 11
916.0110686291
 21
676.3686733576
 31
0.0
  0
LINE
  5
2B9
330
1F
100
AcDbEntity
  8
0
  6
Continuous
 62
     7
370
    15
100
AcDbLine
 10
918.3260654877
 20
673.3973793849
 30
0.0
 11
918.3260654877
 21
676.3686733576
 31
0.0
  0
LINE
  5
2BA
330
1F
100
AcDbEntity
  8
0
  6
Continuous
 62
     7
370
    15
100
AcDbLine
 10
916.0110686291
 20
673.3973793849
 30
0.0
 11
918.3260654877
 21
673.3973793849
 31
0.0
  0
LINE
  5
2BB
330
1F
100
AcDbEntity
  8
0
  6
Continuous
 62
     7
370
    15
100
AcDbLine
 10
916.0110686291
 20
676.3686733576
 30
0.0
 11
916.0110686291
 21
673.3973793849
 31
0.0
  0
LINE
  5
2BC
330
1F
100
AcDbEntity
  8
0
  6
Continuous
 62
     7
370
    15
100
AcDbLine
 10
1108.3260654877
 20
676.3686733576
 30
0.0
 11
1106.0110686291
 21
676.3686733576
 31
0.0
  0
LINE
  5
2BD
330
1F
100
AcDbEntity
  8
0
  6
Continuous
 62
     7
370
    15
100
AcDbLine
 10
1108.3260654877
 20
673.3973793849
 30
0.0
 11
1108.3260654877
 21
676.3686733576
 31
0.0
  0
LINE
  5
2BE
330
1F
100
AcDbEntity
  8
0
  6
Continuous
 62
     7
370
    15
100
AcDbLine
 10
1106.0110686291
 20
673.3973793849
 30
0.0
 11
1108.3260654877
 21
673.3973793849
 31
0.0
  0
LINE
  5
2BF
330
1F
100
AcDbEntity
  8
0
  6
Continuous
 62
     7
370
    15
100
AcDbLine
 10
1106.0110686291
 20
676.3686733576
 30
0.0
 11
1106.0110686291
 21
673.3973793849
 31
0.0
  0
LINE
  5
2C0
330
1F
100
AcDbEntity
  8
0
  6
Continuous
 62
     7
370
    15
100
AcDbLine
 10
1048.3260654877
 20
676.3686733576
 30
0.0
 11
1046.0110686291
 21
676.3686733576
 31
0.0
  0
LINE
  5
2C1
330
1F
100
AcDbEntity
  8
0
  6
Continuous
 62
     7
370
    15
100
AcDbLine
 10
1048.3260654877
 20
673.3973793849
 30
0.0
 11
1048.3260654877
 21
676.3686733576
 31
0.0
  0
LINE
  5
2C2
330
1F
100
AcDbEntity
  8
0
  6
Continuous
 62
     7
370
    15
100
AcDbLine
 10
1046.0110686291
 20
673.3973793849
 30
0.0
 11
1048.3260654877
 21
673.3973793849
 31
0.0
  0
LINE
  5
2C3
330
1F
100
AcDbEntity
  8
0
  6
Continuous
 62
     7
370
    15
100
AcDbLine
 10
1046.0110686291
 20
676.3686733576
 30
0.0
 11
1046.0110686291
 21
673.3973793849
 31
0.0
  0
LINE
  5
2C4
330
1F
100
AcDbEntity
  8
0
  6
Continuous
 62
     7
370
    15
100
AcDbLine
 10
988.3260654877
 20
676.3686733576
 30
0.0
 11
986.0110686291
 21
676.3686733576
 31
0.0
  0
LINE
  5
2C5
330
1F
100
AcDbEntity
  8
0
  6
Continuous
 62
     7
370
    15
100
AcDbLine
 10
988.3260654877
 20
673.3973793849
 30
0.0
 11
988.3260654877
 21
676.3686733576
 31
0.0
  0
LINE
  5
2C6
330
1F
100
AcDbEntity
  8
0
  6
Continuous
 62
     7
370
    15
100
AcDbLine
 10
986.0110686291
 20
673.3973793849
 30
0.0
 11
988.3260654877
 21
673.3973793849
 31
0.0
  0
LINE
  5
2C7
330
1F
100
AcDbEntity
  8
0
  6
Continuous
 62
     7
370
    15
100
AcDbLine
 10
986.0110686291
 20
676.3686733576
 30
0.0
 11
986.0110686291
 21
673.3973793849
 31
0.0
  0
LINE
  5
2C8
330
1F
100
AcDbEntity
  8
0
  6
Continuous
 62
     7
370
    15
100
AcDbLine
 10
928.3260654877
 20
676.3686733576
 30
0.0
 11
926.0110686291
 21
676.3686733576
 31
0.0
  0
LINE
  5
2C9
330
1F
100
AcDbEntity
  8
0
  6
Continuous
 62
     7
370
    15
100
AcDbLine
 10
928.3260654877
 20
673.3973793849
 30
0.0
 11
928.3260654877
 21
676.3686733576
 31
0.0
  0
LINE
  5
2CA
330
1F
100
AcDbEntity
  8
0
  6
Continuous
 62
     7
370
    15
100
AcDbLine
 10
926.0110686291
 20
673.3973793849
 30
0.0
 11
928.3260654877
 21
673.3973793849
 31
0.0
  0
LINE
  5
2CB
330
1F
100
AcDbEntity
  8
0
  6
Continuous
 62
     7
370
    15
100
AcDbLine
 10
926.0110686291
 20
676.3686733576
 30
0.0
 11
926.0110686291
 21
673.3973793849
 31
0.0
  0
LINE
  5
2CC
330
1F
100
AcDbEntity
  8
0
  6
Continuous
 62
     7
370
    15
100
AcDbLine
 10
1118.3260654877
 20
676.3686733576
 30
0.0
 11
1116.0110686291
 21
676.3686733576
 31
0.0
  0
LINE
  5
2CD
330
1F
100
AcDbEntity
  8
0
  6
Continuous
 62
     7
370
    15
100
AcDbLine
 10
1118.3260654877
 20
673.3973793849
 30
0.0
 11
1118.3260654877
 21
676.3686733576
 31
0.0
  0
LINE
  5
2CE
330
1F
100
AcDbEntity
  8
0
  6
Continuous
 62
     7
370
    15
100
AcDbLine
 10
1116.0110686291
 20
673.3973793849
 30
0.0
 11
1118.3260654877
 21
673.3973793849
 31
0.0
  0
LINE
  5
2CF
330
1F
100
AcDbEntity
  8
0
  6
Continuous
 62
     7
370
    15
100
AcDbLine
 10
1116.0110686291
 20
676.3686733576
 30
0.0
 11
1116.0110686291
 21
673.3973793849
 31
0.0
  0
LINE
  5
2D0
330
1F
100
AcDbEntity
  8
0
  6
Continuous
 62
     7
370
    15
100
AcDbLine
 10
1058.3260654877
 20
676.3686733576
 30
0.0
 11
1056.0110686291
 21
676.3686733576
 31
0.0
  0
LINE
  5
2D1
330
1F
100
AcDbEntity
  8
0
  6
Continuous
 62
     7
370
    15
100
AcDbLine
 10
1058.3260654877
 20
673.3973793849
 30
0.0
 11
1058.3260654877
 21
676.3686733576
 31
0.0
  0
LINE
  5
2D2
330
1F
100
AcDbEntity
  8
0
  6
Continuous
 62
     7
370
    15
100
AcDbLine
 10
1056.0110686291
 20
673.3973793849
 30
0.0
 11
1058.3260654877
 21
673.3973793849
 31
0.0
  0
LINE
  5
2D3
330
1F
100
AcDbEntity
  8
0
  6
Continuous
 62
     7
370
    15
100
AcDbLine
 10
1056.0110686291
 20
676.3686733576
 30
0.0
 11
1056.0110686291
 21
673.3973793849
 31
0.0
  0
LINE
  5
2D4
330
1F
100
AcDbEntity
  8
0
  6
Continuous
 62
     7
370
    15
100
AcDbLine
 10
998.3260654877
 20
676.3686733576
 30
0.0
 11
996.0110686291
 21
676.3686733576
 31
0.0
  0
LINE
  5
2D5
330
1F
100
AcDbEntity
  8
0
  6
Continuous
 62
     7
370
    15
100
AcDbLine
 10
998.3260654877
 20
673.3973793849
 30
0.0
 11
998.3260654877
 21
676.3686733576
 31
0.0
  0
LINE
  5
2D6
330
1F
100
AcDbEntity
  8
0
  6
Continuous
 62
     7
370
    15
100
AcDbLine
 10
996.0110686291
 20
673.3973793849
 30
0.0
 11
998.3260654877
 21
673.3973793849
 31
0.0
  0
LINE
  5
2D7
330
1F
100
AcDbEntity
  8
0
  6
Continuous
 62
     7
370
    15
100
AcDbLine
 10
996.0110686291
 20
676.3686733576
 30
0.0
 11
996.0110686291
 21
673.3973793849
 31
0.0
  0
LINE
  5
2D8
330
1F
100
AcDbEntity
  8
0
  6
Continuous
 62
     7
370
    15
100
AcDbLine
 10
938.3260654877
 20
676.3686733576
 30
0.0
 11
936.0110686291
 21
676.3686733576
 31
0.0
  0
LINE
  5
2D9
330
1F
100
AcDbEntity
  8
0
  6
Continuous
 62
     7
370
    15
100
AcDbLine
 10
938.3260654877
 20
673.3973793849
 30
0.0
 11
938.3260654877
 21
676.3686733576
 31
0.0
  0
LINE
  5
2DA
330
1F
100
AcDbEntity
  8
0
  6
Continuous
 62
     7
370
    15
100
AcDbLine
 10
936.0110686291
 20
673.3973793849
 30
0.0
 11
938.3260654877
 21
673.3973793849
 31
0.0
  0
LINE
  5
2DB
330
1F
100
AcDbEntity
  8
0
  6
Continuous
 62
     7
370
    15
100
AcDbLine
 10
936.0110686291
 20
676.3686733576
 30
0.0
 11
936.0110686291
 21
673.3973793849
 31
0.0
  0
LINE
  5
2DC
330
1F
100
AcDbEntity
  8
0
  6
Continuous
 62
     7
370
    15
100
AcDbLine
 10
1128.3260654877
 20
676.3686733576
 30
0.0
 11
1126.0110686291
 21
676.3686733576
 31
0.0
  0
LINE
  5
2DD
330
1F
100
AcDbEntity
  8
0
  6
Continuous
 62
     7
370
    15
100
AcDbLine
 10
1128.3260654877
 20
673.3973793849
 30
0.0
 11
1128.3260654877
 21
676.3686733576
 31
0.0
  0
LINE
  5
2DE
330
1F
100
AcDbEntity
  8
0
  6
Continuous
 62
     7
370
    15
100
AcDbLine
 10
1126.0110686291
 20
673.3973793849
 30
0.0
 11
1128.3260654877
 21
673.3973793849
 31
0.0
  0
LINE
  5
2DF
330
1F
100
AcDbEntity
  8
0
  6
Continuous
 62
     7
370
    15
100
AcDbLine
 10
1126.0110686291
 20
676.3686733576
 30
0.0
 11
1126.0110686291
 21
673.3973793849
 31
0.0
  0
LINE
  5
2E0
330
1F
100
AcDbEntity
  8
0
  6
Continuous
 62
     7
370
    15
100
AcDbLine
 10
1068.3260654877
 20
676.3686733576
 30
0.0
 11
1066.0110686291
 21
676.3686733576
 31
0.0
  0
LINE
  5
2E1
330
1F
100
AcDbEntity
  8
0
  6
Continuous
 62
     7
370
    15
100
AcDbLine
 10
1068.3260654877
 20
673.3973793849
 30
0.0
 11
1068.3260654877
 21
676.3686733576
 31
0.0
  0
LINE
  5
2E2
330
1F
100
AcDbEntity
  8
0
  6
Continuous
 62
     7
370
    15
100
AcDbLine
 10
1066.0110686291
 20
673.3973793849
 30
0.0
 11
1068.3260654877
 21
673.3973793849
 31
0.0
  0
LINE
  5
2E3
330
1F
100
AcDbEntity
  8
0
  6
Continuous
 62
     7
370
    15
100
AcDbLine
 10
1066.0110686291
 20
676.3686733576
 30
0.0
 11
1066.0110686291
 21
673.3973793849
 31
0.0
  0
LINE
  5
2E4
330
1F
100
AcDbEntity
  8
0
  6
Continuous
 62
     7
370
    15
100
AcDbLine
 10
1008.3260654877
 20
676.3686733576
 30
0.0
 11
1006.0110686291
 21
676.3686733576
 31
0.0
  0
LINE
  5
2E5
330
1F
100
AcDbEntity
  8
0
  6
Continuous
 62
     7
370
    15
100
AcDbLine
 10
1008.3260654877
 20
673.3973793849
 30
0.0
 11
1008.3260654877
 21
676.3686733576
 31
0.0
  0
LINE
  5
2E6
330
1F
100
AcDbEntity
  8
0
  6
Continuous
 62
     7
370
    15
100
AcDbLine
 10
1006.0110686291
 20
673.3973793849
 30
0.0
 11
1008.3260654877
 21
673.3973793849
 31
0.0
  0
LINE
  5
2E7
330
1F
100
AcDbEntity
  8
0
  6
Continuous
 62
     7
370
    15
100
AcDbLine
 10
1006.0110686291
 20
676.3686733576
 30
0.0
 11
1006.0110686291
 21
673.3973793849
 31
0.0
  0
LINE
  5
2E8
330
1F
100
AcDbEntity
  8
0
  6
Continuous
 62
     7
370
    15
100
AcDbLine
 10
948.3260654877
 20
676.3686733576
 30
0.0
 11
946.0110686291
 21
676.3686733576
 31
0.0
  0
LINE
  5
2E9
330
1F
100
AcDbEntity
  8
0
  6
Continuous
 62
     7
370
    15
100
AcDbLine
 10
948.3260654877
 20
673.3973793849
 30
0.0
 11
948.3260654877
 21
676.3686733576
 31
0.0
  0
LINE
  5
2EA
330
1F
100
AcDbEntity
  8
0
  6
Continuous
 62
     7
370
    15
100
AcDbLine
 10
946.0110686291
 20
673.3973793849
 30
0.0
 11
948.3260654877
 21
673.3973793849
 31
0.0
  0
LINE
  5
2EB
330
1F
100
AcDbEntity
  8
0
  6
Continuous
 62
     7
370
    15
100
AcDbLine
 10
946.0110686291
 20
676.3686733576
 30
0.0
 11
946.0110686291
 21
673.3973793849
 31
0.0
  0
LINE
  5
2EC
330
1F
100
AcDbEntity
  8
0
  6
Continuous
 62
     7
370
    15
100
AcDbLine
 10
1138.3260654877
 20
676.3686733576
 30
0.0
 11
1136.0110686291
 21
676.3686733576
 31
0.0
  0
LINE
  5
2ED
330
1F
100
AcDbEntity
  8
0
  6
Continuous
 62
     7
370
    15
100
AcDbLine
 10
1138.3260654877
 20
673.3973793849
 30
0.0
 11
1138.3260654877
 21
676.3686733576
 31
0.0
  0
LINE
  5
2EE
330
1F
100
AcDbEntity
  8
0
  6
Continuous
 62
     7
370
    15
100
AcDbLine
 10
1136.0110686291
 20
673.3973793849
 30
0.0
 11
1138.3260654877
 21
673.3973793849
 31
0.0
  0
LINE
  5
2EF
330
1F
100
AcDbEntity
  8
0
  6
Continuous
 62
     7
370
    15
100
AcDbLine
 10
1136.0110686291
 20
676.3686733576
 30
0.0
 11
1136.0110686291
 21
673.3973793849
 31
0.0
  0
LINE
  5
2F0
330
1F
100
AcDbEntity
  8
0
  6
Continuous
 62
     7
370
    15
100
AcDbLine
 10
1078.3260654877
 20
676.3686733576
 30
0.0
 11
1076.0110686291
 21
676.3686733576
 31
0.0
  0
LINE
  5
2F1
330
1F
100
AcDbEntity
  8
0
  6
Continuous
 62
     7
370
    15
100
AcDbLine
 10
1078.3260654877
 20
673.3973793849
 30
0.0
 11
1078.3260654877
 21
676.3686733576
 31
0.0
  0
LINE
  5
2F2
330
1F
100
AcDbEntity
  8
0
  6
Continuous
 62
     7
370
    15
100
AcDbLine
 10
1076.0110686291
 20
673.3973793849
 30
0.0
 11
1078.3260654877
 21
673.3973793849
 31
0.0
  0
LINE
  5
2F3
330
1F
100
AcDbEntity
  8
0
  6
Continuous
 62
     7
370
    15
100
AcDbLine
 10
1076.0110686291
 20
676.3686733576
 30
0.0
 11
1076.0110686291
 21
673.3973793849
 31
0.0
  0
LINE
  5
2F4
330
1F
100
AcDbEntity
  8
0
  6
Continuous
 62
     7
370
    15
100
AcDbLine
 10
1018.3260654877
 20
676.3686733576
 30
0.0
 11
1016.0110686291
 21
676.3686733576
 31
0.0
  0
LINE
  5
2F5
330
1F
100
AcDbEntity
  8
0
  6
Continuous
 62
     7
370
    15
100
AcDbLine
 10
1018.3260654877
 20
673.3973793849
 30
0.0
 11
1018.3260654877
 21
676.3686733576
 31
0.0
  0
LINE
  5
2F6
330
1F
100
AcDbEntity
  8
0
  6
Continuous
 62
     7
370
    15
100
AcDbLine
 10
1016.0110686291
 20
673.3973793849
 30
0.0
 11
1018.3260654877
 21
673.3973793849
 31
0.0
  0
LINE
  5
2F7
330
1F
100
AcDbEntity
  8
0
  6
Continuous
 62
     7
370
    15
100
AcDbLine
 10
1016.0110686291
 20
676.3686733576
 30
0.0
 11
1016.0110686291
 21
673.3973793849
 31
0.0
  0
LINE
  5
2F8
330
1F
100
AcDbEntity
  8
0
  6
Continuous
 62
     7
370
    15
100
AcDbLine
 10
958.3260654877
 20
676.3686733576
 30
0.0
 11
956.0110686291
 21
676.3686733576
 31
0.0
  0
LINE
  5
2F9
330
1F
100
AcDbEntity
  8
0
  6
Continuous
 62
     7
370
    15
100
AcDbLine
 10
958.3260654877
 20
673.3973793849
 30
0.0
 11
958.3260654877
 21
676.3686733576
 31
0.0
  0
LINE
  5
2FA
330
1F
100
AcDbEntity
  8
0
  6
Continuous
 62
     7
370
    15
100
AcDbLine
 10
956.0110686291
 20
673.3973793849
 30
0.0
 11
958.3260654877
 21
673.3973793849
 31
0.0
  0
LINE
  5
2FB
330
1F
100
AcDbEntity
  8
0
  6
Continuous
 62
     7
370
    15
100
AcDbLine
 10
956.0110686291
 20
676.3686733576
 30
0.0
 11
956.0110686291
 21
673.3973793849
 31
0.0
  0
LINE
  5
2FC
330
1F
100
AcDbEntity
  8
0
  6
Continuous
 62
     7
370
    15
100
AcDbLine
 10
1088.3260654877
 20
676.3686733576
 30
0.0
 11
1086.0110686291
 21
676.3686733576
 31
0.0
  0
LINE
  5
2FD
330
1F
100
AcDbEntity
  8
0
  6
Continuous
 62
     7
370
    15
100
AcDbLine
 10
1088.3260654877
 20
673.3973793849
 30
0.0
 11
1088.3260654877
 21
676.3686733576
 31
0.0
  0
LINE
  5
2FE
330
1F
100
AcDbEntity
  8
0
  6
Continuous
 62
     7
370
    15
100
AcDbLine
 10
1086.0110686291
 20
673.3973793849
 30
0.0
 11
1088.3260654877
 21
673.3973793849
 31
0.0
  0
LINE
  5
2FF
330
1F
100
AcDbEntity
  8
0
  6
Continuous
 62
     7
370
    15
100
AcDbLine
 10
1086.0110686291
 20
676.3686733576
 30
0.0
 11
1086.0110686291
 21
673.3973793849
 31
0.0
  0
LINE
  5
300
330
1F
100
AcDbEntity
  8
0
  6
Continuous
 62
     7
370
    15
100
AcDbLine
 10
1098.3260654877
 20
676.3686733576
 30
0.0
 11
1096.0110686291
 21
676.3686733576
 31
0.0
  0
LINE
  5
301
330
1F
100
AcDbEntity
  8
0
  6
Continuous
 62
     7
370
    15
100
AcDbLine
 10
1098.3260654877
 20
673.3973793849
 30
0.0
 11
1098.3260654877
 21
676.3686733576
 31
0.0
  0
LINE
  5
302
330
1F
100
AcDbEntity
  8
0
  6
Continuous
 62
     7
370
    15
100
AcDbLine
 10
1096.0110686291
 20
673.3973793849
 30
0.0
 11
1098.3260654877
 21
673.3973793849
 31
0.0
  0
LINE
  5
303
330
1F
100
AcDbEntity
  8
0
  6
Continuous
 62
     7
370
    15
100
AcDbLine
 10
1096.0110686291
 20
676.3686733576
 30
0.0
 11
1096.0110686291
 21
673.3973793849
 31
0.0
  0
LINE
  5
304
330
1F
100
AcDbEntity
  8
0
  6
Continuous
 62
     7
370
    15
100
AcDbLine
 10
158.3260654877
 20
671.7566139595
 30
0.0
 11
156.0110686291
 21
671.7566139595
 31
0.0
  0
LINE
  5
305
330
1F
100
AcDbEntity
  8
0
  6
Continuous
 62
     7
370
    15
100
AcDbLine
 10
158.3260654877
 20
668.7853199868
 30
0.0
 11
158.3260654877
 21
671.7566139595
 31
0.0
  0
LINE
  5
306
330
1F
100
AcDbEntity
  8
0
  6
Continuous
 62
     7
370
    15
100
AcDbLine
 10
156.0110686291
 20
668.7853199868
 30
0.0
 11
158.3260654877
 21
668.7853199868
 31
0.0
  0
LINE
  5
307
330
1F
100
AcDbEntity
  8
0
  6
Continuous
 62
     7
370
    15
100
AcDbLine
 10
156.0110686291
 20
671.7566139595
 30
0.0
 11
156.0110686291
 21
668.7853199868
 31
0.0
  0
LINE
  5
308
330
1F
100
AcDbEntity
  8
0
  6
Continuous
 62
     7
370
    15
100
AcDbLine
 10
668.3260654877
 20
671.7566139595
 30
0.0
 11
666.0110686291
 21
671.7566139595
 31
0.0
  0
LINE
  5
309
330
1F
100
AcDbEntity
  8
0
  6
Continuous
 62
     7
370
    15
100
AcDbLine
 10
668.3260654877
 20
668.7853199868
 30
0.0
 11
668.3260654877
 21
671.7566139595
 31
0.0
  0
LINE
  5
30A
330
1F
100
AcDbEntity
  8
0
  6
Continuous
 62
     7
370
    15
100
AcDbLine
 10
666.0110686291
 20
668.7853199868
 30
0.0
 11
668.3260654877
 21
668.7853199868
 31
0.0
  0
LINE
  5
30B
330
1F
100
AcDbEntity
  8
0
  6
Continuous
 62
     7
370
    15
100
AcDbLine
 10
666.0110686291
 20
671.7566139595
 30
0.0
 11
666.0110686291
 21
668.7853199868
 31
0.0
  0
LINE
  5
30C
330
1F
100
AcDbEntity
  8
0
  6
Continuous
 62
     7
370
    15
100
AcDbLine
 10
658.3260654877
 20
671.7566139595
 30
0.0
 11
656.0110686291
 21
671.7566139595
 31
0.0
  0
LINE
  5
30D
330
1F
100
AcDbEntity
  8
0
  6
Continuous
 62
     7
370
    15
100
AcDbLine
 10
658.3260654877
 20
668.7853199868
 30
0.0
 11
658.3260654877
 21
671.7566139595
 31
0.0
  0
LINE
  5
30E
330
1F
100
AcDbEntity
  8
0
  6
Continuous
 62
     7
370
    15
100
AcDbLine
 10
656.0110686291
 20
668.7853199868
 30
0.0
 11
658.3260654877
 21
668.7853199868
 31
0.0
  0
LINE
  5
30F
330
1F
100
AcDbEntity
  8
0
  6
Continuous
 62
     7
370
    15
100
AcDbLine
 10
656.0110686291
 20
671.7566139595
 30
0.0
 11
656.0110686291
 21
668.7853199868
 31
0.0
  0
LINE
  5
310
330
1F
100
AcDbEntity
  8
0
  6
Continuous
 62
     7
370
    15
100
AcDbLine
 10
458.3260654877
 20
668.7853199868
 30
0.0
 11
458.3260654877
 21
671.7566139595
 31
0.0
  0
LINE
  5
311
330
1F
100
AcDbEntity
  8
0
  6
Continuous
 62
     7
370
    15
100
AcDbLine
 10
456.0110686291
 20
668.7853199868
 30
0.0
 11
458.3260654877
 21
668.7853199868
 31
0.0
  0
LINE
  5
312
330
1F
100
AcDbEntity
  8
0
  6
Continuous
 62
     7
370
    15
100
AcDbLine
 10
456.0110686291
 20
671.7566139595
 30
0.0
 11
456.0110686291
 21
668.7853199868
 31
0.0
  0
LINE
  5
313
330
1F
100
AcDbEntity
  8
0
  6
Continuous
 62
     7
370
    15
100
AcDbLine
 10
458.3260654877
 20
671.7566139595
 30
0.0
 11
456.0110686291
 21
671.7566139595
 31
0.0
  0
LINE
  5
314
330
1F
100
AcDbEntity
  8
0
  6
Continuous
 62
     7
370
    15
100
AcDbLine
 10
208.3260654877
 20
668.7853199868
 30
0.0
 11
208.3260654877
 21
671.7566139595
 31
0.0
  0
LINE
  5
315
330
1F
100
AcDbEntity
  8
0
  6
Continuous
 62
     7
370
    15
100
AcDbLine
 10
206.0110686291
 20
668.7853199868
 30
0.0
 11
208.3260654877
 21
668.7853199868
 31
0.0
  0
LINE
  5
316
330
1F
100
AcDbEntity
  8
0
  6
Continuous
 62
     7
370
    15
100
AcDbLine
 10
206.0110686291
 20
671.7566139595
 30
0.0
 11
206.0110686291
 21
668.7853199868
 31
0.0
  0
LINE
  5
317
330
1F
100
AcDbEntity
  8
0
  6
Continuous
 62
     7
370
    15
100
AcDbLine
 10
208.3260654877
 20
671.7566139595
 30
0.0
 11
206.0110686291
 21
671.7566139595
 31
0.0
  0
LINE
  5
318
330
1F
100
AcDbEntity
  8
0
  6
Continuous
 62
     7
370
    15
100
AcDbLine
 10
396.0110686291
 20
668.7853199868
 30
0.0
 11
398.3260654877
 21
668.7853199868
 31
0.0
  0
LINE
  5
319
330
1F
100
AcDbEntity
  8
0
  6
Continuous
 62
     7
370
    15
100
AcDbLine
 10
396.0110686291
 20
671.7566139595
 30
0.0
 11
396.0110686291
 21
668.7853199868
 31
0.0
  0
LINE
  5
31A
330
1F
100
AcDbEntity
  8
0
  6
Continuous
 62
     7
370
    15
100
AcDbLine
 10
398.3260654877
 20
668.7853199868
 30
0.0
 11
398.3260654877
 21
671.7566139595
 31
0.0
  0
LINE
  5
31B
330
1F
100
AcDbEntity
  8
0
  6
Continuous
 62
     7
370
    15
100
AcDbLine
 10
398.3260654877
 20
671.7566139595
 30
0.0
 11
396.0110686291
 21
671.7566139595
 31
0.0
  0
LINE
  5
31C
330
1F
100
AcDbEntity
  8
0
  6
Continuous
 62
     7
370
    15
100
AcDbLine
 10
338.3260654877
 20
668.7853199868
 30
0.0
 11
338.3260654877
 21
671.7566139595
 31
0.0
  0
LINE
  5
31D
330
1F
100
AcDbEntity
  8
0
  6
Continuous
 62
     7
370
    15
100
AcDbLine
 10
336.0110686291
 20
668.7853199868
 30
0.0
 11
338.3260654877
 21
668.7853199868
 31
0.0
  0
LINE
  5
31E
330
1F
100
AcDbEntity
  8
0
  6
Continuous
 62
     7
370
    15
100
AcDbLine
 10
336.0110686291
 20
671.7566139595
 30
0.0
 11
336.0110686291
 21
668.7853199868
 31
0.0
  0
LINE
  5
31F
330
1F
100
AcDbEntity
  8
0
  6
Continuous
 62
     7
370
    15
100
AcDbLine
 10
338.3260654877
 20
671.7566139595
 30
0.0
 11
336.0110686291
 21
671.7566139595
 31
0.0
  0
LINE
  5
320
330
1F
100
AcDbEntity
  8
0
  6
Continuous
 62
     7
370
    15
100
AcDbLine
 10
528.3260654877
 20
668.7853199868
 30
0.0
 11
528.3260654877
 21
671.7566139595
 31
0.0
  0
LINE
  5
321
330
1F
100
AcDbEntity
  8
0
  6
Continuous
 62
     7
370
    15
100
AcDbLine
 10
526.0110686291
 20
668.7853199868
 30
0.0
 11
528.3260654877
 21
668.7853199868
 31
0.0
  0
LINE
  5
322
330
1F
100
AcDbEntity
  8
0
  6
Continuous
 62
     7
370
    15
100
AcDbLine
 10
526.0110686291
 20
671.7566139595
 30
0.0
 11
526.0110686291
 21
668.7853199868
 31
0.0
  0
LINE
  5
323
330
1F
100
AcDbEntity
  8
0
  6
Continuous
 62
     7
370
    15
100
AcDbLine
 10
528.3260654877
 20
671.7566139595
 30
0.0
 11
526.0110686291
 21
671.7566139595
 31
0.0
  0
LINE
  5
324
330
1F
100
AcDbEntity
  8
0
  6
Continuous
 62
     7
370
    15
100
AcDbLine
 10
276.0110686291
 20
668.7853199868
 30
0.0
 11
278.3260654877
 21
668.7853199868
 31
0.0
  0
LINE
  5
325
330
1F
100
AcDbEntity
  8
0
  6
Continuous
 62
     7
370
    15
100
AcDbLine
 10
276.0110686291
 20
671.7566139595
 30
0.0
 11
276.0110686291
 21
668.7853199868
 31
0.0
  0
LINE
  5
326
330
1F
100
AcDbEntity
  8
0
  6
Continuous
 62
     7
370
    15
100
AcDbLine
 10
278.3260654877
 20
668.7853199868
 30
0.0
 11
278.3260654877
 21
671.7566139595
 31
0.0
  0
LINE
  5
327
330
1F
100
AcDbEntity
  8
0
  6
Continuous
 62
     7
370
    15
100
AcDbLine
 10
278.3260654877
 20
671.7566139595
 30
0.0
 11
276.0110686291
 21
671.7566139595
 31
0.0
  0
LINE
  5
328
330
1F
100
AcDbEntity
  8
0
  6
Continuous
 62
     7
370
    15
100
AcDbLine
 10
468.3260654877
 20
668.7853199868
 30
0.0
 11
468.3260654877
 21
671.7566139595
 31
0.0
  0
LINE
  5
329
330
1F
100
AcDbEntity
  8
0
  6
Continuous
 62
     7
370
    15
100
AcDbLine
 10
466.0110686291
 20
668.7853199868
 30
0.0
 11
468.3260654877
 21
668.7853199868
 31
0.0
  0
LINE
  5
32A
330
1F
100
AcDbEntity
  8
0
  6
Continuous
 62
     7
370
    15
100
AcDbLine
 10
466.0110686291
 20
671.7566139595
 30
0.0
 11
466.0110686291
 21
668.7853199868
 31
0.0
  0
LINE
  5
32B
330
1F
100
AcDbEntity
  8
0
  6
Continuous
 62
     7
370
    15
100
AcDbLine
 10
468.3260654877
 20
671.7566139595
 30
0.0
 11
466.0110686291
 21
671.7566139595
 31
0.0
  0
LINE
  5
32C
330
1F
100
AcDbEntity
  8
0
  6
Continuous
 62
     7
370
    15
100
AcDbLine
 10
218.3260654877
 20
668.7853199868
 30
0.0
 11
218.3260654877
 21
671.7566139595
 31
0.0
  0
LINE
  5
32D
330
1F
100
AcDbEntity
  8
0
  6
Continuous
 62
     7
370
    15
100
AcDbLine
 10
216.0110686291
 20
668.7853199868
 30
0.0
 11
218.3260654877
 21
668.7853199868
 31
0.0
  0
LINE
  5
32E
330
1F
100
AcDbEntity
  8
0
  6
Continuous
 62
     7
370
    15
100
AcDbLine
 10
216.0110686291
 20
671.7566139595
 30
0.0
 11
216.0110686291
 21
668.7853199868
 31
0.0
  0
LINE
  5
32F
330
1F
100
AcDbEntity
  8
0
  6
Continuous
 62
     7
370
    15
100
AcDbLine
 10
218.3260654877
 20
671.7566139595
 30
0.0
 11
216.0110686291
 21
671.7566139595
 31
0.0
  0
LINE
  5
330
330
1F
100
AcDbEntity
  8
0
  6
Continuous
 62
     7
370
    15
100
AcDbLine
 10
408.3260654877
 20
671.7566139595
 30
0.0
 11
406.0110686291
 21
671.7566139595
 31
0.0
  0
LINE
  5
331
330
1F
100
AcDbEntity
  8
0
  6
Continuous
 62
     7
370
    15
100
AcDbLine
 10
406.0110686291
 20
668.7853199868
 30
0.0
 11
408.3260654877
 21
668.7853199868
 31
0.0
  0
LINE
  5
332
330
1F
100
AcDbEntity
  8
0
  6
Continuous
 62
     7
370
    15
100
AcDbLine
 10
406.0110686291
 20
671.7566139595
 30
0.0
 11
406.0110686291
 21
668.7853199868
 31
0.0
  0
LINE
  5
333
330
1F
100
AcDbEntity
  8
0
  6
Continuous
 62
     7
370
    15
100
AcDbLine
 10
408.3260654877
 20
668.7853199868
 30
0.0
 11
408.3260654877
 21
671.7566139595
 31
0.0
  0
LINE
  5
334
330
1F
100
AcDbEntity
  8
0
  6
Continuous
 62
     7
370
    15
100
AcDbLine
 10
598.3260654877
 20
668.7853199868
 30
0.0
 11
598.3260654877
 21
671.7566139595
 31
0.0
  0
LINE
  5
335
330
1F
100
AcDbEntity
  8
0
  6
Continuous
 62
     7
370
    15
100
AcDbLine
 10
596.0110686291
 20
668.7853199868
 30
0.0
 11
598.3260654877
 21
668.7853199868
 31
0.0
  0
LINE
  5
336
330
1F
100
AcDbEntity
  8
0
  6
Continuous
 62
     7
370
    15
100
AcDbLine
 10
596.0110686291
 20
671.7566139595
 30
0.0
 11
596.0110686291
 21
668.7853199868
 31
0.0
  0
LINE
  5
337
330
1F
100
AcDbEntity
  8
0
  6
Continuous
 62
     7
370
    15
100
AcDbLine
 10
598.3260654877
 20
671.7566139595
 30
0.0
 11
596.0110686291
 21
671.7566139595
 31
0.0
  0
LINE
  5
338
330
1F
100
AcDbEntity
  8
0
  6
Continuous
 62
     7
370
    15
100
AcDbLine
 10
348.3260654877
 20
668.7853199868
 30
0.0
 11
348.3260654877
 21
671.7566139595
 31
0.0
  0
LINE
  5
339
330
1F
100
AcDbEntity
  8
0
  6
Continuous
 62
     7
370
    15
100
AcDbLine
 10
346.0110686291
 20
668.7853199868
 30
0.0
 11
348.3260654877
 21
668.7853199868
 31
0.0
  0
LINE
  5
33A
330
1F
100
AcDbEntity
  8
0
  6
Continuous
 62
     7
370
    15
100
AcDbLine
 10
346.0110686291
 20
671.7566139595
 30
0.0
 11
346.0110686291
 21
668.7853199868
 31
0.0
  0
LINE
  5
33B
330
1F
100
AcDbEntity
  8
0
  6
Continuous
 62
     7
370
    15
100
AcDbLine
 10
348.3260654877
 20
671.7566139595
 30
0.0
 11
346.0110686291
 21
671.7566139595
 31
0.0
  0
LINE
  5
33C
330
1F
100
AcDbEntity
  8
0
  6
Continuous
 62
     7
370
    15
100
AcDbLine
 10
538.3260654877
 20
668.7853199868
 30
0.0
 11
538.3260654877
 21
671.7566139595
 31
0.0
  0
LINE
  5
33D
330
1F
100
AcDbEntity
  8
0
  6
Continuous
 62
     7
370
    15
100
AcDbLine
 10
536.0110686291
 20
668.7853199868
 30
0.0
 11
538.3260654877
 21
668.7853199868
 31
0.0
  0
LINE
  5
33E
330
1F
100
AcDbEntity
  8
0
  6
Continuous
 62
     7
370
    15
100
AcDbLine
 10
536.0110686291
 20
671.7566139595
 30
0.0
 11
536.0110686291
 21
668.7853199868
 31
0.0
  0
LINE
  5
33F
330
1F
100
AcDbEntity
  8
0
  6
Continuous
 62
     7
370
    15
100
AcDbLine
 10
538.3260654877
 20
671.7566139595
 30
0.0
 11
536.0110686291
 21
671.7566139595
 31
0.0
  0
LINE
  5
340
330
1F
100
AcDbEntity
  8
0
  6
Continuous
 62
     7
370
    15
100
AcDbLine
 10
286.0110686291
 20
668.7853199868
 30
0.0
 11
288.3260654877
 21
668.7853199868
 31
0.0
  0
LINE
  5
341
330
1F
100
AcDbEntity
  8
0
  6
Continuous
 62
     7
370
    15
100
AcDbLine
 10
286.0110686291
 20
671.7566139595
 30
0.0
 11
286.0110686291
 21
668.7853199868
 31
0.0
  0
LINE
  5
342
330
1F
100
AcDbEntity
  8
0
  6
Continuous
 62
     7
370
    15
100
AcDbLine
 10
288.3260654877
 20
668.7853199868
 30
0.0
 11
288.3260654877
 21
671.7566139595
 31
0.0
  0
LINE
  5
343
330
1F
100
AcDbEntity
  8
0
  6
Continuous
 62
     7
370
    15
100
AcDbLine
 10
288.3260654877
 20
671.7566139595
 30
0.0
 11
286.0110686291
 21
671.7566139595
 31
0.0
  0
LINE
  5
344
330
1F
100
AcDbEntity
  8
0
  6
Continuous
 62
     7
370
    15
100
AcDbLine
 10
478.3260654877
 20
668.7853199868
 30
0.0
 11
478.3260654877
 21
671.7566139595
 31
0.0
  0
LINE
  5
345
330
1F
100
AcDbEntity
  8
0
  6
Continuous
 62
     7
370
    15
100
AcDbLine
 10
476.0110686291
 20
668.7853199868
 30
0.0
 11
478.3260654877
 21
668.7853199868
 31
0.0
  0
LINE
  5
346
330
1F
100
AcDbEntity
  8
0
  6
Continuous
 62
     7
370
    15
100
AcDbLine
 10
476.0110686291
 20
671.7566139595
 30
0.0
 11
476.0110686291
 21
668.7853199868
 31
0.0
  0
LINE
  5
347
330
1F
100
AcDbEntity
  8
0
  6
Continuous
 62
     7
370
    15
100
AcDbLine
 10
478.3260654877
 20
671.7566139595
 30
0.0
 11
476.0110686291
 21
671.7566139595
 31
0.0
  0
LINE
  5
348
330
1F
100
AcDbEntity
  8
0
  6
Continuous
 62
     7
370
    15
100
AcDbLine
 10
228.3260654877
 20
668.7853199868
 30
0.0
 11
228.3260654877
 21
671.7566139595
 31
0.0
  0
LINE
  5
349
330
1F
100
AcDbEntity
  8
0
  6
Continuous
 62
     7
370
    15
100
AcDbLine
 10
226.0110686291
 20
668.7853199868
 30
0.0
 11
228.3260654877
 21
668.7853199868
 31
0.0
  0
LINE
  5
34A
330
1F
100
AcDbEntity
  8
0
  6
Continuous
 62
     7
370
    15
100
AcDbLine
 10
226.0110686291
 20
671.7566139595
 30
0.0
 11
226.0110686291
 21
668.7853199868
 31
0.0
  0
LINE
  5
34B
330
1F
100
AcDbEntity
  8
0
  6
Continuous
 62
     7
370
    15
100
AcDbLine
 10
228.3260654877
 20
671.7566139595
 30
0.0
 11
226.0110686291
 21
671.7566139595
 31
0.0
  0
LINE
  5
34C
330
1F
100
AcDbEntity
  8
0
  6
Continuous
 62
     7
370
    15
100
AcDbLine
 10
416.0110686291
 20
668.7853199868
 30
0.0
 11
418.3260654877
 21
668.7853199868
 31
0.0
  0
LINE
  5
34D
330
1F
100
AcDbEntity
  8
0
  6
Continuous
 62
     7
370
    15
100
AcDbLine
 10
416.0110686291
 20
671.7566139595
 30
0.0
 11
416.0110686291
 21
668.7853199868
 31
0.0
  0
LINE
  5
34E
330
1F
100
AcDbEntity
  8
0
  6
Continuous
 62
     7
370
    15
100
AcDbLine
 10
418.3260654877
 20
668.7853199868
 30
0.0
 11
418.3260654877
 21
671.7566139595
 31
0.0
  0
LINE
  5
34F
330
1F
100
AcDbEntity
  8
0
  6
Continuous
 62
     7
370
    15
100
AcDbLine
 10
418.3260654877
 20
671.7566139595
 30
0.0
 11
416.0110686291
 21
671.7566139595
 31
0.0
  0
LINE
  5
350
330
1F
100
AcDbEntity
  8
0
  6
Continuous
 62
     7
370
    15
100
AcDbLine
 10
166.0110686291
 20
668.7853199868
 30
0.0
 11
168.3260654877
 21
668.7853199868
 31
0.0
  0
LINE
  5
351
330
1F
100
AcDbEntity
  8
0
  6
Continuous
 62
     7
370
    15
100
AcDbLine
 10
166.0110686291
 20
671.7566139595
 30
0.0
 11
166.0110686291
 21
668.7853199868
 31
0.0
  0
LINE
  5
352
330
1F
100
AcDbEntity
  8
0
  6
Continuous
 62
     7
370
    15
100
AcDbLine
 10
168.3260654877
 20
671.7566139595
 30
0.0
 11
166.0110686291
 21
671.7566139595
 31
0.0
  0
LINE
  5
353
330
1F
100
AcDbEntity
  8
0
  6
Continuous
 62
     7
370
    15
100
AcDbLine
 10
168.3260654877
 20
668.7853199868
 30
0.0
 11
168.3260654877
 21
671.7566139595
 31
0.0
  0
LINE
  5
354
330
1F
100
AcDbEntity
  8
0
  6
Continuous
 62
     7
370
    15
100
AcDbLine
 10
358.3260654877
 20
668.7853199868
 30
0.0
 11
358.3260654877
 21
671.7566139595
 31
0.0
  0
LINE
  5
355
330
1F
100
AcDbEntity
  8
0
  6
Continuous
 62
     7
370
    15
100
AcDbLine
 10
356.0110686291
 20
668.7853199868
 30
0.0
 11
358.3260654877
 21
668.7853199868
 31
0.0
  0
LINE
  5
356
330
1F
100
AcDbEntity
  8
0
  6
Continuous
 62
     7
370
    15
100
AcDbLine
 10
356.0110686291
 20
671.7566139595
 30
0.0
 11
356.0110686291
 21
668.7853199868
 31
0.0
  0
LINE
  5
357
330
1F
100
AcDbEntity
  8
0
  6
Continuous
 62
     7
370
    15
100
AcDbLine
 10
358.3260654877
 20
671.7566139595
 30
0.0
 11
356.0110686291
 21
671.7566139595
 31
0.0
  0
LINE
  5
358
330
1F
100
AcDbEntity
  8
0
  6
Continuous
 62
     7
370
    15
100
AcDbLine
 10
548.3260654877
 20
668.7853199868
 30
0.0
 11
548.3260654877
 21
671.7566139595
 31
0.0
  0
LINE
  5
359
330
1F
100
AcDbEntity
  8
0
  6
Continuous
 62
     7
370
    15
100
AcDbLine
 10
546.0110686291
 20
668.7853199868
 30
0.0
 11
548.3260654877
 21
668.7853199868
 31
0.0
  0
LINE
  5
35A
330
1F
100
AcDbEntity
  8
0
  6
Continuous
 62
     7
370
    15
100
AcDbLine
 10
546.0110686291
 20
671.7566139595
 30
0.0
 11
546.0110686291
 21
668.7853199868
 31
0.0
  0
LINE
  5
35B
330
1F
100
AcDbEntity
  8
0
  6
Continuous
 62
     7
370
    15
100
AcDbLine
 10
548.3260654877
 20
671.7566139595
 30
0.0
 11
546.0110686291
 21
671.7566139595
 31
0.0
  0
LINE
  5
35C
330
1F
100
AcDbEntity
  8
0
  6
Continuous
 62
     7
370
    15
100
AcDbLine
 10
296.0110686291
 20
668.7853199868
 30
0.0
 11
298.3260654877
 21
668.7853199868
 31
0.0
  0
LINE
  5
35D
330
1F
100
AcDbEntity
  8
0
  6
Continuous
 62
     7
370
    15
100
AcDbLine
 10
296.0110686291
 20
671.7566139595
 30
0.0
 11
296.0110686291
 21
668.7853199868
 31
0.0
  0
LINE
  5
35E
330
1F
100
AcDbEntity
  8
0
  6
Continuous
 62
     7
370
    15
100
AcDbLine
 10
298.3260654877
 20
668.7853199868
 30
0.0
 11
298.3260654877
 21
671.7566139595
 31
0.0
  0
LINE
  5
35F
330
1F
100
AcDbEntity
  8
0
  6
Continuous
 62
     7
370
    15
100
AcDbLine
 10
298.3260654877
 20
671.7566139595
 30
0.0
 11
296.0110686291
 21
671.7566139595
 31
0.0
  0
LINE
  5
360
330
1F
100
AcDbEntity
  8
0
  6
Continuous
 62
     7
370
    15
100
AcDbLine
 10
238.3260654877
 20
668.7853199868
 30
0.0
 11
238.3260654877
 21
671.7566139595
 31
0.0
  0
LINE
  5
361
330
1F
100
AcDbEntity
  8
0
  6
Continuous
 62
     7
370
    15
100
AcDbLine
 10
236.0110686291
 20
668.7853199868
 30
0.0
 11
238.3260654877
 21
668.7853199868
 31
0.0
  0
LINE
  5
362
330
1F
100
AcDbEntity
  8
0
  6
Continuous
 62
     7
370
    15
100
AcDbLine
 10
236.0110686291
 20
671.7566139595
 30
0.0
 11
236.0110686291
 21
668.7853199868
 31
0.0
  0
LINE
  5
363
330
1F
100
AcDbEntity
  8
0
  6
Continuous
 62
     7
370
    15
100
AcDbLine
 10
238.3260654877
 20
671.7566139595
 30
0.0
 11
236.0110686291
 21
671.7566139595
 31
0.0
  0
LINE
  5
364
330
1F
100
AcDbEntity
  8
0
  6
Continuous
 62
     7
370
    15
100
AcDbLine
 10
428.3260654877
 20
668.7853199868
 30
0.0
 11
428.3260654877
 21
671.7566139595
 31
0.0
  0
LINE
  5
365
330
1F
100
AcDbEntity
  8
0
  6
Continuous
 62
     7
370
    15
100
AcDbLine
 10
426.0110686291
 20
668.7853199868
 30
0.0
 11
428.3260654877
 21
668.7853199868
 31
0.0
  0
LINE
  5
366
330
1F
100
AcDbEntity
  8
0
  6
Continuous
 62
     7
370
    15
100
AcDbLine
 10
426.0110686291
 20
671.7566139595
 30
0.0
 11
426.0110686291
 21
668.7853199868
 31
0.0
  0
LINE
  5
367
330
1F
100
AcDbEntity
  8
0
  6
Continuous
 62
     7
370
    15
100
AcDbLine
 10
428.3260654877
 20
671.7566139595
 30
0.0
 11
426.0110686291
 21
671.7566139595
 31
0.0
  0
LINE
  5
368
330
1F
100
AcDbEntity
  8
0
  6
Continuous
 62
     7
370
    15
100
AcDbLine
 10
176.0110686291
 20
668.7853199868
 30
0.0
 11
178.3260654877
 21
668.7853199868
 31
0.0
  0
LINE
  5
369
330
1F
100
AcDbEntity
  8
0
  6
Continuous
 62
     7
370
    15
100
AcDbLine
 10
178.3260654877
 20
668.7853199868
 30
0.0
 11
178.3260654877
 21
671.7566139595
 31
0.0
  0
LINE
  5
36A
330
1F
100
AcDbEntity
  8
0
  6
Continuous
 62
     7
370
    15
100
AcDbLine
 10
176.0110686291
 20
671.7566139595
 30
0.0
 11
176.0110686291
 21
668.7853199868
 31
0.0
  0
LINE
  5
36B
330
1F
100
AcDbEntity
  8
0
  6
Continuous
 62
     7
370
    15
100
AcDbLine
 10
178.3260654877
 20
671.7566139595
 30
0.0
 11
176.0110686291
 21
671.7566139595
 31
0.0
  0
LINE
  5
36C
330
1F
100
AcDbEntity
  8
0
  6
Continuous
 62
     7
370
    15
100
AcDbLine
 10
368.3260654877
 20
668.7853199868
 30
0.0
 11
368.3260654877
 21
671.7566139595
 31
0.0
  0
LINE
  5
36D
330
1F
100
AcDbEntity
  8
0
  6
Continuous
 62
     7
370
    15
100
AcDbLine
 10
366.0110686291
 20
668.7853199868
 30
0.0
 11
368.3260654877
 21
668.7853199868
 31
0.0
  0
LINE
  5
36E
330
1F
100
AcDbEntity
  8
0
  6
Continuous
 62
     7
370
    15
100
AcDbLine
 10
366.0110686291
 20
671.7566139595
 30
0.0
 11
366.0110686291
 21
668.7853199868
 31
0.0
  0
LINE
  5
36F
330
1F
100
AcDbEntity
  8
0
  6
Continuous
 62
     7
370
    15
100
AcDbLine
 10
368.3260654877
 20
671.7566139595
 30
0.0
 11
366.0110686291
 21
671.7566139595
 31
0.0
  0
LINE
  5
370
330
1F
100
AcDbEntity
  8
0
  6
Continuous
 62
     7
370
    15
100
AcDbLine
 10
558.3260654877
 20
668.7853199868
 30
0.0
 11
558.3260654877
 21
671.7566139595
 31
0.0
  0
LINE
  5
371
330
1F
100
AcDbEntity
  8
0
  6
Continuous
 62
     7
370
    15
100
AcDbLine
 10
556.0110686291
 20
668.7853199868
 30
0.0
 11
558.3260654877
 21
668.7853199868
 31
0.0
  0
LINE
  5
372
330
1F
100
AcDbEntity
  8
0
  6
Continuous
 62
     7
370
    15
100
AcDbLine
 10
556.0110686291
 20
671.7566139595
 30
0.0
 11
556.0110686291
 21
668.7853199868
 31
0.0
  0
LINE
  5
373
330
1F
100
AcDbEntity
  8
0
  6
Continuous
 62
     7
370
    15
100
AcDbLine
 10
558.3260654877
 20
671.7566139595
 30
0.0
 11
556.0110686291
 21
671.7566139595
 31
0.0
  0
LINE
  5
374
330
1F
100
AcDbEntity
  8
0
  6
Continuous
 62
     7
370
    15
100
AcDbLine
 10
306.0110686291
 20
668.7853199868
 30
0.0
 11
308.3260654877
 21
668.7853199868
 31
0.0
  0
LINE
  5
375
330
1F
100
AcDbEntity
  8
0
  6
Continuous
 62
     7
370
    15
100
AcDbLine
 10
306.0110686291
 20
671.7566139595
 30
0.0
 11
306.0110686291
 21
668.7853199868
 31
0.0
  0
LINE
  5
376
330
1F
100
AcDbEntity
  8
0
  6
Continuous
 62
     7
370
    15
100
AcDbLine
 10
308.3260654877
 20
668.7853199868
 30
0.0
 11
308.3260654877
 21
671.7566139595
 31
0.0
  0
LINE
  5
377
330
1F
100
AcDbEntity
  8
0
  6
Continuous
 62
     7
370
    15
100
AcDbLine
 10
308.3260654877
 20
671.7566139595
 30
0.0
 11
306.0110686291
 21
671.7566139595
 31
0.0
  0
LINE
  5
378
330
1F
100
AcDbEntity
  8
0
  6
Continuous
 62
     7
370
    15
100
AcDbLine
 10
248.3260654877
 20
668.7853199868
 30
0.0
 11
248.3260654877
 21
671.7566139595
 31
0.0
  0
LINE
  5
379
330
1F
100
AcDbEntity
  8
0
  6
Continuous
 62
     7
370
    15
100
AcDbLine
 10
246.0110686291
 20
668.7853199868
 30
0.0
 11
248.3260654877
 21
668.7853199868
 31
0.0
  0
LINE
  5
37A
330
1F
100
AcDbEntity
  8
0
  6
Continuous
 62
     7
370
    15
100
AcDbLine
 10
246.0110686291
 20
671.7566139595
 30
0.0
 11
246.0110686291
 21
668.7853199868
 31
0.0
  0
LINE
  5
37B
330
1F
100
AcDbEntity
  8
0
  6
Continuous
 62
     7
370
    15
100
AcDbLine
 10
248.3260654877
 20
671.7566139595
 30
0.0
 11
246.0110686291
 21
671.7566139595
 31
0.0
  0
LINE
  5
37C
330
1F
100
AcDbEntity
  8
0
  6
Continuous
 62
     7
370
    15
100
AcDbLine
 10
438.3260654877
 20
668.7853199868
 30
0.0
 11
438.3260654877
 21
671.7566139595
 31
0.0
  0
LINE
  5
37D
330
1F
100
AcDbEntity
  8
0
  6
Continuous
 62
     7
370
    15
100
AcDbLine
 10
436.0110686291
 20
668.7853199868
 30
0.0
 11
438.3260654877
 21
668.7853199868
 31
0.0
  0
LINE
  5
37E
330
1F
100
AcDbEntity
  8
0
  6
Continuous
 62
     7
370
    15
100
AcDbLine
 10
436.0110686291
 20
671.7566139595
 30
0.0
 11
436.0110686291
 21
668.7853199868
 31
0.0
  0
LINE
  5
37F
330
1F
100
AcDbEntity
  8
0
  6
Continuous
 62
     7
370
    15
100
AcDbLine
 10
438.3260654877
 20
671.7566139595
 30
0.0
 11
436.0110686291
 21
671.7566139595
 31
0.0
  0
LINE
  5
380
330
1F
100
AcDbEntity
  8
0
  6
Continuous
 62
     7
370
    15
100
AcDbLine
 10
186.0110686291
 20
668.7853199868
 30
0.0
 11
188.3260654877
 21
668.7853199868
 31
0.0
  0
LINE
  5
381
330
1F
100
AcDbEntity
  8
0
  6
Continuous
 62
     7
370
    15
100
AcDbLine
 10
188.3260654877
 20
668.7853199868
 30
0.0
 11
188.3260654877
 21
671.7566139595
 31
0.0
  0
LINE
  5
382
330
1F
100
AcDbEntity
  8
0
  6
Continuous
 62
     7
370
    15
100
AcDbLine
 10
186.0110686291
 20
671.7566139595
 30
0.0
 11
186.0110686291
 21
668.7853199868
 31
0.0
  0
LINE
  5
383
330
1F
100
AcDbEntity
  8
0
  6
Continuous
 62
     7
370
    15
100
AcDbLine
 10
188.3260654877
 20
671.7566139595
 30
0.0
 11
186.0110686291
 21
671.7566139595
 31
0.0
  0
LINE
  5
384
330
1F
100
AcDbEntity
  8
0
  6
Continuous
 62
     7
370
    15
100
AcDbLine
 10
378.3260654877
 20
668.7853199868
 30
0.0
 11
378.3260654877
 21
671.7566139595
 31
0.0
  0
LINE
  5
385
330
1F
100
AcDbEntity
  8
0
  6
Continuous
 62
     7
370
    15
100
AcDbLine
 10
376.0110686291
 20
668.7853199868
 30
0.0
 11
378.3260654877
 21
668.7853199868
 31
0.0
  0
LINE
  5
386
330
1F
100
AcDbEntity
  8
0
  6
Continuous
 62
     7
370
    15
100
AcDbLine
 10
376.0110686291
 20
671.7566139595
 30
0.0
 11
376.0110686291
 21
668.7853199868
 31
0.0
  0
LINE
  5
387
330
1F
100
AcDbEntity
  8
0
  6
Continuous
 62
     7
370
    15
100
AcDbLine
 10
378.3260654877
 20
671.7566139595
 30
0.0
 11
376.0110686291
 21
671.7566139595
 31
0.0
  0
LINE
  5
388
330
1F
100
AcDbEntity
  8
0
  6
Continuous
 62
     7
370
    15
100
AcDbLine
 10
568.3260654877
 20
668.7853199868
 30
0.0
 11
568.3260654877
 21
671.7566139595
 31
0.0
  0
LINE
  5
389
330
1F
100
AcDbEntity
  8
0
  6
Continuous
 62
     7
370
    15
100
AcDbLine
 10
566.0110686291
 20
668.7853199868
 30
0.0
 11
568.3260654877
 21
668.7853199868
 31
0.0
  0
LINE
  5
38A
330
1F
100
AcDbEntity
  8
0
  6
Continuous
 62
     7
370
    15
100
AcDbLine
 10
566.0110686291
 20
671.7566139595
 30
0.0
 11
566.0110686291
 21
668.7853199868
 31
0.0
  0
LINE
  5
38B
330
1F
100
AcDbEntity
  8
0
  6
Continuous
 62
     7
370
    15
100
AcDbLine
 10
568.3260654877
 20
671.7566139595
 30
0.0
 11
566.0110686291
 21
671.7566139595
 31
0.0
  0
LINE
  5
38C
330
1F
100
AcDbEntity
  8
0
  6
Continuous
 62
     7
370
    15
100
AcDbLine
 10
316.0110686291
 20
668.7853199868
 30
0.0
 11
318.3260654877
 21
668.7853199868
 31
0.0
  0
LINE
  5
38D
330
1F
100
AcDbEntity
  8
0
  6
Continuous
 62
     7
370
    15
100
AcDbLine
 10
316.0110686291
 20
671.7566139595
 30
0.0
 11
316.0110686291
 21
668.7853199868
 31
0.0
  0
LINE
  5
38E
330
1F
100
AcDbEntity
  8
0
  6
Continuous
 62
     7
370
    15
100
AcDbLine
 10
318.3260654877
 20
668.7853199868
 30
0.0
 11
318.3260654877
 21
671.7566139595
 31
0.0
  0
LINE
  5
38F
330
1F
100
AcDbEntity
  8
0
  6
Continuous
 62
     7
370
    15
100
AcDbLine
 10
318.3260654877
 20
671.7566139595
 30
0.0
 11
316.0110686291
 21
671.7566139595
 31
0.0
  0
LINE
  5
390
330
1F
100
AcDbEntity
  8
0
  6
Continuous
 62
     7
370
    15
100
AcDbLine
 10
258.3260654877
 20
668.7853199868
 30
0.0
 11
258.3260654877
 21
671.7566139595
 31
0.0
  0
LINE
  5
391
330
1F
100
AcDbEntity
  8
0
  6
Continuous
 62
     7
370
    15
100
AcDbLine
 10
256.0110686291
 20
668.7853199868
 30
0.0
 11
258.3260654877
 21
668.7853199868
 31
0.0
  0
LINE
  5
392
330
1F
100
AcDbEntity
  8
0
  6
Continuous
 62
     7
370
    15
100
AcDbLine
 10
256.0110686291
 20
671.7566139595
 30
0.0
 11
256.0110686291
 21
668.7853199868
 31
0.0
  0
LINE
  5
393
330
1F
100
AcDbEntity
  8
0
  6
Continuous
 62
     7
370
    15
100
AcDbLine
 10
258.3260654877
 20
671.7566139595
 30
0.0
 11
256.0110686291
 21
671.7566139595
 31
0.0
  0
LINE
  5
394
330
1F
100
AcDbEntity
  8
0
  6
Continuous
 62
     7
370
    15
100
AcDbLine
 10
448.3260654877
 20
668.7853199868
 30
0.0
 11
448.3260654877
 21
671.7566139595
 31
0.0
  0
LINE
  5
395
330
1F
100
AcDbEntity
  8
0
  6
Continuous
 62
     7
370
    15
100
AcDbLine
 10
446.0110686291
 20
668.7853199868
 30
0.0
 11
448.3260654877
 21
668.7853199868
 31
0.0
  0
LINE
  5
396
330
1F
100
AcDbEntity
  8
0
  6
Continuous
 62
     7
370
    15
100
AcDbLine
 10
446.0110686291
 20
671.7566139595
 30
0.0
 11
446.0110686291
 21
668.7853199868
 31
0.0
  0
LINE
  5
397
330
1F
100
AcDbEntity
  8
0
  6
Continuous
 62
     7
370
    15
100
AcDbLine
 10
448.3260654877
 20
671.7566139595
 30
0.0
 11
446.0110686291
 21
671.7566139595
 31
0.0
  0
LINE
  5
398
330
1F
100
AcDbEntity
  8
0
  6
Continuous
 62
     7
370
    15
100
AcDbLine
 10
196.0110686291
 20
668.7853199868
 30
0.0
 11
198.3260654877
 21
668.7853199868
 31
0.0
  0
LINE
  5
399
330
1F
100
AcDbEntity
  8
0
  6
Continuous
 62
     7
370
    15
100
AcDbLine
 10
198.3260654877
 20
668.7853199868
 30
0.0
 11
198.3260654877
 21
671.7566139595
 31
0.0
  0
LINE
  5
39A
330
1F
100
AcDbEntity
  8
0
  6
Continuous
 62
     7
370
    15
100
AcDbLine
 10
196.0110686291
 20
671.7566139595
 30
0.0
 11
196.0110686291
 21
668.7853199868
 31
0.0
  0
LINE
  5
39B
330
1F
100
AcDbEntity
  8
0
  6
Continuous
 62
     7
370
    15
100
AcDbLine
 10
198.3260654877
 20
671.7566139595
 30
0.0
 11
196.0110686291
 21
671.7566139595
 31
0.0
  0
LINE
  5
39C
330
1F
100
AcDbEntity
  8
0
  6
Continuous
 62
     7
370
    15
100
AcDbLine
 10
388.3260654877
 20
668.7853199868
 30
0.0
 11
388.3260654877
 21
671.7566139595
 31
0.0
  0
LINE
  5
39D
330
1F
100
AcDbEntity
  8
0
  6
Continuous
 62
     7
370
    15
100
AcDbLine
 10
386.0110686291
 20
668.7853199868
 30
0.0
 11
388.3260654877
 21
668.7853199868
 31
0.0
  0
LINE
  5
39E
330
1F
100
AcDbEntity
  8
0
  6
Continuous
 62
     7
370
    15
100
AcDbLine
 10
386.0110686291
 20
671.7566139595
 30
0.0
 11
386.0110686291
 21
668.7853199868
 31
0.0
  0
LINE
  5
39F
330
1F
100
AcDbEntity
  8
0
  6
Continuous
 62
     7
370
    15
100
AcDbLine
 10
388.3260654877
 20
671.7566139595
 30
0.0
 11
386.0110686291
 21
671.7566139595
 31
0.0
  0
LINE
  5
3A0
330
1F
100
AcDbEntity
  8
0
  6
Continuous
 62
     7
370
    15
100
AcDbLine
 10
578.3260654877
 20
668.7853199868
 30
0.0
 11
578.3260654877
 21
671.7566139595
 31
0.0
  0
LINE
  5
3A1
330
1F
100
AcDbEntity
  8
0
  6
Continuous
 62
     7
370
    15
100
AcDbLine
 10
576.0110686291
 20
668.7853199868
 30
0.0
 11
578.3260654877
 21
668.7853199868
 31
0.0
  0
LINE
  5
3A2
330
1F
100
AcDbEntity
  8
0
  6
Continuous
 62
     7
370
    15
100
AcDbLine
 10
576.0110686291
 20
671.7566139595
 30
0.0
 11
576.0110686291
 21
668.7853199868
 31
0.0
  0
LINE
  5
3A3
330
1F
100
AcDbEntity
  8
0
  6
Continuous
 62
     7
370
    15
100
AcDbLine
 10
578.3260654877
 20
671.7566139595
 30
0.0
 11
576.0110686291
 21
671.7566139595
 31
0.0
  0
LINE
  5
3A4
330
1F
100
AcDbEntity
  8
0
  6
Continuous
 62
     7
370
    15
100
AcDbLine
 10
326.0110686291
 20
668.7853199868
 30
0.0
 11
328.3260654877
 21
668.7853199868
 31
0.0
  0
LINE
  5
3A5
330
1F
100
AcDbEntity
  8
0
  6
Continuous
 62
     7
370
    15
100
AcDbLine
 10
326.0110686291
 20
671.7566139595
 30
0.0
 11
326.0110686291
 21
668.7853199868
 31
0.0
  0
LINE
  5
3A6
330
1F
100
AcDbEntity
  8
0
  6
Continuous
 62
     7
370
    15
100
AcDbLine
 10
328.3260654877
 20
668.7853199868
 30
0.0
 11
328.3260654877
 21
671.7566139595
 31
0.0
  0
LINE
  5
3A7
330
1F
100
AcDbEntity
  8
0
  6
Continuous
 62
     7
370
    15
100
AcDbLine
 10
328.3260654877
 20
671.7566139595
 30
0.0
 11
326.0110686291
 21
671.7566139595
 31
0.0
  0
LINE
  5
3A8
330
1F
100
AcDbEntity
  8
0
  6
Continuous
 62
     7
370
    15
100
AcDbLine
 10
268.3260654877
 20
668.7853199868
 30
0.0
 11
268.3260654877
 21
671.7566139595
 31
0.0
  0
LINE
  5
3A9
330
1F
100
AcDbEntity
  8
0
  6
Continuous
 62
     7
370
    15
100
AcDbLine
 10
266.0110686291
 20
668.7853199868
 30
0.0
 11
268.3260654877
 21
668.7853199868
 31
0.0
  0
LINE
  5
3AA
330
1F
100
AcDbEntity
  8
0
  6
Continuous
 62
     7
370
    15
100
AcDbLine
 10
266.0110686291
 20
671.7566139595
 30
0.0
 11
266.0110686291
 21
668.7853199868
 31
0.0
  0
LINE
  5
3AB
330
1F
100
AcDbEntity
  8
0
  6
Continuous
 62
     7
370
    15
100
AcDbLine
 10
268.3260654877
 20
671.7566139595
 30
0.0
 11
266.0110686291
 21
671.7566139595
 31
0.0
  0
LINE
  5
3AC
330
1F
100
AcDbEntity
  8
0
  6
Continuous
 62
     7
370
    15
100
AcDbLine
 10
648.3260654877
 20
671.7566139595
 30
0.0
 11
646.0110686291
 21
671.7566139595
 31
0.0
  0
LINE
  5
3AD
330
1F
100
AcDbEntity
  8
0
  6
Continuous
 62
     7
370
    15
100
AcDbLine
 10
648.3260654877
 20
668.7853199868
 30
0.0
 11
648.3260654877
 21
671.7566139595
 31
0.0
  0
LINE
  5
3AE
330
1F
100
AcDbEntity
  8
0
  6
Continuous
 62
     7
370
    15
100
AcDbLine
 10
646.0110686291
 20
668.7853199868
 30
0.0
 11
648.3260654877
 21
668.7853199868
 31
0.0
  0
LINE
  5
3AF
330
1F
100
AcDbEntity
  8
0
  6
Continuous
 62
     7
370
    15
100
AcDbLine
 10
646.0110686291
 20
671.7566139595
 30
0.0
 11
646.0110686291
 21
668.7853199868
 31
0.0
  0
LINE
  5
3B0
330
1F
100
AcDbEntity
  8
0
  6
Continuous
 62
     7
370
    15
100
AcDbLine
 10
778.3260654877
 20
668.7853199868
 30
0.0
 11
778.3260654877
 21
671.7566139595
 31
0.0
  0
LINE
  5
3B1
330
1F
100
AcDbEntity
  8
0
  6
Continuous
 62
     7
370
    15
100
AcDbLine
 10
776.0110686291
 20
668.7853199868
 30
0.0
 11
778.3260654877
 21
668.7853199868
 31
0.0
  0
LINE
  5
3B2
330
1F
100
AcDbEntity
  8
0
  6
Continuous
 62
     7
370
    15
100
AcDbLine
 10
776.0110686291
 20
671.7566139595
 30
0.0
 11
776.0110686291
 21
668.7853199868
 31
0.0
  0
LINE
  5
3B3
330
1F
100
AcDbEntity
  8
0
  6
Continuous
 62
     7
370
    15
100
AcDbLine
 10
778.3260654877
 20
671.7566139595
 30
0.0
 11
776.0110686291
 21
671.7566139595
 31
0.0
  0
LINE
  5
3B4
330
1F
100
AcDbEntity
  8
0
  6
Continuous
 62
     7
370
    15
100
AcDbLine
 10
588.3260654877
 20
668.7853199868
 30
0.0
 11
588.3260654877
 21
671.7566139595
 31
0.0
  0
LINE
  5
3B5
330
1F
100
AcDbEntity
  8
0
  6
Continuous
 62
     7
370
    15
100
AcDbLine
 10
586.0110686291
 20
668.7853199868
 30
0.0
 11
588.3260654877
 21
668.7853199868
 31
0.0
  0
LINE
  5
3B6
330
1F
100
AcDbEntity
  8
0
  6
Continuous
 62
     7
370
    15
100
AcDbLine
 10
586.0110686291
 20
671.7566139595
 30
0.0
 11
586.0110686291
 21
668.7853199868
 31
0.0
  0
LINE
  5
3B7
330
1F
100
AcDbEntity
  8
0
  6
Continuous
 62
     7
370
    15
100
AcDbLine
 10
588.3260654877
 20
671.7566139595
 30
0.0
 11
586.0110686291
 21
671.7566139595
 31
0.0
  0
LINE
  5
3B8
330
1F
100
AcDbEntity
  8
0
  6
Continuous
 62
     7
370
    15
100
AcDbLine
 10
608.3260654877
 20
668.7853199868
 30
0.0
 11
608.3260654877
 21
671.7566139595
 31
0.0
  0
LINE
  5
3B9
330
1F
100
AcDbEntity
  8
0
  6
Continuous
 62
     7
370
    15
100
AcDbLine
 10
606.0110686291
 20
668.7853199868
 30
0.0
 11
608.3260654877
 21
668.7853199868
 31
0.0
  0
LINE
  5
3BA
330
1F
100
AcDbEntity
  8
0
  6
Continuous
 62
     7
370
    15
100
AcDbLine
 10
606.0110686291
 20
671.7566139595
 30
0.0
 11
606.0110686291
 21
668.7853199868
 31
0.0
  0
LINE
  5
3BB
330
1F
100
AcDbEntity
  8
0
  6
Continuous
 62
     7
370
    15
100
AcDbLine
 10
608.3260654877
 20
671.7566139595
 30
0.0
 11
606.0110686291
 21
671.7566139595
 31
0.0
  0
LINE
  5
3BC
330
1F
100
AcDbEntity
  8
0
  6
Continuous
 62
     7
370
    15
100
AcDbLine
 10
488.3260654877
 20
668.7853199868
 30
0.0
 11
488.3260654877
 21
671.7566139595
 31
0.0
  0
LINE
  5
3BD
330
1F
100
AcDbEntity
  8
0
  6
Continuous
 62
     7
370
    15
100
AcDbLine
 10
486.0110686291
 20
668.7853199868
 30
0.0
 11
488.3260654877
 21
668.7853199868
 31
0.0
  0
LINE
  5
3BE
330
1F
100
AcDbEntity
  8
0
  6
Continuous
 62
     7
370
    15
100
AcDbLine
 10
486.0110686291
 20
671.7566139595
 30
0.0
 11
486.0110686291
 21
668.7853199868
 31
0.0
  0
LINE
  5
3BF
330
1F
100
AcDbEntity
  8
0
  6
Continuous
 62
     7
370
    15
100
AcDbLine
 10
488.3260654877
 20
671.7566139595
 30
0.0
 11
486.0110686291
 21
671.7566139595
 31
0.0
  0
LINE
  5
3C0
330
1F
100
AcDbEntity
  8
0
  6
Continuous
 62
     7
370
    15
100
AcDbLine
 10
618.3260654877
 20
668.7853199868
 30
0.0
 11
618.3260654877
 21
671.7566139595
 31
0.0
  0
LINE
  5
3C1
330
1F
100
AcDbEntity
  8
0
  6
Continuous
 62
     7
370
    15
100
AcDbLine
 10
616.0110686291
 20
668.7853199868
 30
0.0
 11
618.3260654877
 21
668.7853199868
 31
0.0
  0
LINE
  5
3C2
330
1F
100
AcDbEntity
  8
0
  6
Continuous
 62
     7
370
    15
100
AcDbLine
 10
616.0110686291
 20
671.7566139595
 30
0.0
 11
616.0110686291
 21
668.7853199868
 31
0.0
  0
LINE
  5
3C3
330
1F
100
AcDbEntity
  8
0
  6
Continuous
 62
     7
370
    15
100
AcDbLine
 10
618.3260654877
 20
671.7566139595
 30
0.0
 11
616.0110686291
 21
671.7566139595
 31
0.0
  0
LINE
  5
3C4
330
1F
100
AcDbEntity
  8
0
  6
Continuous
 62
     7
370
    15
100
AcDbLine
 10
498.3260654877
 20
668.7853199868
 30
0.0
 11
498.3260654877
 21
671.7566139595
 31
0.0
  0
LINE
  5
3C5
330
1F
100
AcDbEntity
  8
0
  6
Continuous
 62
     7
370
    15
100
AcDbLine
 10
496.0110686291
 20
668.7853199868
 30
0.0
 11
498.3260654877
 21
668.7853199868
 31
0.0
  0
LINE
  5
3C6
330
1F
100
AcDbEntity
  8
0
  6
Continuous
 62
     7
370
    15
100
AcDbLine
 10
496.0110686291
 20
671.7566139595
 30
0.0
 11
496.0110686291
 21
668.7853199868
 31
0.0
  0
LINE
  5
3C7
330
1F
100
AcDbEntity
  8
0
  6
Continuous
 62
     7
370
    15
100
AcDbLine
 10
498.3260654877
 20
671.7566139595
 30
0.0
 11
496.0110686291
 21
671.7566139595
 31
0.0
  0
LINE
  5
3C8
330
1F
100
AcDbEntity
  8
0
  6
Continuous
 62
     7
370
    15
100
AcDbLine
 10
628.3260654877
 20
668.7853199868
 30
0.0
 11
628.3260654877
 21
671.7566139595
 31
0.0
  0
LINE
  5
3C9
330
1F
100
AcDbEntity
  8
0
  6
Continuous
 62
     7
370
    15
100
AcDbLine
 10
626.0110686291
 20
668.7853199868
 30
0.0
 11
628.3260654877
 21
668.7853199868
 31
0.0
  0
LINE
  5
3CA
330
1F
100
AcDbEntity
  8
0
  6
Continuous
 62
     7
370
    15
100
AcDbLine
 10
626.0110686291
 20
671.7566139595
 30
0.0
 11
626.0110686291
 21
668.7853199868
 31
0.0
  0
LINE
  5
3CB
330
1F
100
AcDbEntity
  8
0
  6
Continuous
 62
     7
370
    15
100
AcDbLine
 10
628.3260654877
 20
671.7566139595
 30
0.0
 11
626.0110686291
 21
671.7566139595
 31
0.0
  0
LINE
  5
3CC
330
1F
100
AcDbEntity
  8
0
  6
Continuous
 62
     7
370
    15
100
AcDbLine
 10
508.3260654877
 20
668.7853199868
 30
0.0
 11
508.3260654877
 21
671.7566139595
 31
0.0
  0
LINE
  5
3CD
330
1F
100
AcDbEntity
  8
0
  6
Continuous
 62
     7
370
    15
100
AcDbLine
 10
506.0110686291
 20
668.7853199868
 30
0.0
 11
508.3260654877
 21
668.7853199868
 31
0.0
  0
LINE
  5
3CE
330
1F
100
AcDbEntity
  8
0
  6
Continuous
 62
     7
370
    15
100
AcDbLine
 10
506.0110686291
 20
671.7566139595
 30
0.0
 11
506.0110686291
 21
668.7853199868
 31
0.0
  0
LINE
  5
3CF
330
1F
100
AcDbEntity
  8
0
  6
Continuous
 62
     7
370
    15
100
AcDbLine
 10
508.3260654877
 20
671.7566139595
 30
0.0
 11
506.0110686291
 21
671.7566139595
 31
0.0
  0
LINE
  5
3D0
330
1F
100
AcDbEntity
  8
0
  6
Continuous
 62
     7
370
    15
100
AcDbLine
 10
638.3260654877
 20
668.7853199868
 30
0.0
 11
638.3260654877
 21
671.7566139595
 31
0.0
  0
LINE
  5
3D1
330
1F
100
AcDbEntity
  8
0
  6
Continuous
 62
     7
370
    15
100
AcDbLine
 10
636.0110686291
 20
668.7853199868
 30
0.0
 11
638.3260654877
 21
668.7853199868
 31
0.0
  0
LINE
  5
3D2
330
1F
100
AcDbEntity
  8
0
  6
Continuous
 62
     7
370
    15
100
AcDbLine
 10
636.0110686291
 20
671.7566139595
 30
0.0
 11
636.0110686291
 21
668.7853199868
 31
0.0
  0
LINE
  5
3D3
330
1F
100
AcDbEntity
  8
0
  6
Continuous
 62
     7
370
    15
100
AcDbLine
 10
638.3260654877
 20
671.7566139595
 30
0.0
 11
636.0110686291
 21
671.7566139595
 31
0.0
  0
LINE
  5
3D4
330
1F
100
AcDbEntity
  8
0
  6
Continuous
 62
     7
370
    15
100
AcDbLine
 10
518.3260654877
 20
668.7853199868
 30
0.0
 11
518.3260654877
 21
671.7566139595
 31
0.0
  0
LINE
  5
3D5
330
1F
100
AcDbEntity
  8
0
  6
Continuous
 62
     7
370
    15
100
AcDbLine
 10
516.0110686291
 20
668.7853199868
 30
0.0
 11
518.3260654877
 21
668.7853199868
 31
0.0
  0
LINE
  5
3D6
330
1F
100
AcDbEntity
  8
0
  6
Continuous
 62
     7
370
    15
100
AcDbLine
 10
516.0110686291
 20
671.7566139595
 30
0.0
 11
516.0110686291
 21
668.7853199868
 31
0.0
  0
LINE
  5
3D7
330
1F
100
AcDbEntity
  8
0
  6
Continuous
 62
     7
370
    15
100
AcDbLine
 10
518.3260654877
 20
671.7566139595
 30
0.0
 11
516.0110686291
 21
671.7566139595
 31
0.0
  0
LINE
  5
3D8
330
1F
100
AcDbEntity
  8
0
  6
Continuous
 62
     7
370
    15
100
AcDbLine
 10
1028.3260654877
 20
668.7853199868
 30
0.0
 11
1028.3260654877
 21
671.7566139595
 31
0.0
  0
LINE
  5
3D9
330
1F
100
AcDbEntity
  8
0
  6
Continuous
 62
     7
370
    15
100
AcDbLine
 10
1026.0110686291
 20
668.7853199868
 30
0.0
 11
1028.3260654877
 21
668.7853199868
 31
0.0
  0
LINE
  5
3DA
330
1F
100
AcDbEntity
  8
0
  6
Continuous
 62
     7
370
    15
100
AcDbLine
 10
1026.0110686291
 20
671.7566139595
 30
0.0
 11
1026.0110686291
 21
668.7853199868
 31
0.0
  0
LINE
  5
3DB
330
1F
100
AcDbEntity
  8
0
  6
Continuous
 62
     7
370
    15
100
AcDbLine
 10
1028.3260654877
 20
671.7566139595
 30
0.0
 11
1026.0110686291
 21
671.7566139595
 31
0.0
  0
LINE
  5
3DC
330
1F
100
AcDbEntity
  8
0
  6
Continuous
 62
     7
370
    15
100
AcDbLine
 10
906.0110686291
 20
668.7853199868
 30
0.0
 11
908.3260654877
 21
668.7853199868
 31
0.0
  0
LINE
  5
3DD
330
1F
100
AcDbEntity
  8
0
  6
Continuous
 62
     7
370
    15
100
AcDbLine
 10
908.3260654877
 20
671.7566139595
 30
0.0
 11
906.0110686291
 21
671.7566139595
 31
0.0
  0
LINE
  5
3DE
330
1F
100
AcDbEntity
  8
0
  6
Continuous
 62
     7
370
    15
100
AcDbLine
 10
908.3260654877
 20
668.7853199868
 30
0.0
 11
908.3260654877
 21
671.7566139595
 31
0.0
  0
LINE
  5
3DF
330
1F
100
AcDbEntity
  8
0
  6
Continuous
 62
     7
370
    15
100
AcDbLine
 10
906.0110686291
 20
671.7566139595
 30
0.0
 11
906.0110686291
 21
668.7853199868
 31
0.0
  0
LINE
  5
3E0
330
1F
100
AcDbEntity
  8
0
  6
Continuous
 62
     7
370
    15
100
AcDbLine
 10
1038.3260654877
 20
671.7566139595
 30
0.0
 11
1036.0110686291
 21
671.7566139595
 31
0.0
  0
LINE
  5
3E1
330
1F
100
AcDbEntity
  8
0
  6
Continuous
 62
     7
370
    15
100
AcDbLine
 10
1036.0110686291
 20
668.7853199868
 30
0.0
 11
1038.3260654877
 21
668.7853199868
 31
0.0
  0
LINE
  5
3E2
330
1F
100
AcDbEntity
  8
0
  6
Continuous
 62
     7
370
    15
100
AcDbLine
 10
1036.0110686291
 20
671.7566139595
 30
0.0
 11
1036.0110686291
 21
668.7853199868
 31
0.0
  0
LINE
  5
3E3
330
1F
100
AcDbEntity
  8
0
  6
Continuous
 62
     7
370
    15
100
AcDbLine
 10
1038.3260654877
 20
668.7853199868
 30
0.0
 11
1038.3260654877
 21
671.7566139595
 31
0.0
  0
LINE
  5
3E4
330
1F
100
AcDbEntity
  8
0
  6
Continuous
 62
     7
370
    15
100
AcDbLine
 10
916.0110686291
 20
668.7853199868
 30
0.0
 11
918.3260654877
 21
668.7853199868
 31
0.0
  0
LINE
  5
3E5
330
1F
100
AcDbEntity
  8
0
  6
Continuous
 62
     7
370
    15
100
AcDbLine
 10
918.3260654877
 20
671.7566139595
 30
0.0
 11
916.0110686291
 21
671.7566139595
 31
0.0
  0
LINE
  5
3E6
330
1F
100
AcDbEntity
  8
0
  6
Continuous
 62
     7
370
    15
100
AcDbLine
 10
918.3260654877
 20
668.7853199868
 30
0.0
 11
918.3260654877
 21
671.7566139595
 31
0.0
  0
LINE
  5
3E7
330
1F
100
AcDbEntity
  8
0
  6
Continuous
 62
     7
370
    15
100
AcDbLine
 10
916.0110686291
 20
671.7566139595
 30
0.0
 11
916.0110686291
 21
668.7853199868
 31
0.0
  0
LINE
  5
3E8
330
1F
100
AcDbEntity
  8
0
  6
Continuous
 62
     7
370
    15
100
AcDbLine
 10
1048.3260654877
 20
671.7566139595
 30
0.0
 11
1046.0110686291
 21
671.7566139595
 31
0.0
  0
LINE
  5
3E9
330
1F
100
AcDbEntity
  8
0
  6
Continuous
 62
     7
370
    15
100
AcDbLine
 10
1046.0110686291
 20
668.7853199868
 30
0.0
 11
1048.3260654877
 21
668.7853199868
 31
0.0
  0
LINE
  5
3EA
330
1F
100
AcDbEntity
  8
0
  6
Continuous
 62
     7
370
    15
100
AcDbLine
 10
1046.0110686291
 20
671.7566139595
 30
0.0
 11
1046.0110686291
 21
668.7853199868
 31
0.0
  0
LINE
  5
3EB
330
1F
100
AcDbEntity
  8
0
  6
Continuous
 62
     7
370
    15
100
AcDbLine
 10
1048.3260654877
 20
668.7853199868
 30
0.0
 11
1048.3260654877
 21
671.7566139595
 31
0.0
  0
LINE
  5
3EC
330
1F
100
AcDbEntity
  8
0
  6
Continuous
 62
     7
370
    15
100
AcDbLine
 10
796.0110686291
 20
668.7853199868
 30
0.0
 11
798.3260654877
 21
668.7853199868
 31
0.0
  0
LINE
  5
3ED
330
1F
100
AcDbEntity
  8
0
  6
Continuous
 62
     7
370
    15
100
AcDbLine
 10
798.3260654877
 20
671.7566139595
 30
0.0
 11
796.0110686291
 21
671.7566139595
 31
0.0
  0
LINE
  5
3EE
330
1F
100
AcDbEntity
  8
0
  6
Continuous
 62
     7
370
    15
100
AcDbLine
 10
798.3260654877
 20
668.7853199868
 30
0.0
 11
798.3260654877
 21
671.7566139595
 31
0.0
  0
LINE
  5
3EF
330
1F
100
AcDbEntity
  8
0
  6
Continuous
 62
     7
370
    15
100
AcDbLine
 10
796.0110686291
 20
671.7566139595
 30
0.0
 11
796.0110686291
 21
668.7853199868
 31
0.0
  0
LINE
  5
3F0
330
1F
100
AcDbEntity
  8
0
  6
Continuous
 62
     7
370
    15
100
AcDbLine
 10
926.0110686291
 20
668.7853199868
 30
0.0
 11
928.3260654877
 21
668.7853199868
 31
0.0
  0
LINE
  5
3F1
330
1F
100
AcDbEntity
  8
0
  6
Continuous
 62
     7
370
    15
100
AcDbLine
 10
928.3260654877
 20
671.7566139595
 30
0.0
 11
926.0110686291
 21
671.7566139595
 31
0.0
  0
LINE
  5
3F2
330
1F
100
AcDbEntity
  8
0
  6
Continuous
 62
     7
370
    15
100
AcDbLine
 10
928.3260654877
 20
668.7853199868
 30
0.0
 11
928.3260654877
 21
671.7566139595
 31
0.0
  0
LINE
  5
3F3
330
1F
100
AcDbEntity
  8
0
  6
Continuous
 62
     7
370
    15
100
AcDbLine
 10
926.0110686291
 20
671.7566139595
 30
0.0
 11
926.0110686291
 21
668.7853199868
 31
0.0
  0
LINE
  5
3F4
330
1F
100
AcDbEntity
  8
0
  6
Continuous
 62
     7
370
    15
100
AcDbLine
 10
676.0110686291
 20
668.7853199868
 30
0.0
 11
678.3260654877
 21
668.7853199868
 31
0.0
  0
LINE
  5
3F5
330
1F
100
AcDbEntity
  8
0
  6
Continuous
 62
     7
370
    15
100
AcDbLine
 10
678.3260654877
 20
668.7853199868
 30
0.0
 11
678.3260654877
 21
671.7566139595
 31
0.0
  0
LINE
  5
3F6
330
1F
100
AcDbEntity
  8
0
  6
Continuous
 62
     7
370
    15
100
AcDbLine
 10
676.0110686291
 20
671.7566139595
 30
0.0
 11
676.0110686291
 21
668.7853199868
 31
0.0
  0
LINE
  5
3F7
330
1F
100
AcDbEntity
  8
0
  6
Continuous
 62
     7
370
    15
100
AcDbLine
 10
678.3260654877
 20
671.7566139595
 30
0.0
 11
676.0110686291
 21
671.7566139595
 31
0.0
  0
LINE
  5
3F8
330
1F
100
AcDbEntity
  8
0
  6
Continuous
 62
     7
370
    15
100
AcDbLine
 10
1058.3260654877
 20
671.7566139595
 30
0.0
 11
1056.0110686291
 21
671.7566139595
 31
0.0
  0
LINE
  5
3F9
330
1F
100
AcDbEntity
  8
0
  6
Continuous
 62
     7
370
    15
100
AcDbLine
 10
1056.0110686291
 20
668.7853199868
 30
0.0
 11
1058.3260654877
 21
668.7853199868
 31
0.0
  0
LINE
  5
3FA
330
1F
100
AcDbEntity
  8
0
  6
Continuous
 62
     7
370
    15
100
AcDbLine
 10
1058.3260654877
 20
668.7853199868
 30
0.0
 11
1058.3260654877
 21
671.7566139595
 31
0.0
  0
LINE
  5
3FB
330
1F
100
AcDbEntity
  8
0
  6
Continuous
 62
     7
370
    15
100
AcDbLine
 10
1056.0110686291
 20
671.7566139595
 30
0.0
 11
1056.0110686291
 21
668.7853199868
 31
0.0
  0
LINE
  5
3FC
330
1F
100
AcDbEntity
  8
0
  6
Continuous
 62
     7
370
    15
100
AcDbLine
 10
806.0110686291
 20
668.7853199868
 30
0.0
 11
808.3260654877
 21
668.7853199868
 31
0.0
  0
LINE
  5
3FD
330
1F
100
AcDbEntity
  8
0
  6
Continuous
 62
     7
370
    15
100
AcDbLine
 10
808.3260654877
 20
668.7853199868
 30
0.0
 11
808.3260654877
 21
671.7566139595
 31
0.0
  0
LINE
  5
3FE
330
1F
100
AcDbEntity
  8
0
  6
Continuous
 62
     7
370
    15
100
AcDbLine
 10
808.3260654877
 20
671.7566139595
 30
0.0
 11
806.0110686291
 21
671.7566139595
 31
0.0
  0
LINE
  5
3FF
330
1F
100
AcDbEntity
  8
0
  6
Continuous
 62
     7
370
    15
100
AcDbLine
 10
806.0110686291
 20
671.7566139595
 30
0.0
 11
806.0110686291
 21
668.7853199868
 31
0.0
  0
LINE
  5
400
330
1F
100
AcDbEntity
  8
0
  6
Continuous
 62
     7
370
    15
100
AcDbLine
 10
936.0110686291
 20
668.7853199868
 30
0.0
 11
938.3260654877
 21
668.7853199868
 31
0.0
  0
LINE
  5
401
330
1F
100
AcDbEntity
  8
0
  6
Continuous
 62
     7
370
    15
100
AcDbLine
 10
938.3260654877
 20
671.7566139595
 30
0.0
 11
936.0110686291
 21
671.7566139595
 31
0.0
  0
LINE
  5
402
330
1F
100
AcDbEntity
  8
0
  6
Continuous
 62
     7
370
    15
100
AcDbLine
 10
938.3260654877
 20
668.7853199868
 30
0.0
 11
938.3260654877
 21
671.7566139595
 31
0.0
  0
LINE
  5
403
330
1F
100
AcDbEntity
  8
0
  6
Continuous
 62
     7
370
    15
100
AcDbLine
 10
936.0110686291
 20
671.7566139595
 30
0.0
 11
936.0110686291
 21
668.7853199868
 31
0.0
  0
LINE
  5
404
330
1F
100
AcDbEntity
  8
0
  6
Continuous
 62
     7
370
    15
100
AcDbLine
 10
686.0110686291
 20
668.7853199868
 30
0.0
 11
688.3260654877
 21
668.7853199868
 31
0.0
  0
LINE
  5
405
330
1F
100
AcDbEntity
  8
0
  6
Continuous
 62
     7
370
    15
100
AcDbLine
 10
688.3260654877
 20
668.7853199868
 30
0.0
 11
688.3260654877
 21
671.7566139595
 31
0.0
  0
LINE
  5
406
330
1F
100
AcDbEntity
  8
0
  6
Continuous
 62
     7
370
    15
100
AcDbLine
 10
686.0110686291
 20
671.7566139595
 30
0.0
 11
686.0110686291
 21
668.7853199868
 31
0.0
  0
LINE
  5
407
330
1F
100
AcDbEntity
  8
0
  6
Continuous
 62
     7
370
    15
100
AcDbLine
 10
688.3260654877
 20
671.7566139595
 30
0.0
 11
686.0110686291
 21
671.7566139595
 31
0.0
  0
LINE
  5
408
330
1F
100
AcDbEntity
  8
0
  6
Continuous
 62
     7
370
    15
100
AcDbLine
 10
1068.3260654877
 20
671.7566139595
 30
0.0
 11
1066.0110686291
 21
671.7566139595
 31
0.0
  0
LINE
  5
409
330
1F
100
AcDbEntity
  8
0
  6
Continuous
 62
     7
370
    15
100
AcDbLine
 10
1066.0110686291
 20
668.7853199868
 30
0.0
 11
1068.3260654877
 21
668.7853199868
 31
0.0
  0
LINE
  5
40A
330
1F
100
AcDbEntity
  8
0
  6
Continuous
 62
     7
370
    15
100
AcDbLine
 10
1068.3260654877
 20
668.7853199868
 30
0.0
 11
1068.3260654877
 21
671.7566139595
 31
0.0
  0
LINE
  5
40B
330
1F
100
AcDbEntity
  8
0
  6
Continuous
 62
     7
370
    15
100
AcDbLine
 10
1066.0110686291
 20
671.7566139595
 30
0.0
 11
1066.0110686291
 21
668.7853199868
 31
0.0
  0
LINE
  5
40C
330
1F
100
AcDbEntity
  8
0
  6
Continuous
 62
     7
370
    15
100
AcDbLine
 10
816.0110686291
 20
668.7853199868
 30
0.0
 11
818.3260654877
 21
668.7853199868
 31
0.0
  0
LINE
  5
40D
330
1F
100
AcDbEntity
  8
0
  6
Continuous
 62
     7
370
    15
100
AcDbLine
 10
818.3260654877
 20
668.7853199868
 30
0.0
 11
818.3260654877
 21
671.7566139595
 31
0.0
  0
LINE
  5
40E
330
1F
100
AcDbEntity
  8
0
  6
Continuous
 62
     7
370
    15
100
AcDbLine
 10
818.3260654877
 20
671.7566139595
 30
0.0
 11
816.0110686291
 21
671.7566139595
 31
0.0
  0
LINE
  5
40F
330
1F
100
AcDbEntity
  8
0
  6
Continuous
 62
     7
370
    15
100
AcDbLine
 10
816.0110686291
 20
671.7566139595
 30
0.0
 11
816.0110686291
 21
668.7853199868
 31
0.0
  0
LINE
  5
410
330
1F
100
AcDbEntity
  8
0
  6
Continuous
 62
     7
370
    15
100
AcDbLine
 10
946.0110686291
 20
668.7853199868
 30
0.0
 11
948.3260654877
 21
668.7853199868
 31
0.0
  0
LINE
  5
411
330
1F
100
AcDbEntity
  8
0
  6
Continuous
 62
     7
370
    15
100
AcDbLine
 10
948.3260654877
 20
671.7566139595
 30
0.0
 11
946.0110686291
 21
671.7566139595
 31
0.0
  0
LINE
  5
412
330
1F
100
AcDbEntity
  8
0
  6
Continuous
 62
     7
370
    15
100
AcDbLine
 10
948.3260654877
 20
668.7853199868
 30
0.0
 11
948.3260654877
 21
671.7566139595
 31
0.0
  0
LINE
  5
413
330
1F
100
AcDbEntity
  8
0
  6
Continuous
 62
     7
370
    15
100
AcDbLine
 10
946.0110686291
 20
671.7566139595
 30
0.0
 11
946.0110686291
 21
668.7853199868
 31
0.0
  0
LINE
  5
414
330
1F
100
AcDbEntity
  8
0
  6
Continuous
 62
     7
370
    15
100
AcDbLine
 10
696.0110686291
 20
668.7853199868
 30
0.0
 11
698.3260654877
 21
668.7853199868
 31
0.0
  0
LINE
  5
415
330
1F
100
AcDbEntity
  8
0
  6
Continuous
 62
     7
370
    15
100
AcDbLine
 10
698.3260654877
 20
668.7853199868
 30
0.0
 11
698.3260654877
 21
671.7566139595
 31
0.0
  0
LINE
  5
416
330
1F
100
AcDbEntity
  8
0
  6
Continuous
 62
     7
370
    15
100
AcDbLine
 10
696.0110686291
 20
671.7566139595
 30
0.0
 11
696.0110686291
 21
668.7853199868
 31
0.0
  0
LINE
  5
417
330
1F
100
AcDbEntity
  8
0
  6
Continuous
 62
     7
370
    15
100
AcDbLine
 10
698.3260654877
 20
671.7566139595
 30
0.0
 11
696.0110686291
 21
671.7566139595
 31
0.0
  0
LINE
  5
418
330
1F
100
AcDbEntity
  8
0
  6
Continuous
 62
     7
370
    15
100
AcDbLine
 10
1078.3260654877
 20
671.7566139595
 30
0.0
 11
1076.0110686291
 21
671.7566139595
 31
0.0
  0
LINE
  5
419
330
1F
100
AcDbEntity
  8
0
  6
Continuous
 62
     7
370
    15
100
AcDbLine
 10
1076.0110686291
 20
668.7853199868
 30
0.0
 11
1078.3260654877
 21
668.7853199868
 31
0.0
  0
LINE
  5
41A
330
1F
100
AcDbEntity
  8
0
  6
Continuous
 62
     7
370
    15
100
AcDbLine
 10
1078.3260654877
 20
668.7853199868
 30
0.0
 11
1078.3260654877
 21
671.7566139595
 31
0.0
  0
LINE
  5
41B
330
1F
100
AcDbEntity
  8
0
  6
Continuous
 62
     7
370
    15
100
AcDbLine
 10
1076.0110686291
 20
671.7566139595
 30
0.0
 11
1076.0110686291
 21
668.7853199868
 31
0.0
  0
LINE
  5
41C
330
1F
100
AcDbEntity
  8
0
  6
Continuous
 62
     7
370
    15
100
AcDbLine
 10
826.0110686291
 20
668.7853199868
 30
0.0
 11
828.3260654877
 21
668.7853199868
 31
0.0
  0
LINE
  5
41D
330
1F
100
AcDbEntity
  8
0
  6
Continuous
 62
     7
370
    15
100
AcDbLine
 10
828.3260654877
 20
668.7853199868
 30
0.0
 11
828.3260654877
 21
671.7566139595
 31
0.0
  0
LINE
  5
41E
330
1F
100
AcDbEntity
  8
0
  6
Continuous
 62
     7
370
    15
100
AcDbLine
 10
828.3260654877
 20
671.7566139595
 30
0.0
 11
826.0110686291
 21
671.7566139595
 31
0.0
  0
LINE
  5
41F
330
1F
100
AcDbEntity
  8
0
  6
Continuous
 62
     7
370
    15
100
AcDbLine
 10
826.0110686291
 20
671.7566139595
 30
0.0
 11
826.0110686291
 21
668.7853199868
 31
0.0
  0
LINE
  5
420
330
1F
100
AcDbEntity
  8
0
  6
Continuous
 62
     7
370
    15
100
AcDbLine
 10
956.0110686291
 20
668.7853199868
 30
0.0
 11
958.3260654877
 21
668.7853199868
 31
0.0
  0
LINE
  5
421
330
1F
100
AcDbEntity
  8
0
  6
Continuous
 62
     7
370
    15
100
AcDbLine
 10
958.3260654877
 20
671.7566139595
 30
0.0
 11
956.0110686291
 21
671.7566139595
 31
0.0
  0
LINE
  5
422
330
1F
100
AcDbEntity
  8
0
  6
Continuous
 62
     7
370
    15
100
AcDbLine
 10
958.3260654877
 20
668.7853199868
 30
0.0
 11
958.3260654877
 21
671.7566139595
 31
0.0
  0
LINE
  5
423
330
1F
100
AcDbEntity
  8
0
  6
Continuous
 62
     7
370
    15
100
AcDbLine
 10
956.0110686291
 20
671.7566139595
 30
0.0
 11
956.0110686291
 21
668.7853199868
 31
0.0
  0
LINE
  5
424
330
1F
100
AcDbEntity
  8
0
  6
Continuous
 62
     7
370
    15
100
AcDbLine
 10
706.0110686291
 20
668.7853199868
 30
0.0
 11
708.3260654877
 21
668.7853199868
 31
0.0
  0
LINE
  5
425
330
1F
100
AcDbEntity
  8
0
  6
Continuous
 62
     7
370
    15
100
AcDbLine
 10
708.3260654877
 20
668.7853199868
 30
0.0
 11
708.3260654877
 21
671.7566139595
 31
0.0
  0
LINE
  5
426
330
1F
100
AcDbEntity
  8
0
  6
Continuous
 62
     7
370
    15
100
AcDbLine
 10
706.0110686291
 20
671.7566139595
 30
0.0
 11
706.0110686291
 21
668.7853199868
 31
0.0
  0
LINE
  5
427
330
1F
100
AcDbEntity
  8
0
  6
Continuous
 62
     7
370
    15
100
AcDbLine
 10
708.3260654877
 20
671.7566139595
 30
0.0
 11
706.0110686291
 21
671.7566139595
 31
0.0
  0
LINE
  5
428
330
1F
100
AcDbEntity
  8
0
  6
Continuous
 62
     7
370
    15
100
AcDbLine
 10
1088.3260654877
 20
671.7566139595
 30
0.0
 11
1086.0110686291
 21
671.7566139595
 31
0.0
  0
LINE
  5
429
330
1F
100
AcDbEntity
  8
0
  6
Continuous
 62
     7
370
    15
100
AcDbLine
 10
1086.0110686291
 20
668.7853199868
 30
0.0
 11
1088.3260654877
 21
668.7853199868
 31
0.0
  0
LINE
  5
42A
330
1F
100
AcDbEntity
  8
0
  6
Continuous
 62
     7
370
    15
100
AcDbLine
 10
1088.3260654877
 20
668.7853199868
 30
0.0
 11
1088.3260654877
 21
671.7566139595
 31
0.0
  0
LINE
  5
42B
330
1F
100
AcDbEntity
  8
0
  6
Continuous
 62
     7
370
    15
100
AcDbLine
 10
1086.0110686291
 20
671.7566139595
 30
0.0
 11
1086.0110686291
 21
668.7853199868
 31
0.0
  0
LINE
  5
42C
330
1F
100
AcDbEntity
  8
0
  6
Continuous
 62
     7
370
    15
100
AcDbLine
 10
836.0110686291
 20
668.7853199868
 30
0.0
 11
838.3260654877
 21
668.7853199868
 31
0.0
  0
LINE
  5
42D
330
1F
100
AcDbEntity
  8
0
  6
Continuous
 62
     7
370
    15
100
AcDbLine
 10
838.3260654877
 20
668.7853199868
 30
0.0
 11
838.3260654877
 21
671.7566139595
 31
0.0
  0
LINE
  5
42E
330
1F
100
AcDbEntity
  8
0
  6
Continuous
 62
     7
370
    15
100
AcDbLine
 10
838.3260654877
 20
671.7566139595
 30
0.0
 11
836.0110686291
 21
671.7566139595
 31
0.0
  0
LINE
  5
42F
330
1F
100
AcDbEntity
  8
0
  6
Continuous
 62
     7
370
    15
100
AcDbLine
 10
836.0110686291
 20
671.7566139595
 30
0.0
 11
836.0110686291
 21
668.7853199868
 31
0.0
  0
LINE
  5
430
330
1F
100
AcDbEntity
  8
0
  6
Continuous
 62
     7
370
    15
100
AcDbLine
 10
966.0110686291
 20
668.7853199868
 30
0.0
 11
968.3260654877
 21
668.7853199868
 31
0.0
  0
LINE
  5
431
330
1F
100
AcDbEntity
  8
0
  6
Continuous
 62
     7
370
    15
100
AcDbLine
 10
968.3260654877
 20
671.7566139595
 30
0.0
 11
966.0110686291
 21
671.7566139595
 31
0.0
  0
LINE
  5
432
330
1F
100
AcDbEntity
  8
0
  6
Continuous
 62
     7
370
    15
100
AcDbLine
 10
968.3260654877
 20
668.7853199868
 30
0.0
 11
968.3260654877
 21
671.7566139595
 31
0.0
  0
LINE
  5
433
330
1F
100
AcDbEntity
  8
0
  6
Continuous
 62
     7
370
    15
100
AcDbLine
 10
966.0110686291
 20
671.7566139595
 30
0.0
 11
966.0110686291
 21
668.7853199868
 31
0.0
  0
LINE
  5
434
330
1F
100
AcDbEntity
  8
0
  6
Continuous
 62
     7
370
    15
100
AcDbLine
 10
716.0110686291
 20
668.7853199868
 30
0.0
 11
718.3260654877
 21
668.7853199868
 31
0.0
  0
LINE
  5
435
330
1F
100
AcDbEntity
  8
0
  6
Continuous
 62
     7
370
    15
100
AcDbLine
 10
718.3260654877
 20
668.7853199868
 30
0.0
 11
718.3260654877
 21
671.7566139595
 31
0.0
  0
LINE
  5
436
330
1F
100
AcDbEntity
  8
0
  6
Continuous
 62
     7
370
    15
100
AcDbLine
 10
716.0110686291
 20
671.7566139595
 30
0.0
 11
716.0110686291
 21
668.7853199868
 31
0.0
  0
LINE
  5
437
330
1F
100
AcDbEntity
  8
0
  6
Continuous
 62
     7
370
    15
100
AcDbLine
 10
718.3260654877
 20
671.7566139595
 30
0.0
 11
716.0110686291
 21
671.7566139595
 31
0.0
  0
LINE
  5
438
330
1F
100
AcDbEntity
  8
0
  6
Continuous
 62
     7
370
    15
100
AcDbLine
 10
1098.3260654877
 20
671.7566139595
 30
0.0
 11
1096.0110686291
 21
671.7566139595
 31
0.0
  0
LINE
  5
439
330
1F
100
AcDbEntity
  8
0
  6
Continuous
 62
     7
370
    15
100
AcDbLine
 10
1096.0110686291
 20
668.7853199868
 30
0.0
 11
1098.3260654877
 21
668.7853199868
 31
0.0
  0
LINE
  5
43A
330
1F
100
AcDbEntity
  8
0
  6
Continuous
 62
     7
370
    15
100
AcDbLine
 10
1098.3260654877
 20
668.7853199868
 30
0.0
 11
1098.3260654877
 21
671.7566139595
 31
0.0
  0
LINE
  5
43B
330
1F
100
AcDbEntity
  8
0
  6
Continuous
 62
     7
370
    15
100
AcDbLine
 10
1096.0110686291
 20
671.7566139595
 30
0.0
 11
1096.0110686291
 21
668.7853199868
 31
0.0
  0
LINE
  5
43C
330
1F
100
AcDbEntity
  8
0
  6
Continuous
 62
     7
370
    15
100
AcDbLine
 10
846.0110686291
 20
668.7853199868
 30
0.0
 11
848.3260654877
 21
668.7853199868
 31
0.0
  0
LINE
  5
43D
330
1F
100
AcDbEntity
  8
0
  6
Continuous
 62
     7
370
    15
100
AcDbLine
 10
848.3260654877
 20
668.7853199868
 30
0.0
 11
848.3260654877
 21
671.7566139595
 31
0.0
  0
LINE
  5
43E
330
1F
100
AcDbEntity
  8
0
  6
Continuous
 62
     7
370
    15
100
AcDbLine
 10
848.3260654877
 20
671.7566139595
 30
0.0
 11
846.0110686291
 21
671.7566139595
 31
0.0
  0
LINE
  5
43F
330
1F
100
AcDbEntity
  8
0
  6
Continuous
 62
     7
370
    15
100
AcDbLine
 10
846.0110686291
 20
671.7566139595
 30
0.0
 11
846.0110686291
 21
668.7853199868
 31
0.0
  0
LINE
  5
440
330
1F
100
AcDbEntity
  8
0
  6
Continuous
 62
     7
370
    15
100
AcDbLine
 10
976.0110686291
 20
668.7853199868
 30
0.0
 11
978.3260654877
 21
668.7853199868
 31
0.0
  0
LINE
  5
441
330
1F
100
AcDbEntity
  8
0
  6
Continuous
 62
     7
370
    15
100
AcDbLine
 10
978.3260654877
 20
671.7566139595
 30
0.0
 11
976.0110686291
 21
671.7566139595
 31
0.0
  0
LINE
  5
442
330
1F
100
AcDbEntity
  8
0
  6
Continuous
 62
     7
370
    15
100
AcDbLine
 10
978.3260654877
 20
668.7853199868
 30
0.0
 11
978.3260654877
 21
671.7566139595
 31
0.0
  0
LINE
  5
443
330
1F
100
AcDbEntity
  8
0
  6
Continuous
 62
     7
370
    15
100
AcDbLine
 10
976.0110686291
 20
671.7566139595
 30
0.0
 11
976.0110686291
 21
668.7853199868
 31
0.0
  0
LINE
  5
444
330
1F
100
AcDbEntity
  8
0
  6
Continuous
 62
     7
370
    15
100
AcDbLine
 10
726.0110686291
 20
668.7853199868
 30
0.0
 11
728.3260654877
 21
668.7853199868
 31
0.0
  0
LINE
  5
445
330
1F
100
AcDbEntity
  8
0
  6
Continuous
 62
     7
370
    15
100
AcDbLine
 10
728.3260654877
 20
668.7853199868
 30
0.0
 11
728.3260654877
 21
671.7566139595
 31
0.0
  0
LINE
  5
446
330
1F
100
AcDbEntity
  8
0
  6
Continuous
 62
     7
370
    15
100
AcDbLine
 10
726.0110686291
 20
671.7566139595
 30
0.0
 11
726.0110686291
 21
668.7853199868
 31
0.0
  0
LINE
  5
447
330
1F
100
AcDbEntity
  8
0
  6
Continuous
 62
     7
370
    15
100
AcDbLine
 10
728.3260654877
 20
671.7566139595
 30
0.0
 11
726.0110686291
 21
671.7566139595
 31
0.0
  0
LINE
  5
448
330
1F
100
AcDbEntity
  8
0
  6
Continuous
 62
     7
370
    15
100
AcDbLine
 10
1108.3260654877
 20
671.7566139595
 30
0.0
 11
1106.0110686291
 21
671.7566139595
 31
0.0
  0
LINE
  5
449
330
1F
100
AcDbEntity
  8
0
  6
Continuous
 62
     7
370
    15
100
AcDbLine
 10
1106.0110686291
 20
668.7853199868
 30
0.0
 11
1108.3260654877
 21
668.7853199868
 31
0.0
  0
LINE
  5
44A
330
1F
100
AcDbEntity
  8
0
  6
Continuous
 62
     7
370
    15
100
AcDbLine
 10
1108.3260654877
 20
668.7853199868
 30
0.0
 11
1108.3260654877
 21
671.7566139595
 31
0.0
  0
LINE
  5
44B
330
1F
100
AcDbEntity
  8
0
  6
Continuous
 62
     7
370
    15
100
AcDbLine
 10
1106.0110686291
 20
671.7566139595
 30
0.0
 11
1106.0110686291
 21
668.7853199868
 31
0.0
  0
LINE
  5
44C
330
1F
100
AcDbEntity
  8
0
  6
Continuous
 62
     7
370
    15
100
AcDbLine
 10
856.0110686291
 20
668.7853199868
 30
0.0
 11
858.3260654877
 21
668.7853199868
 31
0.0
  0
LINE
  5
44D
330
1F
100
AcDbEntity
  8
0
  6
Continuous
 62
     7
370
    15
100
AcDbLine
 10
858.3260654877
 20
668.7853199868
 30
0.0
 11
858.3260654877
 21
671.7566139595
 31
0.0
  0
LINE
  5
44E
330
1F
100
AcDbEntity
  8
0
  6
Continuous
 62
     7
370
    15
100
AcDbLine
 10
858.3260654877
 20
671.7566139595
 30
0.0
 11
856.0110686291
 21
671.7566139595
 31
0.0
  0
LINE
  5
44F
330
1F
100
AcDbEntity
  8
0
  6
Continuous
 62
     7
370
    15
100
AcDbLine
 10
856.0110686291
 20
671.7566139595
 30
0.0
 11
856.0110686291
 21
668.7853199868
 31
0.0
  0
LINE
  5
450
330
1F
100
AcDbEntity
  8
0
  6
Continuous
 62
     7
370
    15
100
AcDbLine
 10
986.0110686291
 20
668.7853199868
 30
0.0
 11
988.3260654877
 21
668.7853199868
 31
0.0
  0
LINE
  5
451
330
1F
100
AcDbEntity
  8
0
  6
Continuous
 62
     7
370
    15
100
AcDbLine
 10
988.3260654877
 20
671.7566139595
 30
0.0
 11
986.0110686291
 21
671.7566139595
 31
0.0
  0
LINE
  5
452
330
1F
100
AcDbEntity
  8
0
  6
Continuous
 62
     7
370
    15
100
AcDbLine
 10
988.3260654877
 20
668.7853199868
 30
0.0
 11
988.3260654877
 21
671.7566139595
 31
0.0
  0
LINE
  5
453
330
1F
100
AcDbEntity
  8
0
  6
Continuous
 62
     7
370
    15
100
AcDbLine
 10
986.0110686291
 20
671.7566139595
 30
0.0
 11
986.0110686291
 21
668.7853199868
 31
0.0
  0
LINE
  5
454
330
1F
100
AcDbEntity
  8
0
  6
Continuous
 62
     7
370
    15
100
AcDbLine
 10
736.0110686291
 20
668.7853199868
 30
0.0
 11
738.3260654877
 21
668.7853199868
 31
0.0
  0
LINE
  5
455
330
1F
100
AcDbEntity
  8
0
  6
Continuous
 62
     7
370
    15
100
AcDbLine
 10
738.3260654877
 20
668.7853199868
 30
0.0
 11
738.3260654877
 21
671.7566139595
 31
0.0
  0
LINE
  5
456
330
1F
100
AcDbEntity
  8
0
  6
Continuous
 62
     7
370
    15
100
AcDbLine
 10
736.0110686291
 20
671.7566139595
 30
0.0
 11
736.0110686291
 21
668.7853199868
 31
0.0
  0
LINE
  5
457
330
1F
100
AcDbEntity
  8
0
  6
Continuous
 62
     7
370
    15
100
AcDbLine
 10
738.3260654877
 20
671.7566139595
 30
0.0
 11
736.0110686291
 21
671.7566139595
 31
0.0
  0
LINE
  5
458
330
1F
100
AcDbEntity
  8
0
  6
Continuous
 62
     7
370
    15
100
AcDbLine
 10
1118.3260654877
 20
671.7566139595
 30
0.0
 11
1116.0110686291
 21
671.7566139595
 31
0.0
  0
LINE
  5
459
330
1F
100
AcDbEntity
  8
0
  6
Continuous
 62
     7
370
    15
100
AcDbLine
 10
1116.0110686291
 20
668.7853199868
 30
0.0
 11
1118.3260654877
 21
668.7853199868
 31
0.0
  0
LINE
  5
45A
330
1F
100
AcDbEntity
  8
0
  6
Continuous
 62
     7
370
    15
100
AcDbLine
 10
1118.3260654877
 20
668.7853199868
 30
0.0
 11
1118.3260654877
 21
671.7566139595
 31
0.0
  0
LINE
  5
45B
330
1F
100
AcDbEntity
  8
0
  6
Continuous
 62
     7
370
    15
100
AcDbLine
 10
1116.0110686291
 20
671.7566139595
 30
0.0
 11
1116.0110686291
 21
668.7853199868
 31
0.0
  0
LINE
  5
45C
330
1F
100
AcDbEntity
  8
0
  6
Continuous
 62
     7
370
    15
100
AcDbLine
 10
866.0110686291
 20
668.7853199868
 30
0.0
 11
868.3260654877
 21
668.7853199868
 31
0.0
  0
LINE
  5
45D
330
1F
100
AcDbEntity
  8
0
  6
Continuous
 62
     7
370
    15
100
AcDbLine
 10
868.3260654877
 20
668.7853199868
 30
0.0
 11
868.3260654877
 21
671.7566139595
 31
0.0
  0
LINE
  5
45E
330
1F
100
AcDbEntity
  8
0
  6
Continuous
 62
     7
370
    15
100
AcDbLine
 10
868.3260654877
 20
671.7566139595
 30
0.0
 11
866.0110686291
 21
671.7566139595
 31
0.0
  0
LINE
  5
45F
330
1F
100
AcDbEntity
  8
0
  6
Continuous
 62
     7
370
    15
100
AcDbLine
 10
866.0110686291
 20
671.7566139595
 30
0.0
 11
866.0110686291
 21
668.7853199868
 31
0.0
  0
LINE
  5
460
330
1F
100
AcDbEntity
  8
0
  6
Continuous
 62
     7
370
    15
100
AcDbLine
 10
996.0110686291
 20
668.7853199868
 30
0.0
 11
998.3260654877
 21
668.7853199868
 31
0.0
  0
LINE
  5
461
330
1F
100
AcDbEntity
  8
0
  6
Continuous
 62
     7
370
    15
100
AcDbLine
 10
998.3260654877
 20
668.7853199868
 30
0.0
 11
998.3260654877
 21
671.7566139595
 31
0.0
  0
LINE
  5
462
330
1F
100
AcDbEntity
  8
0
  6
Continuous
 62
     7
370
    15
100
AcDbLine
 10
998.3260654877
 20
671.7566139595
 30
0.0
 11
996.0110686291
 21
671.7566139595
 31
0.0
  0
LINE
  5
463
330
1F
100
AcDbEntity
  8
0
  6
Continuous
 62
     7
370
    15
100
AcDbLine
 10
996.0110686291
 20
671.7566139595
 30
0.0
 11
996.0110686291
 21
668.7853199868
 31
0.0
  0
LINE
  5
464
330
1F
100
AcDbEntity
  8
0
  6
Continuous
 62
     7
370
    15
100
AcDbLine
 10
746.0110686291
 20
668.7853199868
 30
0.0
 11
748.3260654877
 21
668.7853199868
 31
0.0
  0
LINE
  5
465
330
1F
100
AcDbEntity
  8
0
  6
Continuous
 62
     7
370
    15
100
AcDbLine
 10
748.3260654877
 20
668.7853199868
 30
0.0
 11
748.3260654877
 21
671.7566139595
 31
0.0
  0
LINE
  5
466
330
1F
100
AcDbEntity
  8
0
  6
Continuous
 62
     7
370
    15
100
AcDbLine
 10
746.0110686291
 20
671.7566139595
 30
0.0
 11
746.0110686291
 21
668.7853199868
 31
0.0
  0
LINE
  5
467
330
1F
100
AcDbEntity
  8
0
  6
Continuous
 62
     7
370
    15
100
AcDbLine
 10
748.3260654877
 20
671.7566139595
 30
0.0
 11
746.0110686291
 21
671.7566139595
 31
0.0
  0
LINE
  5
468
330
1F
100
AcDbEntity
  8
0
  6
Continuous
 62
     7
370
    15
100
AcDbLine
 10
1128.3260654877
 20
671.7566139595
 30
0.0
 11
1126.0110686291
 21
671.7566139595
 31
0.0
  0
LINE
  5
469
330
1F
100
AcDbEntity
  8
0
  6
Continuous
 62
     7
370
    15
100
AcDbLine
 10
1126.0110686291
 20
668.7853199868
 30
0.0
 11
1128.3260654877
 21
668.7853199868
 31
0.0
  0
LINE
  5
46A
330
1F
100
AcDbEntity
  8
0
  6
Continuous
 62
     7
370
    15
100
AcDbLine
 10
1128.3260654877
 20
668.7853199868
 30
0.0
 11
1128.3260654877
 21
671.7566139595
 31
0.0
  0
LINE
  5
46B
330
1F
100
AcDbEntity
  8
0
  6
Continuous
 62
     7
370
    15
100
AcDbLine
 10
1126.0110686291
 20
671.7566139595
 30
0.0
 11
1126.0110686291
 21
668.7853199868
 31
0.0
  0
LINE
  5
46C
330
1F
100
AcDbEntity
  8
0
  6
Continuous
 62
     7
370
    15
100
AcDbLine
 10
876.0110686291
 20
668.7853199868
 30
0.0
 11
878.3260654877
 21
668.7853199868
 31
0.0
  0
LINE
  5
46D
330
1F
100
AcDbEntity
  8
0
  6
Continuous
 62
     7
370
    15
100
AcDbLine
 10
878.3260654877
 20
668.7853199868
 30
0.0
 11
878.3260654877
 21
671.7566139595
 31
0.0
  0
LINE
  5
46E
330
1F
100
AcDbEntity
  8
0
  6
Continuous
 62
     7
370
    15
100
AcDbLine
 10
878.3260654877
 20
671.7566139595
 30
0.0
 11
876.0110686291
 21
671.7566139595
 31
0.0
  0
LINE
  5
46F
330
1F
100
AcDbEntity
  8
0
  6
Continuous
 62
     7
370
    15
100
AcDbLine
 10
876.0110686291
 20
671.7566139595
 30
0.0
 11
876.0110686291
 21
668.7853199868
 31
0.0
  0
LINE
  5
470
330
1F
100
AcDbEntity
  8
0
  6
Continuous
 62
     7
370
    15
100
AcDbLine
 10
1006.0110686291
 20
668.7853199868
 30
0.0
 11
1008.3260654877
 21
668.7853199868
 31
0.0
  0
LINE
  5
471
330
1F
100
AcDbEntity
  8
0
  6
Continuous
 62
     7
370
    15
100
AcDbLine
 10
1008.3260654877
 20
671.7566139595
 30
0.0
 11
1006.0110686291
 21
671.7566139595
 31
0.0
  0
LINE
  5
472
330
1F
100
AcDbEntity
  8
0
  6
Continuous
 62
     7
370
    15
100
AcDbLine
 10
1008.3260654877
 20
668.7853199868
 30
0.0
 11
1008.3260654877
 21
671.7566139595
 31
0.0
  0
LINE
  5
473
330
1F
100
AcDbEntity
  8
0
  6
Continuous
 62
     7
370
    15
100
AcDbLine
 10
1006.0110686291
 20
671.7566139595
 30
0.0
 11
1006.0110686291
 21
668.7853199868
 31
0.0
  0
LINE
  5
474
330
1F
100
AcDbEntity
  8
0
  6
Continuous
 62
     7
370
    15
100
AcDbLine
 10
756.0110686291
 20
668.7853199868
 30
0.0
 11
758.3260654877
 21
668.7853199868
 31
0.0
  0
LINE
  5
475
330
1F
100
AcDbEntity
  8
0
  6
Continuous
 62
     7
370
    15
100
AcDbLine
 10
758.3260654877
 20
668.7853199868
 30
0.0
 11
758.3260654877
 21
671.7566139595
 31
0.0
  0
LINE
  5
476
330
1F
100
AcDbEntity
  8
0
  6
Continuous
 62
     7
370
    15
100
AcDbLine
 10
756.0110686291
 20
671.7566139595
 30
0.0
 11
756.0110686291
 21
668.7853199868
 31
0.0
  0
LINE
  5
477
330
1F
100
AcDbEntity
  8
0
  6
Continuous
 62
     7
370
    15
100
AcDbLine
 10
758.3260654877
 20
671.7566139595
 30
0.0
 11
756.0110686291
 21
671.7566139595
 31
0.0
  0
LINE
  5
478
330
1F
100
AcDbEntity
  8
0
  6
Continuous
 62
     7
370
    15
100
AcDbLine
 10
1138.3260654877
 20
671.7566139595
 30
0.0
 11
1136.0110686291
 21
671.7566139595
 31
0.0
  0
LINE
  5
479
330
1F
100
AcDbEntity
  8
0
  6
Continuous
 62
     7
370
    15
100
AcDbLine
 10
1136.0110686291
 20
668.7853199868
 30
0.0
 11
1138.3260654877
 21
668.7853199868
 31
0.0
  0
LINE
  5
47A
330
1F
100
AcDbEntity
  8
0
  6
Continuous
 62
     7
370
    15
100
AcDbLine
 10
1138.3260654877
 20
668.7853199868
 30
0.0
 11
1138.3260654877
 21
671.7566139595
 31
0.0
  0
LINE
  5
47B
330
1F
100
AcDbEntity
  8
0
  6
Continuous
 62
     7
370
    15
100
AcDbLine
 10
1136.0110686291
 20
671.7566139595
 30
0.0
 11
1136.0110686291
 21
668.7853199868
 31
0.0
  0
LINE
  5
47C
330
1F
100
AcDbEntity
  8
0
  6
Continuous
 62
     7
370
    15
100
AcDbLine
 10
886.0110686291
 20
668.7853199868
 30
0.0
 11
888.3260654877
 21
668.7853199868
 31
0.0
  0
LINE
  5
47D
330
1F
100
AcDbEntity
  8
0
  6
Continuous
 62
     7
370
    15
100
AcDbLine
 10
888.3260654877
 20
668.7853199868
 30
0.0
 11
888.3260654877
 21
671.7566139595
 31
0.0
  0
LINE
  5
47E
330
1F
100
AcDbEntity
  8
0
  6
Continuous
 62
     7
370
    15
100
AcDbLine
 10
888.3260654877
 20
671.7566139595
 30
0.0
 11
886.0110686291
 21
671.7566139595
 31
0.0
  0
LINE
  5
47F
330
1F
100
AcDbEntity
  8
0
  6
Continuous
 62
     7
370
    15
100
AcDbLine
 10
886.0110686291
 20
671.7566139595
 30
0.0
 11
886.0110686291
 21
668.7853199868
 31
0.0
  0
LINE
  5
480
330
1F
100
AcDbEntity
  8
0
  6
Continuous
 62
     7
370
    15
100
AcDbLine
 10
1016.0110686291
 20
668.7853199868
 30
0.0
 11
1018.3260654877
 21
668.7853199868
 31
0.0
  0
LINE
  5
481
330
1F
100
AcDbEntity
  8
0
  6
Continuous
 62
     7
370
    15
100
AcDbLine
 10
1018.3260654877
 20
668.7853199868
 30
0.0
 11
1018.3260654877
 21
671.7566139595
 31
0.0
  0
LINE
  5
482
330
1F
100
AcDbEntity
  8
0
  6
Continuous
 62
     7
370
    15
100
AcDbLine
 10
1018.3260654877
 20
671.7566139595
 30
0.0
 11
1016.0110686291
 21
671.7566139595
 31
0.0
  0
LINE
  5
483
330
1F
100
AcDbEntity
  8
0
  6
Continuous
 62
     7
370
    15
100
AcDbLine
 10
1016.0110686291
 20
671.7566139595
 30
0.0
 11
1016.0110686291
 21
668.7853199868
 31
0.0
  0
LINE
  5
484
330
1F
100
AcDbEntity
  8
0
  6
Continuous
 62
     7
370
    15
100
AcDbLine
 10
766.0110686291
 20
668.7853199868
 30
0.0
 11
768.3260654877
 21
668.7853199868
 31
0.0
  0
LINE
  5
485
330
1F
100
AcDbEntity
  8
0
  6
Continuous
 62
     7
370
    15
100
AcDbLine
 10
768.3260654877
 20
668.7853199868
 30
0.0
 11
768.3260654877
 21
671.7566139595
 31
0.0
  0
LINE
  5
486
330
1F
100
AcDbEntity
  8
0
  6
Continuous
 62
     7
370
    15
100
AcDbLine
 10
766.0110686291
 20
671.7566139595
 30
0.0
 11
766.0110686291
 21
668.7853199868
 31
0.0
  0
LINE
  5
487
330
1F
100
AcDbEntity
  8
0
  6
Continuous
 62
     7
370
    15
100
AcDbLine
 10
768.3260654877
 20
671.7566139595
 30
0.0
 11
766.0110686291
 21
671.7566139595
 31
0.0
  0
LINE
  5
488
330
1F
100
AcDbEntity
  8
0
  6
Continuous
 62
     7
370
    15
100
AcDbLine
 10
1148.3260654877
 20
671.7566139595
 30
0.0
 11
1146.0110686291
 21
671.7566139595
 31
0.0
  0
LINE
  5
489
330
1F
100
AcDbEntity
  8
0
  6
Continuous
 62
     7
370
    15
100
AcDbLine
 10
1146.0110686291
 20
668.7853199868
 30
0.0
 11
1148.3260654877
 21
668.7853199868
 31
0.0
  0
LINE
  5
48A
330
1F
100
AcDbEntity
  8
0
  6
Continuous
 62
     7
370
    15
100
AcDbLine
 10
1148.3260654877
 20
668.7853199868
 30
0.0
 11
1148.3260654877
 21
671.7566139595
 31
0.0
  0
LINE
  5
48B
330
1F
100
AcDbEntity
  8
0
  6
Continuous
 62
     7
370
    15
100
AcDbLine
 10
1146.0110686291
 20
671.7566139595
 30
0.0
 11
1146.0110686291
 21
668.7853199868
 31
0.0
  0
LINE
  5
48C
330
1F
100
AcDbEntity
  8
0
  6
Continuous
 62
     7
370
    15
100
AcDbLine
 10
896.0110686291
 20
668.7853199868
 30
0.0
 11
898.3260654877
 21
668.7853199868
 31
0.0
  0
LINE
  5
48D
330
1F
100
AcDbEntity
  8
0
  6
Continuous
 62
     7
370
    15
100
AcDbLine
 10
898.3260654877
 20
668.7853199868
 30
0.0
 11
898.3260654877
 21
671.7566139595
 31
0.0
  0
LINE
  5
48E
330
1F
100
AcDbEntity
  8
0
  6
Continuous
 62
     7
370
    15
100
AcDbLine
 10
898.3260654877
 20
671.7566139595
 30
0.0
 11
896.0110686291
 21
671.7566139595
 31
0.0
  0
LINE
  5
48F
330
1F
100
AcDbEntity
  8
0
  6
Continuous
 62
     7
370
    15
100
AcDbLine
 10
896.0110686291
 20
671.7566139595
 30
0.0
 11
896.0110686291
 21
668.7853199868
 31
0.0
  0
LINE
  5
490
330
1F
100
AcDbEntity
  8
0
  6
Continuous
 62
     7
370
    15
100
AcDbLine
 10
786.0110686291
 20
668.7853199868
 30
0.0
 11
788.3260654877
 21
668.7853199868
 31
0.0
  0
LINE
  5
491
330
1F
100
AcDbEntity
  8
0
  6
Continuous
 62
     7
370
    15
100
AcDbLine
 10
788.3260654877
 20
671.7566139595
 30
0.0
 11
786.0110686291
 21
671.7566139595
 31
0.0
  0
LINE
  5
492
330
1F
100
AcDbEntity
  8
0
  6
Continuous
 62
     7
370
    15
100
AcDbLine
 10
788.3260654877
 20
668.7853199868
 30
0.0
 11
788.3260654877
 21
671.7566139595
 31
0.0
  0
LINE
  5
493
330
1F
100
AcDbEntity
  8
0
  6
Continuous
 62
     7
370
    15
100
AcDbLine
 10
786.0110686291
 20
671.7566139595
 30
0.0
 11
786.0110686291
 21
668.7853199868
 31
0.0
  0
LINE
  5
494
330
1F
100
AcDbEntity
  8
0
  6
Continuous
 62
     7
370
    15
100
AcDbLine
 10
153.5324625624
 20
667.5769966722
 30
0.0
 11
1153.5324625624
 21
667.5769966722
 31
0.0
  0
LINE
  5
495
330
1F
100
AcDbEntity
  8
0
  6
Continuous
 62
     7
370
    15
100
AcDbLine
 10
153.5324625624
 20
677.5769966722
 30
0.0
 11
153.5324625624
 21
667.5769966722
 31
0.0
  0
LINE
  5
496
330
1F
100
AcDbEntity
  8
0
  6
Continuous
 62
     7
370
    15
100
AcDbLine
 10
1153.5324625624
 20
677.5769966722
 30
0.0
 11
153.5324625624
 21
677.5769966722
 31
0.0
  0
LINE
  5
497
330
1F
100
AcDbEntity
  8
0
  6
Continuous
 62
     7
370
    15
100
AcDbLine
 10
1153.5324625624
 20
667.5769966722
 30
0.0
 11
1153.5324625624
 21
677.5769966722
 31
0.0
  0
LINE
  5
498
330
1F
100
AcDbEntity
  8
0
  6
Continuous
 62
     7
370
    15
100
AcDbLine
 10
1261.4499168053
 20
600.2252329451
 30
0.0
 11
1261.4499168053
 21
600.1252329451
 31
0.0
  0
LINE
  5
499
330
1F
100
AcDbEntity
  8
0
  6
Continuous
 62
     7
370
    15
100
AcDbLine
 10
1261.4499168053
 20
600.1252329451
 30
0.0
 11
1271.4499168053
 21
600.1252329451
 31
0.0
  0
LINE
  5
49A
330
1F
100
AcDbEntity
  8
0
  6
Continuous
 62
     7
370
    15
100
AcDbLine
 10
1271.4499168053
 20
600.2252329451
 30
0.0
 11
1271.4499168053
 21
600.1252329451
 31
0.0
  0
LINE
  5
49B
330
1F
100
AcDbEntity
  8
0
  6
Continuous
 62
     7
370
    15
100
AcDbLine
 10
1261.4499168053
 20
600.2252329451
 30
0.0
 11
1271.4499168053
 21
600.2252329451
 31
0.0
  0
LINE
  5
49C
330
1F
100
AcDbEntity
  8
0
  6
Continuous
 62
     7
370
    15
100
AcDbLine
 10
1270.2415934908
 20
602.1252329451
 30
0.0
 11
1270.2415934908
 21
600.2252329451
 31
0.0
  0
LINE
  5
49D
330
1F
100
AcDbEntity
  8
0
  6
Continuous
 62
     7
370
    15
100
AcDbLine
 10
1267.270299518
 20
602.1252329451
 30
0.0
 11
1267.270299518
 21
600.2252329451
 31
0.0
  0
LINE
  5
49E
330
1F
100
AcDbEntity
  8
0
  6
Continuous
 62
     7
370
    15
100
AcDbLine
 10
1267.270299518
 20
602.1252329451
 30
0.0
 11
1270.2415934908
 21
602.1252329451
 31
0.0
  0
LINE
  5
49F
330
1F
100
AcDbEntity
  8
0
  6
Continuous
 62
     7
370
    15
100
AcDbLine
 10
1262.6582401199
 20
602.1252329451
 30
0.0
 11
1262.6582401199
 21
600.2252329451
 31
0.0
  0
LINE
  5
4A0
330
1F
100
AcDbEntity
  8
0
  6
Continuous
 62
     7
370
    15
100
AcDbLine
 10
1265.6295340926
 20
602.1252329451
 30
0.0
 11
1265.6295340926
 21
600.2252329451
 31
0.0
  0
LINE
  5
4A1
330
1F
100
AcDbEntity
  8
0
  6
Continuous
 62
     7
370
    15
100
AcDbLine
 10
1262.6582401199
 20
602.1252329451
 30
0.0
 11
1265.6295340926
 21
602.1252329451
 31
0.0
  0
ENDSEC
  0
SECTION
  2
OBJECTS
  0
DICTIONARY
  5
C
330
0
100
AcDbDictionary
281
     1
  3
ACAD_GROUP
350
D
  3
ACAD_LAYOUT
350
1A
  3
ACAD_MLINESTYLE
350
17
  3
ACAD_PLOTSETTINGS
350
19
  3
ACAD_PLOTSTYLENAME
350
E
  0
DICTIONARY
  5
D
102
{ACAD_REACTORS
330
C
102
}
330
C
100
AcDbDictionary
281
     1
  0
DICTIONARY
  5
1A
102
{ACAD_REACTORS
330
C
102
}
330
C
100
AcDbDictionary
281
     1
  3
Layout1
350
1E
  3
Layout2
350
26
  3
Model
350
22
  0
DICTIONARY
  5
17
102
{ACAD_REACTORS
330
C
102
}
330
C
100
AcDbDictionary
281
     1
  3
Standard
350
18
  0
DICTIONARY
  5
19
102
{ACAD_REACTORS
330
C
102
}
330
C
100
AcDbDictionary
281
     1
  0
ACDBDICTIONARYWDFLT
  5
E
102
{ACAD_REACTORS
330
C
102
}
330
C
100
AcDbDictionary
281
     1
  3
Normal
350
F
100
AcDbDictionaryWithDefault
340
F
  0
LAYOUT
  5
1E
102
{ACAD_REACTORS
330
1A
102
}
330
1A
100
AcDbPlotSettings
  1

  2
none_device
  4

  6

 40
0.0
 41
0.0
 42
0.0
 43
0.0
 44
0.0
 45
0.0
 46
0.0
 47
0.0
 48
0.0
 49
0.0
140
0.0
141
0.0
142
1.0
143
1.0
 70
   688
 72
     0
 73
     0
 74
     5
  7

 75
    16
147
1.0
148
0.0
149
0.0
100
AcDbLayout
  1
Layout1
 70
     1
 71
     1
 10
0.0
 20
0.0
 11
420.0
 21
297.0
 12
0.0
 22
0.0
 32
0.0
 14
1.0000000000E+20
 24
1.0000000000E+20
 34
1.0000000000E+20
 15
-1.0000000000E+20
 25
-1.0000000000E+20
 35
-1.0000000000E+20
146
0.0
 13
0.0
 23
0.0
 33
0.0
 16
1.0
 26
0.0
 36
0.0
 17
0.0
 27
1.0
 37
0.0
 76
     0
330
1B
  0
LAYOUT
  5
26
102
{ACAD_REACTORS
330
1A
102
}
330
1A
100
AcDbPlotSettings
  1

  2
none_device
  4

  6

 40
0.0
 41
0.0
 42
0.0
 43
0.0
 44
0.0
 45
0.0
 46
0.0
 47
0.0
 48
0.0
 49
0.0
140
0.0
141
0.0
142
1.0
143
1.0
 70
   688
 72
     0
 73
     0
 74
     5
  7

 75
    16
147
1.0
148
0.0
149
0.0
100
AcDbLayout
  1
Layout2
 70
     1
 71
     2
 10
0.0
 20
0.0
 11
0.0
 21
0.0
 12
0.0
 22
0.0
 32
0.0
 14
0.0
 24
0.0
 34
0.0
 15
0.0
 25
0.0
 35
0.0
146
0.0
 13
0.0
 23
0.0
 33
0.0
 16
1.0
 26
0.0
 36
0.0
 17
0.0
 27
1.0
 37
0.0
 76
     0
330
23
  0
LAYOUT
  5
22
102
{ACAD_REACTORS
330
1A
102
}
330
1A
100
AcDbPlotSettings
  1

  2
none_device
  4

  6

 40
0.0
 41
0.0
 42
0.0
 43
0.0
 44
0.0
 45
0.0
 46
0.0
 47
0.0
 48
0.0
 49
0.0
140
0.0
141
0.0
142
1.0
143
1.0
 70
  1712
 72
     0
 73
     0
 74
     0
  7

 75
     0
147
1.0
148
0.0
149
0.0
100
AcDbLayout
  1
Model
 70
     1
 71
     0
 10
0.0
 20
0.0
 11
1397.0
 21
1079.5
 12
0.0
 22
0.0
 32
0.0
 14
0.0
 24
0.0
 34
0.0
 15
1397.0
 25
1079.5
 35
0.0
146
0.0
 13
0.0
 23
0.0
 33
0.0
 16
1.0
 26
0.0
 36
0.0
 17
0.0
 27
1.0
 37
0.0
 76
     0
330
1F
331
29
  0
MLINESTYLE
  5
18
102
{ACAD_REACTORS
330
17
102
}
330
17
100
AcDbMlineStyle
  2
Standard
 70
     0
  3

 62
   256
 51
90.0
 52
90.0
 71
     2
 49
0.5
 62
   256
  6
BYLAYER
 49
-0.5
 62
   256
  6
BYLAYER
  0
ACDBPLACEHOLDER
  5
F
102
{ACAD_REACTORS
330
E
102
}
330
E
  0
ENDSEC
  0
EOF
