ISO-10303-21;
HEADER;
FILE_DESCRIPTION (( 'STEP AP214' ),
    '1' );
FILE_NAME ('FLAME DR UNI LED 1200õ190 4000K.STEP',
    '2018-06-26T05:07:05',
    ( '' ),
    ( '' ),
    'SwSTEP 2.0',
    'SolidWorks 2013',
    '' );
FILE_SCHEMA (( 'AUTOMOTIVE_DESIGN' ));
ENDSEC;

DATA;
#1 = VECTOR ( 'NONE', #210, 1000.000000000000000 ) ;
#2 = DIRECTION ( 'NONE',  ( 1.000000000000000000, 0.0000000000000000000, 0.0000000000000000000 ) ) ;
#3 = FILL_AREA_STYLE_COLOUR ( '', #181 ) ;
#4 = DIRECTION ( 'NONE',  ( 0.0000000000000000000, 0.0000000000000000000, -1.000000000000000000 ) ) ;
#5 = LINE ( 'NONE', #246, #17 ) ;
#6 = CARTESIAN_POINT ( 'NONE',  ( -88.11168954355214600, -37.94591009539836800, 38.00000000000000000 ) ) ;
#7 = SURFACE_STYLE_FILL_AREA ( #326 ) ;
#8 = SURFACE_STYLE_USAGE ( .BOTH. , #91 ) ;
#9 = VERTEX_POINT ( 'NONE', #110 ) ;
#10 = ORIENTED_EDGE ( 'NONE', *, *, #259, .F. ) ;
#11 = DIRECTION ( 'NONE',  ( -1.000000000000000000, -0.0000000000000000000, -0.0000000000000000000 ) ) ;
#12 = CARTESIAN_POINT ( 'NONE',  ( -38.11168954355215300, 102.0540899046016100, 33.00000000000000000 ) ) ;
#13 = VECTOR ( 'NONE', #258, 1000.000000000000000 ) ;
#14 = CARTESIAN_POINT ( 'NONE',  ( -38.11168954355215300, 102.0540899046016100, 38.00000000000000000 ) ) ;
#15 = FACE_OUTER_BOUND ( 'NONE', #327, .T. ) ;
#16 = ORIENTED_EDGE ( 'NONE', *, *, #133, .F. ) ;
#17 = VECTOR ( 'NONE', #272, 1000.000000000000000 ) ;
#18 = FACE_BOUND ( 'NONE', #303, .T. ) ;
#19 = VECTOR ( 'NONE', #211, 1000.000000000000000 ) ;
#20 = ORIENTED_EDGE ( 'NONE', *, *, #189, .F. ) ;
#21 = ORIENTED_EDGE ( 'NONE', *, *, #143, .F. ) ;
#22 = DIRECTION ( 'NONE',  ( 0.0000000000000000000, -1.000000000000000000, 0.0000000000000000000 ) ) ;
#23 = PLANE ( 'NONE',  #152 ) ;
#24 = PLANE ( 'NONE',  #99 ) ;
#25 = DIRECTION ( 'NONE',  ( 0.0000000000000000000, -0.0000000000000000000, -1.000000000000000000 ) ) ;
#26 = DIRECTION ( 'NONE',  ( 0.0000000000000000000, -1.000000000000000000, 0.0000000000000000000 ) ) ;
#27 = VECTOR ( 'NONE', #26, 1000.000000000000000 ) ;
#28 = PLANE ( 'NONE',  #90 ) ;
#29 = LINE ( 'NONE', #330, #81 ) ;
#30 = VERTEX_POINT ( 'NONE', #123 ) ;
#31 = CARTESIAN_POINT ( 'NONE',  ( 1103.888310456447900, 102.0540899046016100, 33.00000000000000000 ) ) ;
#32 = PLANE ( 'NONE',  #174 ) ;
#33 = LINE ( 'NONE', #139, #240 ) ;
#34 = LINE ( 'NONE', #270, #13 ) ;
#35 = LINE ( 'NONE', #290, #48 ) ;
#36 = PLANE ( 'NONE',  #168 ) ;
#37 = CARTESIAN_POINT ( 'NONE',  ( -88.11168954355216000, 152.0540899046016200, 38.00000000000000000 ) ) ;
#38 = DIRECTION ( 'NONE',  ( -1.000000000000000000, -0.0000000000000000000, -0.0000000000000000000 ) ) ;
#39 = DIRECTION ( 'NONE',  ( 0.0000000000000000000, -0.0000000000000000000, 1.000000000000000000 ) ) ;
#40 = LINE ( 'NONE', #275, #140 ) ;
#41 = DIRECTION ( 'NONE',  ( -0.0000000000000000000, 1.000000000000000000, 0.0000000000000000000 ) ) ;
#42 = ORIENTED_EDGE ( 'NONE', *, *, #169, .F. ) ;
#43 = LINE ( 'NONE', #236, #19 ) ;
#44 = PRODUCT_RELATED_PRODUCT_CATEGORY ( 'part', '', ( #279 ) ) ;
#45 = FACE_OUTER_BOUND ( 'NONE', #173, .T. ) ;
#46 = VECTOR ( 'NONE', #135, 1000.000000000000000 ) ;
#47 = LINE ( 'NONE', #94, #129 ) ;
#48 = VECTOR ( 'NONE', #22, 1000.000000000000000 ) ;
#49 = PRODUCT_DEFINITION ( 'UNKNOWN', '', #86, #186 ) ;
#50 = AXIS2_PLACEMENT_3D ( 'NONE', #251, #230, #224 ) ;
#51 = DIRECTION ( 'NONE',  ( 0.0000000000000000000, -1.000000000000000000, 0.0000000000000000000 ) ) ;
#52 = FACE_OUTER_BOUND ( 'NONE', #322, .T. ) ;
#53 = FACE_OUTER_BOUND ( 'NONE', #341, .T. ) ;
#54 = FACE_OUTER_BOUND ( 'NONE', #328, .T. ) ;
#55 = ORIENTED_EDGE ( 'NONE', *, *, #245, .F. ) ;
#56 = DIRECTION ( 'NONE',  ( -1.000000000000000000, 0.0000000000000000000, 0.0000000000000000000 ) ) ;
#57 = FACE_OUTER_BOUND ( 'NONE', #296, .T. ) ;
#58 = EDGE_CURVE ( 'NONE', #338, #221, #141, .T. ) ;
#59 = VERTEX_POINT ( 'NONE', #214 ) ;
#60 =( NAMED_UNIT ( * ) SI_UNIT ( $, .STERADIAN. ) SOLID_ANGLE_UNIT ( ) );
#61 =( NAMED_UNIT ( * ) PLANE_ANGLE_UNIT ( ) SI_UNIT ( $, .RADIAN. ) );
#62 = EDGE_CURVE ( 'NONE', #221, #197, #88, .T. ) ;
#63 = FACE_OUTER_BOUND ( 'NONE', #248, .T. ) ;
#64 = DIRECTION ( 'NONE',  ( 0.0000000000000000000, -0.0000000000000000000, 1.000000000000000000 ) ) ;
#65 = ORIENTED_EDGE ( 'NONE', *, *, #179, .F. ) ;
#66 = CARTESIAN_POINT ( 'NONE',  ( -38.11168954355215300, 12.05408990460163400, 33.00000000000000000 ) ) ;
#67 =( LENGTH_UNIT ( ) NAMED_UNIT ( * ) SI_UNIT ( .MILLI., .METRE. ) );
#68 = CARTESIAN_POINT ( 'NONE',  ( -38.11168954355215300, 102.0540899046016100, 33.00000000000000000 ) ) ;
#69 = CARTESIAN_POINT ( 'NONE',  ( -88.11168954355216000, 152.0540899046016200, 38.00000000000000000 ) ) ;
#70 = FACE_OUTER_BOUND ( 'NONE', #283, .T. ) ;
#71 = LINE ( 'NONE', #132, #46 ) ;
#72 = DIRECTION ( 'NONE',  ( -1.000000000000000000, -0.0000000000000000000, -0.0000000000000000000 ) ) ;
#73 =( GEOMETRIC_REPRESENTATION_CONTEXT ( 3 ) GLOBAL_UNCERTAINTY_ASSIGNED_CONTEXT ( ( #96 ) ) GLOBAL_UNIT_ASSIGNED_CONTEXT ( ( #306, #304, #257 ) ) REPRESENTATION_CONTEXT ( 'NONE', 'WORKASPACE' ) );
#74 = PLANE ( 'NONE',  #188 ) ;
#75 = PRODUCT_DEFINITION_SHAPE ( 'NONE', 'NONE',  #49 ) ;
#76 = MECHANICAL_DESIGN_GEOMETRIC_PRESENTATION_REPRESENTATION (  '', ( #83 ), #73 ) ;
#77 = VECTOR ( 'NONE', #146, 1000.000000000000000 ) ;
#78 = VECTOR ( 'NONE', #185, 1000.000000000000000 ) ;
#79 = ORIENTED_EDGE ( 'NONE', *, *, #282, .T. ) ;
#80 = APPLICATION_CONTEXT ( 'automotive_design' ) ;
#81 = VECTOR ( 'NONE', #343, 1000.000000000000000 ) ;
#82 = PRESENTATION_LAYER_ASSIGNMENT (  '', '', ( #83 ) ) ;
#83 = STYLED_ITEM ( 'NONE', ( #302 ), #268 ) ;
#84 = FACE_OUTER_BOUND ( 'NONE', #333, .T. ) ;
#85 = LINE ( 'NONE', #234, #1 ) ;
#86 = PRODUCT_DEFINITION_FORMATION_WITH_SPECIFIED_SOURCE ( 'ANY', '', #279, .NOT_KNOWN. ) ;
#87 = CARTESIAN_POINT ( 'NONE',  ( -38.11168954355215300, 102.0540899046016100, 38.00000000000000000 ) ) ;
#88 = LINE ( 'NONE', #108, #104 ) ;
#89 = DIRECTION ( 'NONE',  ( 1.000000000000000000, 0.0000000000000000000, 0.0000000000000000000 ) ) ;
#90 = AXIS2_PLACEMENT_3D ( 'NONE', #263, #243, #238 ) ;
#91 = SURFACE_SIDE_STYLE ('',( #340 ) ) ;
#92 = PLANE ( 'NONE',  #200 ) ;
#93 = CARTESIAN_POINT ( 'NONE',  ( -38.11168954355215300, 102.0540899046016100, 38.00000000000000000 ) ) ;
#94 = CARTESIAN_POINT ( 'NONE',  ( -88.11168954355216000, 152.0540899046016200, 0.0000000000000000000 ) ) ;
#95 =( GEOMETRIC_REPRESENTATION_CONTEXT ( 3 ) GLOBAL_UNCERTAINTY_ASSIGNED_CONTEXT ( ( #324 ) ) GLOBAL_UNIT_ASSIGNED_CONTEXT ( ( #314, #284, #121 ) ) REPRESENTATION_CONTEXT ( 'NONE', 'WORKASPACE' ) );
#96 = UNCERTAINTY_MEASURE_WITH_UNIT (LENGTH_MEASURE( 1.000000000000000100E-005 ), #306, 'distance_accuracy_value', 'NONE');
#97 = PLANE ( 'NONE',  #222 ) ;
#98 = FACE_OUTER_BOUND ( 'NONE', #289, .T. ) ;
#99 = AXIS2_PLACEMENT_3D ( 'NONE', #184, #316, #295 ) ;
#100 = ORIENTED_EDGE ( 'NONE', *, *, #58, .F. ) ;
#101 = ADVANCED_FACE ( 'NONE', ( #53 ), #97, .T. ) ;
#102 = CARTESIAN_POINT ( 'NONE',  ( 0.0000000000000000000, 0.0000000000000000000, 33.00000000000000000 ) ) ;
#103 = CARTESIAN_POINT ( 'NONE',  ( -88.11168954355214600, -37.94591009539836800, 38.00000000000000000 ) ) ;
#104 = VECTOR ( 'NONE', #294, 1000.000000000000000 ) ;
#105 = FILL_AREA_STYLE ('',( #235 ) ) ;
#106 = CARTESIAN_POINT ( 'NONE',  ( 1153.888310456447900, -37.94591009539836800, 0.0000000000000000000 ) ) ;
#107 = ADVANCED_FACE ( 'NONE', ( #84 ), #92, .F. ) ;
#108 = CARTESIAN_POINT ( 'NONE',  ( -38.11168954355215300, 12.05408990460163400, 38.00000000000000000 ) ) ;
#109 = ADVANCED_FACE ( 'NONE', ( #54 ), #74, .F. ) ;
#110 = CARTESIAN_POINT ( 'NONE',  ( 1103.888310456447900, 102.0540899046016100, 33.00000000000000000 ) ) ;
#111 = ORIENTED_EDGE ( 'NONE', *, *, #125, .F. ) ;
#112 = ADVANCED_FACE ( 'NONE', ( #57 ), #32, .F. ) ;
#113 =( GEOMETRIC_REPRESENTATION_CONTEXT ( 3 ) GLOBAL_UNCERTAINTY_ASSIGNED_CONTEXT ( ( #308 ) ) GLOBAL_UNIT_ASSIGNED_CONTEXT ( ( #67, #61, #60 ) ) REPRESENTATION_CONTEXT ( 'NONE', 'WORKASPACE' ) );
#114 = ADVANCED_FACE ( 'NONE', ( #63 ), #36, .F. ) ;
#115 = MECHANICAL_DESIGN_GEOMETRIC_PRESENTATION_REPRESENTATION (  '', ( #120 ), #113 ) ;
#116 = ADVANCED_FACE ( 'NONE', ( #70 ), #23, .F. ) ;
#117 = PRESENTATION_LAYER_ASSIGNMENT (  '', '', ( #120 ) ) ;
#118 = LINE ( 'NONE', #14, #250 ) ;
#119 = AXIS2_PLACEMENT_3D ( 'NONE', #299, #56, #317 ) ;
#120 = STYLED_ITEM ( 'NONE', ( #323 ), #201 ) ;
#121 =( NAMED_UNIT ( * ) SI_UNIT ( $, .STERADIAN. ) SOLID_ANGLE_UNIT ( ) );
#122 = DIRECTION ( 'NONE',  ( -0.0000000000000000000, 1.000000000000000000, -0.0000000000000000000 ) ) ;
#123 = CARTESIAN_POINT ( 'NONE',  ( 1153.888310456447900, -37.94591009539836800, 38.00000000000000000 ) ) ;
#124 = DIRECTION ( 'NONE',  ( -0.0000000000000000000, -0.0000000000000000000, -1.000000000000000000 ) ) ;
#125 = EDGE_CURVE ( 'NONE', #231, #321, #40, .T. ) ;
#126 = VECTOR ( 'NONE', #124, 1000.000000000000000 ) ;
#127 = CARTESIAN_POINT ( 'NONE',  ( -38.11168954355215300, 12.05408990460163400, 33.00000000000000000 ) ) ;
#128 = CARTESIAN_POINT ( 'NONE',  ( 1153.888310456447900, 152.0540899046016200, 38.00000000000000000 ) ) ;
#129 = VECTOR ( 'NONE', #72, 1000.000000000000000 ) ;
#130 = AXIS2_PLACEMENT_3D ( 'NONE', #344, #288, #332 ) ;
#131 = CARTESIAN_POINT ( 'NONE',  ( 1153.888310456447900, 152.0540899046016200, 38.00000000000000000 ) ) ;
#132 = CARTESIAN_POINT ( 'NONE',  ( 1103.888310456447900, 102.0540899046016100, 33.00000000000000000 ) ) ;
#133 = EDGE_CURVE ( 'NONE', #252, #338, #35, .T. ) ;
#134 = ORIENTED_EDGE ( 'NONE', *, *, #237, .T. ) ;
#135 = DIRECTION ( 'NONE',  ( -0.0000000000000000000, 1.000000000000000000, -0.0000000000000000000 ) ) ;
#136 = ORIENTED_EDGE ( 'NONE', *, *, #242, .F. ) ;
#137 = VECTOR ( 'NONE', #157, 1000.000000000000000 ) ;
#138 = AXIS2_PLACEMENT_3D ( 'NONE', #207, #166, #155 ) ;
#139 = CARTESIAN_POINT ( 'NONE',  ( 1153.888310456447900, 152.0540899046016200, 38.00000000000000000 ) ) ;
#140 = VECTOR ( 'NONE', #267, 1000.000000000000000 ) ;
#141 = LINE ( 'NONE', #127, #77 ) ;
#142 = ADVANCED_FACE ( 'NONE', ( #52 ), #273, .F. ) ;
#143 = EDGE_CURVE ( 'NONE', #9, #149, #29, .T. ) ;
#144 = ORIENTED_EDGE ( 'NONE', *, *, #58, .T. ) ;
#145 = EDGE_CURVE ( 'NONE', #197, #149, #43, .T. ) ;
#146 = DIRECTION ( 'NONE',  ( -0.0000000000000000000, -0.0000000000000000000, 1.000000000000000000 ) ) ;
#147 = LINE ( 'NONE', #190, #137 ) ;
#148 = ORIENTED_EDGE ( 'NONE', *, *, #171, .T. ) ;
#149 = VERTEX_POINT ( 'NONE', #180 ) ;
#150 = ORIENTED_EDGE ( 'NONE', *, *, #245, .T. ) ;
#151 = ORIENTED_EDGE ( 'NONE', *, *, #249, .F. ) ;
#152 = AXIS2_PLACEMENT_3D ( 'NONE', #12, #313, #287 ) ;
#153 = EDGE_CURVE ( 'NONE', #9, #252, #5, .T. ) ;
#154 = CARTESIAN_POINT ( 'NONE',  ( 1103.888310456447900, 12.05408990460163400, 33.00000000000000000 ) ) ;
#155 = DIRECTION ( 'NONE',  ( 0.0000000000000000000, -0.0000000000000000000, -1.000000000000000000 ) ) ;
#156 = CARTESIAN_POINT ( 'NONE',  ( -88.11168954355214600, -37.94591009539836800, 0.0000000000000000000 ) ) ;
#157 = DIRECTION ( 'NONE',  ( 1.000000000000000000, 0.0000000000000000000, 0.0000000000000000000 ) ) ;
#158 = EDGE_CURVE ( 'NONE', #252, #278, #34, .T. ) ;
#159 = ADVANCED_FACE ( 'NONE', ( #18, #15 ), #265, .T. ) ;
#160 = CARTESIAN_POINT ( 'NONE',  ( 1153.888310456447900, 152.0540899046016200, 0.0000000000000000000 ) ) ;
#161 = ORIENTED_EDGE ( 'NONE', *, *, #253, .F. ) ;
#162 = VECTOR ( 'NONE', #291, 1000.000000000000000 ) ;
#163 = VERTEX_POINT ( 'NONE', #154 ) ;
#164 = ORIENTED_EDGE ( 'NONE', *, *, #158, .F. ) ;
#165 = DIRECTION ( 'NONE',  ( -0.0000000000000000000, 1.000000000000000000, -0.0000000000000000000 ) ) ;
#166 = DIRECTION ( 'NONE',  ( 0.0000000000000000000, -1.000000000000000000, 0.0000000000000000000 ) ) ;
#167 = ADVANCED_FACE ( 'NONE', ( #226 ), #335, .F. ) ;
#168 = AXIS2_PLACEMENT_3D ( 'NONE', #31, #2, #4 ) ;
#169 = EDGE_CURVE ( 'NONE', #338, #163, #204, .T. ) ;
#170 = VECTOR ( 'NONE', #165, 1000.000000000000000 ) ;
#171 = EDGE_CURVE ( 'NONE', #231, #59, #339, .T. ) ;
#172 = LINE ( 'NONE', #206, #78 ) ;
#173 = EDGE_LOOP ( 'NONE', ( #301, #254, #10, #55 ) ) ;
#174 = AXIS2_PLACEMENT_3D ( 'NONE', #37, #51, #25 ) ;
#175 = APPLICATION_PROTOCOL_DEFINITION ( 'draft international standard', 'automotive_design', 1998, #177 ) ;
#176 = CARTESIAN_POINT ( 'NONE',  ( -38.11168954355215300, 102.0540899046016100, 33.00000000000000000 ) ) ;
#177 = APPLICATION_CONTEXT ( 'automotive_design' ) ;
#178 = CARTESIAN_POINT ( 'NONE',  ( 1153.888310456447900, 152.0540899046016200, 0.0000000000000000000 ) ) ;
#179 = EDGE_CURVE ( 'NONE', #163, #9, #71, .T. ) ;
#180 = CARTESIAN_POINT ( 'NONE',  ( 1103.888310456447900, 102.0540899046016100, 38.00000000000000000 ) ) ;
#181 = COLOUR_RGB ( '',0.7921568627450980000, 0.8196078431372548800, 0.9333333333333333500 ) ;
#182 = ORIENTED_EDGE ( 'NONE', *, *, #133, .T. ) ;
#183 = ORIENTED_EDGE ( 'NONE', *, *, #242, .T. ) ;
#184 = CARTESIAN_POINT ( 'NONE',  ( 0.0000000000000000000, 0.0000000000000000000, 0.0000000000000000000 ) ) ;
#185 = DIRECTION ( 'NONE',  ( -0.0000000000000000000, -0.0000000000000000000, -1.000000000000000000 ) ) ;
#186 = PRODUCT_DEFINITION_CONTEXT ( 'detailed design', #177, 'design' ) ;
#187 = ORIENTED_EDGE ( 'NONE', *, *, #171, .F. ) ;
#188 = AXIS2_PLACEMENT_3D ( 'NONE', #68, #41, #39 ) ;
#189 = EDGE_CURVE ( 'NONE', #163, #197, #331, .T. ) ;
#190 = CARTESIAN_POINT ( 'NONE',  ( -88.11168954355214600, -37.94591009539836800, 38.00000000000000000 ) ) ;
#191 = ORIENTED_EDGE ( 'NONE', *, *, #259, .T. ) ;
#192 = VECTOR ( 'NONE', #38, 1000.000000000000000 ) ;
#193 = ORIENTED_EDGE ( 'NONE', *, *, #266, .F. ) ;
#194 = VERTEX_POINT ( 'NONE', #156 ) ;
#195 = PRODUCT_CONTEXT ( 'NONE', #80, 'mechanical' ) ;
#196 = ORIENTED_EDGE ( 'NONE', *, *, #249, .T. ) ;
#197 = VERTEX_POINT ( 'NONE', #208 ) ;
#198 = LINE ( 'NONE', #160, #170 ) ;
#199 = ORIENTED_EDGE ( 'NONE', *, *, #282, .F. ) ;
#200 = AXIS2_PLACEMENT_3D ( 'NONE', #103, #260, #64 ) ;
#201 = MANIFOLD_SOLID_BREP ( 'Âûðåç-Âûòÿíóòü1', #212 ) ;
#202 = ORIENTED_EDGE ( 'NONE', *, *, #253, .T. ) ;
#203 = ORIENTED_EDGE ( 'NONE', *, *, #62, .F. ) ;
#204 = LINE ( 'NONE', #315, #162 ) ;
#205 = APPLICATION_PROTOCOL_DEFINITION ( 'draft international standard', 'automotive_design', 1998, #80 ) ;
#206 = CARTESIAN_POINT ( 'NONE',  ( 1153.888310456447900, -37.94591009539836800, 38.00000000000000000 ) ) ;
#207 = CARTESIAN_POINT ( 'NONE',  ( -38.11168954355215300, 12.05408990460163400, 33.00000000000000000 ) ) ;
#208 = CARTESIAN_POINT ( 'NONE',  ( 1103.888310456447900, 12.05408990460163400, 38.00000000000000000 ) ) ;
#209 = CARTESIAN_POINT ( 'NONE',  ( -88.11168954355214600, -37.94591009539836800, 38.00000000000000000 ) ) ;
#210 = DIRECTION ( 'NONE',  ( 7.304098846218135700E-017, -1.000000000000000000, 0.0000000000000000000 ) ) ;
#211 = DIRECTION ( 'NONE',  ( -0.0000000000000000000, 1.000000000000000000, -0.0000000000000000000 ) ) ;
#212 = CLOSED_SHELL ( 'NONE', ( #223, #107, #167, #112, #159, #217, #116, #109, #114, #142, #101 ) ) ;
#213 = VERTEX_POINT ( 'NONE', #178 ) ;
#214 = CARTESIAN_POINT ( 'NONE',  ( -88.11168954355216000, 152.0540899046016200, 0.0000000000000000000 ) ) ;
#215 = DIRECTION ( 'NONE',  ( 1.000000000000000000, 0.0000000000000000000, 0.0000000000000000000 ) ) ;
#216 = LINE ( 'NONE', #269, #312 ) ;
#217 = ADVANCED_FACE ( 'NONE', ( #45 ), #24, .F. ) ;
#218 = ORIENTED_EDGE ( 'NONE', *, *, #153, .T. ) ;
#219 = ORIENTED_EDGE ( 'NONE', *, *, #276, .T. ) ;
#220 = LINE ( 'NONE', #209, #297 ) ;
#221 = VERTEX_POINT ( 'NONE', #261 ) ;
#222 = AXIS2_PLACEMENT_3D ( 'NONE', #102, #233, #89 ) ;
#223 = ADVANCED_FACE ( 'NONE', ( #98 ), #28, .F. ) ;
#224 = DIRECTION ( 'NONE',  ( 1.000000000000000000, 0.0000000000000000000, 0.0000000000000000000 ) ) ;
#225 = ORIENTED_EDGE ( 'NONE', *, *, #125, .T. ) ;
#226 = FACE_OUTER_BOUND ( 'NONE', #280, .T. ) ;
#227 = VERTEX_POINT ( 'NONE', #106 ) ;
#228 = ORIENTED_EDGE ( 'NONE', *, *, #143, .T. ) ;
#229 = CARTESIAN_POINT ( 'NONE',  ( -88.11168954355216000, 152.0540899046016200, 38.00000000000000000 ) ) ;
#230 = DIRECTION ( 'NONE',  ( 0.0000000000000000000, 0.0000000000000000000, 1.000000000000000000 ) ) ;
#231 = VERTEX_POINT ( 'NONE', #229 ) ;
#232 = DIRECTION ( 'NONE',  ( -0.0000000000000000000, -0.0000000000000000000, -1.000000000000000000 ) ) ;
#233 = DIRECTION ( 'NONE',  ( -0.0000000000000000000, 0.0000000000000000000, 1.000000000000000000 ) ) ;
#234 = CARTESIAN_POINT ( 'NONE',  ( -88.11168954355216000, 152.0540899046016200, 0.0000000000000000000 ) ) ;
#235 = FILL_AREA_STYLE_COLOUR ( '', #334 ) ;
#236 = CARTESIAN_POINT ( 'NONE',  ( 1103.888310456447900, 102.0540899046016100, 38.00000000000000000 ) ) ;
#237 = EDGE_CURVE ( 'NONE', #59, #194, #85, .T. ) ;
#238 = DIRECTION ( 'NONE',  ( -7.304098846218135700E-017, 1.000000000000000000, 0.0000000000000000000 ) ) ;
#239 = ORIENTED_EDGE ( 'NONE', *, *, #281, .T. ) ;
#240 = VECTOR ( 'NONE', #122, 1000.000000000000000 ) ;
#241 = CARTESIAN_POINT ( 'NONE',  ( 1103.888310456447900, 12.05408990460163400, 33.00000000000000000 ) ) ;
#242 = EDGE_CURVE ( 'NONE', #321, #194, #220, .T. ) ;
#243 = DIRECTION ( 'NONE',  ( 1.000000000000000000, 7.304098846218135700E-017, -0.0000000000000000000 ) ) ;
#244 = ORIENTED_EDGE ( 'NONE', *, *, #179, .T. ) ;
#245 = EDGE_CURVE ( 'NONE', #194, #227, #216, .T. ) ;
#246 = CARTESIAN_POINT ( 'NONE',  ( -38.11168954355215300, 102.0540899046016100, 33.00000000000000000 ) ) ;
#247 = ORIENTED_EDGE ( 'NONE', *, *, #145, .F. ) ;
#248 = EDGE_LOOP ( 'NONE', ( #342, #21, #65, #300 ) ) ;
#249 = EDGE_CURVE ( 'NONE', #30, #227, #172, .T. ) ;
#250 = VECTOR ( 'NONE', #11, 1000.000000000000000 ) ;
#251 = CARTESIAN_POINT ( 'NONE',  ( 0.0000000000000000000, 0.0000000000000000000, 0.0000000000000000000 ) ) ;
#252 = VERTEX_POINT ( 'NONE', #176 ) ;
#253 = EDGE_CURVE ( 'NONE', #321, #30, #147, .T. ) ;
#254 = ORIENTED_EDGE ( 'NONE', *, *, #276, .F. ) ;
#255 = ORIENTED_EDGE ( 'NONE', *, *, #158, .T. ) ;
#256 = ORIENTED_EDGE ( 'NONE', *, *, #281, .F. ) ;
#257 =( NAMED_UNIT ( * ) SI_UNIT ( $, .STERADIAN. ) SOLID_ANGLE_UNIT ( ) );
#258 = DIRECTION ( 'NONE',  ( -0.0000000000000000000, -0.0000000000000000000, 1.000000000000000000 ) ) ;
#259 = EDGE_CURVE ( 'NONE', #227, #213, #198, .T. ) ;
#260 = DIRECTION ( 'NONE',  ( 0.0000000000000000000, 1.000000000000000000, 0.0000000000000000000 ) ) ;
#261 = CARTESIAN_POINT ( 'NONE',  ( -38.11168954355215300, 12.05408990460163400, 38.00000000000000000 ) ) ;
#262 = EDGE_CURVE ( 'NONE', #271, #213, #285, .T. ) ;
#263 = CARTESIAN_POINT ( 'NONE',  ( -88.11168954355216000, 152.0540899046016200, 38.00000000000000000 ) ) ;
#264 = LINE ( 'NONE', #69, #192 ) ;
#265 = PLANE ( 'NONE',  #130 ) ;
#266 = EDGE_CURVE ( 'NONE', #30, #271, #33, .T. ) ;
#267 = DIRECTION ( 'NONE',  ( 7.304098846218135700E-017, -1.000000000000000000, 0.0000000000000000000 ) ) ;
#268 = ADVANCED_BREP_SHAPE_REPRESENTATION ( 'FLAME DR UNI LED 1200¿190 4000K', ( #201, #50 ), #95 ) ;
#269 = CARTESIAN_POINT ( 'NONE',  ( -88.11168954355214600, -37.94591009539836800, 0.0000000000000000000 ) ) ;
#270 = CARTESIAN_POINT ( 'NONE',  ( -38.11168954355215300, 102.0540899046016100, 33.00000000000000000 ) ) ;
#271 = VERTEX_POINT ( 'NONE', #128 ) ;
#272 = DIRECTION ( 'NONE',  ( -1.000000000000000000, -0.0000000000000000000, -0.0000000000000000000 ) ) ;
#273 = PLANE ( 'NONE',  #138 ) ;
#274 = DIRECTION ( 'NONE',  ( -0.0000000000000000000, -0.0000000000000000000, -1.000000000000000000 ) ) ;
#275 = CARTESIAN_POINT ( 'NONE',  ( -88.11168954355216000, 152.0540899046016200, 38.00000000000000000 ) ) ;
#276 = EDGE_CURVE ( 'NONE', #213, #59, #47, .T. ) ;
#277 = ORIENTED_EDGE ( 'NONE', *, *, #262, .T. ) ;
#278 = VERTEX_POINT ( 'NONE', #87 ) ;
#279 = PRODUCT ( 'FLAME DR UNI LED 1200õ190 4000K', 'FLAME DR UNI LED 1200õ190 4000K', '', ( #195 ) ) ;
#280 = EDGE_LOOP ( 'NONE', ( #191, #318, #193, #196 ) ) ;
#281 = EDGE_CURVE ( 'NONE', #271, #231, #264, .T. ) ;
#282 = EDGE_CURVE ( 'NONE', #278, #221, #325, .T. ) ;
#283 = EDGE_LOOP ( 'NONE', ( #79, #100, #16, #255 ) ) ;
#284 =( NAMED_UNIT ( * ) PLANE_ANGLE_UNIT ( ) SI_UNIT ( $, .RADIAN. ) );
#285 = LINE ( 'NONE', #131, #126 ) ;
#286 = DIRECTION ( 'NONE',  ( -0.0000000000000000000, -0.0000000000000000000, 1.000000000000000000 ) ) ;
#287 = DIRECTION ( 'NONE',  ( -0.0000000000000000000, 0.0000000000000000000, 1.000000000000000000 ) ) ;
#288 = DIRECTION ( 'NONE',  ( -0.0000000000000000000, 0.0000000000000000000, 1.000000000000000000 ) ) ;
#289 = EDGE_LOOP ( 'NONE', ( #134, #136, #111, #148 ) ) ;
#290 = CARTESIAN_POINT ( 'NONE',  ( -38.11168954355215300, 102.0540899046016100, 33.00000000000000000 ) ) ;
#291 = DIRECTION ( 'NONE',  ( 1.000000000000000000, 0.0000000000000000000, 0.0000000000000000000 ) ) ;
#292 = EDGE_CURVE ( 'NONE', #149, #278, #118, .T. ) ;
#293 = ORIENTED_EDGE ( 'NONE', *, *, #62, .T. ) ;
#294 = DIRECTION ( 'NONE',  ( 1.000000000000000000, 0.0000000000000000000, 0.0000000000000000000 ) ) ;
#295 = DIRECTION ( 'NONE',  ( 1.000000000000000000, 0.0000000000000000000, 0.0000000000000000000 ) ) ;
#296 = EDGE_LOOP ( 'NONE', ( #219, #187, #256, #277 ) ) ;
#297 = VECTOR ( 'NONE', #232, 1000.000000000000000 ) ;
#298 = ORIENTED_EDGE ( 'NONE', *, *, #169, .T. ) ;
#299 = CARTESIAN_POINT ( 'NONE',  ( 1153.888310456447900, 152.0540899046016200, 38.00000000000000000 ) ) ;
#300 = ORIENTED_EDGE ( 'NONE', *, *, #189, .T. ) ;
#301 = ORIENTED_EDGE ( 'NONE', *, *, #237, .F. ) ;
#302 = PRESENTATION_STYLE_ASSIGNMENT (( #307 ) ) ;
#303 = EDGE_LOOP ( 'NONE', ( #199, #337, #247, #203 ) ) ;
#304 =( NAMED_UNIT ( * ) PLANE_ANGLE_UNIT ( ) SI_UNIT ( $, .RADIAN. ) );
#305 = ORIENTED_EDGE ( 'NONE', *, *, #292, .T. ) ;
#306 =( LENGTH_UNIT ( ) NAMED_UNIT ( * ) SI_UNIT ( .MILLI., .METRE. ) );
#307 = SURFACE_STYLE_USAGE ( .BOTH. , #310 ) ;
#308 = UNCERTAINTY_MEASURE_WITH_UNIT (LENGTH_MEASURE( 1.000000000000000100E-005 ), #67, 'distance_accuracy_value', 'NONE');
#309 = ORIENTED_EDGE ( 'NONE', *, *, #153, .F. ) ;
#310 = SURFACE_SIDE_STYLE ('',( #7 ) ) ;
#311 = VECTOR ( 'NONE', #274, 1000.000000000000000 ) ;
#312 = VECTOR ( 'NONE', #215, 1000.000000000000000 ) ;
#313 = DIRECTION ( 'NONE',  ( -1.000000000000000000, 0.0000000000000000000, -0.0000000000000000000 ) ) ;
#314 =( LENGTH_UNIT ( ) NAMED_UNIT ( * ) SI_UNIT ( .MILLI., .METRE. ) );
#315 = CARTESIAN_POINT ( 'NONE',  ( -38.11168954355215300, 12.05408990460163400, 33.00000000000000000 ) ) ;
#316 = DIRECTION ( 'NONE',  ( -0.0000000000000000000, 0.0000000000000000000, 1.000000000000000000 ) ) ;
#317 = DIRECTION ( 'NONE',  ( 0.0000000000000000000, 0.0000000000000000000, 1.000000000000000000 ) ) ;
#318 = ORIENTED_EDGE ( 'NONE', *, *, #262, .F. ) ;
#319 = ORIENTED_EDGE ( 'NONE', *, *, #266, .T. ) ;
#320 = SHAPE_DEFINITION_REPRESENTATION ( #75, #268 ) ;
#321 = VERTEX_POINT ( 'NONE', #6 ) ;
#322 = EDGE_LOOP ( 'NONE', ( #293, #20, #42, #144 ) ) ;
#323 = PRESENTATION_STYLE_ASSIGNMENT (( #8 ) ) ;
#324 = UNCERTAINTY_MEASURE_WITH_UNIT (LENGTH_MEASURE( 1.000000000000000100E-005 ), #314, 'distance_accuracy_value', 'NONE');
#325 = LINE ( 'NONE', #93, #27 ) ;
#326 = FILL_AREA_STYLE ('',( #3 ) ) ;
#327 = EDGE_LOOP ( 'NONE', ( #225, #202, #319, #239 ) ) ;
#328 = EDGE_LOOP ( 'NONE', ( #305, #164, #309, #228 ) ) ;
#329 = CARTESIAN_POINT ( 'NONE',  ( -88.11168954355216000, 152.0540899046016200, 38.00000000000000000 ) ) ;
#330 = CARTESIAN_POINT ( 'NONE',  ( 1103.888310456447900, 102.0540899046016100, 33.00000000000000000 ) ) ;
#331 = LINE ( 'NONE', #241, #336 ) ;
#332 = DIRECTION ( 'NONE',  ( 1.000000000000000000, 0.0000000000000000000, 0.0000000000000000000 ) ) ;
#333 = EDGE_LOOP ( 'NONE', ( #150, #151, #161, #183 ) ) ;
#334 = COLOUR_RGB ( '',0.7921568627450980000, 0.8196078431372548800, 0.9333333333333333500 ) ;
#335 = PLANE ( 'NONE',  #119 ) ;
#336 = VECTOR ( 'NONE', #286, 1000.000000000000000 ) ;
#337 = ORIENTED_EDGE ( 'NONE', *, *, #292, .F. ) ;
#338 = VERTEX_POINT ( 'NONE', #66 ) ;
#339 = LINE ( 'NONE', #329, #311 ) ;
#340 = SURFACE_STYLE_FILL_AREA ( #105 ) ;
#341 = EDGE_LOOP ( 'NONE', ( #182, #298, #244, #218 ) ) ;
#342 = ORIENTED_EDGE ( 'NONE', *, *, #145, .T. ) ;
#343 = DIRECTION ( 'NONE',  ( -0.0000000000000000000, -0.0000000000000000000, 1.000000000000000000 ) ) ;
#344 = CARTESIAN_POINT ( 'NONE',  ( 0.0000000000000000000, 0.0000000000000000000, 38.00000000000000000 ) ) ;
ENDSEC;
END-ISO-10303-21;
