  0
SECTION
  2
HEADER
  9
$ACADVER
  1
AC1015
  9
$ACADMAINTVER
 70
     6
  9
$DWGCODEPAGE
  3
ANSI_1251
  9
$INSBASE
 10
0.0
 20
0.0
 30
0.0
  9
$EXTMIN
 10
0.0
 20
0.0
 30
0.0
  9
$EXTMAX
 10
1397.0
 20
1079.5
 30
0.0
  9
$LIMMIN
 10
0.0
 20
0.0
  9
$LIMMAX
 10
1397.0
 20
1079.5
  9
$ORTHOMODE
 70
     0
  9
$REGENMODE
 70
     1
  9
$FILLMODE
 70
     1
  9
$QTEXTMODE
 70
     0
  9
$MIRRTEXT
 70
     1
  9
$LTSCALE
 40
5.0
  9
$ATTMODE
 70
     1
  9
$TEXTSIZE
 40
17.5
  9
$TRACEWID
 40
1.0
  9
$TEXTSTYLE
  7
Standard
  9
$CLAYER
  8
0
  9
$CELTYPE
  6
ByLayer
  9
$CECOLOR
 62
   256
  9
$CELTSCALE
 40
1.0
  9
$DISPSILH
 70
     0
  9
$DIMSCALE
 40
1.0
  9
$DIMASZ
 40
17.5
  9
$DIMEXO
 40
0.05
  9
$DIMDLI
 40
3.75
  9
$DIMRND
 40
0.0
  9
$DIMDLE
 40
0.0
  9
$DIMEXE
 40
5.0
  9
$DIMTP
 40
0.0
  9
$DIMTM
 40
0.0
  9
$DIMTXT
 40
17.5
  9
$DIMCEN
 40
2.5
  9
$DIMTSZ
 40
0.0
  9
$DIMTOL
 70
     0
  9
$DIMLIM
 70
     0
  9
$DIMTIH
 70
     1
  9
$DIMTOH
 70
     1
  9
$DIMSE1
 70
     0
  9
$DIMSE2
 70
     0
  9
$DIMTAD
 70
     1
  9
$DIMZIN
 70
     0
  9
$DIMBLK
  1

  9
$DIMASO
 70
     1
  9
$DIMSHO
 70
     1
  9
$DIMPOST
  1

  9
$DIMAPOST
  1

  9
$DIMALT
 70
     0
  9
$DIMALTD
 70
     3
  9
$DIMALTF
 40
0.0393700787
  9
$DIMLFAC
 40
1.0
  9
$DIMTOFL
 70
     1
  9
$DIMTVP
 40
0.0
  9
$DIMTIX
 70
     0
  9
$DIMSOXD
 70
     0
  9
$DIMSAH
 70
     0
  9
$DIMBLK1
  1

  9
$DIMBLK2
  1

  9
$DIMSTYLE
  2
ISO-25
  9
$DIMCLRD
 70
     0
  9
$DIMCLRE
 70
     0
  9
$DIMCLRT
 70
     0
  9
$DIMTFAC
 40
1.0
  9
$DIMGAP
 40
15.0
  9
$DIMJUST
 70
     0
  9
$DIMSD1
 70
     0
  9
$DIMSD2
 70
     0
  9
$DIMTOLJ
 70
     0
  9
$DIMTZIN
 70
     0
  9
$DIMALTZ
 70
     0
  9
$DIMALTTZ
 70
     0
  9
$DIMUPT
 70
     0
  9
$DIMDEC
 70
     2
  9
$DIMTDEC
 70
     3
  9
$DIMALTU
 70
     2
  9
$DIMALTTD
 70
     3
  9
$DIMTXSTY
  7
Standard
  9
$DIMAUNIT
 70
     0
  9
$DIMADEC
 70
     2
  9
$DIMALTRND
 40
0.0
  9
$DIMAZIN
 70
     0
  9
$DIMDSEP
 70
    44
  9
$DIMATFIT
 70
     3
  9
$DIMFRAC
 70
     0
  9
$DIMLDRBLK
  1

  9
$DIMLUNIT
 70
     2
  9
$DIMLWD
 70
    -2
  9
$DIMLWE
 70
    -2
  9
$DIMTMOVE
 70
     0
  9
$LUNITS
 70
     2
  9
$LUPREC
 70
     2
  9
$SKETCHINC
 40
1.0
  9
$FILLETRAD
 40
10.0
  9
$AUNITS
 70
     0
  9
$AUPREC
 70
     2
  9
$MENU
  1
.
  9
$ELEVATION
 40
0.0
  9
$PELEVATION
 40
0.0
  9
$THICKNESS
 40
0.0
  9
$LIMCHECK
 70
     0
  9
$CHAMFERA
 40
10.0
  9
$CHAMFERB
 40
10.0
  9
$CHAMFERC
 40
20.0
  9
$CHAMFERD
 40
0.0
  9
$SKPOLY
 70
     0
  9
$TDCREATE
 40
2458092.315498217
  9
$TDUCREATE
 40
2458092.232164884
  9
$TDUPDATE
 40
2458092.315498658
  9
$TDUUPDATE
 40
2458092.232165324
  9
$TDINDWG
 40
0.0000000116
  9
$TDUSRTIMER
 40
0.0000000116
  9
$USRTIMER
 70
     1
  9
$ANGBASE
 50
0.0
  9
$ANGDIR
 70
     0
  9
$PDMODE
 70
     0
  9
$PDSIZE
 40
-1.0
  9
$PLINEWID
 40
0.0
  9
$SPLFRAME
 70
     0
  9
$SPLINETYPE
 70
     6
  9
$SPLINESEGS
 70
     8
  9
$HANDSEED
  5
70
  9
$SURFTAB1
 70
     6
  9
$SURFTAB2
 70
     6
  9
$SURFTYPE
 70
     6
  9
$SURFU
 70
     6
  9
$SURFV
 70
     6
  9
$UCSBASE
  2

  9
$UCSNAME
  2

  9
$UCSORG
 10
0.0
 20
0.0
 30
0.0
  9
$UCSXDIR
 10
1.0
 20
0.0
 30
0.0
  9
$UCSYDIR
 10
0.0
 20
1.0
 30
0.0
  9
$UCSORTHOREF
  2

  9
$UCSORTHOVIEW
 70
     0
  9
$UCSORGTOP
 10
0.0
 20
0.0
 30
0.0
  9
$UCSORGBOTTOM
 10
0.0
 20
0.0
 30
0.0
  9
$UCSORGLEFT
 10
0.0
 20
0.0
 30
0.0
  9
$UCSORGRIGHT
 10
0.0
 20
0.0
 30
0.0
  9
$UCSORGFRONT
 10
0.0
 20
0.0
 30
0.0
  9
$UCSORGBACK
 10
0.0
 20
0.0
 30
0.0
  9
$PUCSBASE
  2

  9
$PUCSNAME
  2

  9
$PUCSORG
 10
0.0
 20
0.0
 30
0.0
  9
$PUCSXDIR
 10
1.0
 20
0.0
 30
0.0
  9
$PUCSYDIR
 10
0.0
 20
1.0
 30
0.0
  9
$PUCSORTHOREF
  2

  9
$PUCSORTHOVIEW
 70
     0
  9
$PUCSORGTOP
 10
0.0
 20
0.0
 30
0.0
  9
$PUCSORGBOTTOM
 10
0.0
 20
0.0
 30
0.0
  9
$PUCSORGLEFT
 10
0.0
 20
0.0
 30
0.0
  9
$PUCSORGRIGHT
 10
0.0
 20
0.0
 30
0.0
  9
$PUCSORGFRONT
 10
0.0
 20
0.0
 30
0.0
  9
$PUCSORGBACK
 10
0.0
 20
0.0
 30
0.0
  9
$USERI1
 70
     0
  9
$USERI2
 70
     0
  9
$USERI3
 70
     0
  9
$USERI4
 70
     0
  9
$USERI5
 70
     0
  9
$USERR1
 40
0.0
  9
$USERR2
 40
0.0
  9
$USERR3
 40
0.0
  9
$USERR4
 40
0.0
  9
$USERR5
 40
0.0
  9
$WORLDVIEW
 70
     1
  9
$SHADEDGE
 70
     3
  9
$SHADEDIF
 70
    70
  9
$TILEMODE
 70
     1
  9
$MAXACTVP
 70
    64
  9
$PINSBASE
 10
0.0
 20
0.0
 30
0.0
  9
$PLIMCHECK
 70
     0
  9
$PEXTMIN
 10
1.0000000000E+20
 20
1.0000000000E+20
 30
1.0000000000E+20
  9
$PEXTMAX
 10
-1.0000000000E+20
 20
-1.0000000000E+20
 30
-1.0000000000E+20
  9
$PLIMMIN
 10
0.0
 20
0.0
  9
$PLIMMAX
 10
420.0
 20
297.0
  9
$UNITMODE
 70
     0
  9
$VISRETAIN
 70
     1
  9
$PLINEGEN
 70
     0
  9
$PSLTSCALE
 70
     1
  9
$TREEDEPTH
 70
  3020
  9
$CMLSTYLE
  2
Standard
  9
$CMLJUST
 70
     0
  9
$CMLSCALE
 40
20.0
  9
$PROXYGRAPHICS
 70
     1
  9
$MEASUREMENT
 70
     1
  9
$CELWEIGHT
370
    -1
  9
$ENDCAPS
280
     0
  9
$JOINSTYLE
280
     0
  9
$LWDISPLAY
290
     1
  9
$INSUNITS
 70
     4
  9
$HYPERLINKBASE
  1

  9
$STYLESHEET
  1

  9
$XEDIT
290
     1
  9
$CEPSNTYPE
380
     0
  9
$PSTYLEMODE
290
     1
  9
$FINGERPRINTGUID
  2
{C3503408-1F68-4FF2-B2F2-3D0E8676E4A1}
  9
$VERSIONGUID
  2
{FAEB1C32-E019-11D5-929B-00C0DF256EC4}
  9
$EXTNAMES
290
     1
  9
$PSVPSCALE
 40
0.0
  9
$OLESTARTUP
290
     0
  0
ENDSEC
  0
SECTION
  2
CLASSES
  0
CLASS
  1
ACDBDICTIONARYWDFLT
  2
AcDbDictionaryWithDefault
  3
ObjectDBX Classes
 90
        0
280
     0
281
     0
  0
CLASS
  1
VISUALSTYLE
  2
AcDbVisualStyle
  3
ObjectDBX Classes
 90
     4095
280
     0
281
     0
  0
CLASS
  1
MATERIAL
  2
AcDbMaterial
  3
ObjectDBX Classes
 90
     1153
280
     0
281
     0
  0
CLASS
  1
ACDBPLACEHOLDER
  2
AcDbPlaceHolder
  3
ObjectDBX Classes
 90
        0
280
     0
281
     0
  0
CLASS
  1
LAYOUT
  2
AcDbLayout
  3
ObjectDBX Classes
 90
        0
280
     0
281
     0
  0
ENDSEC
  0
SECTION
  2
TABLES
  0
TABLE
  2
VPORT
  5
8
330
0
100
AcDbSymbolTable
 70
     1
  0
VPORT
  5
29
330
8
100
AcDbSymbolTableRecord
100
AcDbViewportTableRecord
  2
*Active
 70
     0
 10
0.0
 20
0.0
 11
1.0
 21
1.0
 12
698.5
 22
539.75
 13
0.0
 23
0.0
 14
10.0
 24
10.0
 15
10.0
 25
10.0
 16
0.0
 26
0.0
 36
1.0
 17
0.0
 27
0.0
 37
0.0
 40
1079.5
 41
1.2941176471
 42
50.0
 43
0.0
 44
0.0
 50
0.0
 51
0.0
 71
     0
 72
  2000
 73
     1
 74
     3
 75
     0
 76
     0
 77
     0
 78
     0
281
     0
 65
     1
110
0.0
120
0.0
130
0.0
111
1.0
121
0.0
131
0.0
112
0.0
122
1.0
132
0.0
 79
     0
146
0.0
  0
ENDTAB
  0
TABLE
  2
LTYPE
  5
5
330
0
100
AcDbSymbolTable
 70
     6
  0
LTYPE
  5
14
330
5
100
AcDbSymbolTableRecord
100
AcDbLinetypeTableRecord
  2
ByBlock
 70
     0
  3

 72
    65
 73
     0
 40
0.0
  0
LTYPE
  5
15
330
5
100
AcDbSymbolTableRecord
100
AcDbLinetypeTableRecord
  2
ByLayer
 70
     0
  3

 72
    65
 73
     0
 40
0.0
  0
LTYPE
  5
16
330
5
100
AcDbSymbolTableRecord
100
AcDbLinetypeTableRecord
  2
Continuous
 70
     0
  3
Solid line
 72
    65
 73
     0
 40
0.0
  0
LTYPE
  5
3F
330
5
100
AcDbSymbolTableRecord
100
AcDbLinetypeTableRecord
  2
HIDDEN
 70
     0
  3
Hidden __ __ __ __ __ __ __ __ __ __ __ __ __ __
 72
    65
 73
     2
 40
1.905
 49
1.27
 74
     0
 49
-0.635
 74
     0
  0
LTYPE
  5
40
330
5
100
AcDbSymbolTableRecord
100
AcDbLinetypeTableRecord
  2
PHANTOM
 70
     0
  3
Phantom ______  __  __  ______  __  __  ______
 72
    65
 73
     6
 40
12.7
 49
6.35
 74
     0
 49
-1.27
 74
     0
 49
1.27
 74
     0
 49
-1.27
 74
     0
 49
1.27
 74
     0
 49
-1.27
 74
     0
  0
LTYPE
  5
41
330
5
100
AcDbSymbolTableRecord
100
AcDbLinetypeTableRecord
  2
CENTER
 70
     0
  3
Center ____ _ ____ _ ____ _ ____ _ ____ _ ____
 72
    65
 73
     4
 40
10.16
 49
6.35
 74
     0
 49
-1.27
 74
     0
 49
1.27
 74
     0
 49
-1.27
 74
     0
  0
LTYPE
  5
42
330
5
100
AcDbSymbolTableRecord
100
AcDbLinetypeTableRecord
  2
CENTERX2
 70
     0
  3
Center (2x) ________  __  ________  __  _____
 72
    65
 73
     4
 40
20.32
 49
12.7
 74
     0
 49
-2.54
 74
     0
 49
2.54
 74
     0
 49
-2.54
 74
     0
  0
LTYPE
  5
43
330
5
100
AcDbSymbolTableRecord
100
AcDbLinetypeTableRecord
  2
DOT2
 70
     0
  3
Dot (.5x) ........................................
 72
    65
 73
     2
 40
0.635
 49
0.0
 74
     0
 49
-0.635
 74
     0
  0
ENDTAB
  0
TABLE
  2
LAYER
  5
2
330
0
100
AcDbSymbolTable
 70
     1
  0
LAYER
  5
10
330
2
100
AcDbSymbolTableRecord
100
AcDbLayerTableRecord
  2
0
 70
     0
 62
     7
  6
Continuous
370
    -3
390
F
  0
ENDTAB
  0
TABLE
  2
STYLE
  5
3
330
0
100
AcDbSymbolTable
 70
     1
  0
STYLE
  5
11
330
3
100
AcDbSymbolTableRecord
100
AcDbTextStyleTableRecord
  2
Standard
 70
     0
 40
0.0
 41
1.0
 50
0.0
 71
     0
 42
17.5
  3
txt
  4

  0
ENDTAB
  0
TABLE
  2
VIEW
  5
6
330
0
100
AcDbSymbolTable
 70
     0
  0
ENDTAB
  0
TABLE
  2
UCS
  5
7
330
0
100
AcDbSymbolTable
 70
     0
  0
ENDTAB
  0
TABLE
  2
APPID
  5
9
330
0
100
AcDbSymbolTable
 70
     1
  0
APPID
  5
12
330
9
100
AcDbSymbolTableRecord
100
AcDbRegAppTableRecord
  2
ACAD
 70
     0
  0
ENDTAB
  0
TABLE
  2
DIMSTYLE
  5
A
330
0
100
AcDbSymbolTable
 70
     1
100
AcDbDimStyleTable
  0
DIMSTYLE
105
27
330
A
100
AcDbSymbolTableRecord
100
AcDbDimStyleTableRecord
  2
ISO-25
 70
     0
 41
2.5
 42
0.625
 43
3.75
 44
1.25
 73
     0
 74
     0
 77
     1
 78
     8
140
2.5
141
2.5
143
0.0393700787
147
0.625
171
     3
172
     1
178
     0
271
     2
272
     2
274
     3
278
    44
283
     0
284
     8
340
11
  0
ENDTAB
  0
TABLE
  2
BLOCK_RECORD
  5
1
330
0
100
AcDbSymbolTable
 70
     1
  0
BLOCK_RECORD
  5
1F
330
1
100
AcDbSymbolTableRecord
100
AcDbBlockTableRecord
  2
*Model_Space
340
22
  0
BLOCK_RECORD
  5
1B
330
1
100
AcDbSymbolTableRecord
100
AcDbBlockTableRecord
  2
*Paper_Space
340
1E
  0
BLOCK_RECORD
  5
23
330
1
100
AcDbSymbolTableRecord
100
AcDbBlockTableRecord
  2
*Paper_Space0
340
26
  0
ENDTAB
  0
ENDSEC
  0
SECTION
  2
BLOCKS
  0
BLOCK
  5
20
330
1F
100
AcDbEntity
  8
0
100
AcDbBlockBegin
  2
*Model_Space
 70
     0
 10
0.0
 20
0.0
 30
0.0
  3
*Model_Space
  1

  0
ENDBLK
  5
21
330
1F
100
AcDbEntity
  8
0
100
AcDbBlockEnd
  0
BLOCK
  5
1C
330
1B
100
AcDbEntity
 67
     1
  8
0
100
AcDbBlockBegin
  2
*Paper_Space
 70
     0
 10
0.0
 20
0.0
 30
0.0
  3
*Paper_Space
  1

  0
ENDBLK
  5
1D
330
1B
100
AcDbEntity
 67
     1
  8
0
100
AcDbBlockEnd
  0
BLOCK
  5
24
330
23
100
AcDbEntity
  8
0
100
AcDbBlockBegin
  2
*Paper_Space0
 70
     0
 10
0.0
 20
0.0
 30
0.0
  3
*Paper_Space0
  1

  0
ENDBLK
  5
25
330
23
100
AcDbEntity
  8
0
100
AcDbBlockEnd
  0
ENDSEC
  0
SECTION
  2
ENTITIES
  0
LINE
  5
44
330
1F
100
AcDbEntity
  8
0
  6
Continuous
 62
     7
370
    15
100
AcDbLine
 10
385.5744379554
 20
850.8764945946
 30
0.0
 11
368.3077318652
 21
850.8766548075
 31
0.0
  0
LINE
  5
45
330
1F
100
AcDbEntity
  8
0
  6
Continuous
 62
     7
370
    15
100
AcDbLine
 10
217.362794523
 20
850.8773493839
 30
0.0
 11
200.0960884323
 21
850.8773480773
 31
0.0
  0
LINE
  5
46
330
1F
100
AcDbEntity
  8
0
  6
Continuous
 62
     7
370
    15
100
AcDbLine
 10
199.8360204327
 20
850.8773468378
 30
0.0
 11
199.836020361
 21
847.3004520776
 31
0.0
  0
LINE
  5
47
330
1F
100
AcDbEntity
  8
0
  6
Continuous
 62
     7
370
    15
100
AcDbLine
 10
385.8344731081
 20
847.2995962017
 30
0.0
 11
385.8345059548
 21
850.8764909617
 31
0.0
  0
LINE
  5
48
330
1F
100
AcDbEntity
  8
0
  6
Continuous
 62
     7
370
    15
100
AcDbLine
 10
199.836020361
 20
847.3004520776
 30
0.0
 11
204.6052099933
 21
842.5312602401
 31
0.0
  0
LINE
  5
49
330
1F
100
AcDbEntity
  8
0
  6
Continuous
 62
     7
370
    15
100
AcDbLine
 10
381.065239585
 20
842.5304482555
 30
0.0
 11
385.8344731081
 21
847.2995962017
 31
0.0
  0
LINE
  5
4A
330
1F
100
AcDbEntity
  8
0
  6
Continuous
 62
     7
370
    15
100
AcDbLine
 10
368.3082960365
 20
912.4346333987
 30
0.0
 11
367.8828094569
 21
916.1227705459
 31
0.0
  0
LINE
  5
4B
330
1F
100
AcDbEntity
  8
0
  6
Continuous
 62
     7
370
    15
100
AcDbLine
 10
217.7883173942
 20
916.1234612089
 30
0.0
 11
217.3627968725
 21
912.4353279777
 31
0.0
  0
LINE
  5
4C
330
1F
100
AcDbEntity
  8
0
  6
Continuous
 62
     7
370
    15
100
AcDbLine
 10
217.3627968725
 20
912.4353279777
 30
0.0
 11
217.362794523
 21
850.877348394
 31
0.0
  0
LINE
  5
4D
330
1F
100
AcDbEntity
  8
0
  6
Continuous
 62
     7
370
    15
100
AcDbLine
 10
368.3077318652
 20
850.8766538176
 30
0.0
 11
368.3082960365
 21
912.4346333987
 31
0.0
  0
LINE
  5
4E
330
1F
100
AcDbEntity
  8
0
  6
Continuous
 62
     7
370
    15
100
AcDbLine
 10
367.8828094569
 20
916.1227705459
 30
0.0
 11
366.670941057
 21
919.5097369358
 31
0.0
  0
LINE
  5
4F
330
1F
100
AcDbEntity
  8
0
  6
Continuous
 62
     7
370
    15
100
AcDbLine
 10
219.0002169644
 20
919.5104164459
 30
0.0
 11
217.7883173942
 21
916.123461209
 31
0.0
  0
LINE
  5
50
330
1F
100
AcDbEntity
  8
0
  6
Continuous
 62
     7
370
    15
100
AcDbLine
 10
366.670941057
 20
919.5097369358
 30
0.0
 11
364.7697444711
 21
922.4985239259
 31
0.0
  0
LINE
  5
51
330
1F
100
AcDbEntity
  8
0
  6
Continuous
 62
     7
370
    15
100
AcDbLine
 10
220.9014410562
 20
922.4991859391
 30
0.0
 11
219.0002169644
 21
919.5104164459
 31
0.0
  0
LINE
  5
52
330
1F
100
AcDbEntity
  8
0
  6
Continuous
 62
     7
370
    15
100
AcDbLine
 10
364.7697444711
 20
922.4985239259
 30
0.0
 11
362.2762600416
 21
924.9920465796
 31
0.0
  0
LINE
  5
53
330
1F
100
AcDbEntity
  8
0
  6
Continuous
 62
     7
370
    15
100
AcDbLine
 10
223.3949484335
 20
924.992685645
 30
0.0
 11
220.9014410562
 21
922.4991859391
 31
0.0
  0
LINE
  5
54
330
1F
100
AcDbEntity
  8
0
  6
Continuous
 62
     7
370
    15
100
AcDbLine
 10
362.2762600416
 20
924.9920465796
 30
0.0
 11
359.2875138904
 21
926.8932962544
 31
0.0
  0
LINE
  5
55
330
1F
100
AcDbEntity
  8
0
  6
Continuous
 62
     7
370
    15
100
AcDbLine
 10
226.3837120819
 20
926.8939078141
 30
0.0
 11
223.3949484335
 21
924.992685645
 31
0.0
  0
LINE
  5
56
330
1F
100
AcDbEntity
  8
0
  6
Continuous
 62
     7
370
    15
100
AcDbLine
 10
359.2875138904
 20
926.8932962544
 30
0.0
 11
355.9005616978
 21
928.1052185312
 31
0.0
  0
LINE
  5
57
330
1F
100
AcDbEntity
  8
0
  6
Continuous
 62
     7
370
    15
100
AcDbLine
 10
229.7706754277
 20
928.1057989206
 30
0.0
 11
226.3837120819
 21
926.8939078141
 31
0.0
  0
LINE
  5
58
330
1F
100
AcDbEntity
  8
0
  6
Continuous
 62
     7
370
    15
100
AcDbLine
 10
355.9005616976
 20
928.1052185312
 30
0.0
 11
352.212420056
 21
928.5307895088
 31
0.0
  0
LINE
  5
59
330
1F
100
AcDbEntity
  8
0
  6
Continuous
 62
     7
370
    15
100
AcDbLine
 10
233.458820986
 20
928.5313359561
 30
0.0
 11
229.770675428
 21
928.1057989206
 31
0.0
  0
LINE
  5
5A
330
1F
100
AcDbEntity
  8
0
  6
Continuous
 62
     7
370
    15
100
AcDbLine
 10
352.047759509
 20
928.5307918154
 30
0.0
 11
292.8356205222
 21
928.5313423944
 31
0.0
  0
LINE
  5
5B
330
1F
100
AcDbEntity
  8
0
  6
Continuous
 62
     7
370
    15
100
AcDbLine
 10
292.8356205222
 20
928.5313423944
 30
0.0
 11
233.6234815328
 21
928.5313367473
 31
0.0
  0
LWPOLYLINE
  5
5C
330
1F
100
AcDbEntity
  8
0
  6
Continuous
 62
     7
370
    15
100
AcDbPolyline
 90
       59
 70
   128
 43
0.0
 10
199.8360204327
 20
850.8773468378
 10
199.8707201928
 20
850.8773457877
 10
200.1481629273
 20
850.8773427328
 10
200.7022203983
 20
850.8773384131
 10
201.5312390804
 20
850.8773328414
 10
202.6327448561
 20
850.8773260343
 10
204.0034503992
 20
850.8773180122
 10
205.6392649857
 20
850.877308799
 10
207.5353067018
 20
850.8772984221
 10
209.6859170139
 20
850.8772869126
 10
212.0846776555
 20
850.8772743048
 10
214.7244297822
 20
850.8772606364
 10
217.597295336
 20
850.877245948
 10
220.6947005569
 20
850.8772302836
 10
224.0074015705
 20
850.87721369
 10
227.5255119749
 20
850.8771962165
 10
231.2385323459
 20
850.8771779155
 10
235.1353815714
 20
850.8771588414
 10
239.2044299217
 20
850.8771390513
 10
243.4335337573
 20
850.8771186041
 10
247.81007177
 20
850.8770975609
 10
252.3209826504
 20
850.8770759846
 10
256.9528040675
 20
850.8770539394
 10
261.6917128456
 20
850.8770314913
 10
266.5235662184
 20
850.8770087071
 10
271.4339440364
 20
850.8769856549
 10
276.4081918023
 20
850.8769624034
 10
281.4314644055
 20
850.8769390222
 10
286.4887704265
 20
850.8769155809
 10
291.5650168762
 20
850.8768921494
 10
296.6450542402
 20
850.8768687979
 10
301.7137216904
 20
850.8768455958
 10
306.7558923308
 20
850.8768226125
 10
311.7565183427
 20
850.8767999166
 10
316.7006758924
 20
850.8767775758
 10
321.5736096707
 20
850.8767556567
 10
326.360776928
 20
850.8767342248
 10
331.0478908757
 20
850.876713344
 10
335.6209633234
 20
850.8766930768
 10
340.0663464257
 20
850.8766734834
 10
344.3707734122
 20
850.8766546225
 10
348.521398181
 20
850.8766365503
 10
352.5058336365
 20
850.8766193207
 10
356.3121886571
 20
850.8766029852
 10
359.9291035836
 20
850.8765875925
 10
363.3457841201
 20
850.8765731885
 10
366.5520335492
 20
850.8765598163
 10
369.5382831622
 20
850.8765475158
 10
372.2956208168
 20
850.8765363236
 10
374.8158175336
 20
850.8765262731
 10
377.091352055
 20
850.8765173944
 10
379.1154332918
 20
850.876509714
 10
380.8820205899
 20
850.8765032547
 10
382.3858417585
 20
850.8764980358
 10
383.6224088043
 20
850.876494073
 10
384.5880313251
 20
850.8764913781
 10
385.2798275238
 20
850.876489959
 10
385.6957328086
 20
850.8764898201
 10
385.8345059548
 20
850.8764909617
  0
LWPOLYLINE
  5
5D
330
1F
100
AcDbEntity
  8
0
  6
Continuous
 62
     7
370
    15
100
AcDbPolyline
 90
       59
 70
   128
 43
0.0
 10
199.836020361
 20
847.3004520776
 10
199.870720115
 20
847.3004510276
 10
200.1481628007
 20
847.3004479727
 10
200.702220174
 20
847.300443653
 10
201.5312387101
 20
847.3004380813
 10
202.6327442917
 20
847.3004312742
 10
204.0034495932
 20
847.3004232521
 10
205.6392638914
 20
847.3004140388
 10
207.5353052734
 20
847.300403662
 10
209.6859152066
 20
847.3003921525
 10
212.0846754255
 20
847.3003795447
 10
214.724427087
 20
847.3003658762
 10
217.5972921346
 20
847.3003511879
 10
220.6946968097
 20
847.3003355235
 10
224.0073972396
 20
847.3003189299
 10
227.5255070241
 20
847.3003014564
 10
231.2385267408
 20
847.3002831554
 10
235.1353752796
 20
847.3002640813
 10
239.2044229129
 20
847.3002442912
 10
243.4335260032
 20
847.300223844
 10
247.8100632448
 20
847.3002028009
 10
252.3209733303
 20
847.3001812245
 10
256.9527939312
 20
847.3001591794
 10
261.6917018743
 20
847.3001367312
 10
266.5235543957
 20
847.300113947
 10
271.4339313484
 20
847.3000908948
 10
276.4081782377
 20
847.3000676434
 10
281.4314499559
 20
847.3000442621
 10
286.4887550856
 20
847.3000208208
 10
291.5650006409
 20
847.2999973894
 10
296.6450371097
 20
847.2999740378
 10
301.7137036667
 20
847.2999508358
 10
306.7558734187
 20
847.2999278525
 10
311.7564985494
 20
847.2999051566
 10
316.7006552279
 20
847.2998828157
 10
321.5735881476
 20
847.2998608967
 10
326.3607545613
 20
847.2998394648
 10
331.047867683
 20
847.299818584
 10
335.6209393249
 20
847.2997983167
 10
340.0663216439
 20
847.2997787234
 10
344.370747872
 20
847.2997598625
 10
348.5213719094
 20
847.2997417903
 10
352.5058066627
 20
847.2997245607
 10
356.3121610126
 20
847.2997082252
 10
359.9290753017
 20
847.2996928325
 10
363.3457552362
 20
847.2996784285
 10
366.5520041003
 20
847.2996650563
 10
369.5382531871
 20
847.2996527558
 10
372.2955903558
 20
847.2996415636
 10
374.8157866285
 20
847.2996315131
 10
377.091320749
 20
847.2996226344
 10
379.1154016291
 20
847.299614954
 10
380.8819886159
 20
847.2996084947
 10
382.3858095196
 20
847.2996032759
 10
383.6223763474
 20
847.2995993131
 10
384.5879986981
 20
847.2995966181
 10
385.2797947748
 20
847.299595199
 10
385.6956999864
 20
847.2995950601
 10
385.8344731081
 20
847.2995962017
  0
LWPOLYLINE
  5
5E
330
1F
100
AcDbEntity
  8
0
  6
Continuous
 62
     7
370
    15
100
AcDbPolyline
 90
       57
 70
   128
 43
0.0
 10
204.6052099933
 20
842.5312602401
 10
204.7440121275
 20
842.5312578674
 10
205.1599818074
 20
842.5312542247
 10
205.8518102384
 20
842.5312493235
 10
206.8173206724
 20
842.5312431793
 10
208.0534752563
 20
842.5312358113
 10
209.5563845904
 20
842.5312272428
 10
211.321319966
 20
842.5312175007
 10
213.3427282434
 20
842.5312066157
 10
215.6142493243
 20
842.531194622
 10
218.1287361631
 20
842.5311815574
 10
220.8782772538
 20
842.5311674629
 10
223.854221523
 20
842.5311523829
 10
227.047205549
 20
842.5311363649
 10
230.4471830227
 20
842.5311194593
 10
234.0434563571
 20
842.5311017192
 10
237.8247103459
 20
842.5310832005
 10
241.7790477651
 20
842.5310639614
 10
245.8940268062
 20
842.5310440624
 10
250.1567002227
 20
842.5310235662
 10
254.553656067
 20
842.5310025373
 10
259.0710598893
 20
842.5309810418
 10
263.6946982659
 20
842.5309591474
 10
268.4100235199
 20
842.5309369229
 10
273.2021994936
 20
842.5309144383
 10
278.0561482284
 20
842.5308917644
 10
282.9565974058
 20
842.5308689723
 10
287.8881283996
 20
842.530846134
 10
292.835224789
 20
842.5308233211
 10
297.7823211783
 20
842.5308006056
 10
302.7138521722
 20
842.5307780589
 10
307.6143013496
 20
842.5307557519
 10
312.4682500843
 20
842.5307337548
 10
317.260426058
 20
842.5307121367
 10
321.9757513121
 20
842.5306909659
 10
326.5993896887
 20
842.5306703088
 10
331.116793511
 20
842.5306502304
 10
335.5137493553
 20
842.5306307939
 10
339.7764227718
 20
842.5306120605
 10
343.8914018129
 20
842.5305940891
 10
347.8457392321
 20
842.5305769363
 10
351.6269932209
 20
842.530560656
 10
355.2232665554
 20
842.5305452994
 10
358.6232440291
 20
842.5305309149
 10
361.8162280551
 20
842.5305175478
 10
364.7921723243
 20
842.53050524
 10
367.541713415
 20
842.5304940303
 10
370.0562002538
 20
842.530483954
 10
372.3277213347
 20
842.5304750428
 10
374.3491296122
 20
842.5304673247
 10
376.1140649878
 20
842.530460824
 10
377.6169743219
 20
842.5304555611
 10
378.8531289058
 20
842.5304515527
 10
379.8186393398
 20
842.5304488113
 10
380.5104677708
 20
842.5304473456
 10
380.9264374507
 20
842.5304471601
 10
381.065239585
 20
842.5304482555
  0
LWPOLYLINE
  5
5F
330
1F
100
AcDbEntity
  8
0
  6
Continuous
 62
     7
370
    15
100
AcDbPolyline
 90
       54
 70
   128
 43
0.0
 10
217.3627968725
 20
912.4353279777
 10
217.3979004843
 20
912.4353270094
 10
217.6785334821
 20
912.4353241075
 10
218.2387555044
 20
912.4353199281
 10
219.0764824886
 20
912.4353144867
 10
220.1885980353
 20
912.4353078035
 10
221.5709650016
 20
912.4352999034
 10
223.2184408915
 20
912.4352908159
 10
225.1248969866
 20
912.4352805746
 10
227.283241145
 20
912.4352692177
 10
229.6854441846
 20
912.4352567875
 10
232.3225697524
 20
912.4352433302
 10
235.184807568
 20
912.4352288959
 10
238.2615099188
 20
912.4352135381
 10
241.5412312699
 20
912.4351973142
 10
245.0117708425
 20
912.4351802844
 10
248.6602180015
 20
912.4351625121
 10
252.4730002838
 20
912.4351440634
 10
256.4359338888
 20
912.435125007
 10
260.5342764434
 20
912.4351054136
 10
264.7527818439
 20
912.4350853563
 10
269.0757569733
 20
912.4350649096
 10
273.48712008
 20
912.4350441496
 10
277.9704606037
 20
912.4350231535
 10
282.5091002231
 20
912.4350019994
 10
287.0861549008
 20
912.4349807661
 10
291.6845976926
 20
912.4349595325
 10
296.2873220894
 20
912.4349383775
 10
300.8772056542
 20
912.43491738
 10
305.4371737185
 20
912.434896618
 10
309.9502629018
 20
912.4348761687
 10
314.3996842157
 20
912.4348561083
 10
318.7688855209
 20
912.4348365112
 10
323.0416131014
 20
912.4348174506
 10
327.20197213
 20
912.4347989972
 10
331.234485798
 20
912.4347812197
 10
335.1241528895
 20
912.4347641842
 10
338.8565035876
 20
912.4347479541
 10
342.4176533025
 20
912.4347325899
 10
345.7943543233
 20
912.4347181485
 10
348.9740451005
 20
912.4347046839
 10
351.9448969756
 20
912.434692246
 10
354.6958581844
 20
912.4346808811
 10
357.2166949706
 20
912.4346706315
 10
359.4980296557
 20
912.4346615353
 10
361.5313755249
 20
912.4346536265
 10
363.309168398
 20
912.4346469343
 10
364.8247947688
 20
912.4346414837
 10
366.0726164076
 20
912.4346372949
 10
367.0479913359
 20
912.4346343836
 10
367.747291095
 20
912.4346327606
 10
368.1679142437
 20
912.4346324319
 10
368.3082960365
 20
912.4346333987
 10
368.3082960365
 20
912.4346333987
  0
LWPOLYLINE
  5
60
330
1F
100
AcDbEntity
  8
0
  6
Continuous
 62
     7
370
    15
100
AcDbPolyline
 90
       54
 70
   128
 43
0.0
 10
217.7883173942
 20
916.1234612089
 10
217.8232230973
 20
916.1234602461
 10
218.1022739301
 20
916.1234573606
 10
218.6593375084
 20
916.1234532047
 10
219.492341519
 20
916.123447794
 10
220.5981871323
 20
916.1234411485
 10
221.9727605299
 20
916.1234332929
 10
223.6109482086
 20
916.1234242566
 10
225.5066560026
 20
916.1234140731
 10
227.6528317544
 20
916.1234027802
 10
230.0414915492
 20
916.1233904201
 10
232.6637494158
 20
916.1233770387
 10
235.5098503825
 20
916.1233626857
 10
238.5692067669
 20
916.1233474146
 10
241.8304375624
 20
916.1233312821
 10
245.281410776
 20
916.1233143483
 10
248.9092885609
 20
916.1232966762
 10
252.7005749734
 20
916.1232783315
 10
256.641166179
 20
916.1232593825
 10
260.7164029196
 20
916.1232398996
 10
264.9111250469
 20
916.1232199554
 10
269.209727919
 20
916.123199624
 10
273.5962204509
 20
916.123178981
 10
278.0542846024
 20
916.1231581033
 10
282.5673360819
 20
916.1231370685
 10
287.1185860416
 20
916.1231159548
 10
291.6911035326
 20
916.1230948409
 10
296.2678784896
 20
916.1230738053
 10
300.8318850092
 20
916.1230529261
 10
305.3661446872
 20
916.1230322811
 10
309.8537897799
 20
916.1230119472
 10
314.2781259528
 20
916.1229919998
 10
318.6226943848
 20
916.1229725133
 10
322.8713329959
 20
916.1229535601
 10
327.0082365715
 20
916.1229352107
 10
331.0180155584
 20
916.1229175334
 10
334.8857533157
 20
916.122900594
 10
338.5970616046
 20
916.1228844554
 10
342.1381341147
 20
916.1228691778
 10
345.4957978236
 20
916.1228548179
 10
348.6575620019
 20
916.1228414291
 10
351.611664679
 20
916.1228290613
 10
354.347116399
 20
916.1228177605
 10
356.8537411019
 20
916.1228075687
 10
359.1222139791
 20
916.1227985239
 10
361.1440961626
 20
916.1227906596
 10
362.9118661177
 20
916.1227840051
 10
364.4189476242
 20
916.1227785852
 10
365.6597342398
 20
916.1227744201
 10
366.6296101569
 20
916.1227715252
 10
367.3249673734
 20
916.1227699113
 10
367.7432191147
 20
916.1227695845
 10
367.8828094569
 20
916.1227705459
 10
367.8828094569
 20
916.1227705459
  0
LWPOLYLINE
  5
61
330
1F
100
AcDbEntity
  8
0
  6
Continuous
 62
     7
370
    15
100
AcDbPolyline
 90
       52
 70
   128
 43
0.0
 10
219.0002169644
 20
919.5104164459
 10
219.1402583738
 20
919.5104142082
 10
219.5598513769
 20
919.5104106903
 10
220.2574043137
 20
919.5104059053
 10
221.2302711271
 20
919.5103998715
 10
222.4747614
 20
919.5103926118
 10
223.9861543545
 20
919.5103841537
 10
225.7587167594
 20
919.5103745293
 10
227.7857246784
 20
919.5103637751
 10
230.0594889761
 20
919.5103519318
 10
232.5713844857
 20
919.5103390445
 10
235.3118827273
 20
919.510325162
 10
238.2705880522
 20
919.5103103369
 10
241.4362770777
 20
919.5102946256
 10
244.7969412611
 20
919.5102780875
 10
248.3398324519
 20
919.5102607855
 10
252.0515112504
 20
919.5102427852
 10
255.9178979874
 20
919.5102241548
 10
259.9243261339
 20
919.510204965
 10
264.0555979355
 20
919.5101852886
 10
268.2960420632
 20
919.5101652003
 10
272.6295730599
 20
919.5101447762
 10
277.0397523584
 20
919.5101240939
 10
281.5098506377
 20
919.5101032317
 10
286.0229112842
 20
919.5100822689
 10
290.5618147128
 20
919.5100612849
 10
295.1093433083
 20
919.5100403594
 10
299.648246737
 20
919.5100195716
 10
304.1613073834
 20
919.5099990006
 10
308.6314056628
 20
919.5099787242
 10
313.0415849612
 20
919.5099588195
 10
317.375115958
 20
919.5099393619
 10
321.6155600857
 20
919.5099204252
 10
325.7468318873
 20
919.5099020813
 10
329.7532600337
 20
919.5098843997
 10
333.6196467708
 20
919.5098674476
 10
337.3313255693
 20
919.5098512892
 10
340.8742167601
 20
919.5098359859
 10
344.2348809435
 20
919.5098215956
 10
347.400569969
 20
919.5098081729
 10
350.359275294
 20
919.5097957689
 10
353.0997735355
 20
919.5097844305
 10
355.6116690452
 20
919.5097742007
 10
357.8854333429
 20
919.5097651184
 10
359.9124412619
 20
919.509757218
 10
361.6850036668
 20
919.5097505294
 10
363.1963966213
 20
919.5097450781
 10
364.4408868942
 20
919.5097408847
 10
365.4137537076
 20
919.5097379652
 10
366.1113066445
 20
919.5097363305
 10
366.5308996476
 20
919.509735987
 10
366.670941057
 20
919.5097369358
  0
LWPOLYLINE
  5
62
330
1F
100
AcDbEntity
  8
0
  6
Continuous
 62
     7
370
    15
100
AcDbPolyline
 90
       53
 70
   128
 43
0.0
 10
220.9014410562
 20
922.4991859391
 10
220.9362368791
 20
922.4991849948
 10
221.2144015194
 20
922.4991821495
 10
221.7696546349
 20
922.4991780383
 10
222.5998480592
 20
922.499172677
 10
223.7017699353
 20
922.4991660865
 10
225.0711571415
 20
922.4991582921
 10
226.7027117847
 20
922.4991493241
 10
228.590121697
 20
922.4991392172
 10
230.726084856
 20
922.4991280104
 10
233.1023376353
 20
922.4991157472
 10
235.7096867745
 20
922.4991024749
 10
238.5380449462
 20
922.4990882449
 10
241.5764697823
 20
922.4990731122
 10
244.8132062071
 20
922.4990571355
 10
248.2357319164
 20
922.4990403765
 10
251.830805823
 20
922.4990229
 10
255.5845192844
 20
922.4990047738
 10
259.4823499125
 20
922.4989860678
 10
263.5092177577
 20
922.4989668544
 10
267.6495436506
 20
922.4989472081
 10
271.8873094747
 20
922.4989272047
 10
276.2061201373
 20
922.4989069218
 10
280.589266999
 20
922.4988864377
 10
285.0197925159
 20
922.4988658318
 10
289.4805558457
 20
922.4988451836
 10
293.9542991615
 20
922.4988245732
 10
298.4237144196
 20
922.4988040802
 10
302.8715103206
 20
922.498783784
 10
307.2804792062
 20
922.498763763
 10
311.6335636324
 20
922.4987440948
 10
315.9139223611
 20
922.4987248554
 10
320.1049955159
 20
922.4987061192
 10
324.1905686491
 20
922.4986879587
 10
328.1548354717
 20
922.4986704442
 10
331.9824590057
 20
922.4986536435
 10
335.6586309192
 20
922.4986376215
 10
339.1691288172
 20
922.4986224403
 10
342.5003712652
 20
922.4986081585
 10
345.6394703335
 20
922.4985948314
 10
348.5742814575
 20
922.4985825106
 10
351.2934504232
 20
922.4985712438
 10
353.786457294
 20
922.4985610745
 10
356.0436571107
 20
922.4985520421
 10
358.0563172057
 20
922.4985441815
 10
359.816650988
 20
922.4985375232
 10
361.3178480683
 20
922.4985320928
 10
362.5541006068
 20
922.4985279114
 10
363.5206257823
 20
922.4985249953
 10
364.2136842969
 20
922.4985233555
 10
364.6305948418
 20
922.4985229986
 10
364.7697444711
 20
922.4985239259
 10
364.7697444711
 20
922.4985239259
  0
LWPOLYLINE
  5
63
330
1F
100
AcDbEntity
  8
0
  6
Continuous
 62
     7
370
    15
100
AcDbPolyline
 90
       52
 70
   128
 43
0.0
 10
223.3949484335
 20
924.992685645
 10
223.4299088606
 20
924.9926847118
 10
223.7093810995
 20
924.9926818844
 10
224.2672002414
 20
924.9926777854
 10
225.1011201454
 20
924.9926724315
 10
226.2077829103
 20
924.9926658441
 10
227.5827323959
 20
924.9926580498
 10
229.2204321658
 20
924.99264908
 10
231.114287781
 20
924.9926389708
 10
233.2566733535
 20
924.9926277628
 10
235.6389622526
 20
924.9926155013
 10
238.2515618417
 20
924.9926022356
 10
241.0839521046
 20
924.9925880191
 10
244.1247280051
 20
924.9925729091
 10
247.361645412
 20
924.9925569663
 10
250.7816704013
 20
924.9925402551
 10
254.3710317396
 20
924.9925228426
 10
258.1152763354
 20
924.9925047991
 10
261.9993274374
 20
924.9924861971
 10
266.0075453426
 20
924.9924671115
 10
270.1237903722
 20
924.9924476193
 10
274.3314878602
 20
924.9924277989
 10
278.613694894
 20
924.9924077301
 10
282.9531685371
 20
924.9923874937
 10
287.3324352609
 20
924.9923671712
 10
291.7338613038
 20
924.9923468445
 10
296.1397236767
 20
924.9923265953
 10
300.5322815267
 20
924.9923065053
 10
304.8938475738
 20
924.9922866552
 10
309.2068593309
 20
924.9922671251
 10
313.4539498219
 20
924.9922479936
 10
317.6180175122
 20
924.9922293378
 10
321.6822951712
 20
924.9922112326
 10
325.630417387
 20
924.9921937512
 10
329.446486465
 20
924.9921769637
 10
333.1151364418
 20
924.9921609379
 10
336.6215949588
 20
924.9921457382
 10
339.9517427453
 20
924.992131426
 10
343.0921704712
 20
924.9921180587
 10
346.0302327427
 20
924.9921056902
 10
348.75409902
 20
924.9920943704
 10
351.2528012548
 20
924.9920841448
 10
353.5162780552
 20
924.9920750545
 10
355.5354151991
 20
924.9920671363
 10
357.3020823336
 20
924.9920604219
 10
358.809165714
 20
924.9920549384
 10
360.0505968472
 20
924.9920507079
 10
361.0213769283
 20
924.9920477475
 10
361.7175969685
 20
924.9920460689
 10
362.1364535355
 20
924.9920456791
 10
362.2762600416
 20
924.9920465796
 10
362.2762600416
 20
924.9920465796
  0
LWPOLYLINE
  5
64
330
1F
100
AcDbEntity
  8
0
  6
Continuous
 62
     7
370
    15
100
AcDbPolyline
 90
       51
 70
   128
 43
0.0
 10
226.3837120819
 20
926.8939078141
 10
226.4185615157
 20
926.8939068995
 10
226.6971377111
 20
926.8939041122
 10
227.2531216566
 20
926.8939000579
 10
228.0841813622
 20
926.8938947537
 10
229.1868310748
 20
926.8938882216
 10
230.5564458982
 20
926.8938804892
 10
232.1872811919
 20
926.8938715888
 10
234.072496666
 20
926.8938615579
 10
236.2041850716
 20
926.8938504384
 10
238.5734053666
 20
926.893838277
 10
241.1702202178
 20
926.8938251247
 10
243.9837376813
 20
926.8938110367
 10
247.0021568871
 20
926.8937960721
 10
250.212817536
 20
926.8937802936
 10
253.6022530014
 20
926.8937637674
 10
257.1562468132
 20
926.8937465629
 10
260.8598922862
 20
926.8937287522
 10
264.6976550442
 20
926.8937104099
 10
268.6534381764
 20
926.8936916131
 10
272.7106497536
 20
926.8936724406
 10
276.8522724206
 20
926.8936529728
 10
281.0609347725
 20
926.8936332913
 10
285.3189842168
 20
926.8936134787
 10
289.6085610144
 20
926.8935936181
 10
293.9116731894
 20
926.8935737928
 10
298.210271994
 20
926.893554086
 10
302.4863276109
 20
926.8935345803
 10
306.7219047768
 20
926.8935153575
 10
310.8992380091
 20
926.8934964982
 10
315.0008061205
 20
926.8934780816
 10
319.0094057089
 20
926.8934601849
 10
322.9082233146
 20
926.8934428832
 10
326.6809059417
 20
926.893426249
 10
330.311629648
 20
926.8934103521
 10
333.7851659166
 20
926.8933952592
 10
337.0869455292
 20
926.8933810336
 10
340.2031196747
 20
926.8933677349
 10
343.1206180358
 20
926.893355419
 10
345.8272036104
 20
926.8933441374
 10
348.3115240381
 20
926.8933339376
 10
350.5631592156
 20
926.8933248622
 10
352.5726650024
 20
926.8933169495
 10
354.331612833
 20
926.8933102324
 10
355.8326250689
 20
926.8933047393
 10
357.0694059431
 20
926.8933004931
 10
358.0367679668
 20
926.8932975117
 10
358.7306536875
 20
926.8932958076
 10
359.1481527074
 20
926.8932953879
 10
359.2875138904
 20
926.8932962543
 10
359.2875138904
 20
926.8932962543
  0
LWPOLYLINE
  5
65
330
1F
100
AcDbEntity
  8
0
  6
Continuous
 62
     7
370
    15
100
AcDbPolyline
 90
       49
 70
   128
 43
0.0
 10
229.7706754277
 20
928.1057989206
 10
229.7706754277
 20
928.1057989206
 10
229.9115071003
 20
928.105796796
 10
230.3333731298
 20
928.1057933849
 10
231.03438936
 20
928.1057887024
 10
232.0114248824
 20
928.1057827695
 10
233.260116019
 20
928.1057756126
 10
234.7748858121
 20
928.1057672637
 10
236.5489689322
 20
928.1057577602
 10
238.5744418933
 20
928.1057471444
 10
240.8422584415
 20
928.1057354638
 10
243.3422899576
 20
928.1057227705
 10
246.063370694
 20
928.1057091212
 10
248.9933476434
 20
928.1056945769
 10
252.1191348177
 20
928.1056792026
 10
255.4267716924
 20
928.1056630668
 10
258.9014855584
 20
928.1056462418
 10
262.5277575001
 20
928.1056288025
 10
266.2893917065
 20
928.105610827
 10
270.1695878064
 20
928.1055923954
 10
274.1510159018
 20
928.1055735902
 10
278.2158939685
 20
928.1055544953
 10
282.3460672742
 20
928.1055351959
 10
286.5230894623
 20
928.1055157784
 10
290.7283049378
 20
928.1054963293
 10
294.9429321875
 20
928.1054769356
 10
299.148147663
 20
928.1054576839
 10
303.3251698512
 20
928.1054386601
 10
307.4553431569
 20
928.1054199493
 10
311.5202212235
 20
928.105401635
 10
315.501649319
 20
928.105383799
 10
319.3818454188
 20
928.1053665209
 10
323.1434796253
 20
928.1053498779
 10
326.7697515669
 20
928.1053339444
 10
330.2444654329
 20
928.1053187916
 10
333.5521023077
 20
928.105304487
 10
336.6778894819
 20
928.1052910946
 10
339.6078664314
 20
928.1052786741
 10
342.3289471678
 20
928.1052672812
 10
344.8289786839
 20
928.1052569666
 10
347.0967952321
 20
928.1052477764
 10
349.1222681932
 20
928.1052397517
 10
350.8963513133
 20
928.1052329283
 10
352.4111211065
 20
928.1052273366
 10
353.6598122431
 20
928.1052230018
 10
354.6368477655
 20
928.105219943
 10
355.3378639957
 20
928.105218174
 10
355.7597300252
 20
928.1052177027
 10
355.9005616979
 20
928.1052185311
  0
LWPOLYLINE
  5
66
330
1F
100
AcDbEntity
  8
0
  6
Continuous
 62
     7
370
    15
100
AcDbPolyline
 90
       49
 70
   128
 43
0.0
 10
233.458820986
 20
928.5313359561
 10
233.4588209857
 20
928.5313359561
 10
233.5972420101
 20
928.5313338988
 10
234.0118597007
 20
928.5313305772
 10
234.7007409185
 20
928.5313260068
 10
235.660673781
 20
928.5313202089
 10
236.8871826384
 20
928.5313132105
 10
238.37454894
 20
928.5313050443
 10
240.1158378975
 20
928.5312957483
 10
242.1029308181
 20
928.5312853659
 10
244.3265629573
 20
928.5312739455
 10
246.7763667155
 20
928.5312615403
 10
249.4409199768
 20
928.5312482081
 10
252.3077993638
 20
928.5312340112
 10
255.3636381615
 20
928.5312190157
 10
258.5941886387
 20
928.5312032916
 10
261.9843884779
 20
928.531186912
 10
265.5184310023
 20
928.5311699535
 10
269.1798388744
 20
928.5311524951
 10
272.9515409205
 20
928.5311346182
 10
276.8159517246
 20
928.5311164061
 10
280.7550536196
 20
928.5310979438
 10
284.7504806941
 20
928.5310793173
 10
288.7836044227
 20
928.5310606134
 10
292.8356205209
 20
928.5310419195
 10
296.887636619
 20
928.5310233225
 10
300.9207603476
 20
928.5310049094
 10
304.9161874221
 20
928.5309867658
 10
308.8552893171
 20
928.5309689764
 10
312.7197001212
 20
928.5309516242
 10
316.4914021673
 20
928.5309347899
 10
320.1528100394
 20
928.5309185523
 10
323.6868525639
 20
928.5309029868
 10
327.077052403
 20
928.5308881662
 10
330.3076028803
 20
928.5308741594
 10
333.363441678
 20
928.5308610319
 10
336.230321065
 20
928.5308488448
 10
338.8948743263
 20
928.5308376549
 10
341.3446780845
 20
928.5308275145
 10
343.5683102237
 20
928.5308184708
 10
345.5554031443
 20
928.5308105659
 10
347.2966921019
 20
928.5308038367
 10
348.7840584035
 20
928.5307983146
 10
350.0105672608
 20
928.5307940254
 10
350.9705001234
 20
928.530790989
 10
351.6593813412
 20
928.5307892196
 10
352.0739990318
 20
928.5307887254
 10
352.2124200562
 20
928.5307895088
 10
352.2124200562
 20
928.5307895088
  0
CIRCLE
  5
67
330
1F
100
AcDbEntity
  8
0
  6
Continuous
 62
     7
370
    15
100
AcDbCircle
 10
292.835620521
 20
634.4050780436
 30
0.0
 40
59.37679955098065
  0
CIRCLE
  5
68
330
1F
100
AcDbEntity
  8
0
  6
Continuous
 62
     7
370
    15
100
AcDbCircle
 10
292.8356185628
 20
634.4050781927
 30
0.0
 40
63.06494315179218
  0
CIRCLE
  5
69
330
1F
100
AcDbEntity
  8
0
  6
Continuous
 62
     7
370
    15
100
AcDbCircle
 10
292.8356129862
 20
634.4050786175
 30
0.0
 40
66.45190092186199
  0
CIRCLE
  5
6A
330
1F
100
AcDbEntity
  8
0
  6
Continuous
 62
     7
370
    15
100
AcDbCircle
 10
292.8356042376
 20
634.405079284
 30
0.0
 40
69.44065582245284
  0
CIRCLE
  5
6B
330
1F
100
AcDbEntity
  8
0
  6
Continuous
 62
     7
370
    15
100
AcDbCircle
 10
292.8355927636
 20
634.405080158
 30
0.0
 40
71.93415172650485
  0
CIRCLE
  5
6C
330
1F
100
AcDbEntity
  8
0
  6
Continuous
 62
     7
370
    15
100
AcDbCircle
 10
292.8355790107
 20
634.4050812056
 30
0.0
 40
73.83536206583682
  0
CIRCLE
  5
6D
330
1F
100
AcDbEntity
  8
0
  6
Continuous
 62
     7
370
    15
100
AcDbCircle
 10
292.8355634255
 20
634.4050823929
 30
0.0
 40
75.04724605122976
  0
CIRCLE
  5
6E
330
1F
100
AcDbEntity
  8
0
  6
Continuous
 62
     7
370
    15
100
AcDbCircle
 10
292.8355464545
 20
634.4050836856
 30
0.0
 40
75.47274960199007
  0
CIRCLE
  5
6F
330
1F
100
AcDbEntity
  8
0
  6
Continuous
 62
     7
370
    15
100
AcDbCircle
 10
292.8352631937
 20
634.4051052632
 30
0.0
 40
92.99924278565591
  0
ENDSEC
  0
SECTION
  2
OBJECTS
  0
DICTIONARY
  5
C
330
0
100
AcDbDictionary
281
     1
  3
ACAD_GROUP
350
D
  3
ACAD_LAYOUT
350
1A
  3
ACAD_MLINESTYLE
350
17
  3
ACAD_PLOTSETTINGS
350
19
  3
ACAD_PLOTSTYLENAME
350
E
  0
DICTIONARY
  5
D
102
{ACAD_REACTORS
330
C
102
}
330
C
100
AcDbDictionary
281
     1
  0
DICTIONARY
  5
1A
102
{ACAD_REACTORS
330
C
102
}
330
C
100
AcDbDictionary
281
     1
  3
Layout1
350
1E
  3
Layout2
350
26
  3
Model
350
22
  0
DICTIONARY
  5
17
102
{ACAD_REACTORS
330
C
102
}
330
C
100
AcDbDictionary
281
     1
  3
Standard
350
18
  0
DICTIONARY
  5
19
102
{ACAD_REACTORS
330
C
102
}
330
C
100
AcDbDictionary
281
     1
  0
ACDBDICTIONARYWDFLT
  5
E
102
{ACAD_REACTORS
330
C
102
}
330
C
100
AcDbDictionary
281
     1
  3
Normal
350
F
100
AcDbDictionaryWithDefault
340
F
  0
LAYOUT
  5
1E
102
{ACAD_REACTORS
330
1A
102
}
330
1A
100
AcDbPlotSettings
  1

  2
none_device
  4

  6

 40
0.0
 41
0.0
 42
0.0
 43
0.0
 44
0.0
 45
0.0
 46
0.0
 47
0.0
 48
0.0
 49
0.0
140
0.0
141
0.0
142
1.0
143
1.0
 70
   688
 72
     0
 73
     0
 74
     5
  7

 75
    16
147
1.0
148
0.0
149
0.0
100
AcDbLayout
  1
Layout1
 70
     1
 71
     1
 10
0.0
 20
0.0
 11
420.0
 21
297.0
 12
0.0
 22
0.0
 32
0.0
 14
1.0000000000E+20
 24
1.0000000000E+20
 34
1.0000000000E+20
 15
-1.0000000000E+20
 25
-1.0000000000E+20
 35
-1.0000000000E+20
146
0.0
 13
0.0
 23
0.0
 33
0.0
 16
1.0
 26
0.0
 36
0.0
 17
0.0
 27
1.0
 37
0.0
 76
     0
330
1B
  0
LAYOUT
  5
26
102
{ACAD_REACTORS
330
1A
102
}
330
1A
100
AcDbPlotSettings
  1

  2
none_device
  4

  6

 40
0.0
 41
0.0
 42
0.0
 43
0.0
 44
0.0
 45
0.0
 46
0.0
 47
0.0
 48
0.0
 49
0.0
140
0.0
141
0.0
142
1.0
143
1.0
 70
   688
 72
     0
 73
     0
 74
     5
  7

 75
    16
147
1.0
148
0.0
149
0.0
100
AcDbLayout
  1
Layout2
 70
     1
 71
     2
 10
0.0
 20
0.0
 11
0.0
 21
0.0
 12
0.0
 22
0.0
 32
0.0
 14
0.0
 24
0.0
 34
0.0
 15
0.0
 25
0.0
 35
0.0
146
0.0
 13
0.0
 23
0.0
 33
0.0
 16
1.0
 26
0.0
 36
0.0
 17
0.0
 27
1.0
 37
0.0
 76
     0
330
23
  0
LAYOUT
  5
22
102
{ACAD_REACTORS
330
1A
102
}
330
1A
100
AcDbPlotSettings
  1

  2
none_device
  4

  6

 40
0.0
 41
0.0
 42
0.0
 43
0.0
 44
0.0
 45
0.0
 46
0.0
 47
0.0
 48
0.0
 49
0.0
140
0.0
141
0.0
142
1.0
143
1.0
 70
  1712
 72
     0
 73
     0
 74
     0
  7

 75
     0
147
1.0
148
0.0
149
0.0
100
AcDbLayout
  1
Model
 70
     1
 71
     0
 10
0.0
 20
0.0
 11
1397.0
 21
1079.5
 12
0.0
 22
0.0
 32
0.0
 14
0.0
 24
0.0
 34
0.0
 15
1397.0
 25
1079.5
 35
0.0
146
0.0
 13
0.0
 23
0.0
 33
0.0
 16
1.0
 26
0.0
 36
0.0
 17
0.0
 27
1.0
 37
0.0
 76
     0
330
1F
331
29
  0
MLINESTYLE
  5
18
102
{ACAD_REACTORS
330
17
102
}
330
17
100
AcDbMlineStyle
  2
Standard
 70
     0
  3

 62
   256
 51
90.0
 52
90.0
 71
     2
 49
0.5
 62
   256
  6
BYLAYER
 49
-0.5
 62
   256
  6
BYLAYER
  0
ACDBPLACEHOLDER
  5
F
102
{ACAD_REACTORS
330
E
102
}
330
E
  0
ENDSEC
  0
EOF
