ISO-10303-21;
HEADER;
FILE_DESCRIPTION (( 'STEP AP214' ),
    '1' );
FILE_NAME ('OTN 136 HF ES1 new.STEP',
    '2018-07-30T14:54:03',
    ( '' ),
    ( '' ),
    'SwSTEP 2.0',
    'SolidWorks 2013',
    '' );
FILE_SCHEMA (( 'AUTOMOTIVE_DESIGN' ));
ENDSEC;

DATA;
#1 = ORIENTED_EDGE ( 'NONE', *, *, #40, .T. ) ;
#2 = FACE_OUTER_BOUND ( 'NONE', #134, .T. ) ;
#3 = STYLED_ITEM ( 'NONE', ( #108 ), #197 ) ;
#4 = CARTESIAN_POINT ( 'NONE',  ( -30.86623945629768400, 25.67969921978866000, 0.0000000000000000000 ) ) ;
#5 = VERTEX_POINT ( 'NONE', #130 ) ;
#6 = DIRECTION ( 'NONE',  ( 0.4436263825055888300, 0.8962118235913900700, 0.0000000000000000000 ) ) ;
#7 = ORIENTED_EDGE ( 'NONE', *, *, #109, .F. ) ;
#8 = CARTESIAN_POINT ( 'NONE',  ( 90.57092092166435300, -11.82085756572122500, 0.0000000000000000000 ) ) ;
#9 = CARTESIAN_POINT ( 'NONE',  ( 109.1337605437023200, 25.67969921978866000, 0.0000000000000000000 ) ) ;
#10 = PRODUCT ( 'OTN 136 HF ES1 new', 'OTN 136 HF ES1 new', '', ( #217 ) ) ;
#11 = VECTOR ( 'NONE', #169, 1000.000000000000000 ) ;
#12 = DIRECTION ( 'NONE',  ( 1.000000000000000000, 1.196361017915039500E-016, -0.0000000000000000000 ) ) ;
#13 =( NAMED_UNIT ( * ) PLANE_ANGLE_UNIT ( ) SI_UNIT ( $, .RADIAN. ) );
#14 = FILL_AREA_STYLE ('',( #123 ) ) ;
#15 = VERTEX_POINT ( 'NONE', #183 ) ;
#16 = PRODUCT_DEFINITION_SHAPE ( 'NONE', 'NONE',  #202 ) ;
#17 = VECTOR ( 'NONE', #44, 1000.000000000000000 ) ;
#18 = EDGE_LOOP ( 'NONE', ( #112, #65, #103, #193 ) ) ;
#19 = EDGE_LOOP ( 'NONE', ( #138, #147, #53, #47 ) ) ;
#20 = VECTOR ( 'NONE', #30, 1000.000000000000100 ) ;
#21 = ADVANCED_FACE ( 'NONE', ( #201 ), #210, .F. ) ;
#22 = VERTEX_POINT ( 'NONE', #166 ) ;
#23 = ORIENTED_EDGE ( 'NONE', *, *, #227, .T. ) ;
#24 = UNCERTAINTY_MEASURE_WITH_UNIT (LENGTH_MEASURE( 1.000000000000000100E-005 ), #121, 'distance_accuracy_value', 'NONE');
#25 = CARTESIAN_POINT ( 'NONE',  ( 90.57092092166435300, -11.82085756572122500, 1240.000000000000000 ) ) ;
#26 = FACE_OUTER_BOUND ( 'NONE', #18, .T. ) ;
#27 = CARTESIAN_POINT ( 'NONE',  ( 58.39050841825543600, -38.01803145756949200, 0.0000000000000000000 ) ) ;
#28 = CARTESIAN_POINT ( 'NONE',  ( 45.76032974209474700, 10.36046155955802600, 1240.000000000000000 ) ) ;
#29 = DIRECTION ( 'NONE',  ( 0.4436263825055888300, 0.8962118235913900700, 0.0000000000000000000 ) ) ;
#30 = DIRECTION ( 'NONE',  ( 0.9675698603425491000, 0.2526035735232183800, 0.0000000000000000000 ) ) ;
#31 = VECTOR ( 'NONE', #212, 1000.000000000000000 ) ;
#32 = CARTESIAN_POINT ( 'NONE',  ( -30.86623945629768400, 25.67969921978866000, 1240.000000000000000 ) ) ;
#33 =( GEOMETRIC_REPRESENTATION_CONTEXT ( 3 ) GLOBAL_UNCERTAINTY_ASSIGNED_CONTEXT ( ( #155 ) ) GLOBAL_UNIT_ASSIGNED_CONTEXT ( ( #174, #71, #190 ) ) REPRESENTATION_CONTEXT ( 'NONE', 'WORKASPACE' ) );
#34 = SURFACE_STYLE_USAGE ( .BOTH. , #137 ) ;
#35 = LINE ( 'NONE', #25, #162 ) ;
#36 = COLOUR_RGB ( '',0.7921568627450980000, 0.8196078431372548800, 0.9333333333333333500 ) ;
#37 = EDGE_CURVE ( 'NONE', #107, #194, #62, .T. ) ;
#38 = ADVANCED_FACE ( 'NONE', ( #149 ), #66, .T. ) ;
#39 = LINE ( 'NONE', #81, #223 ) ;
#40 = EDGE_CURVE ( 'NONE', #119, #209, #56, .T. ) ;
#41 =( GEOMETRIC_REPRESENTATION_CONTEXT ( 3 ) GLOBAL_UNCERTAINTY_ASSIGNED_CONTEXT ( ( #24 ) ) GLOBAL_UNIT_ASSIGNED_CONTEXT ( ( #121, #13, #136 ) ) REPRESENTATION_CONTEXT ( 'NONE', 'WORKASPACE' ) );
#42 = DIRECTION ( 'NONE',  ( -1.000000000000000000, 0.0000000000000000000, 0.0000000000000000000 ) ) ;
#43 = DIRECTION ( 'NONE',  ( -0.0000000000000000000, -0.0000000000000000000, -1.000000000000000000 ) ) ;
#44 = DIRECTION ( 'NONE',  ( -0.0000000000000000000, -0.0000000000000000000, -1.000000000000000000 ) ) ;
#45 = CARTESIAN_POINT ( 'NONE',  ( 90.57092092166435300, -11.82085756572122500, 1240.000000000000000 ) ) ;
#46 = CARTESIAN_POINT ( 'NONE',  ( 58.39050841825543600, -38.01803145756949200, 1240.000000000000000 ) ) ;
#47 = ORIENTED_EDGE ( 'NONE', *, *, #140, .T. ) ;
#48 = DIRECTION ( 'NONE',  ( 0.0000000000000000000, 0.0000000000000000000, 1.000000000000000000 ) ) ;
#49 = ORIENTED_EDGE ( 'NONE', *, *, #177, .T. ) ;
#50 = FILL_AREA_STYLE_COLOUR ( '', #91 ) ;
#51 = DIRECTION ( 'NONE',  ( -1.000000000000000000, -0.0000000000000000000, -0.0000000000000000000 ) ) ;
#52 =( NAMED_UNIT ( * ) PLANE_ANGLE_UNIT ( ) SI_UNIT ( $, .RADIAN. ) );
#53 = ORIENTED_EDGE ( 'NONE', *, *, #120, .F. ) ;
#54 = EDGE_CURVE ( 'NONE', #15, #22, #196, .T. ) ;
#55 = ORIENTED_EDGE ( 'NONE', *, *, #224, .T. ) ;
#56 = LINE ( 'NONE', #118, #144 ) ;
#57 = MECHANICAL_DESIGN_GEOMETRIC_PRESENTATION_REPRESENTATION (  '', ( #94 ), #41 ) ;
#58 = ADVANCED_FACE ( 'NONE', ( #2 ), #145, .F. ) ;
#59 = ORIENTED_EDGE ( 'NONE', *, *, #227, .F. ) ;
#60 = ORIENTED_EDGE ( 'NONE', *, *, #37, .T. ) ;
#61 = VECTOR ( 'NONE', #115, 1000.000000000000000 ) ;
#62 = LINE ( 'NONE', #165, #11 ) ;
#63 = CARTESIAN_POINT ( 'NONE',  ( -30.86623945629767400, -61.32030078021133300, 0.0000000000000000000 ) ) ;
#64 = CARTESIAN_POINT ( 'NONE',  ( 109.1337605437023200, 25.67969921978866000, 1240.000000000000000 ) ) ;
#65 = ORIENTED_EDGE ( 'NONE', *, *, #140, .F. ) ;
#66 = PLANE ( 'NONE',  #124 ) ;
#67 = EDGE_LOOP ( 'NONE', ( #191, #146, #72, #60 ) ) ;
#68 = LINE ( 'NONE', #133, #20 ) ;
#69 = CARTESIAN_POINT ( 'NONE',  ( -30.86623945629767400, -61.32030078021133300, 0.0000000000000000000 ) ) ;
#70 = AXIS2_PLACEMENT_3D ( 'NONE', #98, #12, #135 ) ;
#71 =( NAMED_UNIT ( * ) PLANE_ANGLE_UNIT ( ) SI_UNIT ( $, .RADIAN. ) );
#72 = ORIENTED_EDGE ( 'NONE', *, *, #218, .F. ) ;
#73 = FACE_OUTER_BOUND ( 'NONE', #178, .T. ) ;
#74 = DIRECTION ( 'NONE',  ( 0.0000000000000000000, -1.000000000000000000, 0.0000000000000000000 ) ) ;
#75 = AXIS2_PLACEMENT_3D ( 'NONE', #90, #74, #182 ) ;
#76 = LINE ( 'NONE', #8, #126 ) ;
#77 = PLANE ( 'NONE',  #75 ) ;
#78 = CARTESIAN_POINT ( 'NONE',  ( -30.86623945629768400, 25.67969921978866000, 1240.000000000000000 ) ) ;
#79 = PLANE ( 'NONE',  #70 ) ;
#80 = EDGE_CURVE ( 'NONE', #139, #93, #187, .T. ) ;
#81 = CARTESIAN_POINT ( 'NONE',  ( -30.86623945629768400, 25.67969921978866000, 1240.000000000000000 ) ) ;
#82 = DIRECTION ( 'NONE',  ( 0.9675698603425491000, 0.2526035735232183800, 0.0000000000000000000 ) ) ;
#83 = DIRECTION ( 'NONE',  ( 1.000000000000000000, 0.0000000000000000000, 0.0000000000000000000 ) ) ;
#84 = AXIS2_PLACEMENT_3D ( 'NONE', #151, #48, #171 ) ;
#85 = LINE ( 'NONE', #69, #128 ) ;
#86 = ORIENTED_EDGE ( 'NONE', *, *, #237, .F. ) ;
#87 = ADVANCED_FACE ( 'NONE', ( #99 ), #77, .F. ) ;
#88 = ORIENTED_EDGE ( 'NONE', *, *, #80, .F. ) ;
#89 = ORIENTED_EDGE ( 'NONE', *, *, #163, .T. ) ;
#90 = CARTESIAN_POINT ( 'NONE',  ( -30.86623945629768400, 25.67969921978866000, 1240.000000000000000 ) ) ;
#91 = COLOUR_RGB ( '',0.7921568627450980000, 0.8196078431372548800, 0.9333333333333333500 ) ;
#92 = DIRECTION ( 'NONE',  ( 1.000000000000000000, 0.0000000000000000000, -0.0000000000000000000 ) ) ;
#93 = VERTEX_POINT ( 'NONE', #63 ) ;
#94 = STYLED_ITEM ( 'NONE', ( #110 ), #221 ) ;
#95 = DIRECTION ( 'NONE',  ( 0.0000000000000000000, 0.0000000000000000000, 1.000000000000000000 ) ) ;
#96 = DIRECTION ( 'NONE',  ( 1.000000000000000000, 0.0000000000000000000, 0.0000000000000000000 ) ) ;
#97 = DIRECTION ( 'NONE',  ( 0.0000000000000000000, 0.0000000000000000000, 1.000000000000000000 ) ) ;
#98 = CARTESIAN_POINT ( 'NONE',  ( -30.86623945629768400, 25.67969921978866000, 1240.000000000000000 ) ) ;
#99 = FACE_OUTER_BOUND ( 'NONE', #67, .T. ) ;
#100 = SURFACE_SIDE_STYLE ('',( #203 ) ) ;
#101 = PLANE ( 'NONE',  #150 ) ;
#102 = AXIS2_PLACEMENT_3D ( 'NONE', #114, #95, #92 ) ;
#103 = ORIENTED_EDGE ( 'NONE', *, *, #54, .F. ) ;
#104 = APPLICATION_CONTEXT ( 'automotive_design' ) ;
#105 = ORIENTED_EDGE ( 'NONE', *, *, #40, .F. ) ;
#106 = PRODUCT_DEFINITION_CONTEXT ( 'detailed design', #104, 'design' ) ;
#107 = VERTEX_POINT ( 'NONE', #64 ) ;
#108 = PRESENTATION_STYLE_ASSIGNMENT (( #34 ) ) ;
#109 = EDGE_CURVE ( 'NONE', #15, #200, #116, .T. ) ;
#110 = PRESENTATION_STYLE_ASSIGNMENT (( #226 ) ) ;
#111 = ORIENTED_EDGE ( 'NONE', *, *, #120, .T. ) ;
#112 = ORIENTED_EDGE ( 'NONE', *, *, #154, .T. ) ;
#113 = CARTESIAN_POINT ( 'NONE',  ( 45.76032974209474700, 10.36046155955802600, 1240.000000000000000 ) ) ;
#114 = CARTESIAN_POINT ( 'NONE',  ( 45.76032974209474700, 10.36046155955802600, 0.0000000000000000000 ) ) ;
#115 = DIRECTION ( 'NONE',  ( 1.196361017915039500E-016, -1.000000000000000000, 0.0000000000000000000 ) ) ;
#116 = LINE ( 'NONE', #46, #17 ) ;
#117 = DIRECTION ( 'NONE',  ( 1.196361017915039500E-016, -1.000000000000000000, 0.0000000000000000000 ) ) ;
#118 = CARTESIAN_POINT ( 'NONE',  ( -30.86623945629768400, 25.67969921978866000, 1240.000000000000000 ) ) ;
#119 = VERTEX_POINT ( 'NONE', #78 ) ;
#120 = EDGE_CURVE ( 'NONE', #22, #107, #170, .T. ) ;
#121 =( LENGTH_UNIT ( ) NAMED_UNIT ( * ) SI_UNIT ( .MILLI., .METRE. ) );
#122 = DIRECTION ( 'NONE',  ( -0.9675698603425491000, -0.2526035735232183800, 0.0000000000000000000 ) ) ;
#123 = FILL_AREA_STYLE_COLOUR ( '', #36 ) ;
#124 = AXIS2_PLACEMENT_3D ( 'NONE', #164, #132, #131 ) ;
#125 = VECTOR ( 'NONE', #29, 1000.000000000000100 ) ;
#126 = VECTOR ( 'NONE', #6, 1000.000000000000100 ) ;
#127 = ADVANCED_FACE ( 'NONE', ( #26 ), #172, .T. ) ;
#128 = VECTOR ( 'NONE', #82, 1000.000000000000100 ) ;
#129 = EDGE_CURVE ( 'NONE', #5, #194, #76, .T. ) ;
#130 = CARTESIAN_POINT ( 'NONE',  ( 90.57092092166435300, -11.82085756572122500, 0.0000000000000000000 ) ) ;
#131 = DIRECTION ( 'NONE',  ( 1.000000000000000000, 0.0000000000000000000, -0.0000000000000000000 ) ) ;
#132 = DIRECTION ( 'NONE',  ( 0.0000000000000000000, 0.0000000000000000000, 1.000000000000000000 ) ) ;
#133 = CARTESIAN_POINT ( 'NONE',  ( -30.86623945629767400, -61.32030078021133300, 1240.000000000000000 ) ) ;
#134 = EDGE_LOOP ( 'NONE', ( #88, #86, #142, #160, #59 ) ) ;
#135 = DIRECTION ( 'NONE',  ( -1.196361017915039500E-016, 1.000000000000000000, 0.0000000000000000000 ) ) ;
#136 =( NAMED_UNIT ( * ) SI_UNIT ( $, .STERADIAN. ) SOLID_ANGLE_UNIT ( ) );
#137 = SURFACE_SIDE_STYLE ('',( #168 ) ) ;
#138 = ORIENTED_EDGE ( 'NONE', *, *, #129, .T. ) ;
#139 = VERTEX_POINT ( 'NONE', #4 ) ;
#140 = EDGE_CURVE ( 'NONE', #22, #5, #35, .T. ) ;
#141 = ORIENTED_EDGE ( 'NONE', *, *, #177, .F. ) ;
#142 = ORIENTED_EDGE ( 'NONE', *, *, #129, .F. ) ;
#143 = AXIS2_PLACEMENT_3D ( 'NONE', #28, #43, #42 ) ;
#144 = VECTOR ( 'NONE', #117, 1000.000000000000000 ) ;
#145 = PLANE ( 'NONE',  #102 ) ;
#146 = ORIENTED_EDGE ( 'NONE', *, *, #224, .F. ) ;
#147 = ORIENTED_EDGE ( 'NONE', *, *, #37, .F. ) ;
#148 = UNCERTAINTY_MEASURE_WITH_UNIT (LENGTH_MEASURE( 1.000000000000000100E-005 ), #159, 'distance_accuracy_value', 'NONE');
#149 = FACE_OUTER_BOUND ( 'NONE', #233, .T. ) ;
#150 = AXIS2_PLACEMENT_3D ( 'NONE', #156, #228, #122 ) ;
#151 = CARTESIAN_POINT ( 'NONE',  ( 45.76032974209474700, 10.36046155955802600, 0.0000000000000000000 ) ) ;
#152 = LINE ( 'NONE', #185, #31 ) ;
#153 = CARTESIAN_POINT ( 'NONE',  ( -30.86623945629767400, -61.32030078021133300, 1240.000000000000000 ) ) ;
#154 = EDGE_CURVE ( 'NONE', #200, #5, #216, .T. ) ;
#155 = UNCERTAINTY_MEASURE_WITH_UNIT (LENGTH_MEASURE( 1.000000000000000100E-005 ), #174, 'distance_accuracy_value', 'NONE');
#156 = CARTESIAN_POINT ( 'NONE',  ( -30.86623945629767400, -61.32030078021133300, 1240.000000000000000 ) ) ;
#157 = FACE_OUTER_BOUND ( 'NONE', #211, .T. ) ;
#158 = CARTESIAN_POINT ( 'NONE',  ( -30.86623945629768400, 25.67969921978866000, 0.0000000000000000000 ) ) ;
#159 =( LENGTH_UNIT ( ) NAMED_UNIT ( * ) SI_UNIT ( .MILLI., .METRE. ) );
#160 = ORIENTED_EDGE ( 'NONE', *, *, #154, .F. ) ;
#161 = ORIENTED_EDGE ( 'NONE', *, *, #54, .T. ) ;
#162 = VECTOR ( 'NONE', #167, 1000.000000000000000 ) ;
#163 = EDGE_CURVE ( 'NONE', #209, #15, #68, .T. ) ;
#164 = CARTESIAN_POINT ( 'NONE',  ( 45.76032974209474700, 10.36046155955802600, 1240.000000000000000 ) ) ;
#165 = CARTESIAN_POINT ( 'NONE',  ( 109.1337605437023200, 25.67969921978866000, 1240.000000000000000 ) ) ;
#166 = CARTESIAN_POINT ( 'NONE',  ( 90.57092092166435300, -11.82085756572122500, 1240.000000000000000 ) ) ;
#167 = DIRECTION ( 'NONE',  ( -0.0000000000000000000, -0.0000000000000000000, -1.000000000000000000 ) ) ;
#168 = SURFACE_STYLE_FILL_AREA ( #14 ) ;
#169 = DIRECTION ( 'NONE',  ( -0.0000000000000000000, -0.0000000000000000000, -1.000000000000000000 ) ) ;
#170 = LINE ( 'NONE', #45, #125 ) ;
#171 = DIRECTION ( 'NONE',  ( 1.000000000000000000, 0.0000000000000000000, 0.0000000000000000000 ) ) ;
#172 = CYLINDRICAL_SURFACE ( 'NONE', #143, 50.00000000000000000 ) ;
#173 = DIRECTION ( 'NONE',  ( -0.0000000000000000000, -0.0000000000000000000, -1.000000000000000000 ) ) ;
#174 =( LENGTH_UNIT ( ) NAMED_UNIT ( * ) SI_UNIT ( .MILLI., .METRE. ) );
#175 =( NAMED_UNIT ( * ) SI_UNIT ( $, .STERADIAN. ) SOLID_ANGLE_UNIT ( ) );
#176 = VECTOR ( 'NONE', #51, 1000.000000000000000 ) ;
#177 = EDGE_CURVE ( 'NONE', #209, #93, #152, .T. ) ;
#178 = EDGE_LOOP ( 'NONE', ( #232, #141, #105, #55 ) ) ;
#179 = CLOSED_SHELL ( 'NONE', ( #198, #234, #127, #21, #87, #38, #58 ) ) ;
#180 = CARTESIAN_POINT ( 'NONE',  ( 90.57092092166435300, -11.82085756572122500, 1240.000000000000000 ) ) ;
#181 = DIRECTION ( 'NONE',  ( -0.4436263825055888900, -0.8962118235913900700, 0.0000000000000000000 ) ) ;
#182 = DIRECTION ( 'NONE',  ( 0.0000000000000000000, -0.0000000000000000000, -1.000000000000000000 ) ) ;
#183 = CARTESIAN_POINT ( 'NONE',  ( 58.39050841825543600, -38.01803145756949200, 1240.000000000000000 ) ) ;
#184 = ORIENTED_EDGE ( 'NONE', *, *, #218, .T. ) ;
#185 = CARTESIAN_POINT ( 'NONE',  ( -30.86623945629767400, -61.32030078021133300, 1240.000000000000000 ) ) ;
#186 = ORIENTED_EDGE ( 'NONE', *, *, #163, .F. ) ;
#187 = LINE ( 'NONE', #208, #61 ) ;
#188 = AXIS2_PLACEMENT_3D ( 'NONE', #113, #97, #96 ) ;
#189 = LINE ( 'NONE', #32, #204 ) ;
#190 =( NAMED_UNIT ( * ) SI_UNIT ( $, .STERADIAN. ) SOLID_ANGLE_UNIT ( ) );
#191 = ORIENTED_EDGE ( 'NONE', *, *, #237, .T. ) ;
#192 = DIRECTION ( 'NONE',  ( 0.0000000000000000000, 0.0000000000000000000, 1.000000000000000000 ) ) ;
#193 = ORIENTED_EDGE ( 'NONE', *, *, #109, .T. ) ;
#194 = VERTEX_POINT ( 'NONE', #9 ) ;
#195 = PRODUCT_RELATED_PRODUCT_CATEGORY ( 'part', '', ( #10 ) ) ;
#196 = CIRCLE ( 'NONE', #188, 50.00000000000000000 ) ;
#197 = ADVANCED_BREP_SHAPE_REPRESENTATION ( 'OTN 136 HF ES1 new', ( #221, #207 ), #33 ) ;
#198 = ADVANCED_FACE ( 'NONE', ( #73 ), #79, .F. ) ;
#199 = PRODUCT_DEFINITION_FORMATION_WITH_SPECIFIED_SOURCE ( 'ANY', '', #10, .NOT_KNOWN. ) ;
#200 = VERTEX_POINT ( 'NONE', #27 ) ;
#201 = FACE_OUTER_BOUND ( 'NONE', #19, .T. ) ;
#202 = PRODUCT_DEFINITION ( 'UNKNOWN', '', #199, #106 ) ;
#203 = SURFACE_STYLE_FILL_AREA ( #213 ) ;
#204 = VECTOR ( 'NONE', #225, 1000.000000000000000 ) ;
#205 = AXIS2_PLACEMENT_3D ( 'NONE', #180, #206, #181 ) ;
#206 = DIRECTION ( 'NONE',  ( -0.8962118235913901800, 0.4436263825055889500, 0.0000000000000000000 ) ) ;
#207 = AXIS2_PLACEMENT_3D ( 'NONE', #214, #192, #83 ) ;
#208 = CARTESIAN_POINT ( 'NONE',  ( -30.86623945629768400, 25.67969921978866000, 0.0000000000000000000 ) ) ;
#209 = VERTEX_POINT ( 'NONE', #153 ) ;
#210 = PLANE ( 'NONE',  #205 ) ;
#211 = EDGE_LOOP ( 'NONE', ( #23, #7, #186, #49 ) ) ;
#212 = DIRECTION ( 'NONE',  ( -0.0000000000000000000, -0.0000000000000000000, -1.000000000000000000 ) ) ;
#213 = FILL_AREA_STYLE ('',( #50 ) ) ;
#214 = CARTESIAN_POINT ( 'NONE',  ( 0.0000000000000000000, 0.0000000000000000000, 0.0000000000000000000 ) ) ;
#215 = APPLICATION_PROTOCOL_DEFINITION ( 'draft international standard', 'automotive_design', 1998, #229 ) ;
#216 = CIRCLE ( 'NONE', #84, 50.00000000000000000 ) ;
#217 = PRODUCT_CONTEXT ( 'NONE', #229, 'mechanical' ) ;
#218 = EDGE_CURVE ( 'NONE', #107, #119, #189, .T. ) ;
#219 = LINE ( 'NONE', #158, #176 ) ;
#220 =( GEOMETRIC_REPRESENTATION_CONTEXT ( 3 ) GLOBAL_UNCERTAINTY_ASSIGNED_CONTEXT ( ( #148 ) ) GLOBAL_UNIT_ASSIGNED_CONTEXT ( ( #159, #52, #175 ) ) REPRESENTATION_CONTEXT ( 'NONE', 'WORKASPACE' ) );
#221 = MANIFOLD_SOLID_BREP ( 'Áîáûøêà-Âûòÿíóòü1', #179 ) ;
#222 = MECHANICAL_DESIGN_GEOMETRIC_PRESENTATION_REPRESENTATION (  '', ( #3 ), #220 ) ;
#223 = VECTOR ( 'NONE', #173, 1000.000000000000000 ) ;
#224 = EDGE_CURVE ( 'NONE', #119, #139, #39, .T. ) ;
#225 = DIRECTION ( 'NONE',  ( -1.000000000000000000, -0.0000000000000000000, -0.0000000000000000000 ) ) ;
#226 = SURFACE_STYLE_USAGE ( .BOTH. , #100 ) ;
#227 = EDGE_CURVE ( 'NONE', #93, #200, #85, .T. ) ;
#228 = DIRECTION ( 'NONE',  ( -0.2526035735232183800, 0.9675698603425491000, 0.0000000000000000000 ) ) ;
#229 = APPLICATION_CONTEXT ( 'automotive_design' ) ;
#230 = APPLICATION_PROTOCOL_DEFINITION ( 'draft international standard', 'automotive_design', 1998, #104 ) ;
#231 = PRESENTATION_LAYER_ASSIGNMENT (  '', '', ( #94 ) ) ;
#232 = ORIENTED_EDGE ( 'NONE', *, *, #80, .T. ) ;
#233 = EDGE_LOOP ( 'NONE', ( #1, #89, #161, #111, #184 ) ) ;
#234 = ADVANCED_FACE ( 'NONE', ( #157 ), #101, .F. ) ;
#235 = SHAPE_DEFINITION_REPRESENTATION ( #16, #197 ) ;
#236 = PRESENTATION_LAYER_ASSIGNMENT (  '', '', ( #3 ) ) ;
#237 = EDGE_CURVE ( 'NONE', #194, #139, #219, .T. ) ;
ENDSEC;
END-ISO-10303-21;
