  0
SECTION
  2
HEADER
  9
$ACADVER
  1
AC1015
  9
$ACADMAINTVER
 70
     6
  9
$DWGCODEPAGE
  3
ANSI_1251
  9
$INSBASE
 10
0.0
 20
0.0
 30
0.0
  9
$EXTMIN
 10
0.0
 20
0.0
 30
0.0
  9
$EXTMAX
 10
1397.0
 20
1079.5
 30
0.0
  9
$LIMMIN
 10
0.0
 20
0.0
  9
$LIMMAX
 10
1397.0
 20
1079.5
  9
$ORTHOMODE
 70
     0
  9
$REGENMODE
 70
     1
  9
$FILLMODE
 70
     1
  9
$QTEXTMODE
 70
     0
  9
$MIRRTEXT
 70
     1
  9
$LTSCALE
 40
5.0
  9
$ATTMODE
 70
     1
  9
$TEXTSIZE
 40
17.5
  9
$TRACEWID
 40
1.0
  9
$TEXTSTYLE
  7
Standard
  9
$CLAYER
  8
0
  9
$CELTYPE
  6
ByLayer
  9
$CECOLOR
 62
   256
  9
$CELTSCALE
 40
1.0
  9
$DISPSILH
 70
     0
  9
$DIMSCALE
 40
1.0
  9
$DIMASZ
 40
17.5
  9
$DIMEXO
 40
0.05
  9
$DIMDLI
 40
3.75
  9
$DIMRND
 40
0.0
  9
$DIMDLE
 40
0.0
  9
$DIMEXE
 40
5.0
  9
$DIMTP
 40
0.0
  9
$DIMTM
 40
0.0
  9
$DIMTXT
 40
17.5
  9
$DIMCEN
 40
2.5
  9
$DIMTSZ
 40
0.0
  9
$DIMTOL
 70
     0
  9
$DIMLIM
 70
     0
  9
$DIMTIH
 70
     1
  9
$DIMTOH
 70
     1
  9
$DIMSE1
 70
     0
  9
$DIMSE2
 70
     0
  9
$DIMTAD
 70
     1
  9
$DIMZIN
 70
     0
  9
$DIMBLK
  1

  9
$DIMASO
 70
     1
  9
$DIMSHO
 70
     1
  9
$DIMPOST
  1

  9
$DIMAPOST
  1

  9
$DIMALT
 70
     0
  9
$DIMALTD
 70
     3
  9
$DIMALTF
 40
0.0393700787
  9
$DIMLFAC
 40
1.0
  9
$DIMTOFL
 70
     1
  9
$DIMTVP
 40
0.0
  9
$DIMTIX
 70
     0
  9
$DIMSOXD
 70
     0
  9
$DIMSAH
 70
     0
  9
$DIMBLK1
  1

  9
$DIMBLK2
  1

  9
$DIMSTYLE
  2
ISO-25
  9
$DIMCLRD
 70
     0
  9
$DIMCLRE
 70
     0
  9
$DIMCLRT
 70
     0
  9
$DIMTFAC
 40
1.0
  9
$DIMGAP
 40
15.0
  9
$DIMJUST
 70
     0
  9
$DIMSD1
 70
     0
  9
$DIMSD2
 70
     0
  9
$DIMTOLJ
 70
     0
  9
$DIMTZIN
 70
     0
  9
$DIMALTZ
 70
     0
  9
$DIMALTTZ
 70
     0
  9
$DIMUPT
 70
     0
  9
$DIMDEC
 70
     2
  9
$DIMTDEC
 70
     3
  9
$DIMALTU
 70
     2
  9
$DIMALTTD
 70
     3
  9
$DIMTXSTY
  7
Standard
  9
$DIMAUNIT
 70
     0
  9
$DIMADEC
 70
     2
  9
$DIMALTRND
 40
0.0
  9
$DIMAZIN
 70
     0
  9
$DIMDSEP
 70
    44
  9
$DIMATFIT
 70
     3
  9
$DIMFRAC
 70
     0
  9
$DIMLDRBLK
  1

  9
$DIMLUNIT
 70
     2
  9
$DIMLWD
 70
    -2
  9
$DIMLWE
 70
    -2
  9
$DIMTMOVE
 70
     0
  9
$LUNITS
 70
     2
  9
$LUPREC
 70
     2
  9
$SKETCHINC
 40
1.0
  9
$FILLETRAD
 40
10.0
  9
$AUNITS
 70
     0
  9
$AUPREC
 70
     2
  9
$MENU
  1
.
  9
$ELEVATION
 40
0.0
  9
$PELEVATION
 40
0.0
  9
$THICKNESS
 40
0.0
  9
$LIMCHECK
 70
     0
  9
$CHAMFERA
 40
10.0
  9
$CHAMFERB
 40
10.0
  9
$CHAMFERC
 40
20.0
  9
$CHAMFERD
 40
0.0
  9
$SKPOLY
 70
     0
  9
$TDCREATE
 40
2458113.704800463
  9
$TDUCREATE
 40
2458113.62146713
  9
$TDUPDATE
 40
2458113.70480206
  9
$TDUUPDATE
 40
2458113.621468727
  9
$TDINDWG
 40
0.0000000116
  9
$TDUSRTIMER
 40
0.0000000116
  9
$USRTIMER
 70
     1
  9
$ANGBASE
 50
0.0
  9
$ANGDIR
 70
     0
  9
$PDMODE
 70
     0
  9
$PDSIZE
 40
-1.0
  9
$PLINEWID
 40
0.0
  9
$SPLFRAME
 70
     0
  9
$SPLINETYPE
 70
     6
  9
$SPLINESEGS
 70
     8
  9
$HANDSEED
  5
1F0
  9
$SURFTAB1
 70
     6
  9
$SURFTAB2
 70
     6
  9
$SURFTYPE
 70
     6
  9
$SURFU
 70
     6
  9
$SURFV
 70
     6
  9
$UCSBASE
  2

  9
$UCSNAME
  2

  9
$UCSORG
 10
0.0
 20
0.0
 30
0.0
  9
$UCSXDIR
 10
1.0
 20
0.0
 30
0.0
  9
$UCSYDIR
 10
0.0
 20
1.0
 30
0.0
  9
$UCSORTHOREF
  2

  9
$UCSORTHOVIEW
 70
     0
  9
$UCSORGTOP
 10
0.0
 20
0.0
 30
0.0
  9
$UCSORGBOTTOM
 10
0.0
 20
0.0
 30
0.0
  9
$UCSORGLEFT
 10
0.0
 20
0.0
 30
0.0
  9
$UCSORGRIGHT
 10
0.0
 20
0.0
 30
0.0
  9
$UCSORGFRONT
 10
0.0
 20
0.0
 30
0.0
  9
$UCSORGBACK
 10
0.0
 20
0.0
 30
0.0
  9
$PUCSBASE
  2

  9
$PUCSNAME
  2

  9
$PUCSORG
 10
0.0
 20
0.0
 30
0.0
  9
$PUCSXDIR
 10
1.0
 20
0.0
 30
0.0
  9
$PUCSYDIR
 10
0.0
 20
1.0
 30
0.0
  9
$PUCSORTHOREF
  2

  9
$PUCSORTHOVIEW
 70
     0
  9
$PUCSORGTOP
 10
0.0
 20
0.0
 30
0.0
  9
$PUCSORGBOTTOM
 10
0.0
 20
0.0
 30
0.0
  9
$PUCSORGLEFT
 10
0.0
 20
0.0
 30
0.0
  9
$PUCSORGRIGHT
 10
0.0
 20
0.0
 30
0.0
  9
$PUCSORGFRONT
 10
0.0
 20
0.0
 30
0.0
  9
$PUCSORGBACK
 10
0.0
 20
0.0
 30
0.0
  9
$USERI1
 70
     0
  9
$USERI2
 70
     0
  9
$USERI3
 70
     0
  9
$USERI4
 70
     0
  9
$USERI5
 70
     0
  9
$USERR1
 40
0.0
  9
$USERR2
 40
0.0
  9
$USERR3
 40
0.0
  9
$USERR4
 40
0.0
  9
$USERR5
 40
0.0
  9
$WORLDVIEW
 70
     1
  9
$SHADEDGE
 70
     3
  9
$SHADEDIF
 70
    70
  9
$TILEMODE
 70
     1
  9
$MAXACTVP
 70
    64
  9
$PINSBASE
 10
0.0
 20
0.0
 30
0.0
  9
$PLIMCHECK
 70
     0
  9
$PEXTMIN
 10
1.0000000000E+20
 20
1.0000000000E+20
 30
1.0000000000E+20
  9
$PEXTMAX
 10
-1.0000000000E+20
 20
-1.0000000000E+20
 30
-1.0000000000E+20
  9
$PLIMMIN
 10
0.0
 20
0.0
  9
$PLIMMAX
 10
420.0
 20
297.0
  9
$UNITMODE
 70
     0
  9
$VISRETAIN
 70
     1
  9
$PLINEGEN
 70
     0
  9
$PSLTSCALE
 70
     1
  9
$TREEDEPTH
 70
  3020
  9
$CMLSTYLE
  2
Standard
  9
$CMLJUST
 70
     0
  9
$CMLSCALE
 40
20.0
  9
$PROXYGRAPHICS
 70
     1
  9
$MEASUREMENT
 70
     1
  9
$CELWEIGHT
370
    -1
  9
$ENDCAPS
280
     0
  9
$JOINSTYLE
280
     0
  9
$LWDISPLAY
290
     1
  9
$INSUNITS
 70
     4
  9
$HYPERLINKBASE
  1

  9
$STYLESHEET
  1

  9
$XEDIT
290
     1
  9
$CEPSNTYPE
380
     0
  9
$PSTYLEMODE
290
     1
  9
$FINGERPRINTGUID
  2
{E32C6C8E-5354-41FD-9E08-6C61155AD082}
  9
$VERSIONGUID
  2
{FAEB1C32-E019-11D5-929B-00C0DF256EC4}
  9
$EXTNAMES
290
     1
  9
$PSVPSCALE
 40
0.0
  9
$OLESTARTUP
290
     0
  0
ENDSEC
  0
SECTION
  2
CLASSES
  0
CLASS
  1
ACDBDICTIONARYWDFLT
  2
AcDbDictionaryWithDefault
  3
ObjectDBX Classes
 90
        0
280
     0
281
     0
  0
CLASS
  1
VISUALSTYLE
  2
AcDbVisualStyle
  3
ObjectDBX Classes
 90
     4095
280
     0
281
     0
  0
CLASS
  1
MATERIAL
  2
AcDbMaterial
  3
ObjectDBX Classes
 90
     1153
280
     0
281
     0
  0
CLASS
  1
ACDBPLACEHOLDER
  2
AcDbPlaceHolder
  3
ObjectDBX Classes
 90
        0
280
     0
281
     0
  0
CLASS
  1
LAYOUT
  2
AcDbLayout
  3
ObjectDBX Classes
 90
        0
280
     0
281
     0
  0
ENDSEC
  0
SECTION
  2
TABLES
  0
TABLE
  2
VPORT
  5
8
330
0
100
AcDbSymbolTable
 70
     1
  0
VPORT
  5
29
330
8
100
AcDbSymbolTableRecord
100
AcDbViewportTableRecord
  2
*Active
 70
     0
 10
0.0
 20
0.0
 11
1.0
 21
1.0
 12
698.5
 22
539.75
 13
0.0
 23
0.0
 14
10.0
 24
10.0
 15
10.0
 25
10.0
 16
0.0
 26
0.0
 36
1.0
 17
0.0
 27
0.0
 37
0.0
 40
1079.5
 41
1.2941176471
 42
50.0
 43
0.0
 44
0.0
 50
0.0
 51
0.0
 71
     0
 72
  2000
 73
     1
 74
     3
 75
     0
 76
     0
 77
     0
 78
     0
281
     0
 65
     1
110
0.0
120
0.0
130
0.0
111
1.0
121
0.0
131
0.0
112
0.0
122
1.0
132
0.0
 79
     0
146
0.0
  0
ENDTAB
  0
TABLE
  2
LTYPE
  5
5
330
0
100
AcDbSymbolTable
 70
     6
  0
LTYPE
  5
14
330
5
100
AcDbSymbolTableRecord
100
AcDbLinetypeTableRecord
  2
ByBlock
 70
     0
  3

 72
    65
 73
     0
 40
0.0
  0
LTYPE
  5
15
330
5
100
AcDbSymbolTableRecord
100
AcDbLinetypeTableRecord
  2
ByLayer
 70
     0
  3

 72
    65
 73
     0
 40
0.0
  0
LTYPE
  5
16
330
5
100
AcDbSymbolTableRecord
100
AcDbLinetypeTableRecord
  2
Continuous
 70
     0
  3
Solid line
 72
    65
 73
     0
 40
0.0
  0
LTYPE
  5
3F
330
5
100
AcDbSymbolTableRecord
100
AcDbLinetypeTableRecord
  2
HIDDEN
 70
     0
  3
Hidden __ __ __ __ __ __ __ __ __ __ __ __ __ __
 72
    65
 73
     2
 40
1.905
 49
1.27
 74
     0
 49
-0.635
 74
     0
  0
LTYPE
  5
40
330
5
100
AcDbSymbolTableRecord
100
AcDbLinetypeTableRecord
  2
PHANTOM
 70
     0
  3
Phantom ______  __  __  ______  __  __  ______
 72
    65
 73
     6
 40
12.7
 49
6.35
 74
     0
 49
-1.27
 74
     0
 49
1.27
 74
     0
 49
-1.27
 74
     0
 49
1.27
 74
     0
 49
-1.27
 74
     0
  0
LTYPE
  5
41
330
5
100
AcDbSymbolTableRecord
100
AcDbLinetypeTableRecord
  2
CENTER
 70
     0
  3
Center ____ _ ____ _ ____ _ ____ _ ____ _ ____
 72
    65
 73
     4
 40
10.16
 49
6.35
 74
     0
 49
-1.27
 74
     0
 49
1.27
 74
     0
 49
-1.27
 74
     0
  0
LTYPE
  5
42
330
5
100
AcDbSymbolTableRecord
100
AcDbLinetypeTableRecord
  2
CENTERX2
 70
     0
  3
Center (2x) ________  __  ________  __  _____
 72
    65
 73
     4
 40
20.32
 49
12.7
 74
     0
 49
-2.54
 74
     0
 49
2.54
 74
     0
 49
-2.54
 74
     0
  0
LTYPE
  5
43
330
5
100
AcDbSymbolTableRecord
100
AcDbLinetypeTableRecord
  2
DOT2
 70
     0
  3
Dot (.5x) ........................................
 72
    65
 73
     2
 40
0.635
 49
0.0
 74
     0
 49
-0.635
 74
     0
  0
ENDTAB
  0
TABLE
  2
LAYER
  5
2
330
0
100
AcDbSymbolTable
 70
     1
  0
LAYER
  5
10
330
2
100
AcDbSymbolTableRecord
100
AcDbLayerTableRecord
  2
0
 70
     0
 62
     7
  6
Continuous
370
    -3
390
F
  0
ENDTAB
  0
TABLE
  2
STYLE
  5
3
330
0
100
AcDbSymbolTable
 70
     1
  0
STYLE
  5
11
330
3
100
AcDbSymbolTableRecord
100
AcDbTextStyleTableRecord
  2
Standard
 70
     0
 40
0.0
 41
1.0
 50
0.0
 71
     0
 42
17.5
  3
txt
  4

  0
ENDTAB
  0
TABLE
  2
VIEW
  5
6
330
0
100
AcDbSymbolTable
 70
     0
  0
ENDTAB
  0
TABLE
  2
UCS
  5
7
330
0
100
AcDbSymbolTable
 70
     0
  0
ENDTAB
  0
TABLE
  2
APPID
  5
9
330
0
100
AcDbSymbolTable
 70
     1
  0
APPID
  5
12
330
9
100
AcDbSymbolTableRecord
100
AcDbRegAppTableRecord
  2
ACAD
 70
     0
  0
ENDTAB
  0
TABLE
  2
DIMSTYLE
  5
A
330
0
100
AcDbSymbolTable
 70
     1
100
AcDbDimStyleTable
  0
DIMSTYLE
105
27
330
A
100
AcDbSymbolTableRecord
100
AcDbDimStyleTableRecord
  2
ISO-25
 70
     0
 41
2.5
 42
0.625
 43
3.75
 44
1.25
 73
     0
 74
     0
 77
     1
 78
     8
140
2.5
141
2.5
143
0.0393700787
147
0.625
171
     3
172
     1
178
     0
271
     2
272
     2
274
     3
278
    44
283
     0
284
     8
340
11
  0
ENDTAB
  0
TABLE
  2
BLOCK_RECORD
  5
1
330
0
100
AcDbSymbolTable
 70
     1
  0
BLOCK_RECORD
  5
1F
330
1
100
AcDbSymbolTableRecord
100
AcDbBlockTableRecord
  2
*Model_Space
340
22
  0
BLOCK_RECORD
  5
1B
330
1
100
AcDbSymbolTableRecord
100
AcDbBlockTableRecord
  2
*Paper_Space
340
1E
  0
BLOCK_RECORD
  5
23
330
1
100
AcDbSymbolTableRecord
100
AcDbBlockTableRecord
  2
*Paper_Space0
340
26
  0
ENDTAB
  0
ENDSEC
  0
SECTION
  2
BLOCKS
  0
BLOCK
  5
20
330
1F
100
AcDbEntity
  8
0
100
AcDbBlockBegin
  2
*Model_Space
 70
     0
 10
0.0
 20
0.0
 30
0.0
  3
*Model_Space
  1

  0
ENDBLK
  5
21
330
1F
100
AcDbEntity
  8
0
100
AcDbBlockEnd
  0
BLOCK
  5
1C
330
1B
100
AcDbEntity
 67
     1
  8
0
100
AcDbBlockBegin
  2
*Paper_Space
 70
     0
 10
0.0
 20
0.0
 30
0.0
  3
*Paper_Space
  1

  0
ENDBLK
  5
1D
330
1B
100
AcDbEntity
 67
     1
  8
0
100
AcDbBlockEnd
  0
BLOCK
  5
24
330
23
100
AcDbEntity
  8
0
100
AcDbBlockBegin
  2
*Paper_Space0
 70
     0
 10
0.0
 20
0.0
 30
0.0
  3
*Paper_Space0
  1

  0
ENDBLK
  5
25
330
23
100
AcDbEntity
  8
0
100
AcDbBlockEnd
  0
ENDSEC
  0
SECTION
  2
ENTITIES
  0
LINE
  5
44
330
1F
100
AcDbEntity
  8
0
  6
Continuous
 62
     7
370
    15
100
AcDbLine
 10
804.7331229534
 20
678.2535822369
 30
0.0
 11
877.0965591754
 21
678.2535822369
 31
0.0
  0
LINE
  5
45
330
1F
100
AcDbEntity
  8
0
  6
Continuous
 62
     7
370
    15
100
AcDbLine
 10
877.0965591754
 20
757.3141879641
 30
0.0
 11
804.7331229534
 21
757.3141879641
 31
0.0
  0
SPLINE
  5
46
330
1F
100
AcDbEntity
  8
0
  6
Continuous
 62
     7
370
    15
100
AcDbSpline
210
0.0
220
0.0
230
1.0
 70
    24
 71
     3
 72
    10
 73
     6
 74
     0
 42
0.00000001
 43
0.00000001
 12
1.0
 22
0.0
 32
0.0
 13
1.0
 23
0.0
 33
0.0
 40
0.0
 40
0.0
 40
0.0
 40
0.0
 40
0.5
 40
0.5
 40
1.0
 40
1.0
 40
1.0
 40
1.0
 10
227.8975571928444
 20
692.4106373944397
 30
0.0
 10
229.1395154727075
 20
692.4106373944397
 30
0.0
 10
230.3824250667827
 20
692.4106373944397
 30
0.0
 10
232.8928433583023
 20
692.4106373944395
 30
0.0
 10
234.1470105219593
 20
692.4106373944397
 30
0.0
 10
235.4002149018045
 20
692.4106373944397
 30
0.0
  0
SPLINE
  5
47
330
1F
100
AcDbEntity
  8
0
  6
Continuous
 62
     7
370
    15
100
AcDbSpline
210
0.0
220
0.0
230
1.0
 70
    24
 71
     3
 72
    38
 73
    34
 74
     0
 42
0.00000001
 43
0.00000001
 12
1.0
 22
0.0
 32
0.0
 13
1.0
 23
0.0
 33
0.0
 40
0.0
 40
0.0
 40
0.0
 40
0.0
 40
0.1250000000000006
 40
0.1250000000000006
 40
0.1562500000000008
 40
0.1562500000000008
 40
0.1875000000000009
 40
0.1875000000000009
 40
0.2500000000000009
 40
0.2500000000000009
 40
0.375000000000001
 40
0.375000000000001
 40
0.406250000000001
 40
0.406250000000001
 40
0.437500000000001
 40
0.437500000000001
 40
0.500000000000001
 40
0.500000000000001
 40
0.6250000000000013
 40
0.6250000000000013
 40
0.6562500000000012
 40
0.6562500000000012
 40
0.6875000000000012
 40
0.6875000000000012
 40
0.7500000000000008
 40
0.7500000000000008
 40
0.8750000000000002
 40
0.8750000000000002
 40
0.9062500000000002
 40
0.9062500000000002
 40
0.9375000000000001
 40
0.9375000000000001
 40
1.0
 40
1.0
 40
1.0
 40
1.0
 10
235.4002149018045
 20
692.41063739444
 30
0.0
 10
235.4002149018045
 20
694.2112602717615
 30
0.0
 10
235.4002149018045
 20
695.9921469706209
 30
0.0
 10
235.4002149018045
 20
698.1918590084182
 30
0.0
 10
235.4002149018045
 20
698.6306230939692
 30
0.0
 10
235.4002149018045
 20
699.4974048184979
 30
0.0
 10
235.4002149018045
 20
699.9264380543528
 30
0.0
 10
235.4002149018045
 20
701.2005433220247
 30
0.0
 10
235.4002149018045
 20
702.0326430644093
 30
0.0
 10
235.4002149018045
 20
704.4768546992
 30
0.0
 10
235.4002149018045
 20
706.0372938158343
 30
0.0
 10
235.4002149018045
 20
707.8952722041157
 30
0.0
 10
235.4002149018045
 20
708.2622064406696
 30
0.0
 10
235.4002149018045
 20
708.9864505693101
 30
0.0
 10
235.4002149018045
 20
709.3442045722904
 30
0.0
 10
235.4002149018045
 20
710.3914154137719
 30
0.0
 10
235.4002149018045
 20
711.058545386082
 30
0.0
 10
235.4002149018045
 20
712.9673469289309
 30
0.0
 10
235.4002149018045
 20
714.1171991182018
 30
0.0
 10
235.4002149018045
 20
715.3918425460536
 30
0.0
 10
235.4002149018045
 20
715.638576436681
 30
0.0
 10
235.4002149018045
 20
716.1151547330884
 30
0.0
 10
235.4002149018045
 20
716.3455573193803
 30
0.0
 10
235.4002149018045
 20
717.0064082035543
 30
0.0
 10
235.4002149018045
 20
717.4042218472205
 30
0.0
 10
235.4002149018045
 20
718.4714972947702
 30
0.0
 10
235.4002149018045
 20
719.0158721695908
 30
0.0
 10
235.4002149018045
 20
719.4785813084961
 30
0.0
 10
235.4002149018045
 20
719.5601488943347
 30
0.0
 10
235.4002149018045
 20
719.700744519772
 30
0.0
 10
235.4002149018045
 20
719.7596560735592
 30
0.0
 10
235.4002149018045
 20
719.9005956638749
 30
0.0
 10
235.4002149018045
 20
719.9476096729472
 30
0.0
 10
235.4002149018045
 20
719.9476096729472
 30
0.0
  0
ARC
  5
48
330
1F
100
AcDbEntity
  8
0
  6
Continuous
 62
     7
370
    15
100
AcDbCircle
 10
440.6189325163
 20
275.2644106674
 30
0.0
 40
489.7528657774002
100
AcDbArc
 50
113.1729166935
 51
114.7730499268
  0
SPLINE
  5
49
330
1F
100
AcDbEntity
  8
0
  6
Continuous
 62
     7
370
    15
100
AcDbSpline
210
0.0
220
0.0
230
1.0
 70
    24
 71
     3
 72
    38
 73
    34
 74
     0
 42
0.00000001
 43
0.00000001
 12
1.0
 22
0.0
 32
0.0
 13
1.0
 23
0.0
 33
0.0
 40
0.0
 40
0.0
 40
0.0
 40
0.0
 40
0.1249999999999994
 40
0.1249999999999994
 40
0.1562499999999993
 40
0.1562499999999993
 40
0.1874999999999992
 40
0.1874999999999992
 40
0.2499999999999991
 40
0.2499999999999991
 40
0.3124999999999991
 40
0.3124999999999991
 40
0.3437499999999989
 40
0.3437499999999989
 40
0.3749999999999988
 40
0.3749999999999988
 40
0.4999999999999984
 40
0.4999999999999984
 40
0.5312499999999984
 40
0.5312499999999984
 40
0.5624999999999983
 40
0.5624999999999983
 40
0.6249999999999987
 40
0.6249999999999987
 40
0.7499999999999989
 40
0.7499999999999989
 40
0.781249999999999
 40
0.781249999999999
 40
0.812499999999999
 40
0.812499999999999
 40
0.8749999999999993
 40
0.8749999999999993
 40
1.0
 40
1.0
 40
1.0
 40
1.0
 10
247.8975571928444
 20
725.5047254222878
 30
0.0
 10
247.8975571928444
 20
725.5047254222878
 30
0.0
 10
247.8975571928444
 20
725.2754663832128
 30
0.0
 10
247.8975571928444
 20
724.7082949931287
 30
0.0
 10
247.8975571928444
 20
724.5806899391644
 30
0.0
 10
247.8975571928444
 20
724.2967182314778
 30
0.0
 10
247.8975571928444
 20
724.1402391836608
 30
0.0
 10
247.8975571928444
 20
723.6336642254055
 30
0.0
 10
247.8975571928444
 20
723.2448754754371
 30
0.0
 10
247.8975571928444
 20
722.3692397035662
 30
0.0
 10
247.8975571928444
 20
721.88237920137
 30
0.0
 10
247.8975571928444
 20
721.079226516603
 30
0.0
 10
247.8975571928444
 20
720.7993420853967
 30
0.0
 10
247.8975571928444
 20
720.2150782803108
 30
0.0
 10
247.8975571928444
 20
719.9103805186521
 30
0.0
 10
247.8975571928444
 20
718.3429623449402
 30
0.0
 10
247.8975571928444
 20
716.9374633313269
 30
0.0
 10
247.8975571928444
 20
715.0033611378549
 30
0.0
 10
247.8975571928444
 20
714.6075931011503
 30
0.0
 10
247.8975571928444
 20
713.7981363343974
 30
0.0
 10
247.8975571928444
 20
713.3833738892397
 30
0.0
 10
247.8975571928444
 20
712.121440744707
 30
0.0
 10
247.8975571928444
 20
711.2570725223338
 30
0.0
 10
247.8975571928444
 20
708.5982001509392
 30
0.0
 10
247.8975571928444
 20
706.7384796583939
 30
0.0
 10
247.8975571928444
 20
704.3070329260487
 30
0.0
 10
247.8975571928444
 20
703.8149072820662
 30
0.0
 10
247.8975571928444
 20
702.8267034532616
 30
0.0
 10
247.8975571928444
 20
702.3298390151499
 30
0.0
 10
247.8975571928444
 20
700.8310676299155
 30
0.0
 10
247.8975571928444
 20
699.8210003386682
 30
0.0
 10
247.8975571928444
 20
696.7583553798214
 30
0.0
 10
247.8975571928444
 20
694.7146688717422
 30
0.0
 10
247.8975571928444
 20
692.6744837177982
 30
0.0
  0
ARC
  5
4A
330
1F
100
AcDbEntity
  8
0
  6
Continuous
 62
     7
370
    15
100
AcDbCircle
 10
440.6189325163
 20
275.2644106674
 30
0.0
 40
459.7528657774002
100
AcDbArc
 50
114.7831260181
 51
120.0609004734
  0
ARC
  5
4B
330
1F
100
AcDbEntity
  8
0
  6
Continuous
 62
     7
370
    15
100
AcDbCircle
 10
440.6189325163
 20
275.2644106674
 30
0.0
 40
489.7528657774002
100
AcDbArc
 50
115.7435792633
 51
125.6613163808
  0
SPLINE
  5
4C
330
1F
100
AcDbEntity
  8
0
  6
Continuous
 62
     7
370
    15
100
AcDbSpline
210
0.0
220
0.0
230
1.0
 70
    24
 71
     3
 72
    32
 73
    28
 74
     0
 42
0.00000001
 43
0.00000001
 12
1.0
 22
0.0
 32
0.0
 13
1.0
 23
0.0
 33
0.0
 40
0.0
 40
0.0
 40
0.0
 40
0.0
 40
0.1249999999999998
 40
0.1249999999999998
 40
0.1874999999999997
 40
0.1874999999999997
 40
0.2187499999999996
 40
0.2187499999999996
 40
0.2499999999999994
 40
0.2499999999999994
 40
0.3749999999999993
 40
0.3749999999999993
 40
0.4374999999999992
 40
0.4374999999999992
 40
0.499999999999999
 40
0.499999999999999
 40
0.624999999999999
 40
0.624999999999999
 40
0.687499999999999
 40
0.687499999999999
 40
0.7499999999999992
 40
0.7499999999999992
 40
0.8749999999999998
 40
0.8749999999999998
 40
0.9374999999999999
 40
0.9374999999999999
 40
1.0
 40
1.0
 40
1.0
 40
1.0
 10
227.8975571928444
 20
716.4077955408932
 30
0.0
 10
227.8975571928444
 20
716.4077955408932
 30
0.0
 10
227.8975571928444
 20
716.2510843697578
 30
0.0
 10
227.8975571928444
 20
715.7883776393385
 30
0.0
 10
227.8975571928444
 20
715.5959949503388
 30
0.0
 10
227.8975571928444
 20
715.2492834774274
 30
0.0
 10
227.8975571928444
 20
715.1236549056501
 30
0.0
 10
227.8975571928444
 20
714.8551355507067
 30
0.0
 10
227.8975571928444
 20
714.712178046115
 30
0.0
 10
227.8975571928444
 20
713.9549684722342
 30
0.0
 10
227.8975571928444
 20
713.2143351909046
 30
0.0
 10
227.8975571928444
 20
711.9101792542779
 30
0.0
 10
227.8975571928444
 20
711.4429681523204
 30
0.0
 10
227.8975571928444
 20
710.4437917884812
 30
0.0
 10
227.8975571928444
 20
709.9184182198867
 30
0.0
 10
227.8975571928444
 20
708.2689794077999
 30
0.0
 10
227.8975571928444
 20
707.0720349062209
 30
0.0
 10
227.8975571928444
 20
705.137392184208
 30
0.0
 10
227.8975571928444
 20
704.4669431676879
 30
0.0
 10
227.8975571928444
 20
703.0899751352994
 30
0.0
 10
227.8975571928444
 20
702.3864391125871
 30
0.0
 10
227.8975571928444
 20
700.2327924850929
 30
0.0
 10
227.8975571928444
 20
698.7398814309533
 30
0.0
 10
227.8975571928444
 20
696.4182768226483
 30
0.0
 10
227.8975571928444
 20
695.6303051890742
 30
0.0
 10
227.8975571928444
 20
694.0280440174511
 30
0.0
 10
227.8975571928444
 20
693.2217937953178
 30
0.0
 10
227.8975571928444
 20
692.4106373944397
 30
0.0
  0
SPLINE
  5
4D
330
1F
100
AcDbEntity
  8
0
  6
Continuous
 62
     7
370
    15
100
AcDbSpline
210
0.0
220
0.0
230
1.0
 70
    24
 71
     3
 72
    42
 73
    38
 74
     0
 42
0.00000001
 43
0.00000001
 12
1.0
 22
0.0
 32
0.0
 13
1.0
 23
0.0
 33
0.0
 40
0.0
 40
0.0
 40
0.0
 40
0.0
 40
0.1250000000000003
 40
0.1250000000000003
 40
0.2500000000000006
 40
0.2500000000000006
 40
0.3750000000000008
 40
0.3750000000000008
 40
0.437500000000001
 40
0.437500000000001
 40
0.5000000000000011
 40
0.5000000000000011
 40
0.5625000000000011
 40
0.5625000000000011
 40
0.5937500000000011
 40
0.5937500000000011
 40
0.6250000000000011
 40
0.6250000000000011
 40
0.687500000000001
 40
0.687500000000001
 40
0.7500000000000009
 40
0.7500000000000009
 40
0.7812500000000009
 40
0.7812500000000009
 40
0.8125000000000009
 40
0.8125000000000009
 40
0.8750000000000009
 40
0.8750000000000009
 40
0.8906250000000008
 40
0.8906250000000008
 40
0.9062500000000006
 40
0.9062500000000006
 40
0.9375000000000004
 40
0.9375000000000004
 40
0.9687500000000002
 40
0.9687500000000002
 40
1.0
 40
1.0
 40
1.0
 40
1.0
 10
210.3194222995278
 20
673.1775081955153
 30
0.0
 10
207.4523579084007
 20
673.1775081955153
 30
0.0
 10
204.6005470447269
 20
673.1775081955153
 30
0.0
 10
198.9298988192387
 20
673.1775081955153
 30
0.0
 10
196.1110320105163
 20
673.1775081955153
 30
0.0
 10
190.5108995618785
 20
673.1775081955153
 30
0.0
 10
187.7295576556769
 20
673.1775081955153
 30
0.0
 10
183.5919378927057
 20
673.1775081955153
 30
0.0
 10
182.2184973593407
 20
673.1775081955153
 30
0.0
 10
179.4848281436833
 20
673.1775081955153
 30
0.0
 10
178.1306807665335
 20
673.1775081955153
 30
0.0
 10
175.4678376088047
 20
673.1775081955153
 30
0.0
 10
174.1566845076498
 20
673.1775081955153
 30
0.0
 10
172.2250124171162
 20
673.1775081955153
 30
0.0
 10
171.5869816033322
 20
673.1775081955153
 30
0.0
 10
170.3236812682177
 20
673.1775081955153
 30
0.0
 10
169.6975839643378
 20
673.1775081955153
 30
0.0
 10
167.8535900790179
 20
673.1775081955153
 30
0.0
 10
166.6661202710922
 20
673.1775081955153
 30
0.0
 10
164.389086702167
 20
673.1775081955153
 30
0.0
 10
163.2993418074387
 20
673.1775081955153
 30
0.0
 10
161.7550306279569
 20
673.1775081955153
 30
0.0
 10
161.2537114904358
 20
673.1775081955153
 30
0.0
 10
160.2941774543535
 20
673.1775081955153
 30
0.0
 10
159.837168340723
 20
673.1775081955153
 30
0.0
 10
158.5401220307527
 20
673.1775081955153
 30
0.0
 10
157.7731460846119
 20
673.1775081955153
 30
0.0
 10
156.9660661026083
 20
673.1775081955153
 30
0.0
 10
156.8122416413638
 20
673.1775081955153
 30
0.0
 10
156.5240314546618
 20
673.1775081955153
 30
0.0
 10
156.3891885225458
 20
673.1775081955153
 30
0.0
 10
156.013062122768
 20
673.1775081955153
 30
0.0
 10
155.8001282277879
 20
673.1775081955153
 30
0.0
 10
155.4543224975721
 20
673.1775081955153
 30
0.0
 10
155.3214323108081
 20
673.1775081955153
 30
0.0
 10
155.1420208973454
 20
673.1775081955153
 30
0.0
 10
155.0965404824536
 20
673.1775081955153
 30
0.0
 10
155.0965404824536
 20
673.1775081955153
 30
0.0
  0
ARC
  5
4E
330
1F
100
AcDbEntity
  8
0
  6
Continuous
 62
     7
370
    15
100
AcDbCircle
 10
440.6189325163
 20
275.2644106674
 30
0.0
 40
489.7528657774002
100
AcDbArc
 50
110.6507404912
 51
112.2214959721
  0
SPLINE
  5
4F
330
1F
100
AcDbEntity
  8
0
  6
Continuous
 62
     7
370
    15
100
AcDbSpline
210
0.0
220
0.0
230
1.0
 70
    24
 71
     3
 72
    36
 73
    32
 74
     0
 42
0.00000001
 43
0.00000001
 12
1.0
 22
0.0
 32
0.0
 13
1.0
 23
0.0
 33
0.0
 40
0.0
 40
0.0
 40
0.0
 40
0.0
 40
0.0624999999999999
 40
0.0624999999999999
 40
0.0937499999999999
 40
0.0937499999999999
 40
0.1249999999999999
 40
0.1249999999999999
 40
0.2499999999999998
 40
0.2499999999999998
 40
0.2812499999999997
 40
0.2812499999999997
 40
0.3124999999999996
 40
0.3124999999999996
 40
0.3749999999999994
 40
0.3749999999999994
 40
0.4999999999999989
 40
0.4999999999999989
 40
0.6249999999999987
 40
0.6249999999999987
 40
0.6874999999999988
 40
0.6874999999999988
 40
0.7187499999999988
 40
0.7187499999999988
 40
0.7499999999999989
 40
0.7499999999999989
 40
0.8749999999999994
 40
0.8749999999999994
 40
0.9374999999999997
 40
0.9374999999999997
 40
1.0
 40
1.0
 40
1.0
 40
1.0
 10
267.8975571928444
 20
733.5494704757228
 30
0.0
 10
267.8975571928444
 20
733.5494704757228
 30
0.0
 10
267.8975571928444
 20
733.4947668548433
 30
0.0
 10
267.8975571928444
 20
733.3298526450812
 30
0.0
 10
267.8975571928444
 20
733.261045002787
 30
0.0
 10
267.8975571928444
 20
733.0952912803019
 30
0.0
 10
267.8975571928444
 20
732.9980234260948
 30
0.0
 10
267.8975571928444
 20
732.44665922813
 30
0.0
 10
267.8975571928444
 20
731.7974509715107
 30
0.0
 10
267.8975571928444
 20
730.7369325448992
 30
0.0
 10
267.8975571928444
 20
730.5122549087221
 30
0.0
 10
267.8975571928444
 20
730.0375433126944
 30
0.0
 10
267.8975571928444
 20
729.7867497000901
 30
0.0
 10
267.8975571928444
 20
729.0020426499013
 30
0.0
 10
267.8975571928444
 20
728.4369636045944
 30
0.0
 10
267.8975571928444
 20
726.6217398077993
 30
0.0
 10
267.8975571928444
 20
725.2527057284374
 30
0.0
 10
267.8975571928444
 20
722.1986338938887
 30
0.0
 10
267.8975571928444
 20
720.5597247457495
 30
0.0
 10
267.8975571928444
 20
717.9497249835694
 30
0.0
 10
267.8975571928444
 20
717.0540379399165
 30
0.0
 10
267.8975571928444
 20
715.6718475145875
 30
0.0
 10
267.8975571928444
 20
715.2035024777365
 30
0.0
 10
267.8975571928444
 20
714.2603356254766
 30
0.0
 10
267.8975571928444
 20
713.7857462562328
 30
0.0
 10
267.8975571928444
 20
711.3981415679139
 30
0.0
 10
267.8975571928444
 20
709.4415430270169
 30
0.0
 10
267.8975571928444
 20
706.4390388397022
 30
0.0
 10
267.8975571928444
 20
705.4248693324514
 30
0.0
 10
267.8975571928444
 20
703.3819421703287
 30
0.0
 10
267.8975571928444
 20
702.3606578577777
 30
0.0
 10
267.8975571928444
 20
701.3395496943988
 30
0.0
  0
ARC
  5
50
330
1F
100
AcDbEntity
  8
0
  6
Continuous
 62
     7
370
    15
100
AcDbCircle
 10
440.6189325163
 20
275.2644106674
 30
0.0
 40
459.7528657774003
100
AcDbArc
 50
112.0665379982
 51
113.7574577259
  0
SPLINE
  5
51
330
1F
100
AcDbEntity
  8
0
  6
Continuous
 62
     7
370
    15
100
AcDbSpline
210
0.0
220
0.0
230
1.0
 70
    24
 71
     3
 72
    38
 73
    34
 74
     0
 42
0.00000001
 43
0.00000001
 12
1.0
 22
0.0
 32
0.0
 13
1.0
 23
0.0
 33
0.0
 40
0.0
 40
0.0
 40
0.0
 40
0.0
 40
0.0624999999999994
 40
0.0624999999999994
 40
0.1249999999999988
 40
0.1249999999999988
 40
0.2499999999999978
 40
0.2499999999999978
 40
0.3124999999999973
 40
0.3124999999999973
 40
0.3749999999999969
 40
0.3749999999999969
 40
0.499999999999996
 40
0.499999999999996
 40
0.5312499999999962
 40
0.5312499999999962
 40
0.5624999999999964
 40
0.5624999999999964
 40
0.624999999999997
 40
0.624999999999997
 40
0.6874999999999974
 40
0.6874999999999974
 40
0.7187499999999978
 40
0.7187499999999978
 40
0.749999999999998
 40
0.749999999999998
 40
0.874999999999999
 40
0.874999999999999
 40
0.9374999999999994
 40
0.9374999999999994
 40
0.9687499999999998
 40
0.9687499999999998
 40
1.0
 40
1.0
 40
1.0
 40
1.0
 10
255.4002149018045
 20
696.0573814211242
 30
0.0
 10
255.4002149018045
 20
697.0883288701783
 30
0.0
 10
255.4002149018045
 20
698.1252467680537
 30
0.0
 10
255.4002149018045
 20
700.1752150236512
 30
0.0
 10
255.4002149018045
 20
701.190388978996
 30
0.0
 10
255.4002149018045
 20
704.2068896923782
 30
0.0
 10
255.4002149018045
 20
706.1794627769524
 30
0.0
 10
255.4002149018045
 20
709.0776553611713
 30
0.0
 10
255.4002149018045
 20
710.0359021891554
 30
0.0
 10
255.4002149018045
 20
711.8921394559239
 30
0.0
 10
255.4002149018045
 20
712.7949289066779
 30
0.0
 10
255.4002149018045
 20
715.4273694964413
 30
0.0
 10
255.4002149018045
 20
717.0818942543865
 30
0.0
 10
255.4002149018045
 20
719.0137841981261
 30
0.0
 10
255.4002149018045
 20
719.3940534823522
 30
0.0
 10
255.4002149018045
 20
720.131868692694
 30
0.0
 10
255.4002149018045
 20
720.4903756648196
 30
0.0
 10
255.4002149018045
 20
721.5349438519208
 30
0.0
 10
255.4002149018045
 20
722.1901270301142
 30
0.0
 10
255.4002149018045
 20
723.4176265444074
 30
0.0
 10
255.4002149018045
 20
723.9899517788008
 30
0.0
 10
255.4002149018045
 20
724.7840633560191
 30
0.0
 10
255.4002149018045
 20
725.0380175773762
 30
0.0
 10
255.4002149018045
 20
725.5237836857938
 30
0.0
 10
255.4002149018045
 20
725.7562982294224
 30
0.0
 10
255.4002149018045
 20
726.8510180364816
 30
0.0
 10
255.4002149018045
 20
727.5124543859071
 30
0.0
 10
255.4002149018045
 20
728.1854481514669
 30
0.0
 10
255.4002149018045
 20
728.3561870911234
 30
0.0
 10
255.4002149018045
 20
728.5282990651954
 30
0.0
 10
255.4002149018045
 20
728.5714570602697
 30
0.0
 10
255.4002149018045
 20
728.6285668469311
 30
0.0
 10
255.4002149018045
 20
728.6427253036276
 30
0.0
 10
255.4002149018045
 20
728.6427253036276
 30
0.0
  0
ARC
  5
52
330
1F
100
AcDbEntity
  8
0
  6
Continuous
 62
     7
370
    15
100
AcDbCircle
 10
440.6189325163
 20
275.2644106674
 30
0.0
 40
489.7528657774002
100
AcDbArc
 50
108.1697635915
 51
109.7155768666
  0
SPLINE
  5
53
330
1F
100
AcDbEntity
  8
0
  6
Continuous
 62
     7
370
    15
100
AcDbSpline
210
0.0
220
0.0
230
1.0
 70
    24
 71
     3
 72
    36
 73
    32
 74
     0
 42
0.00000001
 43
0.00000001
 12
1.0
 22
0.0
 32
0.0
 13
1.0
 23
0.0
 33
0.0
 40
0.0
 40
0.0
 40
0.0
 40
0.0
 40
0.0312499999999999
 40
0.0312499999999999
 40
0.0624999999999998
 40
0.0624999999999998
 40
0.1249999999999996
 40
0.1249999999999996
 40
0.1874999999999993
 40
0.1874999999999993
 40
0.2499999999999991
 40
0.2499999999999991
 40
0.3749999999999989
 40
0.3749999999999989
 40
0.4374999999999987
 40
0.4374999999999987
 40
0.4687499999999987
 40
0.4687499999999987
 40
0.4999999999999987
 40
0.4999999999999987
 40
0.624999999999999
 40
0.624999999999999
 40
0.6874999999999992
 40
0.6874999999999992
 40
0.7499999999999994
 40
0.7499999999999994
 40
0.8124999999999997
 40
0.8124999999999997
 40
0.8749999999999999
 40
0.8749999999999999
 40
1.0
 40
1.0
 40
1.0
 40
1.0
 10
287.8975571928444
 20
740.5966049721306
 30
0.0
 10
287.8975571928444
 20
740.5966049721306
 30
0.0
 10
287.8975571928444
 20
740.583236336551
 30
0.0
 10
287.8975571928444
 20
740.5292635604843
 30
0.0
 10
287.8975571928444
 20
740.4884630899898
 30
0.0
 10
287.8975571928444
 20
740.3262290065306
 30
0.0
 10
287.8975571928444
 20
740.1651653964593
 30
0.0
 10
287.8975571928444
 20
739.7407117349067
 30
0.0
 10
287.8975571928444
 20
739.4773119280202
 30
0.0
 10
287.8975571928444
 20
738.8484502664564
 30
0.0
 10
287.8975571928444
 20
738.4823663893129
 30
0.0
 10
287.8975571928444
 20
737.2306444375037
 30
0.0
 10
287.8975571928444
 20
736.2175010939225
 30
0.0
 10
287.8975571928444
 20
734.4456164699196
 30
0.0
 10
287.8975571928444
 20
733.8126236696862
 30
0.0
 10
287.8975571928444
 20
732.7986834840125
 30
0.0
 10
287.8975571928444
 20
732.4500189941544
 30
0.0
 10
287.8975571928444
 20
731.7388385233035
 30
0.0
 10
287.8975571928444
 20
731.3754157278933
 30
0.0
 10
287.8975571928444
 20
729.5200318229931
 30
0.0
 10
287.8975571928444
 20
727.9143311619648
 30
0.0
 10
287.8975571928444
 20
725.3273081734648
 30
0.0
 10
287.8975571928444
 20
724.4318641819939
 30
0.0
 10
287.8975571928444
 20
722.6160264845167
 30
0.0
 10
287.8975571928444
 20
721.6919679919378
 30
0.0
 10
287.8975571928444
 20
719.8125543396599
 30
0.0
 10
287.8975571928444
 20
718.8571967285292
 30
0.0
 10
287.8975571928444
 20
716.9152864290121
 30
0.0
 10
287.8975571928444
 20
715.9270712729461
 30
0.0
 10
287.8975571928444
 20
712.9249914276
 30
0.0
 10
287.8975571928444
 20
710.919617215143
 30
0.0
 10
287.8975571928444
 20
708.910440408033
 30
0.0
  0
ARC
  5
54
330
1F
100
AcDbEntity
  8
0
  6
Continuous
 62
     7
370
    15
100
AcDbCircle
 10
440.6189325163
 20
275.2644106674
 30
0.0
 40
459.7528657774002
100
AcDbArc
 50
109.4012344509
 51
111.0611540831
  0
SPLINE
  5
55
330
1F
100
AcDbEntity
  8
0
  6
Continuous
 62
     7
370
    15
100
AcDbSpline
210
0.0
220
0.0
230
1.0
 70
    24
 71
     3
 72
    42
 73
    38
 74
     0
 42
0.00000001
 43
0.00000001
 12
1.0
 22
0.0
 32
0.0
 13
1.0
 23
0.0
 33
0.0
 40
0.0
 40
0.0
 40
0.0
 40
0.0
 40
0.0625
 40
0.0625
 40
0.0937500000000003
 40
0.0937500000000003
 40
0.1250000000000005
 40
0.1250000000000005
 40
0.2500000000000014
 40
0.2500000000000014
 40
0.3125000000000019
 40
0.3125000000000019
 40
0.3437500000000023
 40
0.3437500000000023
 40
0.3750000000000026
 40
0.3750000000000026
 40
0.5000000000000031
 40
0.5000000000000031
 40
0.5312500000000032
 40
0.5312500000000032
 40
0.5625000000000033
 40
0.5625000000000033
 40
0.6250000000000029
 40
0.6250000000000029
 40
0.7500000000000014
 40
0.7500000000000014
 40
0.7812500000000011
 40
0.7812500000000011
 40
0.8125000000000008
 40
0.8125000000000008
 40
0.8750000000000006
 40
0.8750000000000006
 40
0.9375000000000003
 40
0.9375000000000003
 40
0.9687500000000002
 40
0.9687500000000002
 40
1.0
 40
1.0
 40
1.0
 40
1.0
 10
275.4002149018045
 20
704.3045870382425
 30
0.0
 10
275.4002149018045
 20
705.3158838908532
 30
0.0
 10
275.4002149018045
 20
706.3295033550669
 30
0.0
 10
275.4002149018045
 20
707.8535231399577
 30
0.0
 10
275.4002149018045
 20
708.3633988869603
 30
0.0
 10
275.4002149018045
 20
709.3758176401169
 30
0.0
 10
275.4002149018045
 20
709.8787444630668
 30
0.0
 10
275.4002149018045
 20
712.3771875699892
 30
0.0
 10
275.4002149018045
 20
714.3245626908474
 30
0.0
 10
275.4002149018045
 20
717.1675500168705
 30
0.0
 10
275.4002149018045
 20
718.1021170300046
 30
0.0
 10
275.4002149018045
 20
719.4833631891538
 30
0.0
 10
275.4002149018045
 20
719.9393907345617
 30
0.0
 10
275.4002149018045
 20
720.8346907575477
 30
0.0
 10
275.4002149018045
 20
721.2751264486146
 30
0.0
 10
275.4002149018045
 20
723.4415252208281
 30
0.0
 10
275.4002149018045
 20
725.0611649391076
 30
0.0
 10
275.4002149018045
 20
726.9384841838793
 30
0.0
 10
275.4002149018045
 20
727.3065214628584
 30
0.0
 10
275.4002149018045
 20
728.0273294723958
 30
0.0
 10
275.4002149018045
 20
728.3811315461725
 30
0.0
 10
275.4002149018045
 20
729.4098373093452
 30
0.0
 10
275.4002149018045
 20
730.0518983180148
 30
0.0
 10
275.4002149018045
 20
731.8489949364445
 30
0.0
 10
275.4002149018045
 20
732.8762952121147
 30
0.0
 10
275.4002149018045
 20
733.9346282345567
 30
0.0
 10
275.4002149018045
 20
734.135467158396
 30
0.0
 10
275.4002149018045
 20
734.5104085679958
 30
0.0
 10
275.4002149018045
 20
734.6844161651503
 30
0.0
 10
275.4002149018045
 20
735.1666834513237
 30
0.0
 10
275.4002149018045
 20
735.4352875249527
 30
0.0
 10
275.4002149018045
 20
735.8675631633226
 30
0.0
 10
275.4002149018045
 20
736.0312387771311
 30
0.0
 10
275.4002149018045
 20
736.1962705090401
 30
0.0
 10
275.4002149018045
 20
736.2378417787364
 30
0.0
 10
275.4002149018045
 20
736.2934752369047
 30
0.0
 10
275.4002149018045
 20
736.3074074550807
 30
0.0
 10
275.4002149018045
 20
736.3074074550807
 30
0.0
  0
ARC
  5
56
330
1F
100
AcDbEntity
  8
0
  6
Continuous
 62
     7
370
    15
100
AcDbCircle
 10
440.6189325163
 20
275.2644106674
 30
0.0
 40
489.7528657774002
100
AcDbArc
 50
105.723580641
 51
107.2483623705
  0
SPLINE
  5
57
330
1F
100
AcDbEntity
  8
0
  6
Continuous
 62
     7
370
    15
100
AcDbSpline
210
0.0
220
0.0
230
1.0
 70
    24
 71
     3
 72
    36
 73
    32
 74
     0
 42
0.00000001
 43
0.00000001
 12
1.0
 22
0.0
 32
0.0
 13
1.0
 23
0.0
 33
0.0
 40
0.0
 40
0.0
 40
0.0
 40
0.0
 40
0.1250000000000011
 40
0.1250000000000011
 40
0.1562500000000015
 40
0.1562500000000015
 40
0.1875000000000019
 40
0.1875000000000019
 40
0.2500000000000025
 40
0.2500000000000025
 40
0.3125000000000032
 40
0.3125000000000032
 40
0.3437500000000033
 40
0.3437500000000033
 40
0.3750000000000034
 40
0.3750000000000034
 40
0.5000000000000041
 40
0.5000000000000041
 40
0.5625000000000042
 40
0.5625000000000042
 40
0.593750000000004
 40
0.593750000000004
 40
0.6250000000000039
 40
0.6250000000000039
 40
0.7500000000000027
 40
0.7500000000000027
 40
0.812500000000002
 40
0.812500000000002
 40
0.8750000000000013
 40
0.8750000000000013
 40
1.0
 40
1.0
 40
1.0
 40
1.0
 10
307.8975571928444
 20
746.6908694808541
 30
0.0
 10
307.8975571928444
 20
746.6908694808541
 30
0.0
 10
307.8975571928444
 20
746.4839541315474
 30
0.0
 10
307.8975571928444
 20
745.967348746258
 30
0.0
 10
307.8975571928444
 20
745.8510082677708
 30
0.0
 10
307.8975571928444
 20
745.5918061681946
 30
0.0
 10
307.8975571928444
 20
745.4492122507681
 30
0.0
 10
307.8975571928444
 20
744.9867395113488
 30
0.0
 10
307.8975571928444
 20
744.6309820329618
 30
0.0
 10
307.8975571928444
 20
743.8273926949869
 30
0.0
 10
307.8975571928444
 20
743.379553664518
 30
0.0
 10
307.8975571928444
 20
742.6387415900383
 30
0.0
 10
307.8975571928444
 20
742.3802742900372
 30
0.0
 10
307.8975571928444
 20
741.8400244242446
 30
0.0
 10
307.8975571928444
 20
741.5574084508713
 30
0.0
 10
307.8975571928444
 20
740.0967697109276
 30
0.0
 10
307.8975571928444
 20
738.780809850696
 30
0.0
 10
307.8975571928444
 20
736.59689583606
 30
0.0
 10
307.8975571928444
 20
735.8336616229768
 30
0.0
 10
307.8975571928444
 20
734.6349850572321
 30
0.0
 10
307.8975571928443
 20
734.2266978555903
 30
0.0
 10
307.8975571928444
 20
733.4008590116405
 30
0.0
 10
307.8975571928444
 20
732.9822640430924
 30
0.0
 10
307.8975571928444
 20
730.8614961868168
 30
0.0
 10
307.8975571928444
 20
729.0767116608215
 30
0.0
 10
307.8975571928444
 20
726.2688972376819
 30
0.0
 10
307.8975571928444
 20
725.3064961968205
 30
0.0
 10
307.8975571928444
 20
723.3724399989942
 30
0.0
 10
307.8975571928444
 20
722.3981442193096
 30
0.0
 10
307.8975571928444
 20
719.4540560767272
 30
0.0
 10
307.8975571928444
 20
717.4632564849759
 30
0.0
 10
307.8975571928444
 20
715.4436174942919
 30
0.0
  0
ARC
  5
58
330
1F
100
AcDbEntity
  8
0
  6
Continuous
 62
     7
370
    15
100
AcDbCircle
 10
440.6189325163
 20
275.2644106674
 30
0.0
 40
459.7528657774002
100
AcDbArc
 50
106.7789353745
 51
108.4128936608
  0
SPLINE
  5
59
330
1F
100
AcDbEntity
  8
0
  6
Continuous
 62
     7
370
    15
100
AcDbSpline
210
0.0
220
0.0
230
1.0
 70
    24
 71
     3
 72
    34
 73
    30
 74
     0
 42
0.00000001
 43
0.00000001
 12
1.0
 22
0.0
 32
0.0
 13
1.0
 23
0.0
 33
0.0
 40
0.0
 40
0.0
 40
0.0
 40
0.0
 40
0.1249999999999994
 40
0.1249999999999994
 40
0.1562499999999993
 40
0.1562499999999993
 40
0.1874999999999992
 40
0.1874999999999992
 40
0.249999999999999
 40
0.249999999999999
 40
0.3749999999999983
 40
0.3749999999999983
 40
0.4999999999999976
 40
0.4999999999999976
 40
0.5624999999999971
 40
0.5624999999999971
 40
0.5937499999999971
 40
0.5937499999999971
 40
0.624999999999997
 40
0.624999999999997
 40
0.7499999999999976
 40
0.7499999999999976
 40
0.8124999999999979
 40
0.8124999999999979
 40
0.8437499999999983
 40
0.8437499999999983
 40
0.8749999999999987
 40
0.8749999999999987
 40
1.0
 40
1.0
 40
1.0
 40
1.0
 10
295.4002149018045
 20
711.4802077734917
 30
0.0
 10
295.4002149018045
 20
713.4868026003533
 30
0.0
 10
295.4002149018045
 20
715.4858853870732
 30
0.0
 10
295.4002149018044
 20
717.9750041899032
 30
0.0
 10
295.4002149018045
 20
718.4736183677777
 30
0.0
 10
295.4002149018045
 20
719.4612383769588
 30
0.0
 10
295.4002149018045
 20
719.9506249678044
 30
0.0
 10
295.4002149018045
 20
721.405698899541
 30
0.0
 10
295.4002149018044
 20
722.358329764474
 30
0.0
 10
295.4002149018045
 20
725.1643442596238
 30
0.0
 10
295.4002149018044
 20
726.9663771597926
 30
0.0
 10
295.4002149018045
 20
730.4233439721912
 30
0.0
 10
295.4002149018045
 20
732.0224284559401
 30
0.0
 10
295.4002149018045
 20
734.2244076001075
 30
0.0
 10
295.4002149018045
 20
734.9257534806399
 30
0.0
 10
295.4002149018045
 20
735.9271522950274
 30
0.0
 10
295.4002149018045
 20
736.2524998494422
 30
0.0
 10
295.4002149018045
 20
736.8858125046875
 30
0.0
 10
295.4002149018045
 20
737.1934096072348
 30
0.0
 10
295.4002149018045
 20
738.6693136955944
 30
0.0
 10
295.4002149018045
 20
739.6683519312744
 30
0.0
 10
295.4002149018045
 20
740.8944018943782
 30
0.0
 10
295.4002149018045
 20
741.2573455780777
 30
0.0
 10
295.4002149018045
 20
741.7299687088308
 30
0.0
 10
295.4002149018045
 20
741.8749113557961
 30
0.0
 10
295.4002149018045
 20
742.1374636820528
 30
0.0
 10
295.4002149018045
 20
742.2554737373948
 30
0.0
 10
295.4002149018044
 20
742.7800752284326
 30
0.0
 10
295.4002149018045
 20
742.9923161760886
 30
0.0
 10
295.4002149018045
 20
742.9923161760886
 30
0.0
  0
ARC
  5
5A
330
1F
100
AcDbEntity
  8
0
  6
Continuous
 62
     7
370
    15
100
AcDbCircle
 10
440.6189325163
 20
275.2644106674
 30
0.0
 40
489.7528657774002
100
AcDbArc
 50
103.3064744527
 51
104.8137253488
  0
SPLINE
  5
5B
330
1F
100
AcDbEntity
  8
0
  6
Continuous
 62
     7
370
    15
100
AcDbSpline
210
0.0
220
0.0
230
1.0
 70
    24
 71
     3
 72
    36
 73
    32
 74
     0
 42
0.00000001
 43
0.00000001
 12
1.0
 22
0.0
 32
0.0
 13
1.0
 23
0.0
 33
0.0
 40
0.0
 40
0.0
 40
0.0
 40
0.0
 40
0.0624999999999998
 40
0.0624999999999998
 40
0.1249999999999996
 40
0.1249999999999996
 40
0.1874999999999994
 40
0.1874999999999994
 40
0.2187499999999993
 40
0.2187499999999993
 40
0.2499999999999992
 40
0.2499999999999992
 40
0.3749999999999989
 40
0.3749999999999989
 40
0.4374999999999987
 40
0.4374999999999987
 40
0.4999999999999984
 40
0.4999999999999984
 40
0.6249999999999986
 40
0.6249999999999986
 40
0.6874999999999988
 40
0.6874999999999988
 40
0.7499999999999993
 40
0.7499999999999993
 40
0.8125
 40
0.8125
 40
0.8437500000000001
 40
0.8437500000000001
 40
0.8750000000000002
 40
0.8750000000000002
 40
1.0
 40
1.0
 40
1.0
 40
1.0
 10
327.8975571928444
 20
751.8688179931518
 30
0.0
 10
327.8975571928444
 20
751.8688179931518
 30
0.0
 10
327.8975571928444
 20
751.8167791100129
 30
0.0
 10
327.8975571928444
 20
751.6116857765763
 30
0.0
 10
327.8975571928444
 20
751.4589963577683
 30
0.0
 10
327.8975571928444
 20
751.0554341844977
 30
0.0
 10
327.8975571928444
 20
750.8045582495782
 30
0.0
 10
327.8975571928444
 20
750.3539728761409
 30
0.0
 10
327.8975571928444
 20
750.191376643621
 30
0.0
 10
327.8975571928444
 20
749.8409953359584
 30
0.0
 10
327.8975571928444
 20
749.6527103130293
 30
0.0
 10
327.8975571928444
 20
748.6579867529729
 30
0.0
 10
327.8975571928444
 20
747.6883624894238
 30
0.0
 10
327.8975571928444
 20
745.9829282800259
 30
0.0
 10
327.8975571928444
 20
745.3723044644992
 30
0.0
 10
327.8975571928444
 20
744.0646381085811
 30
0.0
 10
327.8975571928444
 20
743.3757372378458
 30
0.0
 10
327.8975571928444
 20
741.2194833337159
 30
0.0
 10
327.8975571928444
 20
739.6585225445225
 30
0.0
 10
327.8975571928444
 20
737.1322360665655
 30
0.0
 10
327.8975571928444
 20
736.2565830844418
 30
0.0
 10
327.8975571928443
 20
734.4793446790754
 30
0.0
 10
327.8975571928444
 20
733.5736705934391
 30
0.0
 10
327.8975571928444
 20
731.7290445362769
 30
0.0
 10
327.8975571928444
 20
730.7900909114998
 30
0.0
 10
327.8975571928444
 20
729.3566149613305
 30
0.0
 10
327.8975571928444
 20
728.8746082100037
 30
0.0
 10
327.8975571928443
 20
727.9021289877435
 30
0.0
 10
327.8975571928444
 20
727.4104413089741
 30
0.0
 10
327.8975571928444
 20
724.9461301913218
 30
0.0
 10
327.8975571928444
 20
722.9684269939817
 30
0.0
 10
327.8975571928444
 20
720.9847143733107
 30
0.0
  0
ARC
  5
5C
330
1F
100
AcDbEntity
  8
0
  6
Continuous
 62
     7
370
    15
100
AcDbCircle
 10
440.6189325163
 20
275.2644106674
 30
0.0
 40
459.7528657774002
100
AcDbArc
 50
104.1923644245
 51
105.8048043045
  0
SPLINE
  5
5D
330
1F
100
AcDbEntity
  8
0
  6
Continuous
 62
     7
370
    15
100
AcDbSpline
210
0.0
220
0.0
230
1.0
 70
    24
 71
     3
 72
    36
 73
    32
 74
     0
 42
0.00000001
 43
0.00000001
 12
1.0
 22
0.0
 32
0.0
 13
1.0
 23
0.0
 33
0.0
 40
0.0
 40
0.0
 40
0.0
 40
0.0
 40
0.0312499999999999
 40
0.0312499999999999
 40
0.0624999999999998
 40
0.0624999999999998
 40
0.125
 40
0.125
 40
0.1875000000000002
 40
0.1875000000000002
 40
0.2187500000000002
 40
0.2187500000000002
 40
0.2500000000000001
 40
0.2500000000000001
 40
0.3750000000000001
 40
0.3750000000000001
 40
0.4375000000000001
 40
0.4375000000000001
 40
0.5
 40
0.5
 40
0.6249999999999999
 40
0.6249999999999999
 40
0.6874999999999998
 40
0.6874999999999998
 40
0.7499999999999997
 40
0.7499999999999997
 40
0.8749999999999997
 40
0.8749999999999997
 40
0.9374999999999998
 40
0.9374999999999998
 40
1.0
 40
1.0
 40
1.0
 40
1.0
 10
315.4002149018045
 20
717.6363925440579
 30
0.0
 10
315.4002149018045
 20
718.139345304276
 30
0.0
 10
315.4002149018045
 20
718.6448802381638
 30
0.0
 10
315.4002149018045
 20
719.6492587322846
 30
0.0
 10
315.4002149018045
 20
720.1491973821725
 30
0.0
 10
315.4002149018045
 20
721.6423656169158
 30
0.0
 10
315.4002149018045
 20
722.6289625113446
 30
0.0
 10
315.4002149018045
 20
724.5846370176212
 30
0.0
 10
315.4002149018045
 20
725.5537149008777
 30
0.0
 10
315.4002149018045
 20
726.9939607651866
 30
0.0
 10
315.4002149018045
 20
727.4718104217569
 30
0.0
 10
315.4002149018044
 20
728.4229579978947
 30
0.0
 10
315.4002149018045
 20
728.8974537099218
 30
0.0
 10
315.4002149018045
 20
731.242793530372
 30
0.0
 10
315.4002149018044
 20
733.0209687435521
 30
0.0
 10
315.4002149018045
 20
735.5439305802336
 30
0.0
 10
315.4002149018045
 20
736.3607013444155
 30
0.0
 10
315.4002149018045
 20
737.9442023742205
 30
0.0
 10
315.4002149018045
 20
738.7138449324698
 30
0.0
 10
315.4002149018045
 20
740.8964374149921
 30
0.0
 10
315.4002149018045
 20
742.1992129400221
 30
0.0
 10
315.4002149018045
 20
743.9238918627594
 30
0.0
 10
315.4002149018045
 20
744.4602743590607
 30
0.0
 10
315.4002149018045
 20
745.4523410358589
 30
0.0
 10
315.4002149018045
 20
745.8996993087741
 30
0.0
 10
315.4002149018045
 20
747.0972258086174
 30
0.0
 10
315.4002149018045
 20
747.7055581471931
 30
0.0
 10
315.4002149018045
 20
748.324646928822
 30
0.0
 10
315.4002149018045
 20
748.4813835541964
 30
0.0
 10
315.4002149018044
 20
748.6877904027323
 30
0.0
 10
315.4002149018044
 20
748.7389530623675
 30
0.0
 10
315.4002149018045
 20
748.7389530623675
 30
0.0
  0
ARC
  5
5E
330
1F
100
AcDbEntity
  8
0
  6
Continuous
 62
     7
370
    15
100
AcDbCircle
 10
440.6189325163
 20
275.2644106674
 30
0.0
 40
489.7528657774002
100
AcDbArc
 50
100.9132652108
 51
102.4061660155
  0
SPLINE
  5
5F
330
1F
100
AcDbEntity
  8
0
  6
Continuous
 62
     7
370
    15
100
AcDbSpline
210
0.0
220
0.0
230
1.0
 70
    24
 71
     3
 72
    37
 73
    33
 74
     0
 42
0.00000001
 43
0.00000001
 12
1.0
 22
0.0
 32
0.0
 13
1.0
 23
0.0
 33
0.0
 40
0.0
 40
0.0
 40
0.0
 40
0.0
 40
0.0312499999999998
 40
0.0312499999999998
 40
0.0624999999999995
 40
0.0624999999999995
 40
0.1249999999999989
 40
0.1249999999999989
 40
0.2499999999999979
 40
0.2499999999999979
 40
0.2812499999999981
 40
0.2812499999999981
 40
0.3124999999999982
 40
0.3124999999999982
 40
0.3749999999999985
 40
0.4374999999999988
 40
0.4374999999999988
 40
0.4999999999999993
 40
0.4999999999999993
 40
0.6249999999999997
 40
0.6249999999999997
 40
0.6875000000000001
 40
0.6875000000000001
 40
0.7500000000000004
 40
0.7500000000000004
 40
0.8750000000000008
 40
0.8750000000000008
 40
0.9062500000000006
 40
0.9062500000000006
 40
0.9375000000000002
 40
0.9375000000000002
 40
1.0
 40
1.0
 40
1.0
 40
1.0
 10
347.8975571928444
 20
756.1600501727597
 30
0.0
 10
347.8975571928444
 20
756.1600501727597
 30
0.0
 10
347.8975571928444
 20
756.1475786109933
 30
0.0
 10
347.8975571928444
 20
756.0972655919052
 30
0.0
 10
347.8975571928444
 20
756.0592503283913
 30
0.0
 10
347.8975571928444
 20
755.9077483277734
 30
0.0
 10
347.8975571928444
 20
755.7572286495332
 30
0.0
 10
347.8975571928444
 20
755.1617792552673
 30
0.0
 10
347.8975571928444
 20
754.5743488487072
 30
0.0
 10
347.8975571928444
 20
753.5959741339095
 30
0.0
 10
347.8975571928444
 20
753.387895218442
 30
0.0
 10
347.8975571928444
 20
752.9518258285531
 30
0.0
 10
347.8975571928444
 20
752.7232976038391
 30
0.0
 10
347.8975571928444
 20
752.0068085606043
 30
0.0
 10
347.8975571928444
 20
750.9692253684578
 30
0.0
 10
347.8975571928444
 20
749.7695269418805
 30
0.0
 10
347.8975571928444
 20
748.4876124648018
 30
0.0
 10
347.8975571928444
 20
747.802073976504
 30
0.0
 10
347.8975571928444
 20
745.6625451075661
 30
0.0
 10
347.8975571928444
 20
744.1177413933777
 30
0.0
 10
347.8975571928444
 20
741.6269689751497
 30
0.0
 10
347.8975571928444
 20
740.7653607151489
 30
0.0
 10
347.8975571928444
 20
738.9915610116387
 30
0.0
 10
347.8975571928444
 20
738.0891699556158
 30
0.0
 10
347.8975571928444
 20
735.3371930267024
 30
0.0
 10
347.8975571928444
 20
733.4432117300986
 30
0.0
 10
347.8975571928443
 20
731.0006466816862
 30
0.0
 10
347.8975571928444
 20
730.5070684571385
 30
0.0
 10
347.8975571928444
 20
729.5189618914163
 30
0.0
 10
347.8975571928444
 20
729.0250525799935
 30
0.0
 10
347.8975571928444
 20
727.5437480350186
 30
0.0
 10
347.8975571928444
 20
726.5567752097882
 30
0.0
 10
347.8975571928444
 20
725.5703557187919
 30
0.0
  0
ARC
  5
60
330
1F
100
AcDbEntity
  8
0
  6
Continuous
 62
     7
370
    15
100
AcDbCircle
 10
440.6189325163
 20
275.2644106674
 30
0.0
 40
459.7528657774003
100
AcDbArc
 50
101.6350167043
 51
103.2299230965
  0
SPLINE
  5
61
330
1F
100
AcDbEntity
  8
0
  6
Continuous
 62
     7
370
    15
100
AcDbSpline
210
0.0
220
0.0
230
1.0
 70
    24
 71
     3
 72
    38
 73
    34
 74
     0
 42
0.00000001
 43
0.00000001
 12
1.0
 22
0.0
 32
0.0
 13
1.0
 23
0.0
 33
0.0
 40
0.0
 40
0.0
 40
0.0
 40
0.0
 40
0.1249999999999998
 40
0.1249999999999998
 40
0.1562499999999997
 40
0.1562499999999997
 40
0.1874999999999997
 40
0.1874999999999997
 40
0.2499999999999996
 40
0.2499999999999996
 40
0.3749999999999989
 40
0.3749999999999989
 40
0.4062499999999989
 40
0.4062499999999989
 40
0.4374999999999989
 40
0.4374999999999989
 40
0.4999999999999993
 40
0.4999999999999993
 40
0.5624999999999998
 40
0.5624999999999998
 40
0.5937499999999999
 40
0.5937499999999999
 40
0.6250000000000001
 40
0.6250000000000001
 40
0.7500000000000008
 40
0.7500000000000008
 40
0.812500000000001
 40
0.812500000000001
 40
0.8437500000000009
 40
0.8437500000000009
 40
0.8750000000000007
 40
0.8750000000000007
 40
1.0
 40
1.0
 40
1.0
 40
1.0
 10
335.4002149018045
 20
722.8152111963025
 30
0.0
 10
335.4002149018044
 20
724.8042219193086
 30
0.0
 10
335.4002149018044
 20
726.7756773523031
 30
0.0
 10
335.4002149018045
 20
729.2179475399013
 30
0.0
 10
335.4002149018045
 20
729.7052895097697
 30
0.0
 10
335.4002149018044
 20
730.6777069146615
 30
0.0
 10
335.4002149018044
 20
731.1639856280456
 30
0.0
 10
335.4002149018045
 20
732.6055087750215
 30
0.0
 10
335.4002149018045
 20
733.5461993592842
 30
0.0
 10
335.4002149018045
 20
736.3087518573169
 30
0.0
 10
335.4002149018044
 20
738.0716615783186
 30
0.0
 10
335.4002149018044
 20
740.1731309200993
 30
0.0
 10
335.4002149018045
 20
740.5893994100479
 30
0.0
 10
335.4002149018045
 20
741.4051309286186
 30
0.0
 10
335.4002149018045
 20
741.8042775293354
 30
0.0
 10
335.4002149018045
 20
742.975978973094
 30
0.0
 10
335.4002149018045
 20
743.7228558003145
 30
0.0
 10
335.4002149018045
 20
745.1488143561219
 30
0.0
 10
335.4002149018045
 20
745.8278973924812
 30
0.0
 10
335.4002149018044
 20
746.7947479066404
 30
0.0
 10
335.4002149018044
 20
747.1083870854586
 30
0.0
 10
335.4002149018045
 20
747.7180259206496
 30
0.0
 10
335.4002149018045
 20
748.0147998857232
 30
0.0
 10
335.4002149018045
 20
749.443254854422
 30
0.0
 10
335.4002149018045
 20
750.4037886888073
 30
0.0
 10
335.4002149018045
 20
751.5778244908045
 30
0.0
 10
335.4002149018045
 20
751.9243855617465
 30
0.0
 10
335.4002149018045
 20
752.3748585533103
 30
0.0
 10
335.4002149018045
 20
752.5137665936776
 30
0.0
 10
335.4002149018044
 20
752.765440882005
 30
0.0
 10
335.4002149018044
 20
752.8784149800059
 30
0.0
 10
335.4002149018045
 20
753.380105689265
 30
0.0
 10
335.4002149018045
 20
753.5811373252741
 30
0.0
 10
335.4002149018045
 20
753.5811373252741
 30
0.0
  0
ARC
  5
62
330
1F
100
AcDbEntity
  8
0
  6
Continuous
 62
     7
370
    15
100
AcDbCircle
 10
440.6189325163
 20
275.2644106674
 30
0.0
 40
489.7528657774002
100
AcDbArc
 50
98.5391901026
 51
100.0206737647
  0
SPLINE
  5
63
330
1F
100
AcDbEntity
  8
0
  6
Continuous
 62
     7
370
    15
100
AcDbSpline
210
0.0
220
0.0
230
1.0
 70
    24
 71
     3
 72
    38
 73
    34
 74
     0
 42
0.00000001
 43
0.00000001
 12
1.0
 22
0.0
 32
0.0
 13
1.0
 23
0.0
 33
0.0
 40
0.0
 40
0.0
 40
0.0
 40
0.0
 40
0.0624999999999998
 40
0.0624999999999998
 40
0.1249999999999994
 40
0.1249999999999994
 40
0.2499999999999987
 40
0.2499999999999987
 40
0.3124999999999983
 40
0.3124999999999983
 40
0.3749999999999979
 40
0.3749999999999979
 40
0.4374999999999976
 40
0.4374999999999976
 40
0.4687499999999976
 40
0.4687499999999976
 40
0.4999999999999976
 40
0.4999999999999976
 40
0.6249999999999997
 40
0.6249999999999997
 40
0.6875000000000003
 40
0.6875000000000003
 40
0.7187500000000008
 40
0.7187500000000008
 40
0.7500000000000012
 40
0.7500000000000012
 40
0.875
 40
0.875
 40
0.9062499999999999
 40
0.9062499999999999
 40
0.9374999999999998
 40
0.9374999999999998
 40
1.0
 40
1.0
 40
1.0
 40
1.0
 10
367.8975571928444
 20
759.5881361942493
 30
0.0
 10
367.8975571928444
 20
759.5881361942493
 30
0.0
 10
367.8975571928443
 20
759.5392380808639
 30
0.0
 10
367.8975571928444
 20
759.3402102077807
 30
0.0
 10
367.8975571928443
 20
759.1913863148845
 30
0.0
 10
367.8975571928444
 20
758.6036398419611
 30
0.0
 10
367.8975571928444
 20
758.0242602047015
 30
0.0
 10
367.8975571928444
 20
756.8703211450912
 30
0.0
 10
367.8975571928444
 20
756.4361128481929
 30
0.0
 10
367.8975571928444
 20
755.4904359982922
 30
0.0
 10
367.8975571928444
 20
754.9771782226776
 30
0.0
 10
367.8975571928444
 20
753.871488395629
 30
0.0
 10
367.8975571928444
 20
753.2790538598563
 30
0.0
 10
367.8975571928444
 20
752.3305338284943
 30
0.0
 10
367.8975571928444
 20
752.0043647512837
 30
0.0
 10
367.8975571928443
 20
751.331733468237
 30
0.0
 10
367.8975571928443
 20
750.9842835955549
 30
0.0
 10
367.8975571928444
 20
749.2116915855818
 30
0.0
 10
367.8975571928443
 20
747.6780148147718
 30
0.0
 10
367.8975571928444
 20
745.2102850364006
 30
0.0
 10
367.8975571928444
 20
744.3596357833096
 30
0.0
 10
367.8975571928444
 20
743.040486758813
 30
0.0
 10
367.8975571928443
 20
742.5928645816447
 30
0.0
 10
367.8975571928444
 20
741.6926704008897
 30
0.0
 10
367.8975571928443
 20
741.2390243033483
 30
0.0
 10
367.8975571928444
 20
738.9533713127283
 30
0.0
 10
367.8975571928443
 20
737.0695865808684
 30
0.0
 10
367.8975571928444
 20
734.6458852151621
 30
0.0
 10
367.8975571928444
 20
734.1576658430005
 30
0.0
 10
367.8975571928444
 20
733.1741457501713
 30
0.0
 10
367.8975571928444
 20
732.6787494302287
 30
0.0
 10
367.8975571928444
 20
731.1980460357206
 30
0.0
 10
367.8975571928443
 20
730.2128343147259
 30
0.0
 10
367.8975571928444
 20
729.2294965072309
 30
0.0
  0
ARC
  5
64
330
1F
100
AcDbEntity
  8
0
  6
Continuous
 62
     7
370
    15
100
AcDbCircle
 10
440.6189325163
 20
275.2644106674
 30
0.0
 40
459.7528657774003
100
AcDbArc
 50
99.1009782236
 51
100.681985747
  0
SPLINE
  5
65
330
1F
100
AcDbEntity
  8
0
  6
Continuous
 62
     7
370
    15
100
AcDbSpline
210
0.0
220
0.0
230
1.0
 70
    24
 71
     3
 72
    30
 73
    26
 74
     0
 42
0.00000001
 43
0.00000001
 12
1.0
 22
0.0
 32
0.0
 13
1.0
 23
0.0
 33
0.0
 40
0.0
 40
0.0
 40
0.0
 40
0.0
 40
0.1249999999999997
 40
0.1249999999999997
 40
0.1874999999999994
 40
0.1874999999999994
 40
0.2499999999999991
 40
0.2499999999999991
 40
0.3749999999999992
 40
0.3749999999999992
 40
0.4374999999999993
 40
0.4374999999999993
 40
0.4999999999999993
 40
0.4999999999999993
 40
0.5624999999999994
 40
0.5624999999999994
 40
0.6249999999999993
 40
0.6249999999999993
 40
0.7499999999999993
 40
0.7499999999999993
 40
0.8124999999999996
 40
0.8124999999999996
 40
0.8749999999999998
 40
0.8749999999999998
 40
1.0
 40
1.0
 40
1.0
 40
1.0
 10
355.4002149018044
 20
727.0502756063564
 30
0.0
 10
355.4002149018045
 20
729.0266565071573
 30
0.0
 10
355.4002149018044
 20
730.9894761882779
 30
0.0
 10
355.4002149018044
 20
733.9130277731291
 30
0.0
 10
355.4002149018044
 20
734.888272448903
 30
0.0
 10
355.4002149018045
 20
736.7925983158169
 30
0.0
 10
355.4002149018044
 20
737.7255254481099
 30
0.0
 10
355.4002149018044
 20
740.4676476635466
 30
0.0
 10
355.4002149018044
 20
742.220743869414
 30
0.0
 10
355.4002149018044
 20
744.7322568894471
 30
0.0
 10
355.4002149018044
 20
745.5377996945583
 30
0.0
 10
355.4002149018044
 20
747.0805262031109
 30
0.0
 10
355.4002149018044
 20
747.8188916325965
 30
0.0
 10
355.4002149018046
 20
749.2298701386427
 30
0.0
 10
355.4002149018044
 20
749.9024866592299
 30
0.0
 10
355.4002149018046
 20
751.1803024406563
 30
0.0
 10
355.4002149018044
 20
751.7879978661399
 30
0.0
 10
355.4002149018046
 20
753.4704706890944
 30
0.0
 10
355.4002149018044
 20
754.416777044848
 30
0.0
 10
355.4002149018045
 20
755.5752795915873
 30
0.0
 10
355.4002149018044
 20
755.917891096419
 30
0.0
 10
355.4002149018044
 20
756.510917984098
 30
0.0
 10
355.4002149018044
 20
756.7567429038735
 30
0.0
 10
355.4002149018046
 20
757.347161478313
 30
0.0
 10
355.4002149018045
 20
757.5461122747519
 30
0.0
 10
355.4002149018044
 20
757.5461122747519
 30
0.0
  0
ARC
  5
66
330
1F
100
AcDbEntity
  8
0
  6
Continuous
 62
     7
370
    15
100
AcDbCircle
 10
440.6189325163
 20
275.2644106674
 30
0.0
 40
489.7528657774003
100
AcDbArc
 50
96.17980474
 51
97.6526158368
  0
SPLINE
  5
67
330
1F
100
AcDbEntity
  8
0
  6
Continuous
 62
     7
370
    15
100
AcDbSpline
210
0.0
220
0.0
230
1.0
 70
    24
 71
     3
 72
    34
 73
    30
 74
     0
 42
0.00000001
 43
0.00000001
 12
1.0
 22
0.0
 32
0.0
 13
1.0
 23
0.0
 33
0.0
 40
0.0
 40
0.0
 40
0.0
 40
0.0
 40
0.0625000000000006
 40
0.0625000000000006
 40
0.0937500000000007
 40
0.0937500000000007
 40
0.1250000000000009
 40
0.1250000000000009
 40
0.2500000000000013
 40
0.2500000000000013
 40
0.3125000000000013
 40
0.3125000000000013
 40
0.3750000000000014
 40
0.3750000000000014
 40
0.5000000000000016
 40
0.5000000000000016
 40
0.6250000000000017
 40
0.6250000000000017
 40
0.6875000000000012
 40
0.6875000000000012
 40
0.7500000000000008
 40
0.7500000000000008
 40
0.8750000000000007
 40
0.8750000000000007
 40
0.9062500000000003
 40
0.9062500000000003
 40
0.9375000000000001
 40
0.9375000000000001
 40
1.0
 40
1.0
 40
1.0
 40
1.0
 10
387.8975571928444
 20
762.1713074363253
 30
0.0
 10
387.8975571928445
 20
762.1713074363253
 30
0.0
 10
387.8975571928445
 20
762.1230178011491
 30
0.0
 10
387.8975571928445
 20
761.9759346332688
 30
0.0
 10
387.8975571928444
 20
761.9143201533592
 30
0.0
 10
387.8975571928443
 20
761.7675087947572
 30
0.0
 10
387.8975571928445
 20
761.6822007240575
 30
0.0
 10
387.8975571928443
 20
761.1971526685537
 30
0.0
 10
387.8975571928443
 20
760.6235668695391
 30
0.0
 10
387.8975571928443
 20
759.4835033690226
 30
0.0
 10
387.8975571928444
 20
759.05376488467
 30
0.0
 10
387.8975571928443
 20
758.1151371405732
 30
0.0
 10
387.8975571928443
 20
757.6058618456146
 30
0.0
 10
387.8975571928443
 20
755.9610671016923
 30
0.0
 10
387.8975571928444
 20
754.709720592045
 30
0.0
 10
387.8975571928443
 20
751.88547499848
 30
0.0
 10
387.8975571928444
 20
750.3595017618272
 30
0.0
 10
387.8975571928443
 20
747.9073198489837
 30
0.0
 10
387.8975571928445
 20
747.0625152655244
 30
0.0
 10
387.8975571928443
 20
745.3169281159896
 30
0.0
 10
387.8975571928443
 20
744.4134575782199
 30
0.0
 10
387.8975571928444
 20
741.6765121983411
 30
0.0
 10
387.8975571928443
 20
739.799292126299
 30
0.0
 10
387.8975571928445
 20
737.387742245783
 30
0.0
 10
387.8975571928445
 20
736.9021519273595
 30
0.0
 10
387.8975571928445
 20
735.9243098092662
 30
0.0
 10
387.8975571928443
 20
735.430758874692
 30
0.0
 10
387.8975571928444
 20
733.9501059886045
 30
0.0
 10
387.8975571928443
 20
732.9658686336286
 30
0.0
 10
387.8975571928444
 20
731.9844060414836
 30
0.0
  0
ARC
  5
68
330
1F
100
AcDbEntity
  8
0
  6
Continuous
 62
     7
370
    15
100
AcDbCircle
 10
440.6189325163
 20
275.2644106674
 30
0.0
 40
459.7528657774003
100
AcDbArc
 50
96.5847814845
 51
98.1552611279
  0
SPLINE
  5
69
330
1F
100
AcDbEntity
  8
0
  6
Continuous
 62
     7
370
    15
100
AcDbSpline
210
0.0
220
0.0
230
1.0
 70
    24
 71
     3
 72
    37
 73
    33
 74
     0
 42
0.00000001
 43
0.00000001
 12
1.0
 22
0.0
 32
0.0
 13
1.0
 23
0.0
 33
0.0
 40
0.0
 40
0.0
 40
0.0
 40
0.0
 40
0.1250000000000019
 40
0.1250000000000019
 40
0.1562500000000022
 40
0.1562500000000022
 40
0.1875000000000025
 40
0.1875000000000025
 40
0.2500000000000023
 40
0.3125000000000022
 40
0.3125000000000022
 40
0.3437500000000019
 40
0.3437500000000019
 40
0.3750000000000017
 40
0.3750000000000017
 40
0.5000000000000012
 40
0.5000000000000012
 40
0.5625000000000008
 40
0.5625000000000008
 40
0.5937500000000009
 40
0.5937500000000009
 40
0.6250000000000009
 40
0.6250000000000009
 40
0.7500000000000011
 40
0.7500000000000011
 40
0.7812500000000011
 40
0.7812500000000011
 40
0.812500000000001
 40
0.812500000000001
 40
0.8750000000000007
 40
0.8750000000000007
 40
1.0
 40
1.0
 40
1.0
 40
1.0
 10
375.4002149018045
 20
730.3679334654778
 30
0.0
 10
375.4002149018045
 20
732.33580201474
 30
0.0
 10
375.4002149018045
 20
734.2921380706802
 30
0.0
 10
375.4002149018045
 20
736.7228170591769
 30
0.0
 10
375.4002149018045
 20
737.2094564494317
 30
0.0
 10
375.4002149018045
 20
738.1747778167143
 30
0.0
 10
375.4002149018045
 20
738.65266289553
 30
0.0
 10
375.4002149018045
 20
740.0722564525763
 30
0.0
 10
375.4002149018045
 20
741.9276161833
 30
0.0
 10
375.4002149018045
 20
743.7092646659834
 30
0.0
 10
375.4002149018045
 20
745.0174973125523
 30
0.0
 10
375.4002149018045
 20
745.4488993774837
 30
0.0
 10
375.4002149018045
 20
746.3021886627623
 30
0.0
 10
375.4002149018045
 20
746.725197249149
 30
0.0
 10
375.4002149018045
 20
748.8008383054909
 30
0.0
 10
375.4002149018045
 20
750.3291595673988
 30
0.0
 10
375.4002149018045
 20
752.4290784314929
 30
0.0
 10
375.4002149018045
 20
753.0967259202812
 30
0.0
 10
375.4002149018045
 20
754.0482949293217
 30
0.0
 10
375.4002149018045
 20
754.3579888842148
 30
0.0
 10
375.4002149018045
 20
754.9552699795552
 30
0.0
 10
375.4002149018045
 20
755.2429078919748
 30
0.0
 10
375.4002149018045
 20
756.6270663597887
 30
0.0
 10
375.4002149018045
 20
757.5630415750476
 30
0.0
 10
375.4002149018045
 20
758.5185973023611
 30
0.0
 10
375.4002149018045
 20
758.698890957898
 30
0.0
 10
375.4002149018045
 20
759.0374378728513
 30
0.0
 10
375.4002149018045
 20
759.1960180349975
 30
0.0
 10
375.4002149018045
 20
759.6335542471536
 30
0.0
 10
375.4002149018045
 20
759.8757792569394
 30
0.0
 10
375.4002149018045
 20
760.4581430902525
 30
0.0
 10
375.4002149018045
 20
760.6553751587699
 30
0.0
 10
375.4002149018045
 20
760.6553751587699
 30
0.0
  0
ARC
  5
6A
330
1F
100
AcDbEntity
  8
0
  6
Continuous
 62
     7
370
    15
100
AcDbCircle
 10
440.6189325163
 20
275.2644106674
 30
0.0
 40
489.7528657774002
100
AcDbArc
 50
93.8309001266
 51
95.2976452049
  0
SPLINE
  5
6B
330
1F
100
AcDbEntity
  8
0
  6
Continuous
 62
     7
370
    15
100
AcDbSpline
210
0.0
220
0.0
230
1.0
 70
    24
 71
     3
 72
    38
 73
    34
 74
     0
 42
0.00000001
 43
0.00000001
 12
1.0
 22
0.0
 32
0.0
 13
1.0
 23
0.0
 33
0.0
 40
0.0
 40
0.0
 40
0.0
 40
0.0
 40
0.0624999999999996
 40
0.0624999999999996
 40
0.0937499999999993
 40
0.0937499999999993
 40
0.124999999999999
 40
0.124999999999999
 40
0.2499999999999987
 40
0.2499999999999987
 40
0.2812499999999987
 40
0.2812499999999987
 40
0.3124999999999987
 40
0.3124999999999987
 40
0.3749999999999988
 40
0.3749999999999988
 40
0.4999999999999989
 40
0.4999999999999989
 40
0.5312499999999988
 40
0.5312499999999988
 40
0.5624999999999987
 40
0.5624999999999987
 40
0.6249999999999989
 40
0.6249999999999989
 40
0.687499999999999
 40
0.687499999999999
 40
0.7499999999999992
 40
0.7499999999999992
 40
0.8749999999999997
 40
0.8749999999999997
 40
0.9374999999999998
 40
0.9374999999999998
 40
1.0
 40
1.0
 40
1.0
 40
1.0
 10
407.8975571928444
 20
763.9229633747918
 30
0.0
 10
407.8975571928444
 20
763.9229633747918
 30
0.0
 10
407.8975571928444
 20
763.8750638987524
 30
0.0
 10
407.8975571928444
 20
763.7293555143129
 30
0.0
 10
407.8975571928444
 20
763.6682354704114
 30
0.0
 10
407.8975571928443
 20
763.5223940299979
 30
0.0
 10
407.8975571928445
 20
763.4376414128511
 30
0.0
 10
407.8975571928444
 20
762.9557783452904
 30
0.0
 10
407.8975571928445
 20
762.3860256717911
 30
0.0
 10
407.8975571928444
 20
761.4433802132621
 30
0.0
 10
407.8975571928444
 20
761.2432247488433
 30
0.0
 10
407.8975571928445
 20
760.8192303303217
 30
0.0
 10
407.8975571928444
 20
760.5951381124047
 30
0.0
 10
407.8975571928443
 20
759.8947192630649
 30
0.0
 10
407.8975571928443
 20
759.3880888518167
 30
0.0
 10
407.8975571928444
 20
757.7522958099195
 30
0.0
 10
407.8975571928443
 20
756.5083504988863
 30
0.0
 10
407.8975571928445
 20
754.7551607329668
 30
0.0
 10
407.8975571928445
 20
754.3951125536146
 30
0.0
 10
407.8975571928444
 20
753.6629121557376
 30
0.0
 10
407.8975571928445
 20
753.2898626598376
 30
0.0
 10
407.8975571928444
 20
752.1501980921237
 30
0.0
 10
407.8975571928443
 20
751.3631151539503
 30
0.0
 10
407.8975571928445
 20
749.7348950690762
 30
0.0
 10
407.8975571928444
 20
748.8937589816511
 30
0.0
 10
407.8975571928443
 20
747.156427881607
 30
0.0
 10
407.8975571928444
 20
746.2555613411882
 30
0.0
 10
407.8975571928443
 20
743.522272299612
 30
0.0
 10
407.8975571928444
 20
741.6491005997543
 30
0.0
 10
407.8975571928445
 20
738.7641333283276
 30
0.0
 10
407.8975571928444
 20
737.7896241674163
 30
0.0
 10
407.8975571928443
 20
735.8153805581013
 30
0.0
 10
407.8975571928444
 20
734.8317133330951
 30
0.0
 10
407.8975571928444
 20
733.8513808131303
 30
0.0
  0
ARC
  5
6C
330
1F
100
AcDbEntity
  8
0
  6
Continuous
 62
     7
370
    15
100
AcDbCircle
 10
440.6189325163
 20
275.2644106674
 30
0.0
 40
459.7528657774002
100
AcDbArc
 50
94.0812863428
 51
95.6444174227
  0
SPLINE
  5
6D
330
1F
100
AcDbEntity
  8
0
  6
Continuous
 62
     7
370
    15
100
AcDbSpline
210
0.0
220
0.0
230
1.0
 70
    24
 71
     3
 72
    37
 73
    33
 74
     0
 42
0.00000001
 43
0.00000001
 12
1.0
 22
0.0
 32
0.0
 13
1.0
 23
0.0
 33
0.0
 40
0.0
 40
0.0
 40
0.0
 40
0.0
 40
0.125000000000002
 40
0.125000000000002
 40
0.1562500000000021
 40
0.1562500000000021
 40
0.1875000000000021
 40
0.1875000000000021
 40
0.2500000000000024
 40
0.3125000000000026
 40
0.3125000000000026
 40
0.3437500000000023
 40
0.3437500000000023
 40
0.3750000000000021
 40
0.3750000000000021
 40
0.5000000000000012
 40
0.5000000000000012
 40
0.5625000000000009
 40
0.5625000000000009
 40
0.593750000000001
 40
0.593750000000001
 40
0.625000000000001
 40
0.625000000000001
 40
0.7500000000000011
 40
0.7500000000000011
 40
0.7812500000000012
 40
0.7812500000000012
 40
0.8125000000000013
 40
0.8125000000000013
 40
0.8750000000000009
 40
0.8750000000000009
 40
1.0
 40
1.0
 40
1.0
 40
1.0
 10
395.4002149018045
 20
732.7881424757074
 30
0.0
 10
395.4002149018045
 20
734.7501780010228
 30
0.0
 10
395.4002149018045
 20
736.7018503198361
 30
0.0
 10
395.4002149018045
 20
739.1281486608196
 30
0.0
 10
395.4002149018045
 20
739.6140054088825
 30
0.0
 10
395.4002149018045
 20
740.5751532557524
 30
0.0
 10
395.4002149018045
 20
741.0510278919764
 30
0.0
 10
395.4002149018045
 20
742.4648044065322
 30
0.0
 10
395.4002149018045
 20
744.3129784094699
 30
0.0
 10
395.4002149018045
 20
746.0884532130383
 30
0.0
 10
395.4002149018045
 20
747.392393791312
 30
0.0
 10
395.4002149018045
 20
747.8224215825264
 30
0.0
 10
395.4002149018045
 20
748.6730684792756
 30
0.0
 10
395.4002149018045
 20
749.0945701170893
 30
0.0
 10
395.4002149018045
 20
751.1565046573012
 30
0.0
 10
395.4002149018045
 20
752.6757153000905
 30
0.0
 10
395.4002149018046
 20
754.7638979594489
 30
0.0
 10
395.4002149018045
 20
755.4279588776134
 30
0.0
 10
395.4002149018045
 20
756.3745459925015
 30
0.0
 10
395.4002149018045
 20
756.6821144591844
 30
0.0
 10
395.4002149018046
 20
757.2738547521973
 30
0.0
 10
395.4002149018045
 20
757.5588978208533
 30
0.0
 10
395.4002149018045
 20
758.930868818784
 30
0.0
 10
395.4002149018044
 20
759.8595871962306
 30
0.0
 10
395.4002149018045
 20
760.8080702624904
 30
0.0
 10
395.4002149018045
 20
760.9870505154989
 30
0.0
 10
395.4002149018045
 20
761.3231478045822
 30
0.0
 10
395.4002149018045
 20
761.4800520903509
 30
0.0
 10
395.4002149018045
 20
761.9127293192081
 30
0.0
 10
395.4002149018045
 20
762.1525037784926
 30
0.0
 10
395.4002149018045
 20
762.729333600577
 30
0.0
 10
395.4002149018045
 20
762.9252939812474
 30
0.0
 10
395.4002149018045
 20
762.9252939812474
 30
0.0
  0
LINE
  5
6E
330
1F
100
AcDbEntity
  8
0
  6
Continuous
 62
     7
370
    15
100
AcDbLine
 10
668.8053861942
 20
764.1775063478
 30
0.0
 11
698.8053873863
 21
764.1775063478
 31
0.0
  0
ARC
  5
6F
330
1F
100
AcDbEntity
  8
0
  6
Continuous
 62
     7
370
    15
100
AcDbCircle
 10
698.8053811078
 20
734.1775081955
 30
0.0
 40
30.0
100
AcDbArc
 50
0.0
 51
90.0
  0
LINE
  5
70
330
1F
100
AcDbEntity
  8
0
  6
Continuous
 62
     7
370
    15
100
AcDbLine
 10
728.8053885784
 20
734.177508881
 30
0.0
 11
668.8053861942
 21
734.177508881
 31
0.0
  0
LINE
  5
71
330
1F
100
AcDbEntity
  8
0
  6
Continuous
 62
     7
370
    15
100
AcDbLine
 10
668.8053861942
 20
764.1775063478
 30
0.0
 11
668.8053861942
 21
734.177508881
 31
0.0
  0
LINE
  5
72
330
1F
100
AcDbEntity
  8
0
  6
Continuous
 62
     7
370
    15
100
AcDbLine
 10
247.8975572373
 20
692.4106381141
 30
0.0
 11
255.4002136673
 21
692.4106381141
 31
0.0
  0
LINE
  5
73
330
1F
100
AcDbEntity
  8
0
  6
Continuous
 62
     7
370
    15
100
AcDbLine
 10
267.8975567903
 20
692.4106381141
 30
0.0
 11
275.4002169456
 21
692.4106381141
 31
0.0
  0
LINE
  5
74
330
1F
100
AcDbEntity
  8
0
  6
Continuous
 62
     7
370
    15
100
AcDbLine
 10
287.8975600685
 20
692.4106381141
 30
0.0
 11
295.4002127733
 21
692.4106381141
 31
0.0
  0
LINE
  5
75
330
1F
100
AcDbEntity
  8
0
  6
Continuous
 62
     7
370
    15
100
AcDbLine
 10
415.4002175416
 20
692.4106381141
 30
0.0
 11
415.4002175416
 21
734.177508881
 31
0.0
  0
LINE
  5
76
330
1F
100
AcDbEntity
  8
0
  6
Continuous
 62
     7
370
    15
100
AcDbLine
 10
427.897553214
 20
734.177508881
 30
0.0
 11
415.4002175416
 21
734.177508881
 31
0.0
  0
LINE
  5
77
330
1F
100
AcDbEntity
  8
0
  6
Continuous
 62
     7
370
    15
100
AcDbLine
 10
427.897553214
 20
734.177508881
 30
0.0
 11
427.897553214
 21
692.4106381141
 31
0.0
  0
LINE
  5
78
330
1F
100
AcDbEntity
  8
0
  6
Continuous
 62
     7
370
    15
100
AcDbLine
 10
427.897553214
 20
692.4106381141
 30
0.0
 11
435.4002133693
 21
692.4106381141
 31
0.0
  0
LINE
  5
79
330
1F
100
AcDbEntity
  8
0
  6
Continuous
 62
     7
370
    15
100
AcDbLine
 10
447.8975639429
 20
734.177508881
 30
0.0
 11
435.4002133693
 21
734.177508881
 31
0.0
  0
LINE
  5
7A
330
1F
100
AcDbEntity
  8
0
  6
Continuous
 62
     7
370
    15
100
AcDbLine
 10
447.8975639429
 20
734.177508881
 30
0.0
 11
447.8975639429
 21
692.4106381141
 31
0.0
  0
LINE
  5
7B
330
1F
100
AcDbEntity
  8
0
  6
Continuous
 62
     7
370
    15
100
AcDbLine
 10
447.8975639429
 20
692.4106381141
 30
0.0
 11
455.400209197
 21
692.4106381141
 31
0.0
  0
LINE
  5
7C
330
1F
100
AcDbEntity
  8
0
  6
Continuous
 62
     7
370
    15
100
AcDbLine
 10
467.8975597705
 20
734.177508881
 30
0.0
 11
455.400209197
 21
734.177508881
 31
0.0
  0
LINE
  5
7D
330
1F
100
AcDbEntity
  8
0
  6
Continuous
 62
     7
370
    15
100
AcDbLine
 10
467.8975597705
 20
734.177508881
 30
0.0
 11
467.8975597705
 21
692.4106381141
 31
0.0
  0
LINE
  5
7E
330
1F
100
AcDbEntity
  8
0
  6
Continuous
 62
     7
370
    15
100
AcDbLine
 10
475.4002050247
 20
692.4106381141
 30
0.0
 11
475.4002050247
 21
734.177508881
 31
0.0
  0
LINE
  5
7F
330
1F
100
AcDbEntity
  8
0
  6
Continuous
 62
     7
370
    15
100
AcDbLine
 10
668.8053861942
 20
734.177508881
 30
0.0
 11
475.4002050247
 21
734.177508881
 31
0.0
  0
LINE
  5
80
330
1F
100
AcDbEntity
  8
0
  6
Continuous
 62
     7
370
    15
100
AcDbLine
 10
668.8053861942
 20
734.177508881
 30
0.0
 11
668.8053861942
 21
673.1775081955
 31
0.0
  0
LINE
  5
81
330
1F
100
AcDbEntity
  8
0
  6
Continuous
 62
     7
370
    15
100
AcDbLine
 10
536.9850353088
 20
673.1775081955
 30
0.0
 11
668.8053861942
 21
673.1775081955
 31
0.0
  0
LINE
  5
82
330
1F
100
AcDbEntity
  8
0
  6
Continuous
 62
     7
370
    15
100
AcDbLine
 10
536.9850353088
 20
683.177507972
 30
0.0
 11
529.6362594451
 21
683.177507972
 31
0.0
  0
LINE
  5
83
330
1F
100
AcDbEntity
  8
0
  6
Continuous
 62
     7
370
    15
100
AcDbLine
 10
467.8975597705
 20
692.4106381141
 30
0.0
 11
475.4002050247
 21
692.4106381141
 31
0.0
  0
LINE
  5
84
330
1F
100
AcDbEntity
  8
0
  6
Continuous
 62
     7
370
    15
100
AcDbLine
 10
347.8975550022
 20
692.4106381141
 30
0.0
 11
355.4002151575
 21
692.4106381141
 31
0.0
  0
LINE
  5
85
330
1F
100
AcDbEntity
  8
0
  6
Continuous
 62
     7
370
    15
100
AcDbLine
 10
387.8975615587
 20
692.4106381141
 30
0.0
 11
395.400221714
 21
692.4106381141
 31
0.0
  0
LINE
  5
86
330
1F
100
AcDbEntity
  8
0
  6
Continuous
 62
     7
370
    15
100
AcDbLine
 10
407.8975573863
 20
692.4106381141
 30
0.0
 11
415.4002175416
 21
692.4106381141
 31
0.0
  0
LINE
  5
87
330
1F
100
AcDbEntity
  8
0
  6
Continuous
 62
     7
370
    15
100
AcDbLine
 10
367.8975508298
 20
692.4106381141
 30
0.0
 11
375.4002109851
 21
692.4106381141
 31
0.0
  0
LINE
  5
88
330
1F
100
AcDbEntity
  8
0
  6
Continuous
 62
     7
370
    15
100
AcDbLine
 10
529.6362594451
 20
683.177507972
 30
0.0
 11
529.6362594451
 21
673.1775081955
 31
0.0
  0
LINE
  5
89
330
1F
100
AcDbEntity
  8
0
  6
Continuous
 62
     7
370
    15
100
AcDbLine
 10
536.9850353088
 20
683.177507972
 30
0.0
 11
536.9850353088
 21
673.1775081955
 31
0.0
  0
LINE
  5
8A
330
1F
100
AcDbEntity
  8
0
  6
Continuous
 62
     7
370
    15
100
AcDbLine
 10
327.8975591745
 20
692.4106381141
 30
0.0
 11
335.4002193298
 21
692.4106381141
 31
0.0
  0
LINE
  5
8B
330
1F
100
AcDbEntity
  8
0
  6
Continuous
 62
     7
370
    15
100
AcDbLine
 10
455.400209197
 20
692.4106381141
 30
0.0
 11
455.400209197
 21
734.177508881
 31
0.0
  0
LINE
  5
8C
330
1F
100
AcDbEntity
  8
0
  6
Continuous
 62
     7
370
    15
100
AcDbLine
 10
435.4002133693
 20
692.4106381141
 30
0.0
 11
435.4002133693
 21
734.177508881
 31
0.0
  0
LINE
  5
8D
330
1F
100
AcDbEntity
  8
0
  6
Continuous
 62
     7
370
    15
100
AcDbLine
 10
307.8975558962
 20
692.4106381141
 30
0.0
 11
315.4002160515
 21
692.4106381141
 31
0.0
  0
LINE
  5
8E
330
1F
100
AcDbEntity
  8
0
  6
Continuous
 62
     7
370
    15
100
AcDbLine
 10
247.8975572373
 20
692.6744836621
 30
0.0
 11
247.8975572373
 21
692.4106381141
 31
0.0
  0
LINE
  5
8F
330
1F
100
AcDbEntity
  8
0
  6
Continuous
 62
     7
370
    15
100
AcDbLine
 10
307.8975558962
 20
715.4436162912
 30
0.0
 11
307.8975558962
 21
692.4106381141
 31
0.0
  0
LINE
  5
90
330
1F
100
AcDbEntity
  8
0
  6
Continuous
 62
     7
370
    15
100
AcDbLine
 10
327.8975591745
 20
720.9847136639
 30
0.0
 11
327.8975591745
 21
692.4106381141
 31
0.0
  0
LINE
  5
91
330
1F
100
AcDbEntity
  8
0
  6
Continuous
 62
     7
370
    15
100
AcDbLine
 10
287.8975600685
 20
708.9104405843
 30
0.0
 11
287.8975600685
 21
692.4106381141
 31
0.0
  0
LINE
  5
92
330
1F
100
AcDbEntity
  8
0
  6
Continuous
 62
     7
370
    15
100
AcDbLine
 10
347.8975550022
 20
725.5703560315
 30
0.0
 11
347.8975550022
 21
692.4106381141
 31
0.0
  0
LINE
  5
93
330
1F
100
AcDbEntity
  8
0
  6
Continuous
 62
     7
370
    15
100
AcDbLine
 10
407.8975573863
 20
733.8513820671
 30
0.0
 11
407.8975573863
 21
692.4106381141
 31
0.0
  0
LINE
  5
94
330
1F
100
AcDbEntity
  8
0
  6
Continuous
 62
     7
370
    15
100
AcDbLine
 10
387.8975615587
 20
731.9844044052
 30
0.0
 11
387.8975615587
 21
692.4106381141
 31
0.0
  0
LINE
  5
95
330
1F
100
AcDbEntity
  8
0
  6
Continuous
 62
     7
370
    15
100
AcDbLine
 10
367.8975508298
 20
729.2294963502
 30
0.0
 11
367.8975508298
 21
692.4106381141
 31
0.0
  0
LINE
  5
96
330
1F
100
AcDbEntity
  8
0
  6
Continuous
 62
     7
370
    15
100
AcDbLine
 10
395.400221714
 20
692.4106381141
 30
0.0
 11
395.400221714
 21
732.7881432377
 31
0.0
  0
LINE
  5
97
330
1F
100
AcDbEntity
  8
0
  6
Continuous
 62
     7
370
    15
100
AcDbLine
 10
267.8975567903
 20
701.3395498745
 30
0.0
 11
267.8975567903
 21
692.4106381141
 31
0.0
  0
LINE
  5
98
330
1F
100
AcDbEntity
  8
0
  6
Continuous
 62
     7
370
    15
100
AcDbLine
 10
375.4002109851
 20
692.4106381141
 30
0.0
 11
375.4002109851
 21
730.3679338895
 31
0.0
  0
LINE
  5
99
330
1F
100
AcDbEntity
  8
0
  6
Continuous
 62
     7
370
    15
100
AcDbLine
 10
355.4002151575
 20
692.4106381141
 30
0.0
 11
355.4002151575
 21
727.0502760314
 31
0.0
  0
LINE
  5
9A
330
1F
100
AcDbEntity
  8
0
  6
Continuous
 62
     7
370
    15
100
AcDbLine
 10
335.4002193298
 20
692.4106381141
 30
0.0
 11
335.4002193298
 21
722.8152095579
 31
0.0
  0
LINE
  5
9B
330
1F
100
AcDbEntity
  8
0
  6
Continuous
 62
     7
370
    15
100
AcDbLine
 10
315.4002160515
 20
692.4106381141
 30
0.0
 11
315.4002160515
 21
717.6363929414
 31
0.0
  0
LINE
  5
9C
330
1F
100
AcDbEntity
  8
0
  6
Continuous
 62
     7
370
    15
100
AcDbLine
 10
295.4002127733
 20
692.4106381141
 30
0.0
 11
295.4002127733
 21
711.4802091621
 31
0.0
  0
LINE
  5
9D
330
1F
100
AcDbEntity
  8
0
  6
Continuous
 62
     7
370
    15
100
AcDbLine
 10
275.4002169456
 20
692.4106381141
 30
0.0
 11
275.4002169456
 21
704.3045866542
 31
0.0
  0
LINE
  5
9E
330
1F
100
AcDbEntity
  8
0
  6
Continuous
 62
     7
370
    15
100
AcDbLine
 10
255.4002136673
 20
692.4106381141
 30
0.0
 11
255.4002136673
 21
696.0573806666
 31
0.0
  0
LINE
  5
9F
330
1F
100
AcDbEntity
  8
0
  6
Continuous
 62
     7
370
    15
100
AcDbLine
 10
210.319422207
 20
673.1775081955
 30
0.0
 11
529.6362594451
 21
673.1775081955
 31
0.0
  0
LINE
  5
A0
330
1F
100
AcDbEntity
  8
0
  6
Continuous
 62
     7
370
    15
100
AcDbLine
 10
475.4002050247
 20
764.1775063478
 30
0.0
 11
668.8053861942
 21
764.1775063478
 31
0.0
  0
LINE
  5
A1
330
1F
100
AcDbEntity
  8
0
  6
Continuous
 62
     7
370
    15
100
AcDbLine
 10
475.4002050247
 20
734.177508881
 30
0.0
 11
475.4002050247
 21
764.1775063478
 31
0.0
  0
LINE
  5
A2
330
1F
100
AcDbEntity
  8
0
  6
Continuous
 62
     7
370
    15
100
AcDbLine
 10
415.4002175416
 20
764.1775063478
 30
0.0
 11
427.897553214
 21
764.1775063478
 31
0.0
  0
LINE
  5
A3
330
1F
100
AcDbEntity
  8
0
  6
Continuous
 62
     7
370
    15
100
AcDbLine
 10
415.4002175416
 20
734.177508881
 30
0.0
 11
415.4002175416
 21
764.1775063478
 31
0.0
  0
LINE
  5
A4
330
1F
100
AcDbEntity
  8
0
  6
Continuous
 62
     7
370
    15
100
AcDbLine
 10
427.897553214
 20
764.1775063478
 30
0.0
 11
427.897553214
 21
734.177508881
 31
0.0
  0
LINE
  5
A5
330
1F
100
AcDbEntity
  8
0
  6
Continuous
 62
     7
370
    15
100
AcDbLine
 10
435.4002133693
 20
764.1775063478
 30
0.0
 11
447.8975639429
 21
764.1775063478
 31
0.0
  0
LINE
  5
A6
330
1F
100
AcDbEntity
  8
0
  6
Continuous
 62
     7
370
    15
100
AcDbLine
 10
447.8975639429
 20
764.1775063478
 30
0.0
 11
447.8975639429
 21
734.177508881
 31
0.0
  0
LINE
  5
A7
330
1F
100
AcDbEntity
  8
0
  6
Continuous
 62
     7
370
    15
100
AcDbLine
 10
435.4002133693
 20
734.177508881
 30
0.0
 11
435.4002133693
 21
764.1775063478
 31
0.0
  0
LINE
  5
A8
330
1F
100
AcDbEntity
  8
0
  6
Continuous
 62
     7
370
    15
100
AcDbLine
 10
455.400209197
 20
764.1775063478
 30
0.0
 11
467.8975597705
 21
764.1775063478
 31
0.0
  0
LINE
  5
A9
330
1F
100
AcDbEntity
  8
0
  6
Continuous
 62
     7
370
    15
100
AcDbLine
 10
467.8975597705
 20
764.1775063478
 30
0.0
 11
467.8975597705
 21
734.177508881
 31
0.0
  0
LINE
  5
AA
330
1F
100
AcDbEntity
  8
0
  6
Continuous
 62
     7
370
    15
100
AcDbLine
 10
455.400209197
 20
734.177508881
 30
0.0
 11
455.400209197
 21
764.1775063478
 31
0.0
  0
LINE
  5
AB
330
1F
100
AcDbEntity
  8
0
  6
Continuous
 62
     7
370
    15
100
AcDbLine
 10
728.8053885784
 20
734.177508881
 30
0.0
 11
728.8053885784
 21
673.1775081955
 31
0.0
  0
LINE
  5
AC
330
1F
100
AcDbEntity
  8
0
  6
Continuous
 62
     7
370
    15
100
AcDbLine
 10
668.8053861942
 20
673.1775081955
 30
0.0
 11
728.8053885784
 21
673.1775081955
 31
0.0
  0
LINE
  5
AD
330
1F
100
AcDbEntity
  8
0
  6
Continuous
 62
     7
370
    15
100
AcDbLine
 10
749.0965381946
 20
764.1775063478
 30
0.0
 11
749.0965381946
 21
673.1775081955
 31
0.0
  0
LINE
  5
AE
330
1F
100
AcDbEntity
  8
0
  6
Continuous
 62
     7
370
    15
100
AcDbLine
 10
698.8053873863
 20
764.1775063478
 30
0.0
 11
749.0965381946
 21
764.1775063478
 31
0.0
  0
LINE
  5
AF
330
1F
100
AcDbEntity
  8
0
  6
Continuous
 62
     7
370
    15
100
AcDbLine
 10
728.8053885784
 20
673.1775081955
 30
0.0
 11
749.0965381946
 21
673.1775081955
 31
0.0
  0
LINE
  5
B0
330
1F
100
AcDbEntity
  8
0
  6
Continuous
 62
     7
370
    15
100
AcDbLine
 10
804.7331229534
 20
754.6259141766
 30
0.0
 11
804.7331229534
 21
757.3141879641
 31
0.0
  0
LINE
  5
B1
330
1F
100
AcDbEntity
  8
0
  6
Continuous
 62
     7
370
    15
100
AcDbLine
 10
804.7331229534
 20
678.2535822369
 30
0.0
 11
804.7331229534
 21
680.9418518335
 31
0.0
  0
LINE
  5
B2
330
1F
100
AcDbEntity
  8
0
  6
Continuous
 62
     7
370
    15
100
AcDbLine
 10
804.7331229534
 20
680.9418518335
 30
0.0
 11
795.7434908237
 21
680.9418518335
 31
0.0
  0
LINE
  5
B3
330
1F
100
AcDbEntity
  8
0
  6
Continuous
 62
     7
370
    15
100
AcDbLine
 10
789.0965596523
 20
681.0538158991
 30
0.0
 11
795.7434908237
 21
681.0538158991
 31
0.0
  0
LINE
  5
B4
330
1F
100
AcDbEntity
  8
0
  6
Continuous
 62
     7
370
    15
100
AcDbLine
 10
789.0965596523
 20
754.5139543019
 30
0.0
 11
789.0965596523
 21
681.0538158991
 31
0.0
  0
LINE
  5
B5
330
1F
100
AcDbEntity
  8
0
  6
Continuous
 62
     7
370
    15
100
AcDbLine
 10
795.7434908237
 20
754.5139543019
 30
0.0
 11
789.0965596523
 21
754.5139543019
 31
0.0
  0
LINE
  5
B6
330
1F
100
AcDbEntity
  8
0
  6
Continuous
 62
     7
370
    15
100
AcDbLine
 10
795.7434908237
 20
754.6259141766
 30
0.0
 11
804.7331229534
 21
754.6259141766
 31
0.0
  0
LINE
  5
B7
330
1F
100
AcDbEntity
  8
0
  6
Continuous
 62
     7
370
    15
100
AcDbLine
 10
877.0965591754
 20
757.3141879641
 30
0.0
 11
877.0965591754
 21
678.2535822369
 31
0.0
  0
SPLINE
  5
B8
330
1F
100
AcDbEntity
  8
0
  6
Continuous
 62
     7
370
    15
100
AcDbSpline
210
0.0
220
0.0
230
1.0
 70
     8
 71
     3
 72
    17
 73
    13
 74
     0
 42
0.00000001
 43
0.00000001
 12
1.0
 22
0.0
 32
0.0
 13
1.0
 23
0.0
 33
0.0
 40
0.0
 40
0.0
 40
0.0
 40
0.0
 40
0.0898393629377618
 40
0.1823288778380318
 40
0.2721586813251683
 40
0.3645128901069814
 40
0.455967825030195
 40
0.5498053719701538
 40
0.6466759768456845
 40
0.7458108310674327
 40
0.8714939625630477
 40
1.0
 40
1.0
 40
1.0
 40
1.0
 10
789.0965596522705
 20
681.05381589907
 30
0.0
 10
788.0554524943178
 20
681.1045624378545
 30
0.0
 10
785.9425267832331
 20
681.2075524766102
 30
0.0
 10
782.8782546601299
 20
682.0345358054368
 30
0.0
 10
779.965807870746
 20
683.3369421762918
 30
0.0
 10
777.319341970499
 20
685.1062658542248
 30
0.0
 10
774.9625212432431
 20
687.3108142927517
 30
0.0
 10
772.9539172672931
 20
689.9034746882691
 30
0.0
 10
771.330042985762
 20
692.8552779849191
 30
0.0
 10
770.0459373576468
 20
696.3623349109251
 30
0.0
 10
769.223996334869
 20
700.3929170917493
 30
0.0
 10
769.139324965896
 20
703.3379417829296
 30
0.0
 10
769.096519121112
 20
704.8268071614463
 30
0.0
  0
LINE
  5
B9
330
1F
100
AcDbEntity
  8
0
  6
Continuous
 62
     7
370
    15
100
AcDbLine
 10
769.0965191211
 20
704.8268071614
 30
0.0
 11
769.0965191211
 21
730.7409621083
 31
0.0
  0
SPLINE
  5
BA
330
1F
100
AcDbEntity
  8
0
  6
Continuous
 62
     7
370
    15
100
AcDbSpline
210
0.0
220
0.0
230
1.0
 70
     8
 71
     3
 72
    16
 73
    12
 74
     0
 42
0.00000001
 43
0.00000001
 12
1.0
 22
0.0
 32
0.0
 13
1.0
 23
0.0
 33
0.0
 40
0.0
 40
0.0
 40
0.0
 40
0.0
 40
0.1409301166380139
 40
0.2853489310834729
 40
0.3884648371556317
 40
0.4943381293202095
 40
0.5975526971236393
 40
0.7042968834283346
 40
0.7992577660189059
 40
0.8972660751097233
 40
1.0
 40
1.0
 40
1.0
 40
1.0
 10
769.096519121112
 20
730.7409621082503
 30
0.0
 10
769.1482340146152
 20
732.3736623462147
 30
0.0
 10
769.2529439938182
 20
735.679480001071
 30
0.0
 10
770.2827313799904
 20
740.0932578047109
 30
0.0
 10
771.8820224954796
 20
743.872006071137
 30
0.0
 10
773.8319096131246
 20
746.9365655422454
 30
0.0
 10
776.3149382361012
 20
749.6431941568418
 30
0.0
 10
779.1543935390454
 20
751.7780818300038
 30
0.0
 10
782.2755016961296
 20
753.3198813029348
 30
0.0
 10
785.5791819170174
 20
754.3187141728538
 30
0.0
 10
787.9058433159094
 20
754.4478608571375
 30
0.0
 10
789.0965596522705
 20
754.5139543019491
 30
0.0
  0
LINE
  5
BB
330
1F
100
AcDbEntity
  8
0
  6
Continuous
 62
     7
370
    15
100
AcDbLine
 10
795.7434908237
 20
681.0538158991
 30
0.0
 11
795.7434908237
 21
673.1775081955
 31
0.0
  0
LINE
  5
BC
330
1F
100
AcDbEntity
  8
0
  6
Continuous
 62
     7
370
    15
100
AcDbLine
 10
795.7434908237
 20
764.1775063478
 30
0.0
 11
795.7434908237
 21
754.5139543019
 31
0.0
  0
LINE
  5
BD
330
1F
100
AcDbEntity
  8
0
  6
Continuous
 62
     7
370
    15
100
AcDbLine
 10
749.0965381946
 20
764.1775063478
 30
0.0
 11
795.7434908237
 21
764.1775063478
 31
0.0
  0
LINE
  5
BE
330
1F
100
AcDbEntity
  8
0
  6
Continuous
 62
     7
370
    15
100
AcDbLine
 10
749.0965381946
 20
673.1775081955
 30
0.0
 11
795.7434908237
 21
673.1775081955
 31
0.0
  0
LINE
  5
BF
330
1F
100
AcDbEntity
  8
0
  6
Continuous
 62
     7
370
    15
100
AcDbLine
 10
789.0965596523
 20
394.9780619634
 30
0.0
 11
877.0965591754
 21
394.9780619634
 31
0.0
  0
LINE
  5
C0
330
1F
100
AcDbEntity
  8
0
  6
Continuous
 62
     7
370
    15
100
AcDbLine
 10
877.0965591754
 20
474.0386648966
 30
0.0
 11
789.0965596523
 21
474.0386648966
 31
0.0
  0
ARC
  5
C1
330
1F
100
AcDbEntity
  8
0
  6
Continuous
 62
     7
370
    15
100
AcDbCircle
 10
789.0965404825
 20
414.9780619759
 30
0.0
 40
20.0
100
AcDbArc
 50
180.0
 51
270.0
  0
ARC
  5
C2
330
1F
100
AcDbEntity
  8
0
  6
Continuous
 62
     7
370
    15
100
AcDbCircle
 10
789.0965404825
 20
454.038665505
 30
0.0
 40
20.0
100
AcDbArc
 50
90.0
 51
180.0
  0
LINE
  5
C3
330
1F
100
AcDbEntity
  8
0
  6
Continuous
 62
     7
370
    15
100
AcDbLine
 10
395.400221714
 20
567.0083655907
 30
0.0
 11
407.8975573863
 21
567.0083655907
 31
0.0
  0
LINE
  5
C4
330
1F
100
AcDbEntity
  8
0
  6
Continuous
 62
     7
370
    15
100
AcDbLine
 10
407.8975573863
 20
537.0083643986
 30
0.0
 11
395.400221714
 21
537.0083643986
 31
0.0
  0
SPLINE
  5
C5
330
1F
100
AcDbEntity
  8
0
  6
Continuous
 62
     7
370
    15
100
AcDbSpline
210
0.0
220
0.0
230
1.0
 70
    24
 71
     3
 72
    34
 73
    30
 74
     0
 42
0.00000001
 43
0.00000001
 12
1.0
 22
0.0
 32
0.0
 13
1.0
 23
0.0
 33
0.0
 40
0.0
 40
0.0
 40
0.0
 40
0.0
 40
0.1250000000000013
 40
0.1250000000000013
 40
0.1875000000000019
 40
0.1875000000000019
 40
0.2500000000000026
 40
0.2500000000000026
 40
0.3125000000000033
 40
0.3125000000000033
 40
0.3750000000000039
 40
0.3750000000000039
 40
0.5000000000000047
 40
0.5000000000000047
 40
0.5625000000000042
 40
0.5625000000000042
 40
0.5937500000000034
 40
0.5937500000000034
 40
0.6250000000000027
 40
0.6250000000000027
 40
0.7500000000000022
 40
0.7500000000000022
 40
0.7812500000000017
 40
0.7812500000000017
 40
0.8125000000000011
 40
0.8125000000000011
 40
0.8750000000000004
 40
0.8750000000000004
 40
1.0
 40
1.0
 40
1.0
 40
1.0
 10
395.4002149018045
 20
537.0083637404142
 30
0.0
 10
395.4002149018045
 20
538.9736941314934
 30
0.0
 10
395.4002149018045
 20
540.92388148
 30
0.0
 10
395.4002149018045
 20
543.826189110781
 30
0.0
 10
395.4002149018045
 20
544.7938308099499
 30
0.0
 10
395.4002149018045
 20
546.6811875266619
 30
0.0
 10
395.4002149018045
 20
547.6050414989251
 30
0.0
 10
395.4002149018045
 20
549.4139467366499
 30
0.0
 10
395.4002149018045
 20
550.298996659191
 30
0.0
 10
395.4002149018045
 20
552.0300038698101
 30
0.0
 10
395.4002149018045
 20
552.8779163823348
 30
0.0
 10
395.4002149018045
 20
555.3483284479266
 30
0.0
 10
395.4002149018045
 20
556.8601999095289
 30
0.0
 10
395.4002149018045
 20
558.9331878385215
 30
0.0
 10
395.4002149018045
 20
559.591473722841
 30
0.0
 10
395.4002149018046
 20
560.5286516432551
 30
0.0
 10
395.4002149018045
 20
560.8334602981412
 30
0.0
 10
395.4002149018046
 20
561.4211504000717
 30
0.0
 10
395.4002149018045
 20
561.7040423756873
 30
0.0
 10
395.4002149018045
 20
563.0647986246743
 30
0.0
 10
395.4002149018045
 20
563.9830765266829
 30
0.0
 10
395.4002149018045
 20
564.9191971961477
 30
0.0
 10
395.4002149018045
 20
565.0957400552704
 30
0.0
 10
395.4002149018045
 20
565.4271036589353
 30
0.0
 10
395.4002149018045
 20
565.5822292477727
 30
0.0
 10
395.4002149018045
 20
566.0101559747874
 30
0.0
 10
395.4002149018045
 20
566.2469440300029
 30
0.0
 10
395.4002149018045
 20
566.816020165999
 30
0.0
 10
395.4002149018045
 20
567.0083637404143
 30
0.0
 10
395.4002149018045
 20
567.0083637404143
 30
0.0
  0
SPLINE
  5
C6
330
1F
100
AcDbEntity
  8
0
  6
Continuous
 62
     7
370
    15
100
AcDbSpline
210
0.0
220
0.0
230
1.0
 70
    24
 71
     3
 72
    41
 73
    37
 74
     0
 42
0.00000001
 43
0.00000001
 12
1.0
 22
0.0
 32
0.0
 13
1.0
 23
0.0
 33
0.0
 40
0.0
 40
0.0
 40
0.0
 40
0.0
 40
0.0312500000000008
 40
0.0312500000000008
 40
0.0625000000000011
 40
0.0625000000000011
 40
0.125000000000001
 40
0.125000000000001
 40
0.2500000000000018
 40
0.2500000000000018
 40
0.2812500000000017
 40
0.2812500000000017
 40
0.3125000000000016
 40
0.3125000000000016
 40
0.3750000000000023
 40
0.437500000000003
 40
0.437500000000003
 40
0.4687500000000038
 40
0.4687500000000038
 40
0.5000000000000047
 40
0.5000000000000047
 40
0.6250000000000046
 40
0.6250000000000046
 40
0.6875000000000046
 40
0.6875000000000046
 40
0.7187500000000043
 40
0.7187500000000043
 40
0.750000000000004
 40
0.750000000000004
 40
0.8750000000000021
 40
0.8750000000000021
 40
0.9062500000000016
 40
0.9062500000000016
 40
0.9375000000000009
 40
0.9375000000000009
 40
1.0
 40
1.0
 40
1.0
 40
1.0
 10
407.8975571928444
 20
567.0083637404143
 30
0.0
 10
407.8975571928444
 20
567.0083637404143
 30
0.0
 10
407.8975571928444
 20
566.9963868270316
 30
0.0
 10
407.8975571928444
 20
566.9480835140097
 30
0.0
 10
407.8975571928445
 20
566.9116004604911
 30
0.0
 10
407.8975571928445
 20
566.766067300697
 30
0.0
 10
407.8975571928445
 20
566.6214189614386
 30
0.0
 10
407.8975571928444
 20
566.0488703366611
 30
0.0
 10
407.8975571928444
 20
565.483680889316
 30
0.0
 10
407.8975571928444
 20
564.5417940876496
 30
0.0
 10
407.8975571928444
 20
564.340952200389
 30
0.0
 10
407.8975571928444
 20
563.9191547074436
 30
0.0
 10
407.8975571928444
 20
563.6980220625736
 30
0.0
 10
407.8975571928444
 20
563.0044706678137
 30
0.0
 10
407.8975571928444
 20
561.9994682821427
 30
0.0
 10
407.8975571928443
 20
560.8361815153337
 30
0.0
 10
407.8975571928443
 20
559.9034866368521
 30
0.0
 10
407.8975571928444
 20
559.5825322595852
 30
0.0
 10
407.8975571928444
 20
558.9201404246726
 30
0.0
 10
407.8975571928443
 20
558.5779923007217
 30
0.0
 10
407.8975571928444
 20
556.8339571828537
 30
0.0
 10
407.8975571928445
 20
555.3215928555168
 30
0.0
 10
407.8975571928444
 20
552.881743805915
 30
0.0
 10
407.8975571928444
 20
552.0397054801663
 30
0.0
 10
407.8975571928444
 20
550.7321646734662
 30
0.0
 10
407.8975571928444
 20
550.2886472702555
 30
0.0
 10
407.8975571928443
 20
549.3966360047594
 30
0.0
 10
407.8975571928444
 20
548.9469277747028
 30
0.0
 10
407.8975571928443
 20
546.68017649559
 30
0.0
 10
407.8975571928444
 20
544.809023556924
 30
0.0
 10
407.8975571928444
 20
542.3974105948686
 30
0.0
 10
407.8975571928444
 20
541.9114217409264
 30
0.0
 10
407.8975571928444
 20
540.9319637925155
 30
0.0
 10
407.8975571928443
 20
540.4394878735918
 30
0.0
 10
407.8975571928445
 20
538.966992877565
 30
0.0
 10
407.8975571928444
 20
537.9869078805868
 30
0.0
 10
407.8975571928444
 20
537.0083637404142
 30
0.0
  0
LINE
  5
C7
330
1F
100
AcDbEntity
  8
0
  6
Continuous
 62
     7
370
    15
100
AcDbLine
 10
395.400221714
 20
332.0083633928
 30
0.0
 11
407.8975573863
 21
332.0083633928
 31
0.0
  0
LINE
  5
C8
330
1F
100
AcDbEntity
  8
0
  6
Continuous
 62
     7
370
    15
100
AcDbLine
 10
407.8975573863
 20
302.0083649946
 30
0.0
 11
395.400221714
 21
302.0083649946
 31
0.0
  0
SPLINE
  5
C9
330
1F
100
AcDbEntity
  8
0
  6
Continuous
 62
     7
370
    15
100
AcDbSpline
210
0.0
220
0.0
230
1.0
 70
    24
 71
     3
 72
    37
 73
    33
 74
     0
 42
0.00000001
 43
0.00000001
 12
1.0
 22
0.0
 32
0.0
 13
1.0
 23
0.0
 33
0.0
 40
0.0
 40
0.0
 40
0.0
 40
0.0
 40
0.125000000000002
 40
0.125000000000002
 40
0.1562500000000021
 40
0.1562500000000021
 40
0.1875000000000021
 40
0.1875000000000021
 40
0.2500000000000024
 40
0.3125000000000026
 40
0.3125000000000026
 40
0.3437500000000023
 40
0.3437500000000023
 40
0.3750000000000021
 40
0.3750000000000021
 40
0.5000000000000012
 40
0.5000000000000012
 40
0.5625000000000009
 40
0.5625000000000009
 40
0.593750000000001
 40
0.593750000000001
 40
0.625000000000001
 40
0.625000000000001
 40
0.7500000000000011
 40
0.7500000000000011
 40
0.7812500000000012
 40
0.7812500000000012
 40
0.8125000000000013
 40
0.8125000000000013
 40
0.8750000000000009
 40
0.8750000000000009
 40
1.0
 40
1.0
 40
1.0
 40
1.0
 10
395.4002149018045
 20
302.0083637404143
 30
0.0
 10
395.4002149018045
 20
302.0083637404143
 30
0.0
 10
395.4002149018045
 20
302.1971492115813
 30
0.0
 10
395.4002149018045
 20
302.6752711008879
 30
0.0
 10
395.4002149018045
 20
302.783462603044
 30
0.0
 10
395.4002149018045
 20
303.0224632957693
 30
0.0
 10
395.4002149018045
 20
303.1533156112234
 30
0.0
 10
395.4002149018045
 20
303.5793234157583
 30
0.0
 10
395.4002149018045
 20
304.2363790077775
 30
0.0
 10
395.4002149018045
 20
305.0690525237862
 30
0.0
 10
395.4002149018045
 20
305.7603886851201
 30
0.0
 10
395.4002149018045
 20
306.0019922579731
 30
0.0
 10
395.4002149018045
 20
306.5079277674147
 30
0.0
 10
395.4002149018045
 20
306.7729045438143
 30
0.0
 10
395.4002149018045
 20
308.1412718299025
 30
0.0
 10
395.4002149018045
 20
309.3813127438348
 30
0.0
 10
395.4002149018046
 20
311.4539614646781
 30
0.0
 10
395.4002149018045
 20
312.180529576071
 30
0.0
 10
395.4002149018045
 20
313.325587101717
 30
0.0
 10
395.4002149018045
 20
313.7170199358584
 30
0.0
 10
395.4002149018046
 20
314.5097449815065
 30
0.0
 10
395.4002149018045
 20
314.9120354495814
 30
0.0
 10
395.4002149018045
 20
316.9526396597875
 30
0.0
 10
395.4002149018044
 20
318.6775748868999
 30
0.0
 10
395.4002149018045
 20
320.9500434383485
 30
0.0
 10
395.4002149018045
 20
321.4104044747709
 30
0.0
 10
395.4002149018045
 20
322.3430969014622
 30
0.0
 10
395.4002149018045
 20
322.8150931413483
 30
0.0
 10
395.4002149018045
 20
324.2331728792983
 30
0.0
 10
395.4002149018045
 20
325.1865315477508
 30
0.0
 10
395.4002149018045
 20
328.0699447175492
 30
0.0
 10
395.4002149018045
 20
330.0231073291664
 30
0.0
 10
395.4002149018045
 20
332.0083637404142
 30
0.0
  0
SPLINE
  5
CA
330
1F
100
AcDbEntity
  8
0
  6
Continuous
 62
     7
370
    15
100
AcDbSpline
210
0.0
220
0.0
230
1.0
 70
    24
 71
     3
 72
    38
 73
    34
 74
     0
 42
0.00000001
 43
0.00000001
 12
1.0
 22
0.0
 32
0.0
 13
1.0
 23
0.0
 33
0.0
 40
0.0
 40
0.0
 40
0.0
 40
0.0
 40
0.0624999999999996
 40
0.0624999999999996
 40
0.0937499999999993
 40
0.0937499999999993
 40
0.124999999999999
 40
0.124999999999999
 40
0.2499999999999987
 40
0.2499999999999987
 40
0.2812499999999987
 40
0.2812499999999987
 40
0.3124999999999987
 40
0.3124999999999987
 40
0.3749999999999988
 40
0.3749999999999988
 40
0.4999999999999989
 40
0.4999999999999989
 40
0.5312499999999988
 40
0.5312499999999988
 40
0.5624999999999987
 40
0.5624999999999987
 40
0.6249999999999989
 40
0.6249999999999989
 40
0.687499999999999
 40
0.687499999999999
 40
0.7499999999999992
 40
0.7499999999999992
 40
0.8749999999999997
 40
0.8749999999999997
 40
0.9374999999999998
 40
0.9374999999999998
 40
1.0
 40
1.0
 40
1.0
 40
1.0
 10
407.8975571928444
 20
332.0083637404142
 30
0.0
 10
407.8975571928444
 20
331.0294548376186
 30
0.0
 10
407.8975571928444
 20
330.0484369920133
 30
0.0
 10
407.8975571928444
 20
328.5736583139982
 30
0.0
 10
407.8975571928444
 20
328.0803702384172
 30
0.0
 10
407.8975571928443
 20
327.1027650505337
 30
0.0
 10
407.8975571928445
 20
326.6175380156333
 30
0.0
 10
407.8975571928444
 20
324.2089604581718
 30
0.0
 10
407.8975571928445
 20
322.337781828657
 30
0.0
 10
407.8975571928444
 20
320.0684511436561
 30
0.0
 10
407.8975571928444
 20
319.6180984569745
 30
0.0
 10
407.8975571928445
 20
318.7245501536991
 30
0.0
 10
407.8975571928444
 20
318.2810488882799
 30
0.0
 10
407.8975571928443
 20
316.9760515767538
 30
0.0
 10
407.8975571928443
 20
316.1350172348617
 30
0.0
 10
407.8975571928444
 20
313.6965055087525
 30
0.0
 10
407.8975571928443
 20
312.1828026251767
 30
0.0
 10
407.8975571928445
 20
310.4353733389559
 30
0.0
 10
407.8975571928445
 20
310.0938855835999
 30
0.0
 10
407.8975571928444
 20
309.4328880123819
 30
0.0
 10
407.8975571928445
 20
309.1124681856946
 30
0.0
 10
407.8975571928444
 20
308.1809643383025
 30
0.0
 10
407.8975571928443
 20
307.5995660232734
 30
0.0
 10
407.8975571928445
 20
306.5151672729311
 30
0.0
 10
407.8975571928444
 20
306.0121653012903
 30
0.0
 10
407.8975571928443
 20
305.086016435203
 30
0.0
 10
407.8975571928444
 20
304.6612845922465
 30
0.0
 10
407.8975571928443
 20
303.5336787880894
 30
0.0
 10
407.8975571928444
 20
302.9682948260224
 30
0.0
 10
407.8975571928445
 20
302.3951472623542
 30
0.0
 10
407.8975571928444
 20
302.2502196446404
 30
0.0
 10
407.8975571928443
 20
302.0560492496064
 30
0.0
 10
407.8975571928444
 20
302.0083637404143
 30
0.0
 10
407.8975571928444
 20
302.0083637404143
 30
0.0
  0
LINE
  5
CB
330
1F
100
AcDbEntity
  8
0
  6
Continuous
 62
     7
370
    15
100
AcDbLine
 10
475.4002050247
 20
567.0083655907
 30
0.0
 11
668.8053861942
 21
567.0083655907
 31
0.0
  0
LINE
  5
CC
330
1F
100
AcDbEntity
  8
0
  6
Continuous
 62
     7
370
    15
100
AcDbLine
 10
668.8053861942
 20
567.0083655907
 30
0.0
 11
668.8053861942
 21
537.0083643986
 31
0.0
  0
LINE
  5
CD
330
1F
100
AcDbEntity
  8
0
  6
Continuous
 62
     7
370
    15
100
AcDbLine
 10
668.8053861942
 20
537.0083643986
 30
0.0
 11
475.4002050247
 21
537.0083643986
 31
0.0
  0
LINE
  5
CE
330
1F
100
AcDbEntity
  8
0
  6
Continuous
 62
     7
370
    15
100
AcDbLine
 10
475.4002050247
 20
537.0083643986
 30
0.0
 11
475.4002050247
 21
567.0083655907
 31
0.0
  0
LINE
  5
CF
330
1F
100
AcDbEntity
  8
0
  6
Continuous
 62
     7
370
    15
100
AcDbLine
 10
435.4002133693
 20
567.0083655907
 30
0.0
 11
447.8975639429
 21
567.0083655907
 31
0.0
  0
LINE
  5
D0
330
1F
100
AcDbEntity
  8
0
  6
Continuous
 62
     7
370
    15
100
AcDbLine
 10
447.8975639429
 20
537.0083643986
 30
0.0
 11
435.4002133693
 21
537.0083643986
 31
0.0
  0
LINE
  5
D1
330
1F
100
AcDbEntity
  8
0
  6
Continuous
 62
     7
370
    15
100
AcDbLine
 10
447.8975639429
 20
567.0083655907
 30
0.0
 11
447.8975639429
 21
537.0083643986
 31
0.0
  0
LINE
  5
D2
330
1F
100
AcDbEntity
  8
0
  6
Continuous
 62
     7
370
    15
100
AcDbLine
 10
435.4002133693
 20
537.0083643986
 30
0.0
 11
435.4002133693
 21
567.0083655907
 31
0.0
  0
LINE
  5
D3
330
1F
100
AcDbEntity
  8
0
  6
Continuous
 62
     7
370
    15
100
AcDbLine
 10
455.400209197
 20
567.0083655907
 30
0.0
 11
467.8975597705
 21
567.0083655907
 31
0.0
  0
LINE
  5
D4
330
1F
100
AcDbEntity
  8
0
  6
Continuous
 62
     7
370
    15
100
AcDbLine
 10
467.8975597705
 20
537.0083643986
 30
0.0
 11
455.400209197
 21
537.0083643986
 31
0.0
  0
LINE
  5
D5
330
1F
100
AcDbEntity
  8
0
  6
Continuous
 62
     7
370
    15
100
AcDbLine
 10
467.8975597705
 20
567.0083655907
 30
0.0
 11
467.8975597705
 21
537.0083643986
 31
0.0
  0
LINE
  5
D6
330
1F
100
AcDbEntity
  8
0
  6
Continuous
 62
     7
370
    15
100
AcDbLine
 10
455.400209197
 20
537.0083643986
 30
0.0
 11
455.400209197
 21
567.0083655907
 31
0.0
  0
ARC
  5
D7
330
1F
100
AcDbEntity
  8
0
  6
Continuous
 62
     7
370
    15
100
AcDbCircle
 10
668.8053811078
 20
507.0083637404
 30
0.0
 40
60.00000000000011
100
AcDbArc
 50
0.0
 51
90.0
  0
LINE
  5
D8
330
1F
100
AcDbEntity
  8
0
  6
Continuous
 62
     7
370
    15
100
AcDbLine
 10
728.8053885784
 20
507.0083632065
 30
0.0
 11
698.8053873863
 21
507.0083632065
 31
0.0
  0
ARC
  5
D9
330
1F
100
AcDbEntity
  8
0
  6
Continuous
 62
     7
370
    15
100
AcDbCircle
 10
668.8053811078
 20
507.0083637404
 30
0.0
 40
30.00000000000011
100
AcDbArc
 50
0.0
 51
90.0
  0
LINE
  5
DA
330
1F
100
AcDbEntity
  8
0
  6
Continuous
 62
     7
370
    15
100
AcDbLine
 10
415.4002175416
 20
567.0083655907
 30
0.0
 11
427.897553214
 21
567.0083655907
 31
0.0
  0
LINE
  5
DB
330
1F
100
AcDbEntity
  8
0
  6
Continuous
 62
     7
370
    15
100
AcDbLine
 10
427.897553214
 20
537.0083643986
 30
0.0
 11
415.4002175416
 21
537.0083643986
 31
0.0
  0
LINE
  5
DC
330
1F
100
AcDbEntity
  8
0
  6
Continuous
 62
     7
370
    15
100
AcDbLine
 10
415.4002175416
 20
537.0083643986
 30
0.0
 11
415.4002175416
 21
567.0083655907
 31
0.0
  0
LINE
  5
DD
330
1F
100
AcDbEntity
  8
0
  6
Continuous
 62
     7
370
    15
100
AcDbLine
 10
427.897553214
 20
567.0083655907
 30
0.0
 11
427.897553214
 21
537.0083643986
 31
0.0
  0
LINE
  5
DE
330
1F
100
AcDbEntity
  8
0
  6
Continuous
 62
     7
370
    15
100
AcDbLine
 10
698.8053873863
 20
505.6889994932
 30
0.0
 11
698.8053873863
 21
507.0083632065
 31
0.0
  0
LINE
  5
DF
330
1F
100
AcDbEntity
  8
0
  6
Continuous
 62
     7
370
    15
100
AcDbLine
 10
749.0965381946
 20
505.6889994932
 30
0.0
 11
698.8053873863
 21
505.6889994932
 31
0.0
  0
LINE
  5
E0
330
1F
100
AcDbEntity
  8
0
  6
Continuous
 62
     7
370
    15
100
AcDbLine
 10
749.0965381946
 20
449.1216062499
 30
0.0
 11
749.0965381946
 21
505.6889994932
 31
0.0
  0
LINE
  5
E1
330
1F
100
AcDbEntity
  8
0
  6
Continuous
 62
     7
370
    15
100
AcDbLine
 10
795.7434908237
 20
449.1216062499
 30
0.0
 11
749.0965381946
 21
449.1216062499
 31
0.0
  0
LINE
  5
E2
330
1F
100
AcDbEntity
  8
0
  6
Continuous
 62
     7
370
    15
100
AcDbLine
 10
795.7434908237
 20
419.8951243354
 30
0.0
 11
795.7434908237
 21
449.1216062499
 31
0.0
  0
LINE
  5
E3
330
1F
100
AcDbEntity
  8
0
  6
Continuous
 62
     7
370
    15
100
AcDbLine
 10
749.0965381946
 20
419.8951243354
 30
0.0
 11
795.7434908237
 21
419.8951243354
 31
0.0
  0
LINE
  5
E4
330
1F
100
AcDbEntity
  8
0
  6
Continuous
 62
     7
370
    15
100
AcDbLine
 10
749.0965381946
 20
363.3277236415
 30
0.0
 11
749.0965381946
 21
419.8951243354
 31
0.0
  0
LINE
  5
E5
330
1F
100
AcDbEntity
  8
0
  6
Continuous
 62
     7
370
    15
100
AcDbLine
 10
698.8053873863
 20
363.3277236415
 30
0.0
 11
749.0965381946
 21
363.3277236415
 31
0.0
  0
LINE
  5
E6
330
1F
100
AcDbEntity
  8
0
  6
Continuous
 62
     7
370
    15
100
AcDbLine
 10
698.8053873863
 20
362.0083636535
 30
0.0
 11
698.8053873863
 21
363.3277236415
 31
0.0
  0
ARC
  5
E7
330
1F
100
AcDbEntity
  8
0
  6
Continuous
 62
     7
370
    15
100
AcDbCircle
 10
668.8053811078
 20
362.0083637404
 30
0.0
 40
30.00000000000011
100
AcDbArc
 50
270.0
 51
0.0
  0
LINE
  5
E8
330
1F
100
AcDbEntity
  8
0
  6
Continuous
 62
     7
370
    15
100
AcDbLine
 10
475.4002050247
 20
332.0083633928
 30
0.0
 11
668.8053861942
 21
332.0083633928
 31
0.0
  0
LINE
  5
E9
330
1F
100
AcDbEntity
  8
0
  6
Continuous
 62
     7
370
    15
100
AcDbLine
 10
475.4002050247
 20
537.0083643986
 30
0.0
 11
475.4002050247
 21
332.0083633928
 31
0.0
  0
LINE
  5
EA
330
1F
100
AcDbEntity
  8
0
  6
Continuous
 62
     7
370
    15
100
AcDbLine
 10
728.8053885784
 20
507.0083632065
 30
0.0
 11
728.8053885784
 21
505.6889994932
 31
0.0
  0
LINE
  5
EB
330
1F
100
AcDbEntity
  8
0
  6
Continuous
 62
     7
370
    15
100
AcDbLine
 10
455.400209197
 20
332.0083633928
 30
0.0
 11
467.8975597705
 21
332.0083633928
 31
0.0
  0
LINE
  5
EC
330
1F
100
AcDbEntity
  8
0
  6
Continuous
 62
     7
370
    15
100
AcDbLine
 10
467.8975597705
 20
537.0083643986
 30
0.0
 11
467.8975597705
 21
332.0083633928
 31
0.0
  0
LINE
  5
ED
330
1F
100
AcDbEntity
  8
0
  6
Continuous
 62
     7
370
    15
100
AcDbLine
 10
455.400209197
 20
537.0083643986
 30
0.0
 11
455.400209197
 21
332.0083633928
 31
0.0
  0
LINE
  5
EE
330
1F
100
AcDbEntity
  8
0
  6
Continuous
 62
     7
370
    15
100
AcDbLine
 10
435.4002133693
 20
332.0083633928
 30
0.0
 11
447.8975639429
 21
332.0083633928
 31
0.0
  0
LINE
  5
EF
330
1F
100
AcDbEntity
  8
0
  6
Continuous
 62
     7
370
    15
100
AcDbLine
 10
447.8975639429
 20
537.0083643986
 30
0.0
 11
447.8975639429
 21
332.0083633928
 31
0.0
  0
LINE
  5
F0
330
1F
100
AcDbEntity
  8
0
  6
Continuous
 62
     7
370
    15
100
AcDbLine
 10
435.4002133693
 20
537.0083643986
 30
0.0
 11
435.4002133693
 21
332.0083633928
 31
0.0
  0
LINE
  5
F1
330
1F
100
AcDbEntity
  8
0
  6
Continuous
 62
     7
370
    15
100
AcDbLine
 10
415.4002175416
 20
332.0083633928
 30
0.0
 11
427.897553214
 21
332.0083633928
 31
0.0
  0
LINE
  5
F2
330
1F
100
AcDbEntity
  8
0
  6
Continuous
 62
     7
370
    15
100
AcDbLine
 10
415.4002175416
 20
537.0083643986
 30
0.0
 11
415.4002175416
 21
332.0083633928
 31
0.0
  0
LINE
  5
F3
330
1F
100
AcDbEntity
  8
0
  6
Continuous
 62
     7
370
    15
100
AcDbLine
 10
427.897553214
 20
537.0083643986
 30
0.0
 11
427.897553214
 21
332.0083633928
 31
0.0
  0
LINE
  5
F4
330
1F
100
AcDbEntity
  8
0
  6
Continuous
 62
     7
370
    15
100
AcDbLine
 10
728.8053885784
 20
363.3277236415
 30
0.0
 11
728.8053885784
 21
362.0083636535
 31
0.0
  0
LINE
  5
F5
330
1F
100
AcDbEntity
  8
0
  6
Continuous
 62
     7
370
    15
100
AcDbLine
 10
698.8053873863
 20
362.0083636535
 30
0.0
 11
728.8053885784
 21
362.0083636535
 31
0.0
  0
ARC
  5
F6
330
1F
100
AcDbEntity
  8
0
  6
Continuous
 62
     7
370
    15
100
AcDbCircle
 10
668.8053811078
 20
362.0083637404
 30
0.0
 40
60.00000000000011
100
AcDbArc
 50
270.0
 51
0.0
  0
LINE
  5
F7
330
1F
100
AcDbEntity
  8
0
  6
Continuous
 62
     7
370
    15
100
AcDbLine
 10
668.8053861942
 20
332.0083633928
 30
0.0
 11
668.8053861942
 21
302.0083649946
 31
0.0
  0
LINE
  5
F8
330
1F
100
AcDbEntity
  8
0
  6
Continuous
 62
     7
370
    15
100
AcDbLine
 10
447.8975639429
 20
302.0083649946
 30
0.0
 11
435.4002133693
 21
302.0083649946
 31
0.0
  0
LINE
  5
F9
330
1F
100
AcDbEntity
  8
0
  6
Continuous
 62
     7
370
    15
100
AcDbLine
 10
447.8975639429
 20
332.0083633928
 30
0.0
 11
447.8975639429
 21
302.0083649946
 31
0.0
  0
LINE
  5
FA
330
1F
100
AcDbEntity
  8
0
  6
Continuous
 62
     7
370
    15
100
AcDbLine
 10
435.4002133693
 20
302.0083649946
 30
0.0
 11
435.4002133693
 21
332.0083633928
 31
0.0
  0
LINE
  5
FB
330
1F
100
AcDbEntity
  8
0
  6
Continuous
 62
     7
370
    15
100
AcDbLine
 10
427.897553214
 20
302.0083649946
 30
0.0
 11
415.4002175416
 21
302.0083649946
 31
0.0
  0
LINE
  5
FC
330
1F
100
AcDbEntity
  8
0
  6
Continuous
 62
     7
370
    15
100
AcDbLine
 10
415.4002175416
 20
302.0083649946
 30
0.0
 11
415.4002175416
 21
332.0083633928
 31
0.0
  0
LINE
  5
FD
330
1F
100
AcDbEntity
  8
0
  6
Continuous
 62
     7
370
    15
100
AcDbLine
 10
427.897553214
 20
332.0083633928
 30
0.0
 11
427.897553214
 21
302.0083649946
 31
0.0
  0
LINE
  5
FE
330
1F
100
AcDbEntity
  8
0
  6
Continuous
 62
     7
370
    15
100
AcDbLine
 10
668.8053861942
 20
302.0083649946
 30
0.0
 11
475.4002050247
 21
302.0083649946
 31
0.0
  0
LINE
  5
FF
330
1F
100
AcDbEntity
  8
0
  6
Continuous
 62
     7
370
    15
100
AcDbLine
 10
475.4002050247
 20
302.0083649946
 30
0.0
 11
475.4002050247
 21
332.0083633928
 31
0.0
  0
LINE
  5
100
330
1F
100
AcDbEntity
  8
0
  6
Continuous
 62
     7
370
    15
100
AcDbLine
 10
467.8975597705
 20
302.0083649946
 30
0.0
 11
455.400209197
 21
302.0083649946
 31
0.0
  0
LINE
  5
101
330
1F
100
AcDbEntity
  8
0
  6
Continuous
 62
     7
370
    15
100
AcDbLine
 10
467.8975597705
 20
332.0083633928
 30
0.0
 11
467.8975597705
 21
302.0083649946
 31
0.0
  0
LINE
  5
102
330
1F
100
AcDbEntity
  8
0
  6
Continuous
 62
     7
370
    15
100
AcDbLine
 10
455.400209197
 20
302.0083649946
 30
0.0
 11
455.400209197
 21
332.0083633928
 31
0.0
  0
LINE
  5
103
330
1F
100
AcDbEntity
  8
0
  6
Continuous
 62
     7
370
    15
100
AcDbLine
 10
395.400221714
 20
537.0083643986
 30
0.0
 11
395.400221714
 21
332.0083633928
 31
0.0
  0
LINE
  5
104
330
1F
100
AcDbEntity
  8
0
  6
Continuous
 62
     7
370
    15
100
AcDbLine
 10
407.8975573863
 20
332.0083633928
 30
0.0
 11
407.8975573863
 21
537.0083643986
 31
0.0
  0
LINE
  5
105
330
1F
100
AcDbEntity
  8
0
  6
Continuous
 62
     7
370
    15
100
AcDbLine
 10
375.4002109851
 20
567.0083655907
 30
0.0
 11
387.8975615587
 21
567.0083655907
 31
0.0
  0
SPLINE
  5
106
330
1F
100
AcDbEntity
  8
0
  6
Continuous
 62
     7
370
    15
100
AcDbSpline
210
0.0
220
0.0
230
1.0
 70
    24
 71
     3
 72
    38
 73
    34
 74
     0
 42
0.00000001
 43
0.00000001
 12
1.0
 22
0.0
 32
0.0
 13
1.0
 23
0.0
 33
0.0
 40
0.0
 40
0.0
 40
0.0
 40
0.0
 40
0.0624999999999991
 40
0.0624999999999991
 40
0.0937499999999989
 40
0.0937499999999989
 40
0.1249999999999988
 40
0.1249999999999988
 40
0.2499999999999988
 40
0.2499999999999988
 40
0.2812499999999988
 40
0.2812499999999988
 40
0.3124999999999988
 40
0.3124999999999988
 40
0.3749999999999995
 40
0.3749999999999995
 40
0.5000000000000017
 40
0.5000000000000017
 40
0.5312500000000023
 40
0.5312500000000023
 40
0.562500000000003
 40
0.562500000000003
 40
0.6250000000000024
 40
0.6250000000000024
 40
0.6875000000000019
 40
0.6875000000000019
 40
0.7500000000000012
 40
0.7500000000000012
 40
0.8750000000000014
 40
0.8750000000000014
 40
0.9375000000000008
 40
0.9375000000000008
 40
1.0
 40
1.0
 40
1.0
 40
1.0
 10
387.8975571928444
 20
567.0083637404143
 30
0.0
 10
387.8975571928445
 20
567.0083637404143
 30
0.0
 10
387.8975571928444
 20
566.9609604101834
 30
0.0
 10
387.8975571928444
 20
566.8165227526499
 30
0.0
 10
387.8975571928445
 20
566.756049892553
 30
0.0
 10
387.8975571928443
 20
566.6119385468844
 30
0.0
 10
387.8975571928443
 20
566.5281865393554
 30
0.0
 10
387.8975571928443
 20
566.05186968734
 30
0.0
 10
387.8975571928444
 20
565.4882659407011
 30
0.0
 10
387.8975571928443
 20
564.553700150073
 30
0.0
 10
387.8975571928444
 20
564.355181429978
 30
0.0
 10
387.8975571928443
 20
563.934459854726
 30
0.0
 10
387.8975571928444
 20
563.7124295558418
 30
0.0
 10
387.8975571928443
 20
563.0181939300935
 30
0.0
 10
387.8975571928443
 20
562.5156868343284
 30
0.0
 10
387.8975571928444
 20
560.8918477549277
 30
0.0
 10
387.8975571928445
 20
559.6553345183681
 30
0.0
 10
387.8975571928444
 20
557.9093742606116
 30
0.0
 10
387.8975571928444
 20
557.5509717922732
 30
0.0
 10
387.8975571928443
 20
556.8217411290931
 30
0.0
 10
387.8975571928443
 20
556.4500856602333
 30
0.0
 10
387.8975571928444
 20
555.3143082715533
 30
0.0
 10
387.8975571928444
 20
554.5294243863959
 30
0.0
 10
387.8975571928444
 20
552.9046854236409
 30
0.0
 10
387.8975571928445
 20
552.064832142454
 30
0.0
 10
387.8975571928443
 20
550.3289845233069
 30
0.0
 10
387.8975571928443
 20
549.4282816332346
 30
0.0
 10
387.8975571928443
 20
546.6948055416563
 30
0.0
 10
387.8975571928444
 20
544.8201226162736
 30
0.0
 10
387.8975571928445
 20
541.9306019746433
 30
0.0
 10
387.8975571928444
 20
540.9535689362931
 30
0.0
 10
387.8975571928443
 20
538.9759813250524
 30
0.0
 10
387.8975571928443
 20
537.9905491525576
 30
0.0
 10
387.8975571928444
 20
537.0083637404142
 30
0.0
  0
LINE
  5
107
330
1F
100
AcDbEntity
  8
0
  6
Continuous
 62
     7
370
    15
100
AcDbLine
 10
387.8975615587
 20
537.0083643986
 30
0.0
 11
375.4002109851
 21
537.0083643986
 31
0.0
  0
SPLINE
  5
108
330
1F
100
AcDbEntity
  8
0
  6
Continuous
 62
     7
370
    15
100
AcDbSpline
210
0.0
220
0.0
230
1.0
 70
    24
 71
     3
 72
    37
 73
    33
 74
     0
 42
0.00000001
 43
0.00000001
 12
1.0
 22
0.0
 32
0.0
 13
1.0
 23
0.0
 33
0.0
 40
0.0
 40
0.0
 40
0.0
 40
0.0
 40
0.1250000000000012
 40
0.1250000000000012
 40
0.1875000000000017
 40
0.1875000000000017
 40
0.2500000000000022
 40
0.2500000000000022
 40
0.3125000000000028
 40
0.3125000000000028
 40
0.3750000000000032
 40
0.3750000000000032
 40
0.5000000000000042
 40
0.5000000000000042
 40
0.5312500000000041
 40
0.5312500000000041
 40
0.5625000000000038
 40
0.5625000000000038
 40
0.6250000000000034
 40
0.6250000000000034
 40
0.7500000000000033
 40
0.7500000000000033
 40
0.7812500000000028
 40
0.7812500000000028
 40
0.8125000000000022
 40
0.8125000000000022
 40
0.8750000000000014
 40
0.9375000000000008
 40
0.9375000000000008
 40
0.9687500000000003
 40
0.9687500000000003
 40
1.0
 40
1.0
 40
1.0
 40
1.0
 10
375.4002149018045
 20
537.0083637404142
 30
0.0
 10
375.4002149018045
 20
538.9731484829084
 30
0.0
 10
375.4002149018045
 20
540.9310121079726
 30
0.0
 10
375.4002149018045
 20
543.8570336983993
 30
0.0
 10
375.4002149018045
 20
544.8177835782301
 30
0.0
 10
375.4002149018045
 20
546.6999693612998
 30
0.0
 10
375.4002149018045
 20
547.623261122262
 30
0.0
 10
375.4002149018045
 20
549.4345654883572
 30
0.0
 10
375.4002149018045
 20
550.3225790015646
 30
0.0
 10
375.4002149018045
 20
552.0626192714699
 30
0.0
 10
375.4002149018045
 20
552.9171093365361
 30
0.0
 10
375.4002149018045
 20
555.3712571613289
 30
0.0
 10
375.4002149018045
 20
556.8805131348598
 30
0.0
 10
375.4002149018046
 20
558.6107363662261
 30
0.0
 10
375.4002149018045
 20
558.948892997779
 30
0.0
 10
375.4002149018045
 20
559.6091983069643
 30
0.0
 10
375.4002149018045
 20
559.9321946387388
 30
0.0
 10
375.4002149018045
 20
560.869476368822
 30
0.0
 10
375.4002149018045
 20
561.451604440515
 30
0.0
 10
375.4002149018045
 20
563.0740100495519
 30
0.0
 10
375.4002149018045
 20
563.991467897553
 30
0.0
 10
375.4002149018045
 20
564.9289754827172
 30
0.0
 10
375.4002149018045
 20
565.1062854722444
 30
0.0
 10
375.4002149018045
 20
565.4361887752033
 30
0.0
 10
375.4002149018045
 20
565.5891305289335
 30
0.0
 10
375.4002149018045
 20
566.0125973931093
 30
0.0
 10
375.4002149018045
 20
566.483096851062
 30
0.0
 10
375.4002149018045
 20
566.7683035524857
 30
0.0
 10
375.4002149018045
 20
566.9118400402348
 30
0.0
 10
375.4002149018045
 20
566.9479368949361
 30
0.0
 10
375.4002149018045
 20
566.9962266316467
 30
0.0
 10
375.4002149018045
 20
567.0083637404142
 30
0.0
 10
375.4002149018045
 20
567.0083637404143
 30
0.0
  0
LINE
  5
109
330
1F
100
AcDbEntity
  8
0
  6
Continuous
 62
     7
370
    15
100
AcDbLine
 10
375.4002109851
 20
332.0083633928
 30
0.0
 11
387.8975615587
 21
332.0083633928
 31
0.0
  0
LINE
  5
10A
330
1F
100
AcDbEntity
  8
0
  6
Continuous
 62
     7
370
    15
100
AcDbLine
 10
387.8975615587
 20
302.0083649946
 30
0.0
 11
375.4002109851
 21
302.0083649946
 31
0.0
  0
SPLINE
  5
10B
330
1F
100
AcDbEntity
  8
0
  6
Continuous
 62
     7
370
    15
100
AcDbSpline
210
0.0
220
0.0
230
1.0
 70
    24
 71
     3
 72
    37
 73
    33
 74
     0
 42
0.00000001
 43
0.00000001
 12
1.0
 22
0.0
 32
0.0
 13
1.0
 23
0.0
 33
0.0
 40
0.0
 40
0.0
 40
0.0
 40
0.0
 40
0.1250000000000019
 40
0.1250000000000019
 40
0.1562500000000022
 40
0.1562500000000022
 40
0.1875000000000025
 40
0.1875000000000025
 40
0.2500000000000023
 40
0.3125000000000022
 40
0.3125000000000022
 40
0.3437500000000019
 40
0.3437500000000019
 40
0.3750000000000017
 40
0.3750000000000017
 40
0.5000000000000012
 40
0.5000000000000012
 40
0.5625000000000008
 40
0.5625000000000008
 40
0.5937500000000009
 40
0.5937500000000009
 40
0.6250000000000009
 40
0.6250000000000009
 40
0.7500000000000011
 40
0.7500000000000011
 40
0.7812500000000011
 40
0.7812500000000011
 40
0.812500000000001
 40
0.812500000000001
 40
0.8750000000000007
 40
0.8750000000000007
 40
1.0
 40
1.0
 40
1.0
 40
1.0
 10
375.4002149018045
 20
302.0083637404143
 30
0.0
 10
375.4002149018045
 20
302.0083637404143
 30
0.0
 10
375.4002149018045
 20
302.1962850271436
 30
0.0
 10
375.4002149018045
 20
302.671391672969
 30
0.0
 10
375.4002149018045
 20
302.7788506035216
 30
0.0
 10
375.4002149018045
 20
303.016951006491
 30
0.0
 10
375.4002149018045
 20
303.1473189873408
 30
0.0
 10
375.4002149018045
 20
303.5717479202923
 30
0.0
 10
375.4002149018045
 20
304.2263630755291
 30
0.0
 10
375.4002149018045
 20
305.055667651804
 30
0.0
 10
375.4002149018045
 20
305.7440125201758
 30
0.0
 10
375.4002149018045
 20
305.9845413109357
 30
0.0
 10
375.4002149018045
 20
306.4881482690546
 30
0.0
 10
375.4002149018045
 20
306.7519820919954
 30
0.0
 10
375.4002149018045
 20
308.1188761289543
 30
0.0
 10
375.4002149018045
 20
309.357423963802
 30
0.0
 10
375.4002149018045
 20
311.426514218002
 30
0.0
 10
375.4002149018045
 20
312.151676514375
 30
0.0
 10
375.4002149018045
 20
313.294169659356
 30
0.0
 10
375.4002149018045
 20
313.6852927142664
 30
0.0
 10
375.4002149018045
 20
314.479484216774
 30
0.0
 10
375.4002149018045
 20
314.8824652776916
 30
0.0
 10
375.4002149018045
 20
316.9262718149465
 30
0.0
 10
375.4002149018045
 20
318.6529729947171
 30
0.0
 10
375.4002149018045
 20
320.9260391405214
 30
0.0
 10
375.4002149018045
 20
321.3864386451105
 30
0.0
 10
375.4002149018045
 20
322.3190270623102
 30
0.0
 10
375.4002149018045
 20
322.7924264332097
 30
0.0
 10
375.4002149018045
 20
324.2160040494501
 30
0.0
 10
375.4002149018045
 20
325.1725959580249
 30
0.0
 10
375.4002149018045
 20
328.0643693100293
 30
0.0
 10
375.4002149018045
 20
330.0213342981577
 30
0.0
 10
375.4002149018045
 20
332.0083637404143
 30
0.0
  0
SPLINE
  5
10C
330
1F
100
AcDbEntity
  8
0
  6
Continuous
 62
     7
370
    15
100
AcDbSpline
210
0.0
220
0.0
230
1.0
 70
    24
 71
     3
 72
    34
 73
    30
 74
     0
 42
0.00000001
 43
0.00000001
 12
1.0
 22
0.0
 32
0.0
 13
1.0
 23
0.0
 33
0.0
 40
0.0
 40
0.0
 40
0.0
 40
0.0
 40
0.0625000000000006
 40
0.0625000000000006
 40
0.0937500000000007
 40
0.0937500000000007
 40
0.1250000000000009
 40
0.1250000000000009
 40
0.2500000000000013
 40
0.2500000000000013
 40
0.3125000000000013
 40
0.3125000000000013
 40
0.3750000000000014
 40
0.3750000000000014
 40
0.5000000000000016
 40
0.5000000000000016
 40
0.6250000000000017
 40
0.6250000000000017
 40
0.6875000000000012
 40
0.6875000000000012
 40
0.7500000000000008
 40
0.7500000000000008
 40
0.8750000000000007
 40
0.8750000000000007
 40
0.9062500000000003
 40
0.9062500000000003
 40
0.9375000000000001
 40
0.9375000000000001
 40
1.0
 40
1.0
 40
1.0
 40
1.0
 10
387.8975571928444
 20
332.0083637404142
 30
0.0
 10
387.8975571928445
 20
331.0272224124685
 30
0.0
 10
387.8975571928445
 20
330.0435759047772
 30
0.0
 10
387.8975571928445
 20
328.5642335016588
 30
0.0
 10
387.8975571928444
 20
328.0702340468451
 30
0.0
 10
387.8975571928443
 20
327.0920231307062
 30
0.0
 10
387.8975571928445
 20
326.606415542047
 30
0.0
 10
387.8975571928443
 20
324.1955718158005
 30
0.0
 10
387.8975571928443
 20
322.3214254076019
 30
0.0
 10
387.8975571928443
 20
319.5923994386366
 30
0.0
 10
387.8975571928444
 20
318.6919627223876
 30
0.0
 10
387.8975571928443
 20
316.9532135118566
 30
0.0
 10
387.8975571928443
 20
316.112506621327
 30
0.0
 10
387.8975571928443
 20
313.6742976235466
 30
0.0
 10
387.8975571928444
 20
312.1598880813889
 30
0.0
 10
387.8975571928443
 20
309.3617459049634
 30
0.0
 10
387.8975571928444
 20
308.1244966408926
 30
0.0
 10
387.8975571928443
 20
306.5007745535851
 30
0.0
 10
387.8975571928445
 20
305.9985111890098
 30
0.0
 10
387.8975571928443
 20
305.0735840079216
 30
0.0
 10
387.8975571928443
 20
304.6503837678116
 30
0.0
 10
387.8975571928444
 20
303.528174676145
 30
0.0
 10
387.8975571928443
 20
302.9646474964137
 30
0.0
 10
387.8975571928445
 20
302.4885026773421
 30
0.0
 10
387.8975571928445
 20
302.4047890842725
 30
0.0
 10
387.8975571928445
 20
302.2607464777813
 30
0.0
 10
387.8975571928443
 20
302.2003034457013
 30
0.0
 10
387.8975571928444
 20
302.0557732566184
 30
0.0
 10
387.8975571928443
 20
302.0083637404143
 30
0.0
 10
387.8975571928444
 20
302.0083637404143
 30
0.0
  0
LINE
  5
10D
330
1F
100
AcDbEntity
  8
0
  6
Continuous
 62
     7
370
    15
100
AcDbLine
 10
375.4002109851
 20
537.0083643986
 30
0.0
 11
375.4002109851
 21
332.0083633928
 31
0.0
  0
LINE
  5
10E
330
1F
100
AcDbEntity
  8
0
  6
Continuous
 62
     7
370
    15
100
AcDbLine
 10
387.8975615587
 20
332.0083633928
 30
0.0
 11
387.8975615587
 21
537.0083643986
 31
0.0
  0
LINE
  5
10F
330
1F
100
AcDbEntity
  8
0
  6
Continuous
 62
     7
370
    15
100
AcDbLine
 10
355.4002151575
 20
567.0083655907
 30
0.0
 11
367.8975508298
 21
567.0083655907
 31
0.0
  0
SPLINE
  5
110
330
1F
100
AcDbEntity
  8
0
  6
Continuous
 62
     7
370
    15
100
AcDbSpline
210
0.0
220
0.0
230
1.0
 70
    24
 71
     3
 72
    40
 73
    36
 74
     0
 42
0.00000001
 43
0.00000001
 12
1.0
 22
0.0
 32
0.0
 13
1.0
 23
0.0
 33
0.0
 40
0.0
 40
0.0
 40
0.0
 40
0.0
 40
0.0625000000000011
 40
0.0625000000000011
 40
0.0937500000000016
 40
0.0937500000000016
 40
0.1250000000000021
 40
0.1250000000000021
 40
0.2500000000000044
 40
0.2500000000000044
 40
0.3125000000000058
 40
0.3125000000000058
 40
0.3437500000000069
 40
0.3437500000000069
 40
0.375000000000008
 40
0.375000000000008
 40
0.5000000000000108
 40
0.5000000000000108
 40
0.5312500000000113
 40
0.5312500000000113
 40
0.5625000000000119
 40
0.5625000000000119
 40
0.625000000000011
 40
0.625000000000011
 40
0.7500000000000073
 40
0.7500000000000073
 40
0.7812500000000064
 40
0.7812500000000064
 40
0.8125000000000056
 40
0.8125000000000056
 40
0.8750000000000038
 40
0.8750000000000038
 40
0.9375000000000019
 40
0.9375000000000019
 40
1.0
 40
1.0
 40
1.0
 40
1.0
 10
367.8975571928444
 20
567.0083637404143
 30
0.0
 10
367.8975571928444
 20
567.0083637404142
 30
0.0
 10
367.8975571928443
 20
566.9613823420478
 30
0.0
 10
367.8975571928443
 20
566.8192994394087
 30
0.0
 10
367.8975571928444
 20
566.7599824281941
 30
0.0
 10
367.8975571928444
 20
566.6169807049926
 30
0.0
 10
367.8975571928443
 20
566.5331345554797
 30
0.0
 10
367.8975571928444
 20
566.0573365581556
 30
0.0
 10
367.8975571928444
 20
565.4947334714456
 30
0.0
 10
367.8975571928444
 20
564.3834694819715
 30
0.0
 10
367.8975571928444
 20
563.96817501435
 30
0.0
 10
367.8975571928444
 20
563.2756888961072
 30
0.0
 10
367.8975571928443
 20
563.032916982114
 30
0.0
 10
367.8975571928444
 20
562.5293940377564
 30
0.0
 10
367.8975571928444
 20
562.2680491422688
 30
0.0
 10
367.8975571928444
 20
560.9141451321359
 30
0.0
 10
367.8975571928444
 20
559.6813885002302
 30
0.0
 10
367.8975571928444
 20
557.9515276014946
 30
0.0
 10
367.8975571928444
 20
557.5960252979496
 30
0.0
 10
367.8975571928444
 20
556.8655620617758
 30
0.0
 10
367.8975571928444
 20
556.4902900360844
 30
0.0
 10
367.8975571928444
 20
555.3478624744313
 30
0.0
 10
367.8975571928444
 20
554.5601033186713
 30
0.0
 10
367.8975571928444
 20
552.1202310494798
 30
0.0
 10
367.8975571928444
 20
550.3922777524762
 30
0.0
 10
367.8975571928444
 20
548.1004338735507
 30
0.0
 10
367.8975571928443
 20
547.6358977080201
 30
0.0
 10
367.8975571928443
 20
546.7040257393168
 30
0.0
 10
367.8975571928443
 20
546.2354167130536
 30
0.0
 10
367.8975571928444
 20
544.8216926045402
 30
0.0
 10
367.8975571928443
 20
543.868699292223
 30
0.0
 10
367.8975571928444
 20
541.9418723587361
 30
0.0
 10
367.8975571928444
 20
540.9680393489211
 30
0.0
 10
367.8975571928444
 20
538.9991022101242
 30
0.0
 10
367.8975571928443
 20
537.9989777062322
 30
0.0
 10
367.8975571928444
 20
537.0083637404142
 30
0.0
  0
LINE
  5
111
330
1F
100
AcDbEntity
  8
0
  6
Continuous
 62
     7
370
    15
100
AcDbLine
 10
367.8975508298
 20
537.0083643986
 30
0.0
 11
355.4002151575
 21
537.0083643986
 31
0.0
  0
SPLINE
  5
112
330
1F
100
AcDbEntity
  8
0
  6
Continuous
 62
     7
370
    15
100
AcDbSpline
210
0.0
220
0.0
230
1.0
 70
    24
 71
     3
 72
    35
 73
    31
 74
     0
 42
0.00000001
 43
0.00000001
 12
1.0
 22
0.0
 32
0.0
 13
1.0
 23
0.0
 33
0.0
 40
0.0
 40
0.0
 40
0.0
 40
0.0
 40
0.0624999999999991
 40
0.0624999999999991
 40
0.1249999999999981
 40
0.1249999999999981
 40
0.2499999999999981
 40
0.2499999999999981
 40
0.2812499999999987
 40
0.2812499999999987
 40
0.3124999999999994
 40
0.3124999999999994
 40
0.3749999999999987
 40
0.3749999999999987
 40
0.4999999999999973
 40
0.4999999999999973
 40
0.5312499999999982
 40
0.5312499999999982
 40
0.562499999999999
 40
0.562499999999999
 40
0.624999999999999
 40
0.6874999999999989
 40
0.6874999999999989
 40
0.7499999999999989
 40
0.7499999999999989
 40
0.8749999999999997
 40
0.8749999999999997
 40
0.9374999999999998
 40
0.9374999999999998
 40
1.0
 40
1.0
 40
1.0
 40
1.0
 10
355.4002149018044
 20
537.0083637404142
 30
0.0
 10
355.4002149018045
 20
537.9935454714221
 30
0.0
 10
355.4002149018044
 20
538.9799401808457
 30
0.0
 10
355.4002149018045
 20
540.9552099056159
 30
0.0
 10
355.4002149018044
 20
541.9471091337697
 30
0.0
 10
355.4002149018044
 20
544.8610367555206
 30
0.0
 10
355.4002149018045
 20
546.7424741854815
 30
0.0
 10
355.4002149018045
 20
549.0187182046706
 30
0.0
 10
355.4002149018044
 20
549.4701547930714
 30
0.0
 10
355.4002149018045
 20
550.3652858606321
 30
0.0
 10
355.4002149018045
 20
550.8101546542973
 30
0.0
 10
355.4002149018046
 20
552.1204584662694
 30
0.0
 10
355.4002149018045
 20
552.9636473756785
 30
0.0
 10
355.4002149018044
 20
555.4051366872314
 30
0.0
 10
355.4002149018044
 20
556.916192229946
 30
0.0
 10
355.4002149018044
 20
558.6561257018742
 30
0.0
 10
355.4002149018044
 20
558.9965664709516
 30
0.0
 10
355.4002149018044
 20
559.6549868924092
 30
0.0
 10
355.4002149018044
 20
559.9739509011089
 30
0.0
 10
355.4002149018045
 20
560.9006677452182
 30
0.0
 10
355.4002149018044
 20
562.0559646752031
 30
0.0
 10
355.4002149018044
 20
563.0530315055922
 30
0.0
 10
355.4002149018044
 20
563.9699235586621
 30
0.0
 10
355.4002149018044
 20
564.3899348198246
 30
0.0
 10
355.4002149018044
 20
565.5049069514806
 30
0.0
 10
355.4002149018044
 20
566.0626708389347
 30
0.0
 10
355.4002149018044
 20
566.6274686084901
 30
0.0
 10
355.4002149018044
 20
566.7701082437981
 30
0.0
 10
355.4002149018044
 20
566.961265858453
 30
0.0
 10
355.4002149018044
 20
567.0083637404142
 30
0.0
 10
355.4002149018044
 20
567.0083637404143
 30
0.0
  0
LINE
  5
113
330
1F
100
AcDbEntity
  8
0
  6
Continuous
 62
     7
370
    15
100
AcDbLine
 10
355.4002151575
 20
332.0083633928
 30
0.0
 11
367.8975508298
 21
332.0083633928
 31
0.0
  0
LINE
  5
114
330
1F
100
AcDbEntity
  8
0
  6
Continuous
 62
     7
370
    15
100
AcDbLine
 10
367.8975508298
 20
302.0083649946
 30
0.0
 11
355.4002151575
 21
302.0083649946
 31
0.0
  0
SPLINE
  5
115
330
1F
100
AcDbEntity
  8
0
  6
Continuous
 62
     7
370
    15
100
AcDbSpline
210
0.0
220
0.0
230
1.0
 70
    24
 71
     3
 72
    30
 73
    26
 74
     0
 42
0.00000001
 43
0.00000001
 12
1.0
 22
0.0
 32
0.0
 13
1.0
 23
0.0
 33
0.0
 40
0.0
 40
0.0
 40
0.0
 40
0.0
 40
0.1249999999999997
 40
0.1249999999999997
 40
0.1874999999999994
 40
0.1874999999999994
 40
0.2499999999999991
 40
0.2499999999999991
 40
0.3749999999999992
 40
0.3749999999999992
 40
0.4374999999999993
 40
0.4374999999999993
 40
0.4999999999999993
 40
0.4999999999999993
 40
0.5624999999999994
 40
0.5624999999999994
 40
0.6249999999999993
 40
0.6249999999999993
 40
0.7499999999999993
 40
0.7499999999999993
 40
0.8124999999999996
 40
0.8124999999999996
 40
0.8749999999999998
 40
0.8749999999999998
 40
1.0
 40
1.0
 40
1.0
 40
1.0
 10
355.4002149018044
 20
302.0083637404143
 30
0.0
 10
355.4002149018045
 20
302.0083637404143
 30
0.0
 10
355.4002149018044
 20
302.1951819153364
 30
0.0
 10
355.4002149018044
 20
302.7602666249634
 30
0.0
 10
355.4002149018044
 20
302.9980527662098
 30
0.0
 10
355.4002149018045
 20
303.5612532042654
 30
0.0
 10
355.4002149018044
 20
303.8869832766388
 30
0.0
 10
355.4002149018044
 20
304.9941582729961
 30
0.0
 10
355.4002149018044
 20
305.9043025532453
 30
0.0
 10
355.4002149018044
 20
307.5405301160431
 30
0.0
 10
355.4002149018044
 20
308.1239232014171
 30
0.0
 10
355.4002149018044
 20
309.3596071050354
 30
0.0
 10
355.4002149018044
 20
310.0126737881708
 30
0.0
 10
355.4002149018046
 20
311.3889969012074
 30
0.0
 10
355.4002149018044
 20
312.1122496546564
 30
0.0
 10
355.4002149018046
 20
313.630722173818
 30
0.0
 10
355.4002149018044
 20
314.4302165463285
 30
0.0
 10
355.4002149018046
 20
316.8894226835059
 30
0.0
 10
355.4002149018044
 20
318.6191146362294
 30
0.0
 10
355.4002149018045
 20
321.3479263000664
 30
0.0
 10
355.4002149018044
 20
322.2808522265782
 30
0.0
 10
355.4002149018044
 20
324.1904313680713
 30
0.0
 10
355.4002149018044
 20
325.1520309992724
 30
0.0
 10
355.4002149018046
 20
328.0565870573973
 30
0.0
 10
355.4002149018045
 20
330.0191107668096
 30
0.0
 10
355.4002149018044
 20
332.0083637404142
 30
0.0
  0
SPLINE
  5
116
330
1F
100
AcDbEntity
  8
0
  6
Continuous
 62
     7
370
    15
100
AcDbSpline
210
0.0
220
0.0
230
1.0
 70
    24
 71
     3
 72
    38
 73
    34
 74
     0
 42
0.00000001
 43
0.00000001
 12
1.0
 22
0.0
 32
0.0
 13
1.0
 23
0.0
 33
0.0
 40
0.0
 40
0.0
 40
0.0
 40
0.0
 40
0.0624999999999998
 40
0.0624999999999998
 40
0.1249999999999994
 40
0.1249999999999994
 40
0.2499999999999987
 40
0.2499999999999987
 40
0.3124999999999983
 40
0.3124999999999983
 40
0.3749999999999979
 40
0.3749999999999979
 40
0.4374999999999976
 40
0.4374999999999976
 40
0.4687499999999976
 40
0.4687499999999976
 40
0.4999999999999976
 40
0.4999999999999976
 40
0.6249999999999997
 40
0.6249999999999997
 40
0.6875000000000003
 40
0.6875000000000003
 40
0.7187500000000008
 40
0.7187500000000008
 40
0.7500000000000012
 40
0.7500000000000012
 40
0.875
 40
0.875
 40
0.9062499999999999
 40
0.9062499999999999
 40
0.9374999999999998
 40
0.9374999999999998
 40
1.0
 40
1.0
 40
1.0
 40
1.0
 10
367.8975571928444
 20
332.0083637404142
 30
0.0
 10
367.8975571928444
 20
331.0236516954415
 30
0.0
 10
367.8975571928443
 20
330.0357373355438
 30
0.0
 10
367.8975571928444
 20
328.0532790018549
 30
0.0
 10
367.8975571928443
 20
327.0730703995272
 30
0.0
 10
367.8975571928444
 20
324.1759633071119
 30
0.0
 10
367.8975571928444
 20
322.2969964902233
 30
0.0
 10
367.8975571928444
 20
319.5581947540377
 30
0.0
 10
367.8975571928444
 20
318.6565965767861
 30
0.0
 10
367.8975571928444
 20
316.9196633861728
 30
0.0
 10
367.8975571928444
 20
316.0793487986807
 30
0.0
 10
367.8975571928444
 20
314.4538643698379
 30
0.0
 10
367.8975571928444
 20
313.6686962588247
 30
0.0
 10
367.8975571928444
 20
312.5326422093316
 30
0.0
 10
367.8975571928444
 20
312.1609195372045
 30
0.0
 10
367.8975571928443
 20
311.431608321932
 30
0.0
 10
367.8975571928443
 20
311.0730924186236
 30
0.0
 10
367.8975571928444
 20
309.3324621305555
 30
0.0
 10
367.8975571928443
 20
308.0990545662614
 30
0.0
 10
367.8975571928444
 20
306.4790691806224
 30
0.0
 10
367.8975571928444
 20
305.9777085198075
 30
0.0
 10
367.8975571928444
 20
305.2850865050218
 30
0.0
 10
367.8975571928443
 20
305.0638796651361
 30
0.0
 10
367.8975571928444
 20
304.6460577009736
 30
0.0
 10
367.8975571928443
 20
304.448835163741
 30
0.0
 10
367.8975571928444
 20
303.5201024587972
 30
0.0
 10
367.8975571928443
 20
302.9591195357517
 30
0.0
 10
367.8975571928444
 20
302.4850409760574
 30
0.0
 10
367.8975571928444
 20
302.401683470638
 30
0.0
 10
367.8975571928444
 20
302.2582904615977
 30
0.0
 10
367.8975571928444
 20
302.1983312983505
 30
0.0
 10
367.8975571928444
 20
302.0553854987197
 30
0.0
 10
367.8975571928443
 20
302.0083637404143
 30
0.0
 10
367.8975571928444
 20
302.0083637404143
 30
0.0
  0
LINE
  5
117
330
1F
100
AcDbEntity
  8
0
  6
Continuous
 62
     7
370
    15
100
AcDbLine
 10
355.4002151575
 20
537.0083643986
 30
0.0
 11
355.4002151575
 21
332.0083633928
 31
0.0
  0
LINE
  5
118
330
1F
100
AcDbEntity
  8
0
  6
Continuous
 62
     7
370
    15
100
AcDbLine
 10
367.8975508298
 20
332.0083633928
 30
0.0
 11
367.8975508298
 21
537.0083643986
 31
0.0
  0
LINE
  5
119
330
1F
100
AcDbEntity
  8
0
  6
Continuous
 62
     7
370
    15
100
AcDbLine
 10
335.4002193298
 20
567.0083655907
 30
0.0
 11
347.8975550022
 21
567.0083655907
 31
0.0
  0
LINE
  5
11A
330
1F
100
AcDbEntity
  8
0
  6
Continuous
 62
     7
370
    15
100
AcDbLine
 10
347.8975550022
 20
537.0083643986
 30
0.0
 11
335.4002193298
 21
537.0083643986
 31
0.0
  0
SPLINE
  5
11B
330
1F
100
AcDbEntity
  8
0
  6
Continuous
 62
     7
370
    15
100
AcDbSpline
210
0.0
220
0.0
230
1.0
 70
    24
 71
     3
 72
    36
 73
    32
 74
     0
 42
0.00000001
 43
0.00000001
 12
1.0
 22
0.0
 32
0.0
 13
1.0
 23
0.0
 33
0.0
 40
0.0
 40
0.0
 40
0.0
 40
0.0
 40
0.0624999999999982
 40
0.0624999999999982
 40
0.1249999999999963
 40
0.1249999999999963
 40
0.1874999999999944
 40
0.1874999999999944
 40
0.2187499999999935
 40
0.2187499999999935
 40
0.2499999999999926
 40
0.2499999999999926
 40
0.3749999999999918
 40
0.3749999999999918
 40
0.4374999999999914
 40
0.4374999999999914
 40
0.4687499999999919
 40
0.4687499999999919
 40
0.4999999999999923
 40
0.4999999999999923
 40
0.6249999999999942
 40
0.6249999999999942
 40
0.6874999999999951
 40
0.6874999999999951
 40
0.749999999999996
 40
0.749999999999996
 40
0.8749999999999979
 40
0.8749999999999979
 40
0.937499999999999
 40
0.937499999999999
 40
1.0
 40
1.0
 40
1.0
 40
1.0
 10
335.4002149018045
 20
537.0083637404142
 30
0.0
 10
335.4002149018045
 20
538.0039107840875
 30
0.0
 10
335.4002149018045
 20
539.0105603430759
 30
0.0
 10
335.4002149018045
 20
540.9950038804343
 30
0.0
 10
335.4002149018045
 20
541.9757013609159
 30
0.0
 10
335.4002149018045
 20
543.9146080588844
 30
0.0
 10
335.4002149018045
 20
544.8728161662494
 30
0.0
 10
335.4002149018045
 20
546.2931757429562
 30
0.0
 10
335.4002149018045
 20
546.7637983812136
 30
0.0
 10
335.4002149018045
 20
547.6993048699514
 30
0.0
 10
335.4002149018045
 20
548.1653457803479
 30
0.0
 10
335.4002149018045
 20
550.4665165008004
 30
0.0
 10
335.4002149018044
 20
552.1988268325078
 30
0.0
 10
335.4002149018045
 20
554.6415172724019
 30
0.0
 10
335.4002149018045
 20
555.4295880817705
 30
0.0
 10
335.4002149018045
 20
556.5716046820849
 30
0.0
 10
335.4002149018045
 20
556.9460449010081
 30
0.0
 10
335.4002149018045
 20
557.6734886415542
 30
0.0
 10
335.4002149018044
 20
558.0274879564614
 30
0.0
 10
335.4002149018045
 20
559.7498490361794
 30
0.0
 10
335.4002149018045
 20
560.9766482907735
 30
0.0
 10
335.4002149018044
 20
562.5921950623823
 30
0.0
 10
335.4002149018044
 20
563.0951220571778
 30
0.0
 10
335.4002149018044
 20
564.0066683574352
 30
0.0
 10
335.4002149018044
 20
564.41695999449
 30
0.0
 10
335.4002149018045
 20
565.5152306975841
 30
0.0
 10
335.4002149018045
 20
566.0718417884985
 30
0.0
 10
335.4002149018045
 20
566.6360152586691
 30
0.0
 10
335.4002149018045
 20
566.7760286638759
 30
0.0
 10
335.4002149018045
 20
566.9620822351482
 30
0.0
 10
335.4002149018045
 20
567.0083637404143
 30
0.0
 10
335.4002149018045
 20
567.0083637404143
 30
0.0
  0
SPLINE
  5
11C
330
1F
100
AcDbEntity
  8
0
  6
Continuous
 62
     7
370
    15
100
AcDbSpline
210
0.0
220
0.0
230
1.0
 70
    24
 71
     3
 72
    28
 73
    24
 74
     0
 42
0.00000001
 43
0.00000001
 12
1.0
 22
0.0
 32
0.0
 13
1.0
 23
0.0
 33
0.0
 40
0.0
 40
0.0
 40
0.0
 40
0.0
 40
0.1250000000000005
 40
0.1250000000000005
 40
0.1875000000000008
 40
0.1875000000000008
 40
0.2500000000000011
 40
0.2500000000000011
 40
0.3750000000000016
 40
0.3750000000000016
 40
0.5000000000000021
 40
0.5000000000000021
 40
0.5625000000000017
 40
0.5625000000000017
 40
0.6250000000000013
 40
0.6250000000000013
 40
0.7500000000000006
 40
0.7500000000000006
 40
0.8125000000000004
 40
0.8125000000000004
 40
0.8750000000000002
 40
0.8750000000000002
 40
1.0
 40
1.0
 40
1.0
 40
1.0
 10
347.8975571928444
 20
567.0083637404143
 30
0.0
 10
347.8975571928444
 20
567.0083637404143
 30
0.0
 10
347.8975571928444
 20
566.8223254592472
 30
0.0
 10
347.8975571928444
 20
566.2586344376616
 30
0.0
 10
347.8975571928444
 20
566.0215081628968
 30
0.0
 10
347.8975571928444
 20
565.4601839619829
 30
0.0
 10
347.8975571928444
 20
565.1354619732488
 30
0.0
 10
347.8975571928444
 20
564.0312796221265
 30
0.0
 10
347.8975571928444
 20
563.1230968190189
 30
0.0
 10
347.8975571928444
 20
560.9440598041627
 30
0.0
 10
347.8975571928444
 20
559.7084601104272
 30
0.0
 10
347.8975571928443
 20
557.6456885717622
 30
0.0
 10
347.8975571928444
 20
556.9228021039494
 30
0.0
 10
347.8975571928444
 20
555.4045307378202
 30
0.0
 10
347.8975571928444
 20
554.6050329849107
 30
0.0
 10
347.8975571928444
 20
552.1460413158864
 30
0.0
 10
347.8975571928444
 20
550.4156369105725
 30
0.0
 10
347.8975571928444
 20
547.6841680484242
 30
0.0
 10
347.8975571928443
 20
546.7496056294198
 30
0.0
 10
347.8975571928444
 20
544.8381778434168
 30
0.0
 10
347.8975571928444
 20
543.8754890141521
 30
0.0
 10
347.8975571928444
 20
540.9671720750814
 30
0.0
 10
347.8975571928444
 20
539.0014893884888
 30
0.0
 10
347.8975571928444
 20
537.0083637404143
 30
0.0
  0
LINE
  5
11D
330
1F
100
AcDbEntity
  8
0
  6
Continuous
 62
     7
370
    15
100
AcDbLine
 10
335.4002193298
 20
332.0083633928
 30
0.0
 11
347.8975550022
 21
332.0083633928
 31
0.0
  0
LINE
  5
11E
330
1F
100
AcDbEntity
  8
0
  6
Continuous
 62
     7
370
    15
100
AcDbLine
 10
347.8975550022
 20
302.0083649946
 30
0.0
 11
335.4002193298
 21
302.0083649946
 31
0.0
  0
SPLINE
  5
11F
330
1F
100
AcDbEntity
  8
0
  6
Continuous
 62
     7
370
    15
100
AcDbSpline
210
0.0
220
0.0
230
1.0
 70
    24
 71
     3
 72
    38
 73
    34
 74
     0
 42
0.00000001
 43
0.00000001
 12
1.0
 22
0.0
 32
0.0
 13
1.0
 23
0.0
 33
0.0
 40
0.0
 40
0.0
 40
0.0
 40
0.0
 40
0.1249999999999998
 40
0.1249999999999998
 40
0.1562499999999997
 40
0.1562499999999997
 40
0.1874999999999997
 40
0.1874999999999997
 40
0.2499999999999996
 40
0.2499999999999996
 40
0.3749999999999989
 40
0.3749999999999989
 40
0.4062499999999989
 40
0.4062499999999989
 40
0.4374999999999989
 40
0.4374999999999989
 40
0.4999999999999993
 40
0.4999999999999993
 40
0.5624999999999998
 40
0.5624999999999998
 40
0.5937499999999999
 40
0.5937499999999999
 40
0.6250000000000001
 40
0.6250000000000001
 40
0.7500000000000008
 40
0.7500000000000008
 40
0.812500000000001
 40
0.812500000000001
 40
0.8437500000000009
 40
0.8437500000000009
 40
0.8750000000000007
 40
0.8750000000000007
 40
1.0
 40
1.0
 40
1.0
 40
1.0
 10
335.4002149018045
 20
302.0083637404143
 30
0.0
 10
335.4002149018044
 20
302.0083637404143
 30
0.0
 10
335.4002149018044
 20
302.1940715037871
 30
0.0
 10
335.4002149018045
 20
302.6594515556771
 30
0.0
 10
335.4002149018045
 20
302.7642915184639
 30
0.0
 10
335.4002149018044
 20
302.9979478703124
 30
0.0
 10
335.4002149018044
 20
303.1271526684714
 30
0.0
 10
335.4002149018045
 20
303.5474296293052
 30
0.0
 10
335.4002149018045
 20
303.8714763908312
 30
0.0
 10
335.4002149018045
 20
304.9720624514139
 30
0.0
 10
335.4002149018044
 20
305.8758237759898
 30
0.0
 10
335.4002149018044
 20
307.2260090991259
 30
0.0
 10
335.4002149018045
 20
307.5079954964493
 30
0.0
 10
335.4002149018045
 20
308.0903166011137
 30
0.0
 10
335.4002149018045
 20
308.3903212191395
 30
0.0
 10
335.4002149018045
 20
309.3164421488795
 30
0.0
 10
335.4002149018045
 20
309.9686043292425
 30
0.0
 10
335.4002149018045
 20
311.3416949936558
 30
0.0
 10
335.4002149018045
 20
312.0626221511991
 30
0.0
 10
335.4002149018044
 20
313.196528621772
 30
0.0
 10
335.4002149018044
 20
313.5832656063008
 30
0.0
 10
335.4002149018045
 20
314.3746317944392
 30
0.0
 10
335.4002149018045
 20
314.7804005106575
 30
0.0
 10
335.4002149018045
 20
316.8404617303232
 30
0.0
 10
335.4002149018045
 20
318.5757955798393
 30
0.0
 10
335.4002149018045
 20
321.3065718410921
 30
0.0
 10
335.4002149018045
 20
322.2382813983003
 30
0.0
 10
335.4002149018045
 20
323.6690720202394
 30
0.0
 10
335.4002149018045
 20
324.1529693928412
 30
0.0
 10
335.4002149018044
 20
325.1226757950869
 30
0.0
 10
335.4002149018044
 20
325.6088580057836
 30
0.0
 10
335.4002149018045
 20
328.0462967924662
 30
0.0
 10
335.4002149018045
 20
330.0169449749039
 30
0.0
 10
335.4002149018045
 20
332.0083637404142
 30
0.0
  0
SPLINE
  5
120
330
1F
100
AcDbEntity
  8
0
  6
Continuous
 62
     7
370
    15
100
AcDbSpline
210
0.0
220
0.0
230
1.0
 70
    24
 71
     3
 72
    37
 73
    33
 74
     0
 42
0.00000001
 43
0.00000001
 12
1.0
 22
0.0
 32
0.0
 13
1.0
 23
0.0
 33
0.0
 40
0.0
 40
0.0
 40
0.0
 40
0.0
 40
0.0312499999999998
 40
0.0312499999999998
 40
0.0624999999999995
 40
0.0624999999999995
 40
0.1249999999999989
 40
0.1249999999999989
 40
0.2499999999999979
 40
0.2499999999999979
 40
0.2812499999999981
 40
0.2812499999999981
 40
0.3124999999999982
 40
0.3124999999999982
 40
0.3749999999999985
 40
0.4374999999999988
 40
0.4374999999999988
 40
0.4999999999999993
 40
0.4999999999999993
 40
0.6249999999999997
 40
0.6249999999999997
 40
0.6875000000000001
 40
0.6875000000000001
 40
0.7500000000000004
 40
0.7500000000000004
 40
0.8750000000000008
 40
0.8750000000000008
 40
0.9062500000000006
 40
0.9062500000000006
 40
0.9375000000000002
 40
0.9375000000000002
 40
1.0
 40
1.0
 40
1.0
 40
1.0
 10
347.8975571928444
 20
332.0083637404142
 30
0.0
 10
347.8975571928444
 20
331.5133068297595
 30
0.0
 10
347.8975571928444
 20
331.0171627816683
 30
0.0
 10
347.8975571928444
 20
330.02266320919
 30
0.0
 10
347.8975571928444
 20
329.5228702042426
 30
0.0
 10
347.8975571928444
 20
328.0336484606498
 30
0.0
 10
347.8975571928444
 20
327.0535705733311
 30
0.0
 10
347.8975571928444
 20
324.1503469362889
 30
0.0
 10
347.8975571928444
 20
322.2638537748529
 30
0.0
 10
347.8975571928444
 20
319.9685188403251
 30
0.0
 10
347.8975571928444
 20
319.5126597796664
 30
0.0
 10
347.8975571928444
 20
318.6175354379446
 30
0.0
 10
347.8975571928444
 20
318.176949106765
 30
0.0
 10
347.8975571928444
 20
316.8757345752873
 30
0.0
 10
347.8975571928444
 20
315.1954692551338
 30
0.0
 10
347.8975571928444
 20
313.6229741429187
 30
0.0
 10
347.8975571928444
 20
312.1051342325391
 30
0.0
 10
347.8975571928444
 20
311.3706884885219
 30
0.0
 10
347.8975571928444
 20
309.2943277556034
 30
0.0
 10
347.8975571928444
 20
308.0652630662823
 30
0.0
 10
347.8975571928444
 20
306.4490456536853
 30
0.0
 10
347.8975571928444
 20
305.9473358599893
 30
0.0
 10
347.8975571928444
 20
305.0275784010703
 30
0.0
 10
347.8975571928444
 20
304.6143239601875
 30
0.0
 10
347.8975571928444
 20
303.5094077055156
 30
0.0
 10
347.8975571928444
 20
302.9513639766022
 30
0.0
 10
347.8975571928443
 20
302.4798049488122
 30
0.0
 10
347.8975571928444
 20
302.3967225683849
 30
0.0
 10
347.8975571928444
 20
302.2547615420715
 30
0.0
 10
347.8975571928444
 20
302.1958956868118
 30
0.0
 10
347.8975571928444
 20
302.0549247460266
 30
0.0
 10
347.8975571928444
 20
302.0083637404143
 30
0.0
 10
347.8975571928444
 20
302.0083637404143
 30
0.0
  0
LINE
  5
121
330
1F
100
AcDbEntity
  8
0
  6
Continuous
 62
     7
370
    15
100
AcDbLine
 10
804.7331229534
 20
420.1797439648
 30
0.0
 11
804.7331229534
 21
449.1216062499
 31
0.0
  0
LINE
  5
122
330
1F
100
AcDbEntity
  8
0
  6
Continuous
 62
     7
370
    15
100
AcDbLine
 10
804.7331229534
 20
449.1216062499
 30
0.0
 11
795.7434908237
 21
449.1216062499
 31
0.0
  0
LINE
  5
123
330
1F
100
AcDbEntity
  8
0
  6
Continuous
 62
     7
370
    15
100
AcDbLine
 10
795.7434908237
 20
420.1797439648
 30
0.0
 11
804.7331229534
 21
420.1797439648
 31
0.0
  0
LINE
  5
124
330
1F
100
AcDbEntity
  8
0
  6
Continuous
 62
     7
370
    15
100
AcDbLine
 10
877.0965591754
 20
474.0386648966
 30
0.0
 11
877.0965591754
 21
394.9780619634
 31
0.0
  0
LINE
  5
125
330
1F
100
AcDbEntity
  8
0
  6
Continuous
 62
     7
370
    15
100
AcDbLine
 10
769.0965191211
 20
414.9780615164
 30
0.0
 11
769.0965191211
 21
419.8951243354
 31
0.0
  0
LINE
  5
126
330
1F
100
AcDbEntity
  8
0
  6
Continuous
 62
     7
370
    15
100
AcDbLine
 10
335.4002193298
 20
537.0083643986
 30
0.0
 11
335.4002193298
 21
332.0083633928
 31
0.0
  0
LINE
  5
127
330
1F
100
AcDbEntity
  8
0
  6
Continuous
 62
     7
370
    15
100
AcDbLine
 10
347.8975550022
 20
332.0083633928
 30
0.0
 11
347.8975550022
 21
537.0083643986
 31
0.0
  0
LINE
  5
128
330
1F
100
AcDbEntity
  8
0
  6
Continuous
 62
     7
370
    15
100
AcDbLine
 10
769.0965191211
 20
449.1216062499
 30
0.0
 11
769.0965191211
 21
454.0386690689
 31
0.0
  0
LINE
  5
129
330
1F
100
AcDbEntity
  8
0
  6
Continuous
 62
     7
370
    15
100
AcDbLine
 10
315.4002160515
 20
567.0083655907
 30
0.0
 11
327.8975591745
 21
567.0083655907
 31
0.0
  0
LINE
  5
12A
330
1F
100
AcDbEntity
  8
0
  6
Continuous
 62
     7
370
    15
100
AcDbLine
 10
327.8975591745
 20
537.0083643986
 30
0.0
 11
315.4002160515
 21
537.0083643986
 31
0.0
  0
SPLINE
  5
12B
330
1F
100
AcDbEntity
  8
0
  6
Continuous
 62
     7
370
    15
100
AcDbSpline
210
0.0
220
0.0
230
1.0
 70
    24
 71
     3
 72
    36
 73
    32
 74
     0
 42
0.00000001
 43
0.00000001
 12
1.0
 22
0.0
 32
0.0
 13
1.0
 23
0.0
 33
0.0
 40
0.0
 40
0.0
 40
0.0
 40
0.0
 40
0.1249999999999969
 40
0.1249999999999969
 40
0.156249999999997
 40
0.156249999999997
 40
0.1874999999999971
 40
0.1874999999999971
 40
0.2499999999999974
 40
0.2499999999999974
 40
0.3124999999999976
 40
0.3124999999999976
 40
0.3749999999999978
 40
0.3749999999999978
 40
0.4999999999999983
 40
0.4999999999999983
 40
0.5624999999999986
 40
0.5624999999999986
 40
0.5937499999999983
 40
0.5937499999999983
 40
0.6249999999999984
 40
0.6249999999999984
 40
0.7500000000000002
 40
0.7500000000000002
 40
0.7812500000000003
 40
0.7812500000000003
 40
0.8125000000000003
 40
0.8125000000000003
 40
0.8750000000000003
 40
0.8750000000000003
 40
1.0
 40
1.0
 40
1.0
 40
1.0
 10
315.4002149018045
 20
537.0083637404142
 30
0.0
 10
315.4002149018044
 20
539.0110498868669
 30
0.0
 10
315.4002149018045
 20
540.9914995533522
 30
0.0
 10
315.4002149018045
 20
543.4394561828718
 30
0.0
 10
315.4002149018044
 20
543.9276543000894
 30
0.0
 10
315.4002149018045
 20
544.9012158717736
 30
0.0
 10
315.4002149018045
 20
545.3868774122608
 30
0.0
 10
315.4002149018045
 20
546.8227892698703
 30
0.0
 10
315.4002149018045
 20
547.7576900761705
 30
0.0
 10
315.4002149018045
 20
549.5841510260744
 30
0.0
 10
315.4002149018045
 20
550.4757073979035
 30
0.0
 10
315.4002149018045
 20
552.2155634485916
 30
0.0
 10
315.4002149018045
 20
553.0651195628146
 30
0.0
 10
315.4002149018045
 20
555.5392798059272
 30
0.0
 10
315.4002149018045
 20
557.0458274595786
 30
0.0
 10
315.4002149018045
 20
559.1029901759867
 30
0.0
 10
315.4002149018045
 20
559.754673929003
 30
0.0
 10
315.4002149018045
 20
560.6803486827555
 30
0.0
 10
315.4002149018045
 20
560.9808662935367
 30
0.0
 10
315.4002149018045
 20
561.5587305335166
 30
0.0
 10
315.4002149018045
 20
561.8366601253234
 30
0.0
 10
315.4002149018045
 20
563.172495945136
 30
0.0
 10
315.4002149018045
 20
564.0704586247322
 30
0.0
 10
315.4002149018044
 20
564.9830854479468
 30
0.0
 10
315.4002149018045
 20
565.1550271920994
 30
0.0
 10
315.4002149018045
 20
565.4774587662087
 30
0.0
 10
315.4002149018045
 20
565.6279384112579
 30
0.0
 10
315.4002149018045
 20
566.0426297980073
 30
0.0
 10
315.4002149018045
 20
566.2719467180516
 30
0.0
 10
315.4002149018045
 20
566.8227597002655
 30
0.0
 10
315.4002149018045
 20
567.0083637404143
 30
0.0
 10
315.4002149018045
 20
567.0083637404143
 30
0.0
  0
SPLINE
  5
12C
330
1F
100
AcDbEntity
  8
0
  6
Continuous
 62
     7
370
    15
100
AcDbSpline
210
0.0
220
0.0
230
1.0
 70
    24
 71
     3
 72
    38
 73
    34
 74
     0
 42
0.00000001
 43
0.00000001
 12
1.0
 22
0.0
 32
0.0
 13
1.0
 23
0.0
 33
0.0
 40
0.0
 40
0.0
 40
0.0
 40
0.0
 40
0.1249999999999971
 40
0.1249999999999971
 40
0.1874999999999961
 40
0.1874999999999961
 40
0.2187499999999955
 40
0.2187499999999955
 40
0.2499999999999949
 40
0.2499999999999949
 40
0.3749999999999946
 40
0.3749999999999946
 40
0.4374999999999952
 40
0.4374999999999952
 40
0.4687499999999961
 40
0.4687499999999961
 40
0.4999999999999969
 40
0.4999999999999969
 40
0.6249999999999984
 40
0.6249999999999984
 40
0.6562499999999987
 40
0.6562499999999987
 40
0.687499999999999
 40
0.687499999999999
 40
0.7499999999999976
 40
0.7499999999999976
 40
0.8749999999999964
 40
0.8749999999999964
 40
0.9062499999999972
 40
0.9062499999999972
 40
0.9374999999999981
 40
0.9374999999999981
 40
1.0
 40
1.0
 40
1.0
 40
1.0
 10
327.8975571928444
 20
567.0083637404143
 30
0.0
 10
327.8975571928444
 20
567.0083637404142
 30
0.0
 10
327.8975571928444
 20
566.8197856667938
 30
0.0
 10
327.8975571928444
 20
566.2647383320134
 30
0.0
 10
327.8975571928444
 20
566.0340349639124
 30
0.0
 10
327.8975571928444
 20
565.6178736123926
 30
0.0
 10
327.8975571928444
 20
565.4674484856962
 30
0.0
 10
327.8975571928444
 20
565.1426646342792
 30
0.0
 10
327.8975571928444
 20
564.9684683994075
 30
0.0
 10
327.8975571928444
 20
564.0470129096393
 30
0.0
 10
327.8975571928444
 20
563.1432092241723
 30
0.0
 10
327.8975571928444
 20
561.5396646257575
 30
0.0
 10
327.8975571928444
 20
560.9635612582927
 30
0.0
 10
327.8975571928444
 20
560.034571846923
 30
0.0
 10
327.8975571928444
 20
559.713568138244
 30
0.0
 10
327.8975571928444
 20
559.0569034674677
 30
0.0
 10
327.8975571928444
 20
558.7204506102489
 30
0.0
 10
327.8975571928444
 20
556.9981330209373
 30
0.0
 10
327.8975571928444
 20
555.4932597380686
 30
0.0
 10
327.8975571928444
 20
553.4505427875251
 30
0.0
 10
327.8975571928444
 20
553.0338453089481
 30
0.0
 10
327.8975571928444
 20
552.1837647346986
 30
0.0
 10
327.8975571928444
 20
551.7496044456835
 30
0.0
 10
327.8975571928444
 20
550.4367239063087
 30
0.0
 10
327.8975571928444
 20
549.5432726739128
 30
0.0
 10
327.8975571928444
 20
546.8095315659261
 30
0.0
 10
327.8975571928444
 20
544.9163954653129
 30
0.0
 10
327.8975571928444
 20
542.4576682587576
 30
0.0
 10
327.8975571928444
 20
541.9618853715223
 30
0.0
 10
327.8975571928444
 20
540.9726048004217
 30
0.0
 10
327.8975571928444
 20
540.4776974139288
 30
0.0
 10
327.8975571928444
 20
538.9921863088733
 30
0.0
 10
327.8975571928444
 20
538.0007955647137
 30
0.0
 10
327.8975571928444
 20
537.0083637404142
 30
0.0
  0
LINE
  5
12D
330
1F
100
AcDbEntity
  8
0
  6
Continuous
 62
     7
370
    15
100
AcDbLine
 10
315.4002160515
 20
332.0083633928
 30
0.0
 11
327.8975591745
 21
332.0083633928
 31
0.0
  0
LINE
  5
12E
330
1F
100
AcDbEntity
  8
0
  6
Continuous
 62
     7
370
    15
100
AcDbLine
 10
327.8975591745
 20
302.0083649946
 30
0.0
 11
315.4002160515
 21
302.0083649946
 31
0.0
  0
SPLINE
  5
12F
330
1F
100
AcDbEntity
  8
0
  6
Continuous
 62
     7
370
    15
100
AcDbSpline
210
0.0
220
0.0
230
1.0
 70
    24
 71
     3
 72
    36
 73
    32
 74
     0
 42
0.00000001
 43
0.00000001
 12
1.0
 22
0.0
 32
0.0
 13
1.0
 23
0.0
 33
0.0
 40
0.0
 40
0.0
 40
0.0
 40
0.0
 40
0.0312499999999999
 40
0.0312499999999999
 40
0.0624999999999998
 40
0.0624999999999998
 40
0.125
 40
0.125
 40
0.1875000000000002
 40
0.1875000000000002
 40
0.2187500000000002
 40
0.2187500000000002
 40
0.2500000000000001
 40
0.2500000000000001
 40
0.3750000000000001
 40
0.3750000000000001
 40
0.4375000000000001
 40
0.4375000000000001
 40
0.5
 40
0.5
 40
0.6249999999999999
 40
0.6249999999999999
 40
0.6874999999999998
 40
0.6874999999999998
 40
0.7499999999999997
 40
0.7499999999999997
 40
0.8749999999999997
 40
0.8749999999999997
 40
0.9374999999999998
 40
0.9374999999999998
 40
1.0
 40
1.0
 40
1.0
 40
1.0
 10
315.4002149018045
 20
302.0083637404143
 30
0.0
 10
315.4002149018045
 20
302.0083637404143
 30
0.0
 10
315.4002149018045
 20
302.0201588651394
 30
0.0
 10
315.4002149018045
 20
302.0670562803583
 30
0.0
 10
315.4002149018045
 20
302.1021170989921
 30
0.0
 10
315.4002149018045
 20
302.2415988975956
 30
0.0
 10
315.4002149018045
 20
302.3802417003582
 30
0.0
 10
315.4002149018045
 20
302.7479192502403
 30
0.0
 10
315.4002149018045
 20
302.9769525970066
 30
0.0
 10
315.4002149018045
 20
303.3894910085889
 30
0.0
 10
315.4002149018045
 20
303.5385215086615
 30
0.0
 10
315.4002149018044
 20
303.8600675091746
 30
0.0
 10
315.4002149018045
 20
304.0330644510235
 30
0.0
 10
315.4002149018045
 20
304.9521648042573
 30
0.0
 10
315.4002149018044
 20
305.8531577723958
 30
0.0
 10
315.4002149018045
 20
307.4484119718996
 30
0.0
 10
315.4002149018045
 20
308.0210718427838
 30
0.0
 10
315.4002149018045
 20
309.2509239919185
 30
0.0
 10
315.4002149018045
 20
309.9114543278349
 30
0.0
 10
315.4002149018045
 20
311.9803314758334
 30
0.0
 10
315.4002149018045
 20
313.484652119426
 30
0.0
 10
315.4002149018045
 20
315.9296034897189
 30
0.0
 10
315.4002149018045
 20
316.7762150788492
 30
0.0
 10
315.4002149018045
 20
318.535713989086
 30
0.0
 10
315.4002149018045
 20
319.4339884894794
 30
0.0
 10
315.4002149018045
 20
322.1776182095861
 30
0.0
 10
315.4002149018045
 20
324.073576148733
 30
0.0
 10
315.4002149018045
 20
327.0207699500348
 30
0.0
 10
315.4002149018045
 20
328.0232272151723
 30
0.0
 10
315.4002149018044
 20
330.0162931407268
 30
0.0
 10
315.4002149018044
 20
331.0124924516002
 30
0.0
 10
315.4002149018045
 20
332.0083637404143
 30
0.0
  0
SPLINE
  5
130
330
1F
100
AcDbEntity
  8
0
  6
Continuous
 62
     7
370
    15
100
AcDbSpline
210
0.0
220
0.0
230
1.0
 70
    24
 71
     3
 72
    36
 73
    32
 74
     0
 42
0.00000001
 43
0.00000001
 12
1.0
 22
0.0
 32
0.0
 13
1.0
 23
0.0
 33
0.0
 40
0.0
 40
0.0
 40
0.0
 40
0.0
 40
0.0624999999999998
 40
0.0624999999999998
 40
0.1249999999999996
 40
0.1249999999999996
 40
0.1874999999999994
 40
0.1874999999999994
 40
0.2187499999999993
 40
0.2187499999999993
 40
0.2499999999999992
 40
0.2499999999999992
 40
0.3749999999999989
 40
0.3749999999999989
 40
0.4374999999999987
 40
0.4374999999999987
 40
0.4999999999999984
 40
0.4999999999999984
 40
0.6249999999999986
 40
0.6249999999999986
 40
0.6874999999999988
 40
0.6874999999999988
 40
0.7499999999999993
 40
0.7499999999999993
 40
0.8125
 40
0.8125
 40
0.8437500000000001
 40
0.8437500000000001
 40
0.8750000000000002
 40
0.8750000000000002
 40
1.0
 40
1.0
 40
1.0
 40
1.0
 10
327.8975571928444
 20
332.0083637404142
 30
0.0
 10
327.8975571928444
 20
331.0094092395015
 30
0.0
 10
327.8975571928444
 20
330.0005210985702
 30
0.0
 10
327.8975571928444
 20
328.0150683837353
 30
0.0
 10
327.8975571928444
 20
327.0333171675299
 30
0.0
 10
327.8975571928444
 20
325.0913048992718
 30
0.0
 10
327.8975571928444
 20
324.1310445433509
 30
0.0
 10
327.8975571928444
 20
322.7069103944687
 30
0.0
 10
327.8975571928444
 20
322.2349133402247
 30
0.0
 10
327.8975571928444
 20
321.2964325131827
 30
0.0
 10
327.8975571928444
 20
320.8289244934397
 30
0.0
 10
327.8975571928444
 20
318.529928550435
 30
0.0
 10
327.8975571928444
 20
316.7972773493974
 30
0.0
 10
327.8975571928444
 20
314.3521308971584
 30
0.0
 10
327.8975571928444
 20
313.5629121644074
 30
0.0
 10
327.8975571928444
 20
312.0374385969477
 30
0.0
 10
327.8975571928444
 20
311.3109672436863
 30
0.0
 10
327.8975571928444
 20
309.2485990235555
 30
0.0
 10
327.8975571928444
 20
308.0229759576637
 30
0.0
 10
327.8975571928444
 20
306.4080614417267
 30
0.0
 10
327.8975571928444
 20
305.906553052864
 30
0.0
 10
327.8975571928443
 20
304.9992789965001
 30
0.0
 10
327.8975571928444
 20
304.5905817417952
 30
0.0
 10
327.8975571928444
 20
303.8608747678438
 30
0.0
 10
327.8975571928444
 20
303.539869404929
 30
0.0
 10
327.8975571928444
 20
303.1243565177272
 30
0.0
 10
327.8975571928444
 20
302.996870340641
 30
0.0
 10
327.8975571928443
 20
302.7642052355117
 30
0.0
 10
327.8975571928444
 20
302.6588070952699
 30
0.0
 10
327.8975571928444
 20
302.1915388910849
 30
0.0
 10
327.8975571928444
 20
302.0083637404143
 30
0.0
 10
327.8975571928444
 20
302.0083637404143
 30
0.0
  0
LINE
  5
131
330
1F
100
AcDbEntity
  8
0
  6
Continuous
 62
     7
370
    15
100
AcDbLine
 10
315.4002160515
 20
537.0083643986
 30
0.0
 11
315.4002160515
 21
332.0083633928
 31
0.0
  0
LINE
  5
132
330
1F
100
AcDbEntity
  8
0
  6
Continuous
 62
     7
370
    15
100
AcDbLine
 10
327.8975591745
 20
332.0083633928
 30
0.0
 11
327.8975591745
 21
537.0083643986
 31
0.0
  0
LINE
  5
133
330
1F
100
AcDbEntity
  8
0
  6
Continuous
 62
     7
370
    15
100
AcDbLine
 10
295.4002127733
 20
567.0083655907
 30
0.0
 11
307.8975558962
 21
567.0083655907
 31
0.0
  0
LINE
  5
134
330
1F
100
AcDbEntity
  8
0
  6
Continuous
 62
     7
370
    15
100
AcDbLine
 10
307.8975558962
 20
537.0083643986
 30
0.0
 11
295.4002127733
 21
537.0083643986
 31
0.0
  0
SPLINE
  5
135
330
1F
100
AcDbEntity
  8
0
  6
Continuous
 62
     7
370
    15
100
AcDbSpline
210
0.0
220
0.0
230
1.0
 70
    24
 71
     3
 72
    36
 73
    32
 74
     0
 42
0.00000001
 43
0.00000001
 12
1.0
 22
0.0
 32
0.0
 13
1.0
 23
0.0
 33
0.0
 40
0.0
 40
0.0
 40
0.0
 40
0.0
 40
0.0624999999999984
 40
0.0624999999999984
 40
0.0937499999999985
 40
0.0937499999999985
 40
0.1249999999999986
 40
0.1249999999999986
 40
0.2499999999999989
 40
0.2499999999999989
 40
0.2812499999999996
 40
0.2812499999999996
 40
0.3125000000000003
 40
0.3125000000000003
 40
0.3750000000000001
 40
0.3750000000000001
 40
0.4375
 40
0.4375
 40
0.5000000000000001
 40
0.5000000000000001
 40
0.6250000000000001
 40
0.6250000000000001
 40
0.6875000000000001
 40
0.6875000000000001
 40
0.75
 40
0.75
 40
0.875
 40
0.875
 40
0.9375
 40
0.9375
 40
1.0
 40
1.0
 40
1.0
 40
1.0
 10
295.4002149018045
 20
537.0083637404142
 30
0.0
 10
295.4002149018045
 20
538.0111019650273
 30
0.0
 10
295.4002149018045
 20
539.0165133289929
 30
0.0
 10
295.4002149018044
 20
540.5287685664002
 30
0.0
 10
295.4002149018045
 20
541.0331924371794
 30
0.0
 10
295.4002149018045
 20
542.0313412656112
 30
0.0
 10
295.4002149018045
 20
542.5265874109011
 30
0.0
 10
295.4002149018045
 20
544.9840344216999
 30
0.0
 10
295.4002149018045
 20
546.890444285862
 30
0.0
 10
295.4002149018045
 20
549.1989619567278
 30
0.0
 10
295.4002149018045
 20
549.6581852337569
 30
0.0
 10
295.4002149018045
 20
550.5618182813104
 30
0.0
 10
295.4002149018044
 20
551.0059454336103
 30
0.0
 10
295.4002149018045
 20
552.3158222524364
 30
0.0
 10
295.4002149018045
 20
553.1591223168964
 30
0.0
 10
295.4002149018045
 20
554.7873890386943
 30
0.0
 10
295.4002149018044
 20
555.5723521241773
 30
0.0
 10
295.4002149018045
 20
557.0837738463056
 30
0.0
 10
295.4002149018045
 20
557.8135567942458
 30
0.0
 10
295.4002149018044
 20
559.8748979659462
 30
0.0
 10
295.4002149018045
 20
561.088448277711
 30
0.0
 10
295.4002149018045
 20
562.6776746868111
 30
0.0
 10
295.4002149018045
 20
563.1695636649976
 30
0.0
 10
295.4002149018045
 20
564.0700469695245
 30
0.0
 10
295.4002149018044
 20
564.4739150115963
 30
0.0
 10
295.4002149018045
 20
565.5521652536411
 30
0.0
 10
295.4002149018045
 20
566.0943519949905
 30
0.0
 10
295.4002149018045
 20
566.6429794554865
 30
0.0
 10
295.4002149018045
 20
566.7811768287839
 30
0.0
 10
295.4002149018045
 20
566.963317342513
 30
0.0
 10
295.4002149018045
 20
567.0083637404143
 30
0.0
 10
295.4002149018045
 20
567.0083637404143
 30
0.0
  0
SPLINE
  5
136
330
1F
100
AcDbEntity
  8
0
  6
Continuous
 62
     7
370
    15
100
AcDbSpline
210
0.0
220
0.0
230
1.0
 70
    24
 71
     3
 72
    42
 73
    38
 74
     0
 42
0.00000001
 43
0.00000001
 12
1.0
 22
0.0
 32
0.0
 13
1.0
 23
0.0
 33
0.0
 40
0.0
 40
0.0
 40
0.0
 40
0.0
 40
0.0624999999999973
 40
0.0624999999999973
 40
0.0937499999999963
 40
0.0937499999999963
 40
0.1249999999999952
 40
0.1249999999999952
 40
0.2499999999999907
 40
0.2499999999999907
 40
0.3124999999999887
 40
0.3124999999999887
 40
0.3437499999999881
 40
0.3437499999999881
 40
0.3749999999999875
 40
0.3749999999999875
 40
0.4999999999999871
 40
0.4999999999999871
 40
0.531249999999987
 40
0.531249999999987
 40
0.5624999999999869
 40
0.5624999999999869
 40
0.6249999999999885
 40
0.6249999999999885
 40
0.749999999999991
 40
0.749999999999991
 40
0.7812499999999919
 40
0.7812499999999919
 40
0.8124999999999928
 40
0.8124999999999928
 40
0.8749999999999946
 40
0.8749999999999946
 40
0.9374999999999964
 40
0.9374999999999964
 40
0.9687499999999982
 40
0.9687499999999982
 40
1.0
 40
1.0
 40
1.0
 40
1.0
 10
307.8975571928444
 20
567.0083637404143
 30
0.0
 10
307.8975571928444
 20
567.0083637404143
 30
0.0
 10
307.8975571928444
 20
566.9628383437665
 30
0.0
 10
307.8975571928444
 20
566.8248612673393
 30
0.0
 10
307.8975571928444
 20
566.7672342627224
 30
0.0
 10
307.8975571928444
 20
566.6282235163062
 30
0.0
 10
307.8975571928444
 20
566.5468670853713
 30
0.0
 10
307.8975571928444
 20
566.0849234836901
 30
0.0
 10
307.8975571928444
 20
565.5377784844612
 30
0.0
 10
307.8975571928444
 20
564.4530762493579
 30
0.0
 10
307.8975571928444
 20
564.0472166561299
 30
0.0
 10
307.8975571928444
 20
563.3694622456019
 30
0.0
 10
307.8975571928444
 20
563.1313308054089
 30
0.0
 10
307.8975571928444
 20
562.6361677204027
 30
0.0
 10
307.8975571928444
 20
562.3789649034079
 30
0.0
 10
307.8975571928444
 20
561.0454866535697
 30
0.0
 10
307.8975571928444
 20
559.828156142811
 30
0.0
 10
307.8975571928444
 20
558.1150585793638
 30
0.0
 10
307.8975571928444
 20
557.7627827960737
 30
0.0
 10
307.8975571928444
 20
557.0384824461725
 30
0.0
 10
307.8975571928444
 20
556.6655484871961
 30
0.0
 10
307.8975571928444
 20
555.5227166894393
 30
0.0
 10
307.8975571928444
 20
554.7339793206115
 30
0.0
 10
307.8975571928444
 20
552.2891131174065
 30
0.0
 10
307.8975571928444
 20
550.5551157094854
 30
0.0
 10
307.8975571928444
 20
548.252105630379
 30
0.0
 10
307.8975571928444
 20
547.7833515402098
 30
0.0
 10
307.8975571928444
 20
546.8383935514812
 30
0.0
 10
307.8975571928444
 20
546.3632496228673
 30
0.0
 10
307.8975571928444
 20
544.9299628276658
 30
0.0
 10
307.8975571928444
 20
543.9639842425084
 30
0.0
 10
307.8975571928444
 20
542.0113776166443
 30
0.0
 10
307.8975571928444
 20
541.0247498697214
 30
0.0
 10
307.8975571928444
 20
539.5290467184388
 30
0.0
 10
307.8975571928444
 20
539.0278472045155
 30
0.0
 10
307.8975571928444
 20
538.0200764444543
 30
0.0
 10
307.8975571928444
 20
537.5126131995306
 30
0.0
 10
307.8975571928444
 20
537.0083637404142
 30
0.0
  0
LINE
  5
137
330
1F
100
AcDbEntity
  8
0
  6
Continuous
 62
     7
370
    15
100
AcDbLine
 10
295.4002127733
 20
332.0083633928
 30
0.0
 11
307.8975558962
 21
332.0083633928
 31
0.0
  0
LINE
  5
138
330
1F
100
AcDbEntity
  8
0
  6
Continuous
 62
     7
370
    15
100
AcDbLine
 10
307.8975558962
 20
302.0083649946
 30
0.0
 11
295.4002127733
 21
302.0083649946
 31
0.0
  0
SPLINE
  5
139
330
1F
100
AcDbEntity
  8
0
  6
Continuous
 62
     7
370
    15
100
AcDbSpline
210
0.0
220
0.0
230
1.0
 70
    24
 71
     3
 72
    34
 73
    30
 74
     0
 42
0.00000001
 43
0.00000001
 12
1.0
 22
0.0
 32
0.0
 13
1.0
 23
0.0
 33
0.0
 40
0.0
 40
0.0
 40
0.0
 40
0.0
 40
0.1249999999999994
 40
0.1249999999999994
 40
0.1562499999999993
 40
0.1562499999999993
 40
0.1874999999999992
 40
0.1874999999999992
 40
0.249999999999999
 40
0.249999999999999
 40
0.3749999999999983
 40
0.3749999999999983
 40
0.4999999999999976
 40
0.4999999999999976
 40
0.5624999999999971
 40
0.5624999999999971
 40
0.5937499999999971
 40
0.5937499999999971
 40
0.624999999999997
 40
0.624999999999997
 40
0.7499999999999976
 40
0.7499999999999976
 40
0.8124999999999979
 40
0.8124999999999979
 40
0.8437499999999983
 40
0.8437499999999983
 40
0.8749999999999987
 40
0.8749999999999987
 40
1.0
 40
1.0
 40
1.0
 40
1.0
 10
295.4002149018045
 20
302.0083637404143
 30
0.0
 10
295.4002149018045
 20
302.0083637404143
 30
0.0
 10
295.4002149018045
 20
302.1879271146084
 30
0.0
 10
295.4002149018044
 20
302.6450733916134
 30
0.0
 10
295.4002149018045
 20
302.7485628592873
 30
0.0
 10
295.4002149018045
 20
302.9775377720614
 30
0.0
 10
295.4002149018045
 20
303.1030212270578
 30
0.0
 10
295.4002149018045
 20
303.5120011937368
 30
0.0
 10
295.4002149018044
 20
303.8279543101484
 30
0.0
 10
295.4002149018045
 20
304.9047754849018
 30
0.0
 10
295.4002149018044
 20
305.793294400417
 30
0.0
 10
295.4002149018045
 20
307.9360000979447
 30
0.0
 10
295.4002149018045
 20
309.1560407668938
 30
0.0
 10
295.4002149018045
 20
311.2008751521309
 30
0.0
 10
295.4002149018045
 20
311.9187529337411
 30
0.0
 10
295.4002149018045
 20
313.0518011718107
 30
0.0
 10
295.4002149018045
 20
313.4388729333559
 30
0.0
 10
295.4002149018045
 20
314.232325868856
 30
0.0
 10
295.4002149018045
 20
314.6383999153491
 30
0.0
 10
295.4002149018045
 20
316.6930158440177
 30
0.0
 10
295.4002149018045
 20
318.4320908069344
 30
0.0
 10
295.4002149018045
 20
321.183765996451
 30
0.0
 10
295.4002149018045
 20
322.1250037591282
 30
0.0
 10
295.4002149018045
 20
323.5745504528124
 30
0.0
 10
295.4002149018045
 20
324.0624059154181
 30
0.0
 10
295.4002149018045
 20
325.0392527115093
 30
0.0
 10
295.4002149018045
 20
325.5294464752291
 30
0.0
 10
295.4002149018044
 20
327.9891494519875
 30
0.0
 10
295.4002149018045
 20
329.9845947902502
 30
0.0
 10
295.4002149018045
 20
332.0083637404142
 30
0.0
  0
SPLINE
  5
13A
330
1F
100
AcDbEntity
  8
0
  6
Continuous
 62
     7
370
    15
100
AcDbSpline
210
0.0
220
0.0
230
1.0
 70
    24
 71
     3
 72
    36
 73
    32
 74
     0
 42
0.00000001
 43
0.00000001
 12
1.0
 22
0.0
 32
0.0
 13
1.0
 23
0.0
 33
0.0
 40
0.0
 40
0.0
 40
0.0
 40
0.0
 40
0.1250000000000011
 40
0.1250000000000011
 40
0.1562500000000015
 40
0.1562500000000015
 40
0.1875000000000019
 40
0.1875000000000019
 40
0.2500000000000025
 40
0.2500000000000025
 40
0.3125000000000032
 40
0.3125000000000032
 40
0.3437500000000033
 40
0.3437500000000033
 40
0.3750000000000034
 40
0.3750000000000034
 40
0.5000000000000041
 40
0.5000000000000041
 40
0.5625000000000042
 40
0.5625000000000042
 40
0.593750000000004
 40
0.593750000000004
 40
0.6250000000000039
 40
0.6250000000000039
 40
0.7500000000000027
 40
0.7500000000000027
 40
0.812500000000002
 40
0.812500000000002
 40
0.8750000000000013
 40
0.8750000000000013
 40
1.0
 40
1.0
 40
1.0
 40
1.0
 10
307.8975571928444
 20
332.0083637404142
 30
0.0
 10
307.8975571928444
 20
330.0024536743337
 30
0.0
 10
307.8975571928444
 20
328.0174890206218
 30
0.0
 10
307.8975571928444
 20
325.5623958321441
 30
0.0
 10
307.8975571928444
 20
325.0726951089128
 30
0.0
 10
307.8975571928444
 20
324.095978317166
 30
0.0
 10
307.8975571928444
 20
323.6102687318804
 30
0.0
 10
307.8975571928444
 20
322.1735050124238
 30
0.0
 10
307.8975571928444
 20
321.2378046078871
 30
0.0
 10
307.8975571928444
 20
319.409376358252
 30
0.0
 10
307.8975571928444
 20
318.5166518599164
 30
0.0
 10
307.8975571928444
 20
317.2097934785564
 30
0.0
 10
307.8975571928444
 20
316.7795552230011
 30
0.0
 10
307.8975571928444
 20
315.929960312526
 30
0.0
 10
307.8975571928444
 20
315.5094635473788
 30
0.0
 10
307.8975571928444
 20
313.4509998411252
 30
0.0
 10
307.8975571928444
 20
311.9459441187601
 30
0.0
 10
307.8975571928444
 20
309.8901698029986
 30
0.0
 10
307.8975571928444
 20
309.2388033574562
 30
0.0
 10
307.8975571928444
 20
308.3134859126795
 30
0.0
 10
307.8975571928443
 20
308.0139860484572
 30
0.0
 10
307.8975571928444
 20
307.4384354143523
 30
0.0
 10
307.8975571928444
 20
307.1615592285305
 30
0.0
 10
307.8975571928444
 20
305.8305510799837
 30
0.0
 10
307.8975571928444
 20
304.9350637649678
 30
0.0
 10
307.8975571928444
 20
303.8427049683436
 30
0.0
 10
307.8975571928444
 20
303.5196976751338
 30
0.0
 10
307.8975571928444
 20
302.9700366186454
 30
0.0
 10
307.8975571928444
 20
302.741883243105
 30
0.0
 10
307.8975571928444
 20
302.1935866568037
 30
0.0
 10
307.8975571928444
 20
302.0083637404143
 30
0.0
 10
307.8975571928444
 20
302.0083637404143
 30
0.0
  0
LINE
  5
13B
330
1F
100
AcDbEntity
  8
0
  6
Continuous
 62
     7
370
    15
100
AcDbLine
 10
295.4002127733
 20
537.0083643986
 30
0.0
 11
295.4002127733
 21
332.0083633928
 31
0.0
  0
LINE
  5
13C
330
1F
100
AcDbEntity
  8
0
  6
Continuous
 62
     7
370
    15
100
AcDbLine
 10
307.8975558962
 20
332.0083633928
 30
0.0
 11
307.8975558962
 21
537.0083643986
 31
0.0
  0
LINE
  5
13D
330
1F
100
AcDbEntity
  8
0
  6
Continuous
 62
     7
370
    15
100
AcDbLine
 10
275.4002169456
 20
567.0083655907
 30
0.0
 11
287.8975600685
 21
567.0083655907
 31
0.0
  0
SPLINE
  5
13E
330
1F
100
AcDbEntity
  8
0
  6
Continuous
 62
     7
370
    15
100
AcDbSpline
210
0.0
220
0.0
230
1.0
 70
    24
 71
     3
 72
    36
 73
    32
 74
     0
 42
0.00000001
 43
0.00000001
 12
1.0
 22
0.0
 32
0.0
 13
1.0
 23
0.0
 33
0.0
 40
0.0
 40
0.0
 40
0.0
 40
0.0
 40
0.0624999999999988
 40
0.0624999999999988
 40
0.1249999999999975
 40
0.1249999999999975
 40
0.1874999999999963
 40
0.1874999999999963
 40
0.2187499999999956
 40
0.2187499999999956
 40
0.249999999999995
 40
0.249999999999995
 40
0.374999999999993
 40
0.374999999999993
 40
0.4374999999999925
 40
0.4374999999999925
 40
0.4999999999999921
 40
0.4999999999999921
 40
0.6249999999999921
 40
0.6249999999999921
 40
0.6874999999999927
 40
0.6874999999999927
 40
0.7187499999999938
 40
0.7187499999999938
 40
0.7499999999999948
 40
0.7499999999999948
 40
0.8749999999999981
 40
0.8749999999999981
 40
0.937499999999999
 40
0.937499999999999
 40
1.0
 40
1.0
 40
1.0
 40
1.0
 10
287.8975571928444
 20
567.0083637404143
 30
0.0
 10
287.8975571928444
 20
567.0083637404142
 30
0.0
 10
287.8975571928444
 20
566.9621581848799
 30
0.0
 10
287.8975571928444
 20
566.7802088803252
 30
0.0
 10
287.8975571928444
 20
566.6444686190998
 30
0.0
 10
287.8975571928444
 20
566.283896628825
 30
0.0
 10
287.8975571928444
 20
566.0590681584238
 30
0.0
 10
287.8975571928444
 20
565.653516740856
 30
0.0
 10
287.8975571928444
 20
565.506928972785
 30
0.0
 10
287.8975571928444
 20
565.1904495854945
 30
0.0
 10
287.8975571928444
 20
565.0200461463702
 30
0.0
 10
287.8975571928444
 20
564.1155606548533
 30
0.0
 10
287.8975571928444
 20
563.2270969634308
 30
0.0
 10
287.8975571928444
 20
561.6495440595002
 30
0.0
 10
287.8975571928444
 20
561.0826096620223
 30
0.0
 10
287.8975571928444
 20
559.863482578476
 30
0.0
 10
287.8975571928444
 20
559.2073782844641
 30
0.0
 10
287.8975571928444
 20
557.1475587788257
 30
0.0
 10
287.8975571928444
 20
555.6470152814225
 30
0.0
 10
287.8975571928444
 20
553.2033041664042
 30
0.0
 10
287.8975571928444
 20
552.3563643923079
 30
0.0
 10
287.8975571928444
 20
551.0349350005522
 30
0.0
 10
287.8975571928444
 20
550.5866511877966
 30
0.0
 10
287.8975571928444
 20
549.6838742795368
 30
0.0
 10
287.8975571928444
 20
549.2281006426234
 30
0.0
 10
287.8975571928444
 20
546.9275571882164
 30
0.0
 10
287.8975571928444
 20
545.0184215697627
 30
0.0
 10
287.8975571928444
 20
542.0485631422873
 30
0.0
 10
287.8975571928444
 20
541.0359062240183
 30
0.0
 10
287.8975571928444
 20
539.0211845588133
 30
0.0
 10
287.8975571928444
 20
538.0144613723992
 30
0.0
 10
287.8975571928444
 20
537.0083637404142
 30
0.0
  0
LINE
  5
13F
330
1F
100
AcDbEntity
  8
0
  6
Continuous
 62
     7
370
    15
100
AcDbLine
 10
287.8975600685
 20
537.0083643986
 30
0.0
 11
275.4002169456
 21
537.0083643986
 31
0.0
  0
SPLINE
  5
140
330
1F
100
AcDbEntity
  8
0
  6
Continuous
 62
     7
370
    15
100
AcDbSpline
210
0.0
220
0.0
230
1.0
 70
    24
 71
     3
 72
    40
 73
    36
 74
     0
 42
0.00000001
 43
0.00000001
 12
1.0
 22
0.0
 32
0.0
 13
1.0
 23
0.0
 33
0.0
 40
0.0
 40
0.0
 40
0.0
 40
0.0
 40
0.1250000000000019
 40
0.1250000000000019
 40
0.1875000000000029
 40
0.1875000000000029
 40
0.2500000000000038
 40
0.2500000000000038
 40
0.3125000000000048
 40
0.3125000000000048
 40
0.3437500000000059
 40
0.3437500000000059
 40
0.375000000000007
 40
0.375000000000007
 40
0.500000000000007
 40
0.500000000000007
 40
0.5312500000000069
 40
0.5312500000000069
 40
0.5625000000000069
 40
0.5625000000000069
 40
0.6250000000000066
 40
0.6250000000000066
 40
0.7500000000000056
 40
0.7500000000000056
 40
0.7812500000000051
 40
0.7812500000000051
 40
0.8125000000000046
 40
0.8125000000000046
 40
0.875000000000003
 40
0.875000000000003
 40
0.9375000000000014
 40
0.9375000000000014
 40
0.9687500000000008
 40
0.9687500000000008
 40
1.0
 40
1.0
 40
1.0
 40
1.0
 10
275.4002149018045
 20
537.0083637404143
 30
0.0
 10
275.4002149018045
 20
539.0383206796378
 30
0.0
 10
275.4002149018045
 20
541.0472431080232
 30
0.0
 10
275.4002149018045
 20
544.0290919784287
 30
0.0
 10
275.4002149018045
 20
545.0217767311445
 30
0.0
 10
275.4002149018045
 20
546.9517900346625
 30
0.0
 10
275.4002149018045
 20
547.8940827034353
 30
0.0
 10
275.4002149018045
 20
549.7345865687391
 30
0.0
 10
275.4002149018045
 20
550.6327942625104
 30
0.0
 10
275.4002149018045
 20
551.947029520382
 30
0.0
 10
275.4002149018045
 20
552.3795849942151
 30
0.0
 10
275.4002149018045
 20
553.2335229361037
 30
0.0
 10
275.4002149018045
 20
553.654079895591
 30
0.0
 10
275.4002149018045
 20
555.7063755581122
 30
0.0
 10
275.4002149018045
 20
557.2058487588353
 30
0.0
 10
275.4002149018045
 20
558.9108631454126
 30
0.0
 10
275.4002149018045
 20
559.2433197652205
 30
0.0
 10
275.4002149018045
 20
559.8910437215432
 30
0.0
 10
275.4002149018045
 20
560.2070906176764
 30
0.0
 10
275.4002149018045
 20
561.1220975331956
 30
0.0
 10
275.4002149018045
 20
561.6882324230974
 30
0.0
 10
275.4002149018045
 20
563.2609002630753
 30
0.0
 10
275.4002149018045
 20
564.1427839634711
 30
0.0
 10
275.4002149018045
 20
565.0384159004595
 30
0.0
 10
275.4002149018045
 20
565.2072715618531
 30
0.0
 10
275.4002149018045
 20
565.5209893408472
 30
0.0
 10
275.4002149018045
 20
565.6662833103044
 30
0.0
 10
275.4002149018045
 20
566.0682158910179
 30
0.0
 10
275.4002149018045
 20
566.2909805878832
 30
0.0
 10
275.4002149018045
 20
566.6481622479251
 30
0.0
 10
275.4002149018045
 20
566.7825757504143
 30
0.0
 10
275.4002149018045
 20
566.9176630793554
 30
0.0
 10
275.4002149018045
 20
566.9515851357374
 30
0.0
 10
275.4002149018045
 20
566.9969449434659
 30
0.0
 10
275.4002149018045
 20
567.0083637404143
 30
0.0
 10
275.4002149018045
 20
567.0083637404143
 30
0.0
  0
LINE
  5
141
330
1F
100
AcDbEntity
  8
0
  6
Continuous
 62
     7
370
    15
100
AcDbLine
 10
275.4002169456
 20
332.0083633928
 30
0.0
 11
287.8975600685
 21
332.0083633928
 31
0.0
  0
LINE
  5
142
330
1F
100
AcDbEntity
  8
0
  6
Continuous
 62
     7
370
    15
100
AcDbLine
 10
287.8975600685
 20
302.0083649946
 30
0.0
 11
275.4002169456
 21
302.0083649946
 31
0.0
  0
SPLINE
  5
143
330
1F
100
AcDbEntity
  8
0
  6
Continuous
 62
     7
370
    15
100
AcDbSpline
210
0.0
220
0.0
230
1.0
 70
    24
 71
     3
 72
    42
 73
    38
 74
     0
 42
0.00000001
 43
0.00000001
 12
1.0
 22
0.0
 32
0.0
 13
1.0
 23
0.0
 33
0.0
 40
0.0
 40
0.0
 40
0.0
 40
0.0
 40
0.0625
 40
0.0625
 40
0.0937500000000003
 40
0.0937500000000003
 40
0.1250000000000005
 40
0.1250000000000005
 40
0.2500000000000014
 40
0.2500000000000014
 40
0.3125000000000019
 40
0.3125000000000019
 40
0.3437500000000023
 40
0.3437500000000023
 40
0.3750000000000026
 40
0.3750000000000026
 40
0.5000000000000031
 40
0.5000000000000031
 40
0.5312500000000032
 40
0.5312500000000032
 40
0.5625000000000033
 40
0.5625000000000033
 40
0.6250000000000029
 40
0.6250000000000029
 40
0.7500000000000014
 40
0.7500000000000014
 40
0.7812500000000011
 40
0.7812500000000011
 40
0.8125000000000008
 40
0.8125000000000008
 40
0.8750000000000006
 40
0.8750000000000006
 40
0.9375000000000003
 40
0.9375000000000003
 40
0.9687500000000002
 40
0.9687500000000002
 40
1.0
 40
1.0
 40
1.0
 40
1.0
 10
275.4002149018045
 20
302.0083637404143
 30
0.0
 10
275.4002149018045
 20
302.0083637404143
 30
0.0
 10
275.4002149018045
 20
302.0527908362723
 30
0.0
 10
275.4002149018045
 20
302.1881125382228
 30
0.0
 10
275.4002149018045
 20
302.2448830262031
 30
0.0
 10
275.4002149018045
 20
302.38069622965
 30
0.0
 10
275.4002149018045
 20
302.4597064259146
 30
0.0
 10
275.4002149018045
 20
302.9095252515721
 30
0.0
 10
275.4002149018045
 20
303.4431765993167
 30
0.0
 10
275.4002149018045
 20
304.5077519988096
 30
0.0
 10
275.4002149018045
 20
304.9069071772643
 30
0.0
 10
275.4002149018045
 20
305.5753364347098
 30
0.0
 10
275.4002149018045
 20
305.8094058511895
 30
0.0
 10
275.4002149018045
 20
306.2958695695182
 30
0.0
 10
275.4002149018045
 20
306.5488153568454
 30
0.0
 10
275.4002149018045
 20
307.8617208715933
 30
0.0
 10
275.4002149018045
 20
309.0648427332042
 30
0.0
 10
275.4002149018045
 20
310.7669876491825
 30
0.0
 10
275.4002149018045
 20
311.1174163500196
 30
0.0
 10
275.4002149018045
 20
311.8388298326408
 30
0.0
 10
275.4002149018045
 20
312.2109891117183
 30
0.0
 10
275.4002149018045
 20
313.3492653308381
 30
0.0
 10
275.4002149018045
 20
314.1362834212079
 30
0.0
 10
275.4002149018045
 20
316.5804601696074
 30
0.0
 10
275.4002149018045
 20
318.3198713095683
 30
0.0
 10
275.4002149018045
 20
320.6395294516321
 30
0.0
 10
275.4002149018045
 20
321.1123077061133
 30
0.0
 10
275.4002149018045
 20
322.0647957282856
 30
0.0
 10
275.4002149018045
 20
322.5439765396672
 30
0.0
 10
275.4002149018045
 20
323.9901911156941
 30
0.0
 10
275.4002149018045
 20
324.9658752325507
 30
0.0
 10
275.4002149018045
 20
326.9401331163515
 30
0.0
 10
275.4002149018045
 20
327.9387060000448
 30
0.0
 10
275.4002149018045
 20
329.4541213500685
 30
0.0
 10
275.4002149018045
 20
329.9621914087055
 30
0.0
 10
275.4002149018045
 20
330.9843322711264
 30
0.0
 10
275.4002149018045
 20
331.4980714259575
 30
0.0
 10
275.4002149018045
 20
332.0083637404142
 30
0.0
  0
SPLINE
  5
144
330
1F
100
AcDbEntity
  8
0
  6
Continuous
 62
     7
370
    15
100
AcDbSpline
210
0.0
220
0.0
230
1.0
 70
    24
 71
     3
 72
    36
 73
    32
 74
     0
 42
0.00000001
 43
0.00000001
 12
1.0
 22
0.0
 32
0.0
 13
1.0
 23
0.0
 33
0.0
 40
0.0
 40
0.0
 40
0.0
 40
0.0
 40
0.0312499999999999
 40
0.0312499999999999
 40
0.0624999999999998
 40
0.0624999999999998
 40
0.1249999999999996
 40
0.1249999999999996
 40
0.1874999999999993
 40
0.1874999999999993
 40
0.2499999999999991
 40
0.2499999999999991
 40
0.3749999999999989
 40
0.3749999999999989
 40
0.4374999999999987
 40
0.4374999999999987
 40
0.4687499999999987
 40
0.4687499999999987
 40
0.4999999999999987
 40
0.4999999999999987
 40
0.624999999999999
 40
0.624999999999999
 40
0.6874999999999992
 40
0.6874999999999992
 40
0.7499999999999994
 40
0.7499999999999994
 40
0.8124999999999997
 40
0.8124999999999997
 40
0.8749999999999999
 40
0.8749999999999999
 40
1.0
 40
1.0
 40
1.0
 40
1.0
 10
287.8975571928444
 20
332.0083637404142
 30
0.0
 10
287.8975571928444
 20
331.5041651198797
 30
0.0
 10
287.8975571928444
 20
330.9987479400199
 30
0.0
 10
287.8975571928444
 20
329.9854310473385
 30
0.0
 10
287.8975571928444
 20
329.4761821360834
 30
0.0
 10
287.8975571928444
 20
327.9614382844171
 30
0.0
 10
287.8975571928444
 20
326.9651433153533
 30
0.0
 10
287.8975571928444
 20
324.9987294730283
 30
0.0
 10
287.8975571928444
 20
324.0286130952942
 30
0.0
 10
287.8975571928444
 20
322.1144888011774
 30
0.0
 10
287.8975571928444
 20
321.1690898971835
 30
0.0
 10
287.8975571928444
 20
318.3817969881432
 30
0.0
 10
287.8975571928444
 20
316.6410001401937
 30
0.0
 10
287.8975571928444
 20
314.1955049488689
 30
0.0
 10
287.8975571928444
 20
313.4081775630187
 30
0.0
 10
287.8975571928444
 20
312.2695370812119
 30
0.0
 10
287.8975571928444
 20
311.8972810141308
 30
0.0
 10
287.8975571928444
 20
311.174798895414
 30
0.0
 10
287.8975571928444
 20
310.8235256706889
 30
0.0
 10
287.8975571928444
 20
309.1158624376856
 30
0.0
 10
287.8975571928444
 20
307.9042191077878
 30
0.0
 10
287.8975571928444
 20
306.313880283162
 30
0.0
 10
287.8975571928444
 20
305.8208163095909
 30
0.0
 10
287.8975571928444
 20
304.9296544075809
 30
0.0
 10
287.8975571928444
 20
304.5289454138681
 30
0.0
 10
287.8975571928444
 20
303.8145394277153
 30
0.0
 10
287.8975571928444
 20
303.5008492508249
 30
0.0
 10
287.8975571928444
 20
302.9601984549065
 30
0.0
 10
287.8975571928444
 20
302.7329359034466
 30
0.0
 10
287.8975571928444
 20
302.1862602637626
 30
0.0
 10
287.8975571928444
 20
302.0083637404143
 30
0.0
 10
287.8975571928444
 20
302.0083637404143
 30
0.0
  0
LINE
  5
145
330
1F
100
AcDbEntity
  8
0
  6
Continuous
 62
     7
370
    15
100
AcDbLine
 10
275.4002169456
 20
537.0083643986
 30
0.0
 11
275.4002169456
 21
332.0083633928
 31
0.0
  0
LINE
  5
146
330
1F
100
AcDbEntity
  8
0
  6
Continuous
 62
     7
370
    15
100
AcDbLine
 10
287.8975600685
 20
332.0083633928
 30
0.0
 11
287.8975600685
 21
537.0083643986
 31
0.0
  0
LINE
  5
147
330
1F
100
AcDbEntity
  8
0
  6
Continuous
 62
     7
370
    15
100
AcDbLine
 10
255.4002136673
 20
567.0083655907
 30
0.0
 11
267.8975567903
 21
567.0083655907
 31
0.0
  0
LINE
  5
148
330
1F
100
AcDbEntity
  8
0
  6
Continuous
 62
     7
370
    15
100
AcDbLine
 10
267.8975567903
 20
537.0083643986
 30
0.0
 11
255.4002136673
 21
537.0083643986
 31
0.0
  0
SPLINE
  5
149
330
1F
100
AcDbEntity
  8
0
  6
Continuous
 62
     7
370
    15
100
AcDbSpline
210
0.0
220
0.0
230
1.0
 70
    24
 71
     3
 72
    40
 73
    36
 74
     0
 42
0.00000001
 43
0.00000001
 12
1.0
 22
0.0
 32
0.0
 13
1.0
 23
0.0
 33
0.0
 40
0.0
 40
0.0
 40
0.0
 40
0.0
 40
0.0624999999999998
 40
0.0624999999999998
 40
0.1249999999999996
 40
0.1249999999999996
 40
0.1874999999999994
 40
0.1874999999999994
 40
0.2499999999999993
 40
0.2499999999999993
 40
0.3749999999999991
 40
0.3749999999999991
 40
0.4062499999999997
 40
0.4062499999999997
 40
0.4375000000000002
 40
0.4375000000000002
 40
0.5000000000000012
 40
0.5000000000000012
 40
0.5625000000000022
 40
0.5625000000000022
 40
0.5937500000000027
 40
0.5937500000000027
 40
0.625000000000003
 40
0.625000000000003
 40
0.7500000000000022
 40
0.7500000000000022
 40
0.8125000000000017
 40
0.8125000000000017
 40
0.875000000000001
 40
0.875000000000001
 40
0.9375000000000004
 40
0.9375000000000004
 40
0.9687500000000002
 40
0.9687500000000002
 40
1.0
 40
1.0
 40
1.0
 40
1.0
 10
255.4002149018045
 20
537.0083637404144
 30
0.0
 10
255.4002149018045
 20
538.0336219282493
 30
0.0
 10
255.4002149018045
 20
539.0707567394114
 30
0.0
 10
255.4002149018045
 20
541.1096067729648
 30
0.0
 10
255.4002149018045
 20
542.1163950623078
 30
0.0
 10
255.4002149018045
 20
544.1053561152055
 30
0.0
 10
255.4002149018045
 20
545.08752742504
 30
0.0
 10
255.4002149018045
 20
547.0271269879653
 30
0.0
 10
255.4002149018045
 20
547.9894986862888
 30
0.0
 10
255.4002149018045
 20
550.7798274256296
 30
0.0
 10
255.4002149018045
 20
552.5251684204413
 30
0.0
 10
255.4002149018045
 20
554.569835656198
 30
0.0
 10
255.4002149018045
 20
554.9718519176885
 30
0.0
 10
255.4002149018045
 20
555.7619530128925
 30
0.0
 10
255.4002149018045
 20
556.1496779901127
 30
0.0
 10
255.4002149018045
 20
557.2798177754796
 30
0.0
 10
255.4002149018045
 20
557.993563480998
 30
0.0
 10
255.4002149018045
 20
559.3452132108324
 30
0.0
 10
255.4002149018045
 20
559.9831055475839
 30
0.0
 10
255.4002149018045
 20
560.8839715077065
 30
0.0
 10
255.4002149018045
 20
561.1749147311334
 30
0.0
 10
255.4002149018045
 20
561.7380680464585
 30
0.0
 10
255.4002149018045
 20
562.0108857853475
 30
0.0
 10
255.4002149018045
 20
563.3196670166261
 30
0.0
 10
255.4002149018045
 20
564.1871944428993
 30
0.0
 10
255.4002149018045
 20
565.2374842881981
 30
0.0
 10
255.4002149018045
 20
565.5454341939792
 30
0.0
 10
255.4002149018045
 20
566.0765862908179
 30
0.0
 10
255.4002149018045
 20
566.2993640985202
 30
0.0
 10
255.4002149018045
 20
566.6539178102977
 30
0.0
 10
255.4002149018045
 20
566.7867678881486
 30
0.0
 10
255.4002149018045
 20
566.9198444099778
 30
0.0
 10
255.4002149018045
 20
566.953190328168
 30
0.0
 10
255.4002149018045
 20
566.9974188177998
 30
0.0
 10
255.4002149018045
 20
567.0083637404142
 30
0.0
 10
255.4002149018045
 20
567.0083637404143
 30
0.0
  0
SPLINE
  5
14A
330
1F
100
AcDbEntity
  8
0
  6
Continuous
 62
     7
370
    15
100
AcDbSpline
210
0.0
220
0.0
230
1.0
 70
    24
 71
     3
 72
    36
 73
    32
 74
     0
 42
0.00000001
 43
0.00000001
 12
1.0
 22
0.0
 32
0.0
 13
1.0
 23
0.0
 33
0.0
 40
0.0
 40
0.0
 40
0.0
 40
0.0
 40
0.1250000000000026
 40
0.1250000000000026
 40
0.156250000000003
 40
0.156250000000003
 40
0.1875000000000035
 40
0.1875000000000035
 40
0.2500000000000035
 40
0.2500000000000035
 40
0.3750000000000032
 40
0.3750000000000032
 40
0.4375000000000028
 40
0.4375000000000028
 40
0.5000000000000024
 40
0.5000000000000024
 40
0.625000000000002
 40
0.625000000000002
 40
0.6562500000000022
 40
0.6562500000000022
 40
0.6875000000000024
 40
0.6875000000000024
 40
0.7500000000000026
 40
0.7500000000000026
 40
0.8125000000000028
 40
0.8125000000000028
 40
0.8437500000000029
 40
0.8437500000000029
 40
0.8750000000000029
 40
0.8750000000000029
 40
1.0
 40
1.0
 40
1.0
 40
1.0
 10
267.8975571928444
 20
567.0083637404143
 30
0.0
 10
267.8975571928444
 20
567.0083637404142
 30
0.0
 10
267.8975571928444
 20
566.8322591185553
 30
0.0
 10
267.8975571928444
 20
566.3876616208654
 30
0.0
 10
267.8975571928444
 20
566.2874257898218
 30
0.0
 10
267.8975571928444
 20
566.063823319823
 30
0.0
 10
267.8975571928444
 20
565.9401252575934
 30
0.0
 10
267.8975571928444
 20
565.5373897232537
 30
0.0
 10
267.8975571928444
 20
565.2262261075092
 30
0.0
 10
267.8975571928444
 20
564.1666286939264
 30
0.0
 10
267.8975571928444
 20
563.2932842861643
 30
0.0
 10
267.8975571928444
 20
561.7196647292686
 30
0.0
 10
267.8975571928444
 20
561.147318385067
 30
0.0
 10
267.8975571928444
 20
559.9333535414704
 30
0.0
 10
267.8975571928444
 20
559.2908705262466
 30
0.0
 10
267.8975571928444
 20
557.2575828817472
 30
0.0
 10
267.8975571928444
 20
555.762071843922
 30
0.0
 10
267.8975571928444
 20
553.7042201534347
 30
0.0
 10
267.8975571928444
 20
553.282009770089
 30
0.0
 10
267.8975571928444
 20
552.428028342581
 30
0.0
 10
267.8975571928444
 20
551.9953902939825
 30
0.0
 10
267.8975571928444
 20
550.6807219890705
 30
0.0
 10
267.8975571928444
 20
549.7819791016009
 30
0.0
 10
267.8975571928444
 20
547.9398836509636
 30
0.0
 10
267.8975571928444
 20
546.9965348208765
 30
0.0
 10
267.8975571928444
 20
545.5470123301583
 30
0.0
 10
267.8975571928444
 20
545.0580772459409
 30
0.0
 10
267.8975571928444
 20
544.0683649582056
 30
0.0
 10
267.8975571928444
 20
543.567309740504
 30
0.0
 10
267.8975571928444
 20
541.0645642882475
 30
0.0
 10
267.8975571928444
 20
539.0450309756528
 30
0.0
 10
267.8975571928444
 20
537.0083637404142
 30
0.0
  0
LINE
  5
14B
330
1F
100
AcDbEntity
  8
0
  6
Continuous
 62
     7
370
    15
100
AcDbLine
 10
255.4002136673
 20
332.0083633928
 30
0.0
 11
267.8975567903
 21
332.0083633928
 31
0.0
  0
LINE
  5
14C
330
1F
100
AcDbEntity
  8
0
  6
Continuous
 62
     7
370
    15
100
AcDbLine
 10
267.8975567903
 20
302.0083649946
 30
0.0
 11
255.4002136673
 21
302.0083649946
 31
0.0
  0
SPLINE
  5
14D
330
1F
100
AcDbEntity
  8
0
  6
Continuous
 62
     7
370
    15
100
AcDbSpline
210
0.0
220
0.0
230
1.0
 70
    24
 71
     3
 72
    38
 73
    34
 74
     0
 42
0.00000001
 43
0.00000001
 12
1.0
 22
0.0
 32
0.0
 13
1.0
 23
0.0
 33
0.0
 40
0.0
 40
0.0
 40
0.0
 40
0.0
 40
0.0624999999999994
 40
0.0624999999999994
 40
0.1249999999999988
 40
0.1249999999999988
 40
0.2499999999999978
 40
0.2499999999999978
 40
0.3124999999999973
 40
0.3124999999999973
 40
0.3749999999999969
 40
0.3749999999999969
 40
0.499999999999996
 40
0.499999999999996
 40
0.5312499999999962
 40
0.5312499999999962
 40
0.5624999999999964
 40
0.5624999999999964
 40
0.624999999999997
 40
0.624999999999997
 40
0.6874999999999974
 40
0.6874999999999974
 40
0.7187499999999978
 40
0.7187499999999978
 40
0.749999999999998
 40
0.749999999999998
 40
0.874999999999999
 40
0.874999999999999
 40
0.9374999999999994
 40
0.9374999999999994
 40
0.9687499999999998
 40
0.9687499999999998
 40
1.0
 40
1.0
 40
1.0
 40
1.0
 10
255.4002149018045
 20
302.0083637404143
 30
0.0
 10
255.4002149018045
 20
302.0083637404143
 30
0.0
 10
255.4002149018045
 20
302.0532993307899
 30
0.0
 10
255.4002149018045
 20
302.2314500113226
 30
0.0
 10
255.4002149018045
 20
302.3643301275698
 30
0.0
 10
255.4002149018045
 20
302.8925568925087
 30
0.0
 10
255.4002149018045
 20
303.4162955985857
 30
0.0
 10
255.4002149018045
 20
304.4727965726618
 30
0.0
 10
255.4002149018045
 20
304.8720524034838
 30
0.0
 10
255.4002149018045
 20
305.7474527946757
 30
0.0
 10
255.4002149018045
 20
306.2250571750308
 30
0.0
 10
255.4002149018045
 20
307.7774886830709
 30
0.0
 10
255.4002149018045
 20
308.9706716627397
 30
0.0
 10
255.4002149018045
 20
310.6768270260089
 30
0.0
 10
255.4002149018045
 20
311.0297294850769
 30
0.0
 10
255.4002149018045
 20
311.7495195475411
 30
0.0
 10
255.4002149018045
 20
312.117182081161
 30
0.0
 10
255.4002149018045
 20
313.2432861017139
 30
0.0
 10
255.4002149018045
 20
314.0247882257631
 30
0.0
 10
255.4002149018045
 20
315.6496798985038
 30
0.0
 10
255.4002149018045
 20
316.4930628016847
 30
0.0
 10
255.4002149018045
 20
317.8062152746549
 30
0.0
 10
255.4002149018045
 20
318.2519609151105
 30
0.0
 10
255.4002149018045
 20
319.1599887504573
 30
0.0
 10
255.4002149018045
 20
319.6238364756338
 30
0.0
 10
255.4002149018045
 20
321.9631941604108
 30
0.0
 10
255.4002149018045
 20
323.8954916553276
 30
0.0
 10
255.4002149018045
 20
326.8844886175247
 30
0.0
 10
255.4002149018045
 20
327.8960258862894
 30
0.0
 10
255.4002149018045
 20
329.4371628447422
 30
0.0
 10
255.4002149018045
 20
329.9542555450299
 30
0.0
 10
255.4002149018045
 20
330.9829400570482
 30
0.0
 10
255.4002149018045
 20
331.4961893477613
 30
0.0
 10
255.4002149018045
 20
332.0083637404143
 30
0.0
  0
SPLINE
  5
14E
330
1F
100
AcDbEntity
  8
0
  6
Continuous
 62
     7
370
    15
100
AcDbSpline
210
0.0
220
0.0
230
1.0
 70
    24
 71
     3
 72
    36
 73
    32
 74
     0
 42
0.00000001
 43
0.00000001
 12
1.0
 22
0.0
 32
0.0
 13
1.0
 23
0.0
 33
0.0
 40
0.0
 40
0.0
 40
0.0
 40
0.0
 40
0.0624999999999999
 40
0.0624999999999999
 40
0.0937499999999999
 40
0.0937499999999999
 40
0.1249999999999999
 40
0.1249999999999999
 40
0.2499999999999998
 40
0.2499999999999998
 40
0.2812499999999997
 40
0.2812499999999997
 40
0.3124999999999996
 40
0.3124999999999996
 40
0.3749999999999994
 40
0.3749999999999994
 40
0.4999999999999989
 40
0.4999999999999989
 40
0.6249999999999987
 40
0.6249999999999987
 40
0.6874999999999988
 40
0.6874999999999988
 40
0.7187499999999988
 40
0.7187499999999988
 40
0.7499999999999989
 40
0.7499999999999989
 40
0.8749999999999994
 40
0.8749999999999994
 40
0.9374999999999997
 40
0.9374999999999997
 40
1.0
 40
1.0
 40
1.0
 40
1.0
 10
267.8975571928444
 20
332.0083637404142
 30
0.0
 10
267.8975571928444
 20
330.9952263085788
 30
0.0
 10
267.8975571928444
 20
329.9830687830588
 30
0.0
 10
267.8975571928444
 20
328.4663167446142
 30
0.0
 10
267.8975571928444
 20
327.960980580439
 30
0.0
 10
267.8975571928444
 20
326.9508122961089
 30
0.0
 10
267.8975571928444
 20
326.4448207586724
 30
0.0
 10
267.8975571928444
 20
323.9452618131231
 30
0.0
 10
267.8975571928444
 20
322.0230107694708
 30
0.0
 10
267.8975571928444
 20
319.7128000144734
 30
0.0
 10
267.8975571928444
 20
319.2554339610266
 30
0.0
 10
267.8975571928444
 20
318.3501315588007
 30
0.0
 10
267.8975571928444
 20
317.9009533106243
 30
0.0
 10
267.8975571928444
 20
316.5782068900923
 30
0.0
 10
267.8975571928444
 20
315.7304066473118
 30
0.0
 10
267.8975571928444
 20
313.2843624296783
 30
0.0
 10
267.8975571928444
 20
311.782584595627
 30
0.0
 10
267.8975571928444
 20
309.0354325562699
 30
0.0
 10
267.8975571928444
 20
307.8317153220826
 30
0.0
 10
267.8975571928444
 20
306.2651766126603
 30
0.0
 10
267.8975571928444
 20
305.7829608168604
 30
0.0
 10
267.8975571928444
 20
305.1197837540871
 30
0.0
 10
267.8975571928444
 20
304.908291654786
 30
0.0
 10
267.8975571928444
 20
304.5083557345498
 30
0.0
 10
267.8975571928444
 20
304.3199292603955
 30
0.0
 10
267.8975571928444
 20
303.4340764905499
 30
0.0
 10
267.8975571928444
 20
302.9039904018607
 30
0.0
 10
267.8975571928444
 20
302.368439713843
 30
0.0
 10
267.8975571928444
 20
302.233311649095
 30
0.0
 10
267.8975571928444
 20
302.0530368843385
 30
0.0
 10
267.8975571928444
 20
302.0083637404143
 30
0.0
 10
267.8975571928444
 20
302.0083637404143
 30
0.0
  0
LINE
  5
14F
330
1F
100
AcDbEntity
  8
0
  6
Continuous
 62
     7
370
    15
100
AcDbLine
 10
255.4002136673
 20
537.0083643986
 30
0.0
 11
255.4002136673
 21
332.0083633928
 31
0.0
  0
LINE
  5
150
330
1F
100
AcDbEntity
  8
0
  6
Continuous
 62
     7
370
    15
100
AcDbLine
 10
267.8975567903
 20
332.0083633928
 30
0.0
 11
267.8975567903
 21
537.0083643986
 31
0.0
  0
LINE
  5
151
330
1F
100
AcDbEntity
  8
0
  6
Continuous
 62
     7
370
    15
100
AcDbLine
 10
227.8975576844
 20
537.0083643986
 30
0.0
 11
155.0965414132
 21
537.0083643986
 31
0.0
  0
SPLINE
  5
152
330
1F
100
AcDbEntity
  8
0
  6
Continuous
 62
     7
370
    15
100
AcDbSpline
210
0.0
220
0.0
230
1.0
 70
     8
 71
     3
 72
    38
 73
    34
 74
     0
 42
0.00000001
 43
0.00000001
 12
1.0
 22
0.0
 32
0.0
 13
1.0
 23
0.0
 33
0.0
 40
0.0
 40
0.0
 40
0.0
 40
0.0
 40
0.0625000000000011
 40
0.0625000000000011
 40
0.0937500000000016
 40
0.0937500000000016
 40
0.1093750000000013
 40
0.1093750000000013
 40
0.125000000000001
 40
0.125000000000001
 40
0.1875000000000007
 40
0.1875000000000007
 40
0.218750000000001
 40
0.218750000000001
 40
0.2500000000000012
 40
0.2500000000000012
 40
0.3125000000000015
 40
0.3125000000000015
 40
0.3437500000000016
 40
0.3437500000000016
 40
0.3750000000000018
 40
0.3750000000000018
 40
0.5000000000000017
 40
0.5000000000000017
 40
0.6250000000000017
 40
0.6250000000000017
 40
0.6875000000000014
 40
0.6875000000000014
 40
0.7500000000000013
 40
0.7500000000000013
 40
0.8750000000000007
 40
0.8750000000000007
 40
1.0
 40
1.0
 40
1.0
 40
1.0
 10
155.0965404824537
 20
537.0083637404142
 30
0.0
 10
155.0965404824537
 20
538.464428657984
 30
0.0
 10
155.2770342889015
 20
539.8838166634798
 30
0.0
 10
155.7897017059261
 20
541.9637383999753
 30
0.0
 10
156.0011553911426
 20
542.6488028014456
 30
0.0
 10
156.3774197357853
 20
543.6643933852895
 30
0.0
 10
156.5131772201486
 20
544.0019724153775
 30
0.0
 10
156.8014407890848
 20
544.6669037353307
 30
0.0
 10
156.9538571871655
 20
544.9942644231185
 30
0.0
 10
157.7549367741896
 20
546.6070375746467
 30
0.0
 10
158.5195635417435
 20
547.8209933752961
 30
0.0
 10
159.820170590307
 20
549.5472376588219
 30
0.0
 10
160.2815399730422
 20
550.1088779459801
 30
0.0
 10
161.2395070674469
 20
551.1884181794355
 30
0.0
 10
161.73634925277
 20
551.7071164685524
 30
0.0
 10
163.2742348429132
 20
553.2073312963853
 30
0.0
 10
164.3623288522266
 20
554.1333317190255
 30
0.0
 10
166.0719978806312
 20
555.4308552233119
 30
0.0
 10
166.6548995100153
 20
555.8480099480612
 30
0.0
 10
167.8447867831691
 20
556.6539021019142
 30
0.0
 10
168.4532577159901
 20
557.0435151853961
 30
0.0
 10
171.5324922563352
 20
558.9134967806431
 30
0.0
 10
174.0989870493694
 20
560.1589057223264
 30
0.0
 10
179.3789718035131
 20
562.2924883745336
 30
0.0
 10
182.0934276258658
 20
563.1783147992996
 30
0.0
 10
186.25549445083
 20
564.2874007907918
 30
0.0
 10
187.6532517560093
 20
564.6187174748997
 30
0.0
 10
190.4521749382088
 20
565.2089866061677
 30
0.0
 10
191.8558228764683
 20
565.4685854617022
 30
0.0
 10
196.0781741886472
 20
566.1505497530294
 30
0.0
 10
198.9082197443186
 20
566.4766373439
 30
0.0
 10
204.5946002291759
 20
566.9056557925176
 30
0.0
 10
207.4509614186506
 20
567.0083637404142
 30
0.0
 10
210.3194222995277
 20
567.0083637404143
 30
0.0
  0
SPLINE
  5
153
330
1F
100
AcDbEntity
  8
0
  6
Continuous
 62
     7
370
    15
100
AcDbSpline
210
0.0
220
0.0
230
1.0
 70
    24
 71
     3
 72
    34
 73
    30
 74
     0
 42
0.00000001
 43
0.00000001
 12
1.0
 22
0.0
 32
0.0
 13
1.0
 23
0.0
 33
0.0
 40
0.0
 40
0.0
 40
0.0
 40
0.0
 40
0.0624999999999997
 40
0.0624999999999997
 40
0.1249999999999994
 40
0.1249999999999994
 40
0.2499999999999983
 40
0.2499999999999983
 40
0.3124999999999979
 40
0.3124999999999979
 40
0.3749999999999974
 40
0.3749999999999974
 40
0.4999999999999966
 40
0.4999999999999966
 40
0.5624999999999956
 40
0.5624999999999956
 40
0.5937499999999959
 40
0.5937499999999959
 40
0.6249999999999962
 40
0.6249999999999962
 40
0.7499999999999959
 40
0.7499999999999959
 40
0.7812499999999954
 40
0.7812499999999954
 40
0.8124999999999951
 40
0.8124999999999951
 40
0.8749999999999961
 40
0.8749999999999961
 40
1.0
 40
1.0
 40
1.0
 40
1.0
 10
247.8975571928444
 20
567.0083637404143
 30
0.0
 10
247.8975571928444
 20
567.0083637404142
 30
0.0
 10
247.8975571928444
 20
566.9643901556051
 30
0.0
 10
247.8975571928444
 20
566.7878503201332
 30
0.0
 10
247.8975571928444
 20
566.6544312233085
 30
0.0
 10
247.8975571928444
 20
566.1243136828614
 30
0.0
 10
247.8975571928444
 20
565.6002289888111
 30
0.0
 10
247.8975571928444
 20
564.5568691544445
 30
0.0
 10
247.8975571928444
 20
564.1659418784974
 30
0.0
 10
247.8975571928444
 20
563.2940729799382
 30
0.0
 10
247.8975571928444
 20
562.8109291428112
 30
0.0
 10
247.8975571928444
 20
561.2520213479409
 30
0.0
 10
247.8975571928444
 20
560.0610190558089
 30
0.0
 10
247.8975571928444
 20
558.0398777202947
 30
0.0
 10
247.8975571928444
 20
557.3268045983644
 30
0.0
 10
247.8975571928444
 20
556.1945923327631
 30
0.0
 10
247.8975571928444
 20
555.805792692323
 30
0.0
 10
247.8975571928444
 20
555.0160987859467
 30
0.0
 10
247.8975571928444
 20
554.6143079258172
 30
0.0
 10
247.8975571928444
 20
552.5709064803065
 30
0.0
 10
247.8975571928444
 20
550.8270123625631
 30
0.0
 10
247.8975571928444
 20
548.5046270918893
 30
0.0
 10
247.8975571928444
 20
548.0329560888028
 30
0.0
 10
247.8975571928444
 20
547.0747802289916
 30
0.0
 10
247.8975571928444
 20
546.5868434898558
 30
0.0
 10
247.8975571928444
 20
545.1182567095927
 30
0.0
 10
247.8975571928444
 20
544.1288347675654
 30
0.0
 10
247.8975571928444
 20
541.1300680881966
 30
0.0
 10
247.8975571928444
 20
539.089126756398
 30
0.0
 10
247.8975571928444
 20
537.0083637404142
 30
0.0
  0
LINE
  5
154
330
1F
100
AcDbEntity
  8
0
  6
Continuous
 62
     7
370
    15
100
AcDbLine
 10
247.8975572373
 20
537.0083643986
 30
0.0
 11
235.4002141144
 21
537.0083643986
 31
0.0
  0
SPLINE
  5
155
330
1F
100
AcDbEntity
  8
0
  6
Continuous
 62
     7
370
    15
100
AcDbSpline
210
0.0
220
0.0
230
1.0
 70
    24
 71
     3
 72
    36
 73
    32
 74
     0
 42
0.00000001
 43
0.00000001
 12
1.0
 22
0.0
 32
0.0
 13
1.0
 23
0.0
 33
0.0
 40
0.0
 40
0.0
 40
0.0
 40
0.0
 40
0.1250000000000004
 40
0.1250000000000004
 40
0.2500000000000007
 40
0.2500000000000007
 40
0.3125000000000009
 40
0.3125000000000009
 40
0.343750000000001
 40
0.343750000000001
 40
0.3750000000000011
 40
0.3750000000000011
 40
0.5000000000000022
 40
0.5000000000000022
 40
0.5312500000000021
 40
0.5312500000000021
 40
0.562500000000002
 40
0.562500000000002
 40
0.6250000000000017
 40
0.6250000000000017
 40
0.7500000000000011
 40
0.7500000000000011
 40
0.8125000000000008
 40
0.8125000000000008
 40
0.8750000000000004
 40
0.8750000000000004
 40
0.9062500000000002
 40
0.9062500000000002
 40
0.9375
 40
0.9375
 40
1.0
 40
1.0
 40
1.0
 40
1.0
 10
235.4002149018045
 20
537.0083637404142
 30
0.0
 10
235.4002149018045
 20
538.8310503070421
 30
0.0
 10
235.4002149018045
 20
540.6515442793875
 30
0.0
 10
235.4002149018045
 20
544.2747964417234
 30
0.0
 10
235.4002149018045
 20
546.0200915009925
 30
0.0
 10
235.4002149018045
 20
548.544837567519
 30
0.0
 10
235.4002149018045
 20
549.3707795148908
 30
0.0
 10
235.4002149018045
 20
550.5861217736538
 30
0.0
 10
235.4002149018045
 20
550.9882903083135
 30
0.0
 10
235.4002149018045
 20
551.7781365168937
 30
0.0
 10
235.4002149018045
 20
552.1660983413881
 30
0.0
 10
235.4002149018045
 20
554.0720679535485
 30
0.0
 10
235.4002149018045
 20
555.4893607959133
 30
0.0
 10
235.4002149018045
 20
557.133391964943
 30
0.0
 10
235.4002149018045
 20
557.4557704209452
 30
0.0
 10
235.4002149018045
 20
558.0876528643818
 30
0.0
 10
235.4002149018045
 20
558.3976826851436
 30
0.0
 10
235.4002149018045
 20
559.3008569263459
 30
0.0
 10
235.4002149018045
 20
559.8692698594758
 30
0.0
 10
235.4002149018045
 20
561.4782944052502
 30
0.0
 10
235.4002149018045
 20
562.4233352717744
 30
0.0
 10
235.4002149018045
 20
563.6556056284822
 30
0.0
 10
235.4002149018045
 20
564.0357951031599
 30
0.0
 10
235.4002149018045
 20
564.7257446054846
 30
0.0
 10
235.4002149018045
 20
565.0366960666894
 30
0.0
 10
235.4002149018045
 20
565.4529940068415
 30
0.0
 10
235.4002149018045
 20
565.5836286610111
 30
0.0
 10
235.4002149018045
 20
565.8265581751915
 30
0.0
 10
235.4002149018045
 20
565.9391776775794
 30
0.0
 10
235.4002149018045
 20
566.251133065086
 30
0.0
 10
235.4002149018045
 20
566.4246106058973
 30
0.0
 10
235.4002149018045
 20
566.5646974639402
 30
0.0
  0
SPLINE
  5
156
330
1F
100
AcDbEntity
  8
0
  6
Continuous
 62
     7
370
    15
100
AcDbSpline
210
0.0
220
0.0
230
1.0
 70
     8
 71
     3
 72
    12
 73
     8
 74
     0
 42
0.00000001
 43
0.00000001
 12
1.0
 22
0.0
 32
0.0
 13
1.0
 23
0.0
 33
0.0
 40
0.0
 40
0.0
 40
0.0
 40
0.0
 40
0.5000000000000007
 40
0.5000000000000007
 40
0.7500000000000003
 40
0.7500000000000003
 40
1.0
 40
1.0
 40
1.0
 40
1.0
 10
235.4002149018045
 20
566.5646974639402
 30
0.0
 10
234.1490185013421
 20
566.4686400527357
 30
0.0
 10
232.8976687494894
 20
566.3559335395803
 30
0.0
 10
231.0203962197639
 20
566.1599594733882
 30
0.0
 10
230.3932289037676
 20
566.0899840574613
 30
0.0
 10
229.1436428611657
 20
565.9412496891234
 30
0.0
 10
228.5200043594319
 20
565.8623639363999
 30
0.0
 10
227.8975571928444
 20
565.7788155259933
 30
0.0
  0
SPLINE
  5
157
330
1F
100
AcDbEntity
  8
0
  6
Continuous
 62
     7
370
    15
100
AcDbSpline
210
0.0
220
0.0
230
1.0
 70
    24
 71
     3
 72
    30
 73
    26
 74
     0
 42
0.00000001
 43
0.00000001
 12
1.0
 22
0.0
 32
0.0
 13
1.0
 23
0.0
 33
0.0
 40
0.0
 40
0.0
 40
0.0
 40
0.0
 40
0.0625000000000009
 40
0.0625000000000009
 40
0.1250000000000017
 40
0.1250000000000017
 40
0.2500000000000024
 40
0.2500000000000024
 40
0.3750000000000032
 40
0.3750000000000032
 40
0.4375000000000036
 40
0.4375000000000036
 40
0.5000000000000039
 40
0.5000000000000039
 40
0.625000000000005
 40
0.625000000000005
 40
0.6875000000000048
 40
0.6875000000000048
 40
0.7500000000000044
 40
0.7500000000000044
 40
0.8750000000000023
 40
0.8750000000000023
 40
0.9375000000000012
 40
0.9375000000000012
 40
1.0
 40
1.0
 40
1.0
 40
1.0
 10
227.8975571928444
 20
565.7788155259933
 30
0.0
 10
227.8975571928444
 20
565.5644009479585
 30
0.0
 10
227.8975571928444
 20
565.3219247144004
 30
0.0
 10
227.8975571928444
 20
564.7793502640515
 30
0.0
 10
227.8975571928444
 20
564.4781104612343
 30
0.0
 10
227.8975571928444
 20
563.4974998449363
 30
0.0
 10
227.8975571928444
 20
562.7394653392051
 30
0.0
 10
227.8975571928444
 20
561.0111003410151
 30
0.0
 10
227.8975571928444
 20
560.0409120104002
 30
0.0
 10
227.8975571928444
 20
558.4116388022295
 30
0.0
 10
227.8975571928444
 20
557.8450063894898
 30
0.0
 10
227.8975571928444
 20
556.6705983064049
 30
0.0
 10
227.8975571928444
 20
556.0619333242371
 30
0.0
 10
227.8975571928444
 20
554.1709601315133
 30
0.0
 10
227.8975571928444
 20
552.8241687985926
 30
0.0
 10
227.8975571928444
 20
550.664403148129
 30
0.0
 10
227.8975571928444
 20
549.9174028256289
 30
0.0
 10
227.8975571928444
 20
548.4047724325743
 30
0.0
 10
227.8975571928444
 20
547.6367295781859
 30
0.0
 10
227.8975571928444
 20
545.2976872760476
 30
0.0
 10
227.8975571928444
 20
543.692031723424
 30
0.0
 10
227.8975571928444
 20
541.210755649591
 30
0.0
 10
227.8975571928444
 20
540.3667378629603
 30
0.0
 10
227.8975571928444
 20
538.6849532250895
 30
0.0
 10
227.8975571928444
 20
537.8458058983123
 30
0.0
 10
227.8975571928444
 20
537.0083637404142
 30
0.0
  0
LINE
  5
158
330
1F
100
AcDbEntity
  8
0
  6
Continuous
 62
     7
370
    15
100
AcDbLine
 10
210.319422207
 20
567.0083655907
 30
0.0
 11
247.8975572373
 21
567.0083655907
 31
0.0
  0
SPLINE
  5
159
330
1F
100
AcDbEntity
  8
0
  6
Continuous
 62
     7
370
    15
100
AcDbSpline
210
0.0
220
0.0
230
1.0
 70
     8
 71
     3
 72
    10
 73
     6
 74
     0
 42
0.00000001
 43
0.00000001
 12
1.0
 22
0.0
 32
0.0
 13
1.0
 23
0.0
 33
0.0
 40
0.0
 40
0.0
 40
0.0
 40
0.0
 40
0.5
 40
0.5
 40
1.0
 40
1.0
 40
1.0
 40
1.0
 10
227.8975571928444
 20
303.2379119548352
 30
0.0
 10
229.1395154727075
 20
303.0712092278508
 30
0.0
 10
230.3824250667827
 20
302.9234496854975
 30
0.0
 10
232.8928433583023
 20
302.661216261881
 30
0.0
 10
234.1470105219593
 20
302.5482415855865
 30
0.0
 10
235.4002149018045
 20
302.4520300168883
 30
0.0
  0
SPLINE
  5
15A
330
1F
100
AcDbEntity
  8
0
  6
Continuous
 62
     7
370
    15
100
AcDbSpline
210
0.0
220
0.0
230
1.0
 70
    24
 71
     3
 72
    38
 73
    34
 74
     0
 42
0.00000001
 43
0.00000001
 12
1.0
 22
0.0
 32
0.0
 13
1.0
 23
0.0
 33
0.0
 40
0.0
 40
0.0
 40
0.0
 40
0.0
 40
0.1250000000000006
 40
0.1250000000000006
 40
0.1562500000000008
 40
0.1562500000000008
 40
0.1875000000000009
 40
0.1875000000000009
 40
0.2500000000000009
 40
0.2500000000000009
 40
0.375000000000001
 40
0.375000000000001
 40
0.406250000000001
 40
0.406250000000001
 40
0.437500000000001
 40
0.437500000000001
 40
0.500000000000001
 40
0.500000000000001
 40
0.6250000000000013
 40
0.6250000000000013
 40
0.6562500000000012
 40
0.6562500000000012
 40
0.6875000000000012
 40
0.6875000000000012
 40
0.7500000000000008
 40
0.7500000000000008
 40
0.8750000000000002
 40
0.8750000000000002
 40
0.9062500000000002
 40
0.9062500000000002
 40
0.9375000000000001
 40
0.9375000000000001
 40
1.0
 40
1.0
 40
1.0
 40
1.0
 10
235.4002149018045
 20
302.4520300168883
 30
0.0
 10
235.4002149018045
 20
302.7330256078052
 30
0.0
 10
235.4002149018045
 20
303.1467816173486
 30
0.0
 10
235.4002149018045
 20
303.841538288167
 30
0.0
 10
235.4002149018045
 20
303.9895365816754
 30
0.0
 10
235.4002149018045
 20
304.3008684787864
 30
0.0
 10
235.4002149018045
 20
304.4645059434387
 30
0.0
 10
235.4002149018045
 20
304.979189394628
 30
0.0
 10
235.4002149018045
 20
305.3539659180005
 30
0.0
 10
235.4002149018045
 20
306.5735806369482
 30
0.0
 10
235.4002149018045
 20
307.5129451468822
 30
0.0
 10
235.4002149018045
 20
308.8564923527117
 30
0.0
 10
235.4002149018045
 20
309.1337290858687
 30
0.0
 10
235.4002149018045
 20
309.7058086086999
 30
0.0
 10
235.4002149018045
 20
310.001104496831
 30
0.0
 10
235.4002149018045
 20
310.9044651000004
 30
0.0
 10
235.4002149018045
 20
311.5327217124066
 30
0.0
 10
235.4002149018045
 20
313.4951681985865
 30
0.0
 10
235.4002149018045
 20
314.9063895778531
 30
0.0
 10
235.4002149018045
 20
316.8068891702484
 30
0.0
 10
235.4002149018045
 20
317.1938640794205
 30
0.0
 10
235.4002149018045
 20
317.9819832640447
 30
0.0
 10
235.4002149018045
 20
318.384174310276
 30
0.0
 10
235.4002149018045
 20
319.6051662445191
 30
0.0
 10
235.4002149018045
 20
320.4334987855007
 30
0.0
 10
235.4002149018045
 20
322.9608074617518
 30
0.0
 10
235.4002149018045
 20
324.7017329446465
 30
0.0
 10
235.4002149018045
 20
326.9509179485999
 30
0.0
 10
235.4002149018045
 20
327.4044352882847
 30
0.0
 10
235.4002149018045
 20
328.3190288650355
 30
0.0
 10
235.4002149018045
 20
328.7798010062513
 30
0.0
 10
235.4002149018045
 20
330.1606146796094
 30
0.0
 10
235.4002149018045
 20
331.0833774395612
 30
0.0
 10
235.4002149018045
 20
332.0083637404143
 30
0.0
  0
LINE
  5
15B
330
1F
100
AcDbEntity
  8
0
  6
Continuous
 62
     7
370
    15
100
AcDbLine
 10
235.4002141144
 20
332.0083633928
 30
0.0
 11
247.8975572373
 21
332.0083633928
 31
0.0
  0
SPLINE
  5
15C
330
1F
100
AcDbEntity
  8
0
  6
Continuous
 62
     7
370
    15
100
AcDbSpline
210
0.0
220
0.0
230
1.0
 70
     8
 71
     3
 72
    42
 73
    38
 74
     0
 42
0.00000001
 43
0.00000001
 12
1.0
 22
0.0
 32
0.0
 13
1.0
 23
0.0
 33
0.0
 40
0.0
 40
0.0
 40
0.0
 40
0.0
 40
0.1250000000000003
 40
0.1250000000000003
 40
0.2500000000000006
 40
0.2500000000000006
 40
0.3750000000000008
 40
0.3750000000000008
 40
0.437500000000001
 40
0.437500000000001
 40
0.5000000000000011
 40
0.5000000000000011
 40
0.5625000000000011
 40
0.5625000000000011
 40
0.5937500000000011
 40
0.5937500000000011
 40
0.6250000000000011
 40
0.6250000000000011
 40
0.687500000000001
 40
0.687500000000001
 40
0.7500000000000009
 40
0.7500000000000009
 40
0.7812500000000009
 40
0.7812500000000009
 40
0.8125000000000009
 40
0.8125000000000009
 40
0.8750000000000009
 40
0.8750000000000009
 40
0.8906250000000008
 40
0.8906250000000008
 40
0.9062500000000006
 40
0.9062500000000006
 40
0.9375000000000004
 40
0.9375000000000004
 40
0.9687500000000002
 40
0.9687500000000002
 40
1.0
 40
1.0
 40
1.0
 40
1.0
 10
210.3194222995278
 20
302.0083637404143
 30
0.0
 10
207.4523579084007
 20
302.0083637404143
 30
0.0
 10
204.6005470447269
 20
302.1109899916875
 30
0.0
 10
198.9298988192387
 20
302.5380893357301
 30
0.0
 10
196.1110320105163
 20
302.8623643087011
 30
0.0
 10
190.5108995618785
 20
303.7638961966881
 30
0.0
 10
187.7295576556769
 20
304.3406399895375
 30
0.0
 10
183.5919378927057
 20
305.4371536001746
 30
0.0
 10
182.2184973593407
 20
305.8414523463573
 30
0.0
 10
179.4848281436833
 20
306.7389396218957
 30
0.0
 10
178.1306807665335
 20
307.23033266754
 30
0.0
 10
175.4678376088047
 20
308.303085559844
 30
0.0
 10
174.1566845076498
 20
308.8851647082381
 30
0.0
 10
172.2250124171162
 20
309.8373335353195
 30
0.0
 10
171.5869816033322
 20
310.1679363957086
 30
0.0
 10
170.3236812682177
 20
310.8579171215743
 30
0.0
 10
169.6975839643378
 20
311.2178498957481
 30
0.0
 10
167.8535900790179
 20
312.336789681685
 30
0.0
 10
166.6661202710922
 20
313.1364931545865
 30
0.0
 10
164.389086702167
 20
314.8616023034377
 30
0.0
 10
163.2993418074387
 20
315.7867754206286
 30
0.0
 10
161.7550306279569
 20
317.2904797591337
 30
0.0
 10
161.2537114904358
 20
317.8130847827219
 30
0.0
 10
160.2941774543535
 20
318.8928473131013
 30
0.0
 10
159.837168340723
 20
319.4483559133071
 30
0.0
 10
158.5401220307527
 20
321.1656828041385
 30
0.0
 10
157.7731460846119
 20
322.3776705924894
 30
0.0
 10
156.9660661026083
 20
323.996783030911
 30
0.0
 10
156.8122416413638
 20
324.3261623916616
 30
0.0
 10
156.5240314546618
 20
324.988555967139
 30
0.0
 10
156.3891885225458
 20
325.3224360144148
 30
0.0
 10
156.013062122768
 20
326.3323043655701
 30
0.0
 10
155.8001282277879
 20
327.0165055756319
 30
0.0
 10
155.4543224975721
 20
328.4081020732403
 30
0.0
 10
155.3214323108081
 20
329.1154920443266
 30
0.0
 10
155.1420208973454
 20
330.5552931807881
 30
0.0
 10
155.0965404824536
 20
331.281414364786
 30
0.0
 10
155.0965404824536
 20
332.0083637404142
 30
0.0
  0
LINE
  5
15D
330
1F
100
AcDbEntity
  8
0
  6
Continuous
 62
     7
370
    15
100
AcDbLine
 10
155.0965414132
 20
332.0083633928
 30
0.0
 11
227.8975576844
 21
332.0083633928
 31
0.0
  0
SPLINE
  5
15E
330
1F
100
AcDbEntity
  8
0
  6
Continuous
 62
     7
370
    15
100
AcDbSpline
210
0.0
220
0.0
230
1.0
 70
    24
 71
     3
 72
    32
 73
    28
 74
     0
 42
0.00000001
 43
0.00000001
 12
1.0
 22
0.0
 32
0.0
 13
1.0
 23
0.0
 33
0.0
 40
0.0
 40
0.0
 40
0.0
 40
0.0
 40
0.1249999999999998
 40
0.1249999999999998
 40
0.1874999999999997
 40
0.1874999999999997
 40
0.2187499999999996
 40
0.2187499999999996
 40
0.2499999999999994
 40
0.2499999999999994
 40
0.3749999999999993
 40
0.3749999999999993
 40
0.4374999999999992
 40
0.4374999999999992
 40
0.499999999999999
 40
0.499999999999999
 40
0.624999999999999
 40
0.624999999999999
 40
0.687499999999999
 40
0.687499999999999
 40
0.7499999999999992
 40
0.7499999999999992
 40
0.8749999999999998
 40
0.8749999999999998
 40
0.9374999999999999
 40
0.9374999999999999
 40
1.0
 40
1.0
 40
1.0
 40
1.0
 10
227.8975571928444
 20
332.0083637404142
 30
0.0
 10
227.8975571928444
 20
330.3220442561405
 30
0.0
 10
227.8975571928444
 20
328.6568453450819
 30
0.0
 10
227.8975571928444
 20
326.1897269019271
 30
0.0
 10
227.8975571928444
 20
325.3724953220195
 30
0.0
 10
227.8975571928444
 20
324.154483360679
 30
0.0
 10
227.8975571928444
 20
323.7488032857688
 30
0.0
 10
227.8975571928444
 20
322.9471213259492
 30
0.0
 10
227.8975571928444
 20
322.5506903536231
 30
0.0
 10
227.8975571928444
 20
320.5900444923091
 30
0.0
 10
227.8975571928444
 20
319.0899079180357
 30
0.0
 10
227.8975571928444
 20
316.937663153783
 30
0.0
 10
227.8975571928444
 20
316.2365023033589
 30
0.0
 10
227.8975571928444
 20
314.867899910741
 30
0.0
 10
227.8975571928444
 20
314.209436798281
 30
0.0
 10
227.8975571928444
 20
312.3075154062233
 30
0.0
 10
227.8975571928444
 20
311.137085326863
 30
0.0
 10
227.8975571928444
 20
309.5209507113109
 30
0.0
 10
227.8975571928444
 20
309.0040431686379
 30
0.0
 10
227.8975571928444
 20
308.024682599706
 30
0.0
 10
227.8975571928444
 20
307.5640481587695
 30
0.0
 10
227.8975571928444
 20
306.2651963054988
 30
0.0
 10
227.8975571928444
 20
305.5095708820494
 30
0.0
 10
227.8975571928444
 20
304.5348273942855
 30
0.0
 10
227.8975571928444
 20
304.2363693883584
 30
0.0
 10
227.8975571928444
 20
303.6933209363141
 30
0.0
 10
227.8975571928444
 20
303.4514215927217
 30
0.0
 10
227.8975571928444
 20
303.2379119548352
 30
0.0
  0
SPLINE
  5
15F
330
1F
100
AcDbEntity
  8
0
  6
Continuous
 62
     7
370
    15
100
AcDbSpline
210
0.0
220
0.0
230
1.0
 70
    24
 71
     3
 72
    38
 73
    34
 74
     0
 42
0.00000001
 43
0.00000001
 12
1.0
 22
0.0
 32
0.0
 13
1.0
 23
0.0
 33
0.0
 40
0.0
 40
0.0
 40
0.0
 40
0.0
 40
0.1249999999999994
 40
0.1249999999999994
 40
0.1562499999999993
 40
0.1562499999999993
 40
0.1874999999999992
 40
0.1874999999999992
 40
0.2499999999999991
 40
0.2499999999999991
 40
0.3124999999999991
 40
0.3124999999999991
 40
0.3437499999999989
 40
0.3437499999999989
 40
0.3749999999999988
 40
0.3749999999999988
 40
0.4999999999999984
 40
0.4999999999999984
 40
0.5312499999999984
 40
0.5312499999999984
 40
0.5624999999999983
 40
0.5624999999999983
 40
0.6249999999999987
 40
0.6249999999999987
 40
0.7499999999999989
 40
0.7499999999999989
 40
0.781249999999999
 40
0.781249999999999
 40
0.812499999999999
 40
0.812499999999999
 40
0.8749999999999993
 40
0.8749999999999993
 40
1.0
 40
1.0
 40
1.0
 40
1.0
 10
247.8975571928444
 20
332.0083637404142
 30
0.0
 10
247.8975571928444
 20
329.9442486665108
 30
0.0
 10
247.8975571928444
 20
327.9093433787287
 30
0.0
 10
247.8975571928444
 20
325.4014625758585
 30
0.0
 10
247.8975571928444
 20
324.9016919071694
 30
0.0
 10
247.8975571928444
 20
323.9058150716614
 30
0.0
 10
247.8975571928444
 20
323.4097448163524
 30
0.0
 10
247.8975571928444
 20
321.9452233332156
 30
0.0
 10
247.8975571928444
 20
320.9941610115226
 30
0.0
 10
247.8975571928444
 20
319.1405841190731
 30
0.0
 10
247.8975571928444
 20
318.2380762222863
 30
0.0
 10
247.8975571928444
 20
316.9203876510085
 30
0.0
 10
247.8975571928444
 20
316.4871818327888
 30
0.0
 10
247.8975571928444
 20
315.6328974177726
 30
0.0
 10
247.8975571928444
 20
315.2115421318851
 30
0.0
 10
247.8975571928444
 20
313.1579327567195
 30
0.0
 10
247.8975571928444
 20
311.6646191750272
 30
0.0
 10
247.8975571928444
 20
309.9728780133312
 30
0.0
 10
247.8975571928444
 20
309.6433598666578
 30
0.0
 10
247.8975571928444
 20
309.0020089070998
 30
0.0
 10
247.8975571928444
 20
308.689430910701
 30
0.0
 10
247.8975571928444
 20
307.7850876295649
 30
0.0
 10
247.8975571928444
 20
307.2265032837056
 30
0.0
 10
247.8975571928444
 20
305.6770202857521
 30
0.0
 10
247.8975571928444
 20
304.811333093775
 30
0.0
 10
247.8975571928444
 20
303.93426622944
 30
0.0
 10
247.8975571928444
 20
303.7690927651839
 30
0.0
 10
247.8975571928444
 20
303.4616624971671
 30
0.0
 10
247.8975571928444
 20
303.319098113496
 30
0.0
 10
247.8975571928444
 20
302.9244152228176
 30
0.0
 10
247.8975571928444
 20
302.7052354231557
 30
0.0
 10
247.8975571928444
 20
302.1786504630135
 30
0.0
 10
247.8975571928444
 20
302.0083637404143
 30
0.0
 10
247.8975571928444
 20
302.0083637404143
 30
0.0
  0
LINE
  5
160
330
1F
100
AcDbEntity
  8
0
  6
Continuous
 62
     7
370
    15
100
AcDbLine
 10
247.8975572373
 20
302.0083649946
 30
0.0
 11
210.319422207
 21
302.0083649946
 31
0.0
  0
LINE
  5
161
330
1F
100
AcDbEntity
  8
0
  6
Continuous
 62
     7
370
    15
100
AcDbLine
 10
235.4002141144
 20
537.0083643986
 30
0.0
 11
235.4002141144
 21
332.0083633928
 31
0.0
  0
LINE
  5
162
330
1F
100
AcDbEntity
  8
0
  6
Continuous
 62
     7
370
    15
100
AcDbLine
 10
247.8975572373
 20
332.0083633928
 30
0.0
 11
247.8975572373
 21
537.0083643986
 31
0.0
  0
LINE
  5
163
330
1F
100
AcDbEntity
  8
0
  6
Continuous
 62
     7
370
    15
100
AcDbLine
 10
155.0965414132
 20
537.0083643986
 30
0.0
 11
155.0965414132
 21
332.0083633928
 31
0.0
  0
LINE
  5
164
330
1F
100
AcDbEntity
  8
0
  6
Continuous
 62
     7
370
    15
100
AcDbLine
 10
227.8975576844
 20
332.0083633928
 30
0.0
 11
227.8975576844
 21
537.0083643986
 31
0.0
  0
LINE
  5
165
330
1F
100
AcDbEntity
  8
0
  6
Continuous
 62
     7
370
    15
100
AcDbLine
 10
467.8975597705
 20
302.0083649946
 30
0.0
 11
475.4002050247
 21
302.0083649946
 31
0.0
  0
LINE
  5
166
330
1F
100
AcDbEntity
  8
0
  6
Continuous
 62
     7
370
    15
100
AcDbLine
 10
467.8975597705
 20
567.0083655907
 30
0.0
 11
475.4002050247
 21
567.0083655907
 31
0.0
  0
LINE
  5
167
330
1F
100
AcDbEntity
  8
0
  6
Continuous
 62
     7
370
    15
100
AcDbLine
 10
447.8975639429
 20
302.0083649946
 30
0.0
 11
455.400209197
 21
302.0083649946
 31
0.0
  0
LINE
  5
168
330
1F
100
AcDbEntity
  8
0
  6
Continuous
 62
     7
370
    15
100
AcDbLine
 10
447.8975639429
 20
567.0083655907
 30
0.0
 11
455.400209197
 21
567.0083655907
 31
0.0
  0
LINE
  5
169
330
1F
100
AcDbEntity
  8
0
  6
Continuous
 62
     7
370
    15
100
AcDbLine
 10
427.897553214
 20
302.0083649946
 30
0.0
 11
435.4002133693
 21
302.0083649946
 31
0.0
  0
LINE
  5
16A
330
1F
100
AcDbEntity
  8
0
  6
Continuous
 62
     7
370
    15
100
AcDbLine
 10
427.897553214
 20
567.0083655907
 30
0.0
 11
435.4002133693
 21
567.0083655907
 31
0.0
  0
LINE
  5
16B
330
1F
100
AcDbEntity
  8
0
  6
Continuous
 62
     7
370
    15
100
AcDbLine
 10
407.8975573863
 20
302.0083649946
 30
0.0
 11
415.4002175416
 21
302.0083649946
 31
0.0
  0
LINE
  5
16C
330
1F
100
AcDbEntity
  8
0
  6
Continuous
 62
     7
370
    15
100
AcDbLine
 10
407.8975573863
 20
567.0083655907
 30
0.0
 11
415.4002175416
 21
567.0083655907
 31
0.0
  0
LINE
  5
16D
330
1F
100
AcDbEntity
  8
0
  6
Continuous
 62
     7
370
    15
100
AcDbLine
 10
387.8975615587
 20
302.0083649946
 30
0.0
 11
395.400221714
 21
302.0083649946
 31
0.0
  0
LINE
  5
16E
330
1F
100
AcDbEntity
  8
0
  6
Continuous
 62
     7
370
    15
100
AcDbLine
 10
387.8975615587
 20
567.0083655907
 30
0.0
 11
395.400221714
 21
567.0083655907
 31
0.0
  0
LINE
  5
16F
330
1F
100
AcDbEntity
  8
0
  6
Continuous
 62
     7
370
    15
100
AcDbLine
 10
367.8975508298
 20
302.0083649946
 30
0.0
 11
375.4002109851
 21
302.0083649946
 31
0.0
  0
LINE
  5
170
330
1F
100
AcDbEntity
  8
0
  6
Continuous
 62
     7
370
    15
100
AcDbLine
 10
367.8975508298
 20
567.0083655907
 30
0.0
 11
375.4002109851
 21
567.0083655907
 31
0.0
  0
LINE
  5
171
330
1F
100
AcDbEntity
  8
0
  6
Continuous
 62
     7
370
    15
100
AcDbLine
 10
347.8975550022
 20
302.0083649946
 30
0.0
 11
355.4002151575
 21
302.0083649946
 31
0.0
  0
LINE
  5
172
330
1F
100
AcDbEntity
  8
0
  6
Continuous
 62
     7
370
    15
100
AcDbLine
 10
347.8975550022
 20
567.0083655907
 30
0.0
 11
355.4002151575
 21
567.0083655907
 31
0.0
  0
LINE
  5
173
330
1F
100
AcDbEntity
  8
0
  6
Continuous
 62
     7
370
    15
100
AcDbLine
 10
327.8975591745
 20
302.0083649946
 30
0.0
 11
335.4002193298
 21
302.0083649946
 31
0.0
  0
LINE
  5
174
330
1F
100
AcDbEntity
  8
0
  6
Continuous
 62
     7
370
    15
100
AcDbLine
 10
327.8975591745
 20
567.0083655907
 30
0.0
 11
335.4002193298
 21
567.0083655907
 31
0.0
  0
LINE
  5
175
330
1F
100
AcDbEntity
  8
0
  6
Continuous
 62
     7
370
    15
100
AcDbLine
 10
307.8975558962
 20
302.0083649946
 30
0.0
 11
315.4002160515
 21
302.0083649946
 31
0.0
  0
LINE
  5
176
330
1F
100
AcDbEntity
  8
0
  6
Continuous
 62
     7
370
    15
100
AcDbLine
 10
307.8975558962
 20
567.0083655907
 30
0.0
 11
315.4002160515
 21
567.0083655907
 31
0.0
  0
LINE
  5
177
330
1F
100
AcDbEntity
  8
0
  6
Continuous
 62
     7
370
    15
100
AcDbLine
 10
287.8975600685
 20
302.0083649946
 30
0.0
 11
295.4002127733
 21
302.0083649946
 31
0.0
  0
LINE
  5
178
330
1F
100
AcDbEntity
  8
0
  6
Continuous
 62
     7
370
    15
100
AcDbLine
 10
287.8975600685
 20
567.0083655907
 30
0.0
 11
295.4002127733
 21
567.0083655907
 31
0.0
  0
LINE
  5
179
330
1F
100
AcDbEntity
  8
0
  6
Continuous
 62
     7
370
    15
100
AcDbLine
 10
267.8975567903
 20
302.0083649946
 30
0.0
 11
275.4002169456
 21
302.0083649946
 31
0.0
  0
LINE
  5
17A
330
1F
100
AcDbEntity
  8
0
  6
Continuous
 62
     7
370
    15
100
AcDbLine
 10
267.8975567903
 20
567.0083655907
 30
0.0
 11
275.4002169456
 21
567.0083655907
 31
0.0
  0
LINE
  5
17B
330
1F
100
AcDbEntity
  8
0
  6
Continuous
 62
     7
370
    15
100
AcDbLine
 10
247.8975572373
 20
302.0083649946
 30
0.0
 11
255.4002136673
 21
302.0083649946
 31
0.0
  0
LINE
  5
17C
330
1F
100
AcDbEntity
  8
0
  6
Continuous
 62
     7
370
    15
100
AcDbLine
 10
247.8975572373
 20
567.0083655907
 30
0.0
 11
255.4002136673
 21
567.0083655907
 31
0.0
  0
LINE
  5
17D
330
1F
100
AcDbEntity
  8
0
  6
Continuous
 62
     8
370
    15
100
AcDbLine
 10
789.0965596523
 20
474.0386648966
 30
0.0
 11
789.0965596523
 21
449.1216062499
 31
0.0
  0
LINE
  5
17E
330
1F
100
AcDbEntity
  8
0
  6
Continuous
 62
     8
370
    15
100
AcDbLine
 10
789.0965596523
 20
419.8951243354
 30
0.0
 11
789.0965596523
 21
394.9780619634
 31
0.0
  0
SPLINE
  5
17F
330
1F
100
AcDbEntity
  8
0
  6
Continuous
 62
     7
370
    15
100
AcDbSpline
210
0.0
220
0.0
230
1.0
 70
    24
 71
     3
 72
    10
 73
     6
 74
     0
 42
0.00000001
 43
0.00000001
 12
1.0
 22
0.0
 32
0.0
 13
1.0
 23
0.0
 33
0.0
 40
0.0
 40
0.0
 40
0.0
 40
0.0
 40
0.5
 40
0.5
 40
1.0
 40
1.0
 40
1.0
 40
1.0
 10
1331.018140676745
 20
692.4106373944397
 30
0.0
 10
1331.18484340373
 20
692.4106373944397
 30
0.0
 10
1331.332602946083
 20
692.4106373944397
 30
0.0
 10
1331.594836369699
 20
692.4106373944395
 30
0.0
 10
1331.707811045994
 20
692.4106373944397
 30
0.0
 10
1331.804022614692
 20
692.4106373944397
 30
0.0
  0
SPLINE
  5
180
330
1F
100
AcDbEntity
  8
0
  6
Continuous
 62
     7
370
    15
100
AcDbSpline
210
0.0
220
0.0
230
1.0
 70
     8
 71
     3
 72
    38
 73
    34
 74
     0
 42
0.00000001
 43
0.00000001
 12
1.0
 22
0.0
 32
0.0
 13
1.0
 23
0.0
 33
0.0
 40
0.0
 40
0.0
 40
0.0
 40
0.0
 40
0.1250000000000006
 40
0.1250000000000006
 40
0.1562500000000008
 40
0.1562500000000008
 40
0.1875000000000009
 40
0.1875000000000009
 40
0.2500000000000009
 40
0.2500000000000009
 40
0.375000000000001
 40
0.375000000000001
 40
0.406250000000001
 40
0.406250000000001
 40
0.437500000000001
 40
0.437500000000001
 40
0.500000000000001
 40
0.500000000000001
 40
0.6250000000000013
 40
0.6250000000000013
 40
0.6562500000000012
 40
0.6562500000000012
 40
0.6875000000000012
 40
0.6875000000000012
 40
0.7500000000000008
 40
0.7500000000000008
 40
0.8750000000000002
 40
0.8750000000000002
 40
0.9062500000000002
 40
0.9062500000000002
 40
0.9375000000000001
 40
0.9375000000000001
 40
1.0
 40
1.0
 40
1.0
 40
1.0
 10
1331.804022614692
 20
692.41063739444
 30
0.0
 10
1331.523027023775
 20
694.2112602717615
 30
0.0
 10
1331.109271014232
 20
695.9921469706209
 30
0.0
 10
1330.414514343413
 20
698.1918590084182
 30
0.0
 10
1330.266516049905
 20
698.6306230939692
 30
0.0
 10
1329.955184152794
 20
699.4974048184979
 30
0.0
 10
1329.791546688142
 20
699.9264380543528
 30
0.0
 10
1329.276863236953
 20
701.2005433220247
 30
0.0
 10
1328.90208671358
 20
702.0326430644093
 30
0.0
 10
1327.682471994632
 20
704.4768546992
 30
0.0
 10
1326.743107484698
 20
706.0372938158343
 30
0.0
 10
1325.399560278869
 20
707.8952722041157
 30
0.0
 10
1325.122323545712
 20
708.2622064406696
 30
0.0
 10
1324.55024402288
 20
708.9864505693101
 30
0.0
 10
1324.254948134749
 20
709.3442045722904
 30
0.0
 10
1323.35158753158
 20
710.3914154137719
 30
0.0
 10
1322.723330919174
 20
711.058545386082
 30
0.0
 10
1320.760884432994
 20
712.9673469289309
 30
0.0
 10
1319.349663053727
 20
714.1171991182018
 30
0.0
 10
1317.449163461332
 20
715.3918425460536
 30
0.0
 10
1317.06218855216
 20
715.638576436681
 30
0.0
 10
1316.274069367536
 20
716.1151547330884
 30
0.0
 10
1315.871878321304
 20
716.3455573193803
 30
0.0
 10
1314.650886387061
 20
717.0064082035543
 30
0.0
 10
1313.82255384608
 20
717.4042218472205
 30
0.0
 10
1311.295245169829
 20
718.4714972947702
 30
0.0
 10
1309.554319686934
 20
719.0158721695908
 30
0.0
 10
1307.305134682981
 20
719.4785813084961
 30
0.0
 10
1306.851617343296
 20
719.5601488943347
 30
0.0
 10
1305.937023766545
 20
719.700744519772
 30
0.0
 10
1305.476251625329
 20
719.7596560735592
 30
0.0
 10
1304.095437951971
 20
719.9005956638749
 30
0.0
 10
1303.172675192019
 20
719.9476096729472
 30
0.0
 10
1302.247688891166
 20
719.9476096729472
 30
0.0
  0
LINE
  5
181
330
1F
100
AcDbEntity
  8
0
  6
Continuous
 62
     7
370
    15
100
AcDbLine
 10
1302.2476892388
 20
719.9476114713
 30
0.0
 11
1302.2476892388
 21
725.5047238671
 31
0.0
  0
SPLINE
  5
182
330
1F
100
AcDbEntity
  8
0
  6
Continuous
 62
     7
370
    15
100
AcDbSpline
210
0.0
220
0.0
230
1.0
 70
     8
 71
     3
 72
    38
 73
    34
 74
     0
 42
0.00000001
 43
0.00000001
 12
1.0
 22
0.0
 32
0.0
 13
1.0
 23
0.0
 33
0.0
 40
0.0
 40
0.0
 40
0.0
 40
0.0
 40
0.1249999999999994
 40
0.1249999999999994
 40
0.1562499999999993
 40
0.1562499999999993
 40
0.1874999999999992
 40
0.1874999999999992
 40
0.2499999999999991
 40
0.2499999999999991
 40
0.3124999999999991
 40
0.3124999999999991
 40
0.3437499999999989
 40
0.3437499999999989
 40
0.3749999999999988
 40
0.3749999999999988
 40
0.4999999999999984
 40
0.4999999999999984
 40
0.5312499999999984
 40
0.5312499999999984
 40
0.5624999999999983
 40
0.5624999999999983
 40
0.6249999999999987
 40
0.6249999999999987
 40
0.7499999999999989
 40
0.7499999999999989
 40
0.781249999999999
 40
0.781249999999999
 40
0.812499999999999
 40
0.812499999999999
 40
0.8749999999999993
 40
0.8749999999999993
 40
1.0
 40
1.0
 40
1.0
 40
1.0
 10
1302.247688891166
 20
725.5047254222878
 30
0.0
 10
1304.31180396507
 20
725.5047254222878
 30
0.0
 10
1306.346709252852
 20
725.2754663832128
 30
0.0
 10
1308.854590055722
 20
724.7082949931287
 30
0.0
 10
1309.354360724411
 20
724.5806899391644
 30
0.0
 10
1310.350237559919
 20
724.2967182314778
 30
0.0
 10
1310.846307815228
 20
724.1402391836608
 30
0.0
 10
1312.310829298365
 20
723.6336642254055
 30
0.0
 10
1313.261891620058
 20
723.2448754754371
 30
0.0
 10
1315.115468512507
 20
722.3692397035662
 30
0.0
 10
1316.017976409294
 20
721.88237920137
 30
0.0
 10
1317.335664980572
 20
721.079226516603
 30
0.0
 10
1317.768870798792
 20
720.7993420853967
 30
0.0
 10
1318.623155213808
 20
720.2150782803108
 30
0.0
 10
1319.044510499695
 20
719.9103805186521
 30
0.0
 10
1321.098119874861
 20
718.3429623449402
 30
0.0
 10
1322.591433456553
 20
716.9374633313269
 30
0.0
 10
1324.283174618249
 20
715.0033611378549
 30
0.0
 10
1324.612692764923
 20
714.6075931011503
 30
0.0
 10
1325.254043724481
 20
713.7981363343974
 30
0.0
 10
1325.56662172088
 20
713.3833738892397
 30
0.0
 10
1326.470965002015
 20
712.121440744707
 30
0.0
 10
1327.029549347875
 20
711.2570725223338
 30
0.0
 10
1328.579032345828
 20
708.5982001509392
 30
0.0
 10
1329.444719537805
 20
706.7384796583939
 30
0.0
 10
1330.32178640214
 20
704.3070329260487
 30
0.0
 10
1330.486959866397
 20
703.8149072820662
 30
0.0
 10
1330.794390134413
 20
702.8267034532616
 30
0.0
 10
1330.936954518084
 20
702.3298390151499
 30
0.0
 10
1331.331637408763
 20
700.8310676299155
 30
0.0
 10
1331.550817208425
 20
699.8210003386682
 30
0.0
 10
1332.077402168567
 20
696.7583553798214
 30
0.0
 10
1332.247688891166
 20
694.7146688717422
 30
0.0
 10
1332.247688891166
 20
692.6744837177982
 30
0.0
  0
LINE
  5
183
330
1F
100
AcDbEntity
  8
0
  6
Continuous
 62
     7
370
    15
100
AcDbLine
 10
1332.2476876369
 20
692.6744836621
 30
0.0
 11
1332.2476876369
 21
673.1775081955
 31
0.0
  0
LINE
  5
184
330
1F
100
AcDbEntity
  8
0
  6
Continuous
 62
     7
370
    15
100
AcDbLine
 10
1302.2476892388
 20
673.1775081955
 30
0.0
 11
1302.2476892388
 21
716.4077959262
 31
0.0
  0
SPLINE
  5
185
330
1F
100
AcDbEntity
  8
0
  6
Continuous
 62
     7
370
    15
100
AcDbSpline
210
0.0
220
0.0
230
1.0
 70
     8
 71
     3
 72
    32
 73
    28
 74
     0
 42
0.00000001
 43
0.00000001
 12
1.0
 22
0.0
 32
0.0
 13
1.0
 23
0.0
 33
0.0
 40
0.0
 40
0.0
 40
0.0
 40
0.0
 40
0.1249999999999998
 40
0.1249999999999998
 40
0.1874999999999997
 40
0.1874999999999997
 40
0.2187499999999996
 40
0.2187499999999996
 40
0.2499999999999994
 40
0.2499999999999994
 40
0.3749999999999993
 40
0.3749999999999993
 40
0.4374999999999992
 40
0.4374999999999992
 40
0.499999999999999
 40
0.499999999999999
 40
0.624999999999999
 40
0.624999999999999
 40
0.687499999999999
 40
0.687499999999999
 40
0.7499999999999992
 40
0.7499999999999992
 40
0.8749999999999998
 40
0.8749999999999998
 40
0.9374999999999999
 40
0.9374999999999999
 40
1.0
 40
1.0
 40
1.0
 40
1.0
 10
1302.247688891166
 20
716.4077955408932
 30
0.0
 10
1303.93400837544
 20
716.4077955408932
 30
0.0
 10
1305.599207286499
 20
716.2510843697578
 30
0.0
 10
1308.066325729653
 20
715.7883776393385
 30
0.0
 10
1308.883557309561
 20
715.5959949503388
 30
0.0
 10
1310.101569270901
 20
715.2492834774274
 30
0.0
 10
1310.507249345811
 20
715.1236549056501
 30
0.0
 10
1311.308931305631
 20
714.8551355507067
 30
0.0
 10
1311.705362277957
 20
714.712178046115
 30
0.0
 10
1313.666008139271
 20
713.9549684722342
 30
0.0
 10
1315.166144713545
 20
713.2143351909046
 30
0.0
 10
1317.318389477797
 20
711.9101792542779
 30
0.0
 10
1318.019550328222
 20
711.4429681523204
 30
0.0
 10
1319.38815272084
 20
710.4437917884812
 30
0.0
 10
1320.046615833299
 20
709.9184182198867
 30
0.0
 10
1321.948537225357
 20
708.2689794077999
 30
0.0
 10
1323.118967304717
 20
707.0720349062209
 30
0.0
 10
1324.735101920269
 20
705.137392184208
 30
0.0
 10
1325.252009462942
 20
704.4669431676879
 30
0.0
 10
1326.231370031874
 20
703.0899751352994
 30
0.0
 10
1326.692004472811
 20
702.3864391125871
 30
0.0
 10
1327.990856326082
 20
700.2327924850929
 30
0.0
 10
1328.746481749531
 20
698.7398814309533
 30
0.0
 10
1329.721225237295
 20
696.4182768226483
 30
0.0
 10
1330.019683243222
 20
695.6303051890742
 30
0.0
 10
1330.562731695266
 20
694.0280440174511
 30
0.0
 10
1330.804631038859
 20
693.2217937953178
 30
0.0
 10
1331.018140676745
 20
692.4106373944397
 30
0.0
  0
SPLINE
  5
186
330
1F
100
AcDbEntity
  8
0
  6
Continuous
 62
     7
370
    15
100
AcDbSpline
210
0.0
220
0.0
230
1.0
 70
    24
 71
     3
 72
    42
 73
    38
 74
     0
 42
0.00000001
 43
0.00000001
 12
1.0
 22
0.0
 32
0.0
 13
1.0
 23
0.0
 33
0.0
 40
0.0
 40
0.0
 40
0.0
 40
0.0
 40
0.1250000000000003
 40
0.1250000000000003
 40
0.2500000000000006
 40
0.2500000000000006
 40
0.3750000000000008
 40
0.3750000000000008
 40
0.437500000000001
 40
0.437500000000001
 40
0.5000000000000011
 40
0.5000000000000011
 40
0.5625000000000011
 40
0.5625000000000011
 40
0.5937500000000011
 40
0.5937500000000011
 40
0.6250000000000011
 40
0.6250000000000011
 40
0.687500000000001
 40
0.687500000000001
 40
0.7500000000000009
 40
0.7500000000000009
 40
0.7812500000000009
 40
0.7812500000000009
 40
0.8125000000000009
 40
0.8125000000000009
 40
0.8750000000000009
 40
0.8750000000000009
 40
0.8906250000000008
 40
0.8906250000000008
 40
0.9062500000000006
 40
0.9062500000000006
 40
0.9375000000000004
 40
0.9375000000000004
 40
0.9687500000000002
 40
0.9687500000000002
 40
1.0
 40
1.0
 40
1.0
 40
1.0
 10
1332.247688891166
 20
673.1775081955153
 30
0.0
 10
1332.247688891166
 20
673.1775081955153
 30
0.0
 10
1332.145062639893
 20
673.1775081955153
 30
0.0
 10
1331.71796329585
 20
673.1775081955153
 30
0.0
 10
1331.393688322879
 20
673.1775081955153
 30
0.0
 10
1330.492156434892
 20
673.1775081955153
 30
0.0
 10
1329.915412642043
 20
673.1775081955153
 30
0.0
 10
1328.818899031406
 20
673.1775081955153
 30
0.0
 10
1328.414600285223
 20
673.1775081955153
 30
0.0
 10
1327.517113009685
 20
673.1775081955153
 30
0.0
 10
1327.02571996404
 20
673.1775081955153
 30
0.0
 10
1325.952967071737
 20
673.1775081955153
 30
0.0
 10
1325.370887923342
 20
673.1775081955153
 30
0.0
 10
1324.418719096261
 20
673.1775081955153
 30
0.0
 10
1324.088116235872
 20
673.1775081955153
 30
0.0
 10
1323.398135510006
 20
673.1775081955153
 30
0.0
 10
1323.038202735832
 20
673.1775081955153
 30
0.0
 10
1321.919262949895
 20
673.1775081955153
 30
0.0
 10
1321.119559476994
 20
673.1775081955153
 30
0.0
 10
1319.394450328143
 20
673.1775081955153
 30
0.0
 10
1318.469277210952
 20
673.1775081955153
 30
0.0
 10
1316.965572872447
 20
673.1775081955153
 30
0.0
 10
1316.442967848858
 20
673.1775081955153
 30
0.0
 10
1315.363205318479
 20
673.1775081955153
 30
0.0
 10
1314.807696718274
 20
673.1775081955153
 30
0.0
 10
1313.090369827442
 20
673.1775081955153
 30
0.0
 10
1311.878382039091
 20
673.1775081955153
 30
0.0
 10
1310.259269600669
 20
673.1775081955153
 30
0.0
 10
1309.929890239919
 20
673.1775081955153
 30
0.0
 10
1309.267496664441
 20
673.1775081955153
 30
0.0
 10
1308.933616617166
 20
673.1775081955153
 30
0.0
 10
1307.92374826601
 20
673.1775081955153
 30
0.0
 10
1307.239547055949
 20
673.1775081955153
 30
0.0
 10
1305.84795055834
 20
673.1775081955153
 30
0.0
 10
1305.140560587254
 20
673.1775081955153
 30
0.0
 10
1303.700759450792
 20
673.1775081955153
 30
0.0
 10
1302.974638266794
 20
673.1775081955153
 30
0.0
 10
1302.247688891166
 20
673.1775081955153
 30
0.0
  0
LINE
  5
187
330
1F
100
AcDbEntity
  8
0
  6
Continuous
 62
     7
370
    15
100
AcDbLine
 10
1097.247688233
 20
716.4077959262
 30
0.0
 11
1097.247688233
 21
673.1775081955
 31
0.0
  0
LINE
  5
188
330
1F
100
AcDbEntity
  8
0
  6
Continuous
 62
     7
370
    15
100
AcDbLine
 10
1067.2476870409
 20
673.1775081955
 30
0.0
 11
1067.2476870409
 21
692.6744836621
 31
0.0
  0
SPLINE
  5
189
330
1F
100
AcDbEntity
  8
0
  6
Continuous
 62
     7
370
    15
100
AcDbSpline
210
0.0
220
0.0
230
1.0
 70
     8
 71
     3
 72
    34
 73
    30
 74
     0
 42
0.00000001
 43
0.00000001
 12
1.0
 22
0.0
 32
0.0
 13
1.0
 23
0.0
 33
0.0
 40
0.0
 40
0.0
 40
0.0
 40
0.0
 40
0.0624999999999997
 40
0.0624999999999997
 40
0.1249999999999994
 40
0.1249999999999994
 40
0.2499999999999983
 40
0.2499999999999983
 40
0.3124999999999979
 40
0.3124999999999979
 40
0.3749999999999974
 40
0.3749999999999974
 40
0.4999999999999966
 40
0.4999999999999966
 40
0.5624999999999956
 40
0.5624999999999956
 40
0.5937499999999959
 40
0.5937499999999959
 40
0.6249999999999962
 40
0.6249999999999962
 40
0.7499999999999959
 40
0.7499999999999959
 40
0.7812499999999954
 40
0.7812499999999954
 40
0.8124999999999951
 40
0.8124999999999951
 40
0.8749999999999961
 40
0.8749999999999961
 40
1.0
 40
1.0
 40
1.0
 40
1.0
 10
1067.247688891166
 20
692.6744837177982
 30
0.0
 10
1067.247688891166
 20
693.7085536277099
 30
0.0
 10
1067.291662475975
 20
694.7409449643659
 30
0.0
 10
1067.468202311447
 20
696.8023458510847
 30
0.0
 10
1067.601621408272
 20
697.8355076574999
 30
0.0
 10
1068.131738948719
 20
700.8907839608604
 30
0.0
 10
1068.655823642769
 20
702.8728773765839
 30
0.0
 10
1069.699183477136
 20
705.7634888482957
 30
0.0
 10
1070.090110753083
 20
706.7131850763267
 30
0.0
 10
1070.961979651642
 20
708.5836980004111
 30
0.0
 10
1071.445123488769
 20
709.507428155677
 30
0.0
 10
1073.00403128364
 20
712.1768131436556
 30
0.0
 10
1074.195033575772
 20
713.8392565605793
 30
0.0
 10
1076.216174911286
 20
716.1517647074174
 30
0.0
 10
1076.929248033216
 20
716.892212571786
 30
0.0
 10
1078.061460298817
 20
717.9545507663844
 30
0.0
 10
1078.450259939257
 20
718.3013013838394
 30
0.0
 10
1079.239953845634
 20
718.9701112244041
 30
0.0
 10
1079.641744705763
 20
719.2930923416177
 30
0.0
 10
1081.685146151274
 20
720.8513270358492
 30
0.0
 10
1083.429040269017
 20
721.918308350472
 30
0.0
 10
1085.751425539691
 20
723.0175714160579
 30
0.0
 10
1086.223096542778
 20
723.2255888682483
 30
0.0
 10
1087.181272402589
 20
723.6172197844785
 30
0.0
 10
1087.669209141725
 20
723.8012629269134
 30
0.0
 10
1089.137795921988
 20
724.3093770289921
 30
0.0
 10
1090.127217864015
 20
724.5915422935759
 30
0.0
 10
1093.125984543384
 20
725.271534191415
 30
0.0
 10
1095.166925875182
 20
725.5047254222878
 30
0.0
 10
1097.247688891166
 20
725.5047254222878
 30
0.0
  0
LINE
  5
18A
330
1F
100
AcDbEntity
  8
0
  6
Continuous
 62
     7
370
    15
100
AcDbLine
 10
1097.247688233
 20
725.5047238671
 30
0.0
 11
1097.247688233
 21
719.9476114713
 31
0.0
  0
SPLINE
  5
18B
330
1F
100
AcDbEntity
  8
0
  6
Continuous
 62
     7
370
    15
100
AcDbSpline
210
0.0
220
0.0
230
1.0
 70
     8
 71
     3
 72
    36
 73
    32
 74
     0
 42
0.00000001
 43
0.00000001
 12
1.0
 22
0.0
 32
0.0
 13
1.0
 23
0.0
 33
0.0
 40
0.0
 40
0.0
 40
0.0
 40
0.0
 40
0.1250000000000004
 40
0.1250000000000004
 40
0.2500000000000007
 40
0.2500000000000007
 40
0.3125000000000009
 40
0.3125000000000009
 40
0.343750000000001
 40
0.343750000000001
 40
0.3750000000000011
 40
0.3750000000000011
 40
0.5000000000000022
 40
0.5000000000000022
 40
0.5312500000000021
 40
0.5312500000000021
 40
0.562500000000002
 40
0.562500000000002
 40
0.6250000000000017
 40
0.6250000000000017
 40
0.7500000000000011
 40
0.7500000000000011
 40
0.8125000000000008
 40
0.8125000000000008
 40
0.8750000000000004
 40
0.8750000000000004
 40
0.9062500000000002
 40
0.9062500000000002
 40
0.9375
 40
0.9375
 40
1.0
 40
1.0
 40
1.0
 40
1.0
 10
1097.247688891166
 20
719.9476096729472
 30
0.0
 10
1095.425002324538
 20
719.9476096729472
 30
0.0
 10
1093.604508352193
 20
719.765800195756
 30
0.0
 10
1089.981256189857
 20
719.0277634159276
 30
0.0
 10
1088.235961130588
 20
718.4837425753128
 30
0.0
 10
1085.711215064061
 20
717.4218290809218
 30
0.0
 10
1084.88527311669
 20
717.0265943965616
 30
0.0
 10
1083.669930857927
 20
716.3715554241828
 30
0.0
 10
1083.267762323267
 20
716.1422056707246
 30
0.0
 10
1082.477916114687
 20
715.6665492812608
 30
0.0
 10
1082.089954290192
 20
715.4201649997229
 30
0.0
 10
1080.183984678032
 20
714.1466515577831
 30
0.0
 10
1078.766691835667
 20
712.9957339791674
 30
0.0
 10
1077.122660666637
 20
711.4002728317762
 30
0.0
 10
1076.800282210635
 20
711.0732802410897
 30
0.0
 10
1076.168399767199
 20
710.4034710914407
 30
0.0
 10
1075.858369946437
 20
710.0599971893679
 30
0.0
 10
1074.955195705234
 20
709.0146040702311
 30
0.0
 10
1074.386782772105
 20
708.2957060558156
 30
0.0
 10
1072.77775822633
 20
706.0762952670128
 30
0.0
 10
1071.832717359806
 20
704.513485213981
 30
0.0
 10
1070.600447003098
 20
702.0484892262598
 30
0.0
 10
1070.220257528421
 20
701.204878587128
 30
0.0
 10
1069.530308026096
 20
699.4968590513957
 30
0.0
 10
1069.219356564891
 20
698.6303755096633
 30
0.0
 10
1068.803058624739
 20
697.3122715820036
 30
0.0
 10
1068.67242397057
 20
696.86891666056
 30
0.0
 10
1068.429494456389
 20
695.9822733055342
 30
0.0
 10
1068.316874954001
 20
695.5380025515356
 30
0.0
 10
1068.004919566494
 20
694.2024109414474
 30
0.0
 10
1067.831442025683
 20
693.3083155415632
 30
0.0
 10
1067.69135516764
 20
692.4106373944397
 30
0.0
  0
SPLINE
  5
18C
330
1F
100
AcDbEntity
  8
0
  6
Continuous
 62
     7
370
    15
100
AcDbSpline
210
0.0
220
0.0
230
1.0
 70
    24
 71
     3
 72
    12
 73
     8
 74
     0
 42
0.00000001
 43
0.00000001
 12
1.0
 22
0.0
 32
0.0
 13
1.0
 23
0.0
 33
0.0
 40
0.0
 40
0.0
 40
0.0
 40
0.0
 40
0.5000000000000007
 40
0.5000000000000007
 40
0.7500000000000003
 40
0.7500000000000003
 40
1.0
 40
1.0
 40
1.0
 40
1.0
 10
1067.69135516764
 20
692.4106373944397
 30
0.0
 10
1067.787412578845
 20
692.4106373944397
 30
0.0
 10
1067.900119092
 20
692.4106373944397
 30
0.0
 10
1068.096093158192
 20
692.4106373944397
 30
0.0
 10
1068.166068574119
 20
692.4106373944397
 30
0.0
 10
1068.314802942457
 20
692.4106373944397
 30
0.0
 10
1068.39368869518
 20
692.4106373944397
 30
0.0
 10
1068.477237105587
 20
692.4106373944397
 30
0.0
  0
SPLINE
  5
18D
330
1F
100
AcDbEntity
  8
0
  6
Continuous
 62
     7
370
    15
100
AcDbSpline
210
0.0
220
0.0
230
1.0
 70
     8
 71
     3
 72
    30
 73
    26
 74
     0
 42
0.00000001
 43
0.00000001
 12
1.0
 22
0.0
 32
0.0
 13
1.0
 23
0.0
 33
0.0
 40
0.0
 40
0.0
 40
0.0
 40
0.0
 40
0.0625000000000009
 40
0.0625000000000009
 40
0.1250000000000017
 40
0.1250000000000017
 40
0.2500000000000024
 40
0.2500000000000024
 40
0.3750000000000032
 40
0.3750000000000032
 40
0.4375000000000036
 40
0.4375000000000036
 40
0.5000000000000039
 40
0.5000000000000039
 40
0.625000000000005
 40
0.625000000000005
 40
0.6875000000000048
 40
0.6875000000000048
 40
0.7500000000000044
 40
0.7500000000000044
 40
0.8750000000000023
 40
0.8750000000000023
 40
0.9375000000000012
 40
0.9375000000000012
 40
1.0
 40
1.0
 40
1.0
 40
1.0
 10
1068.477237105587
 20
692.4106373944397
 30
0.0
 10
1068.691651683622
 20
693.2252318040233
 30
0.0
 10
1068.93412791718
 20
694.0326983895695
 30
0.0
 10
1069.476702367529
 20
695.6329952411182
 30
0.0
 10
1069.777942170346
 20
696.4282085291027
 30
0.0
 10
1070.758552786644
 20
698.7610459330967
 30
0.0
 10
1071.516587292375
 20
700.2547044327623
 30
0.0
 10
1073.244952290565
 20
703.1166997888415
 30
0.0
 10
1074.21514062118
 20
704.4851205656164
 30
0.0
 10
1075.844413829351
 20
706.4350422905029
 30
0.0
 10
1076.411046242091
 20
707.0609028291105
 30
0.0
 10
1077.585454325176
 20
708.2582409444605
 30
0.0
 10
1078.194119307343
 20
708.8307893419365
 30
0.0
 10
1080.085092500067
 20
710.4693478475576
 30
0.0
 10
1081.431883832988
 20
711.4568738968139
 30
0.0
 10
1083.591649483451
 20
712.76827822149
 30
0.0
 10
1084.338649805951
 20
713.1784732987472
 30
0.0
 10
1085.851280199006
 20
713.9234453892583
 30
0.0
 10
1086.619323053395
 20
714.2600900778547
 30
0.0
 10
1088.958365355533
 20
715.1633228921536
 30
0.0
 10
1090.564020908156
 20
715.6239971320734
 30
0.0
 10
1093.045296981989
 20
716.0925437199617
 30
0.0
 10
1093.88931476862
 20
716.2116965595433
 30
0.0
 10
1095.571099406491
 20
716.3689387363167
 30
0.0
 10
1096.410246733268
 20
716.4077955408932
 30
0.0
 10
1097.247688891166
 20
716.4077955408932
 30
0.0
  0
SPLINE
  5
18E
330
1F
100
AcDbEntity
  8
0
  6
Continuous
 62
     7
370
    15
100
AcDbSpline
210
0.0
220
0.0
230
1.0
 70
    24
 71
     3
 72
    38
 73
    34
 74
     0
 42
0.00000001
 43
0.00000001
 12
1.0
 22
0.0
 32
0.0
 13
1.0
 23
0.0
 33
0.0
 40
0.0
 40
0.0
 40
0.0
 40
0.0
 40
0.0625000000000011
 40
0.0625000000000011
 40
0.0937500000000016
 40
0.0937500000000016
 40
0.1093750000000013
 40
0.1093750000000013
 40
0.125000000000001
 40
0.125000000000001
 40
0.1875000000000007
 40
0.1875000000000007
 40
0.218750000000001
 40
0.218750000000001
 40
0.2500000000000012
 40
0.2500000000000012
 40
0.3125000000000015
 40
0.3125000000000015
 40
0.3437500000000016
 40
0.3437500000000016
 40
0.3750000000000018
 40
0.3750000000000018
 40
0.5000000000000017
 40
0.5000000000000017
 40
0.6250000000000017
 40
0.6250000000000017
 40
0.6875000000000014
 40
0.6875000000000014
 40
0.7500000000000013
 40
0.7500000000000013
 40
0.8750000000000007
 40
0.8750000000000007
 40
1.0
 40
1.0
 40
1.0
 40
1.0
 10
1097.247688891166
 20
673.1775081955153
 30
0.0
 10
1095.791623973596
 20
673.1775081955153
 30
0.0
 10
1094.372235968101
 20
673.1775081955153
 30
0.0
 10
1092.292314231605
 20
673.1775081955153
 30
0.0
 10
1091.607249830135
 20
673.1775081955153
 30
0.0
 10
1090.591659246291
 20
673.1775081955153
 30
0.0
 10
1090.254080216203
 20
673.1775081955153
 30
0.0
 10
1089.58914889625
 20
673.1775081955153
 30
0.0
 10
1089.261788208462
 20
673.1775081955153
 30
0.0
 10
1087.649015056934
 20
673.1775081955153
 30
0.0
 10
1086.435059256284
 20
673.1775081955153
 30
0.0
 10
1084.708814972759
 20
673.1775081955153
 30
0.0
 10
1084.1471746856
 20
673.1775081955153
 30
0.0
 10
1083.067634452145
 20
673.1775081955153
 30
0.0
 10
1082.548936163028
 20
673.1775081955153
 30
0.0
 10
1081.048721335195
 20
673.1775081955153
 30
0.0
 10
1080.122720912555
 20
673.1775081955153
 30
0.0
 10
1078.825197408269
 20
673.1775081955153
 30
0.0
 10
1078.408042683519
 20
673.1775081955153
 30
0.0
 10
1077.602150529666
 20
673.1775081955153
 30
0.0
 10
1077.212537446184
 20
673.1775081955153
 30
0.0
 10
1075.342555850937
 20
673.1775081955153
 30
0.0
 10
1074.097146909254
 20
673.1775081955153
 30
0.0
 10
1071.963564257047
 20
673.1775081955153
 30
0.0
 10
1071.077737832281
 20
673.1775081955153
 30
0.0
 10
1069.968651840789
 20
673.1775081955153
 30
0.0
 10
1069.637335156681
 20
673.1775081955153
 30
0.0
 10
1069.047066025413
 20
673.1775081955153
 30
0.0
 10
1068.787467169878
 20
673.1775081955153
 30
0.0
 10
1068.105502878551
 20
673.1775081955153
 30
0.0
 10
1067.77941528768
 20
673.1775081955153
 30
0.0
 10
1067.350396839063
 20
673.1775081955153
 30
0.0
 10
1067.247688891166
 20
673.1775081955153
 30
0.0
 10
1067.247688891166
 20
673.1775081955153
 30
0.0
  0
LINE
  5
18F
330
1F
100
AcDbEntity
  8
0
  6
Continuous
 62
     7
370
    15
100
AcDbLine
 10
1302.2476892388
 20
716.4077959262
 30
0.0
 11
1097.247688233
 21
716.4077959262
 31
0.0
  0
LINE
  5
190
330
1F
100
AcDbEntity
  8
0
  6
Continuous
 62
     7
370
    15
100
AcDbLine
 10
1097.247688233
 20
673.1775081955
 30
0.0
 11
1302.2476892388
 21
673.1775081955
 31
0.0
  0
LINE
  5
191
330
1F
100
AcDbEntity
  8
0
  6
Continuous
 62
     7
370
    15
100
AcDbLine
 10
1097.247688233
 20
719.9476114713
 30
0.0
 11
1302.2476892388
 21
719.9476114713
 31
0.0
  0
LINE
  5
192
330
1F
100
AcDbEntity
  8
0
  6
Continuous
 62
     7
370
    15
100
AcDbLine
 10
1302.2476892388
 20
725.5047238671
 30
0.0
 11
1097.247688233
 21
725.5047238671
 31
0.0
  0
SPLINE
  5
193
330
1F
100
AcDbEntity
  8
0
  6
Continuous
 62
     7
370
    15
100
AcDbSpline
210
0.0
220
0.0
230
1.0
 70
     8
 71
     3
 72
    40
 73
    36
 74
     0
 42
0.00000001
 43
0.00000001
 12
1.0
 22
0.0
 32
0.0
 13
1.0
 23
0.0
 33
0.0
 40
0.0
 40
0.0
 40
0.0
 40
0.0
 40
0.0624999999999998
 40
0.0624999999999998
 40
0.1249999999999996
 40
0.1249999999999996
 40
0.1874999999999994
 40
0.1874999999999994
 40
0.2499999999999993
 40
0.2499999999999993
 40
0.3749999999999991
 40
0.3749999999999991
 40
0.4062499999999997
 40
0.4062499999999997
 40
0.4375000000000002
 40
0.4375000000000002
 40
0.5000000000000012
 40
0.5000000000000012
 40
0.5625000000000022
 40
0.5625000000000022
 40
0.5937500000000027
 40
0.5937500000000027
 40
0.625000000000003
 40
0.625000000000003
 40
0.7500000000000022
 40
0.7500000000000022
 40
0.8125000000000017
 40
0.8125000000000017
 40
0.875000000000001
 40
0.875000000000001
 40
0.9375000000000004
 40
0.9375000000000004
 40
0.9687500000000002
 40
0.9687500000000002
 40
1.0
 40
1.0
 40
1.0
 40
1.0
 10
1097.247688891166
 20
728.6427253036276
 30
0.0
 10
1096.222430703331
 20
728.6427253036276
 30
0.0
 10
1095.185295892169
 20
728.5850063701531
 30
0.0
 10
1093.146445858616
 20
728.3575414285203
 30
0.0
 10
1092.139657569273
 20
728.188333802182
 30
0.0
 10
1090.150696516375
 20
727.7418565430619
 30
0.0
 10
1089.16852520654
 20
727.4645805284576
 30
0.0
 10
1087.228925643615
 20
726.8014066326979
 30
0.0
 10
1086.266553945291
 20
726.4127904141344
 30
0.0
 10
1083.476225205951
 20
725.1077403301925
 30
0.0
 10
1081.730884211139
 20
724.0516060994325
 30
0.0
 10
1079.686216975382
 20
722.5094858477994
 30
0.0
 10
1079.284200713892
 20
722.1898560642082
 30
0.0
 10
1078.494099618688
 20
721.5280278005491
 30
0.0
 10
1078.106374641468
 20
721.1860175089456
 30
0.0
 10
1076.976234856101
 20
720.1374988634791
 30
0.0
 10
1076.262489150582
 20
719.4050661734242
 30
0.0
 10
1074.910839420748
 20
717.8763248751967
 30
0.0
 10
1074.272947083997
 20
717.0800064234408
 30
0.0
 10
1073.372081123874
 20
715.8383871523604
 30
0.0
 10
1073.081137900447
 20
715.4166430877732
 30
0.0
 10
1072.517984585122
 20
714.5573774078291
 30
0.0
 10
1072.245166846233
 20
714.1188020132035
 30
0.0
 10
1070.936385614954
 20
711.899987024084
 30
0.0
 10
1070.068858188681
 20
710.0518080890737
 30
0.0
 10
1069.018568343382
 20
707.1772822651503
 30
0.0
 10
1068.710618437601
 20
706.2019365060662
 30
0.0
 10
1068.179466340763
 20
704.2167189397014
 30
0.0
 10
1067.95668853306
 20
703.2067391302478
 30
0.0
 10
1067.602134821283
 20
701.1813932027982
 30
0.0
 10
1067.469284743432
 20
700.1624133587895
 30
0.0
 10
1067.336208221603
 20
698.624545958473
 30
0.0
 10
1067.302862303412
 20
698.1092260874095
 30
0.0
 10
1067.258633813781
 20
697.0813465349146
 30
0.0
 10
1067.247688891166
 20
696.5687203686869
 30
0.0
 10
1067.247688891166
 20
696.0573814211242
 30
0.0
  0
LINE
  5
194
330
1F
100
AcDbEntity
  8
0
  6
Continuous
 62
     7
370
    15
100
AcDbLine
 10
1097.247688233
 20
728.6427258753
 30
0.0
 11
1302.2476892388
 21
728.6427258753
 31
0.0
  0
SPLINE
  5
195
330
1F
100
AcDbEntity
  8
0
  6
Continuous
 62
     7
370
    15
100
AcDbSpline
210
0.0
220
0.0
230
1.0
 70
     8
 71
     3
 72
    38
 73
    34
 74
     0
 42
0.00000001
 43
0.00000001
 12
1.0
 22
0.0
 32
0.0
 13
1.0
 23
0.0
 33
0.0
 40
0.0
 40
0.0
 40
0.0
 40
0.0
 40
0.0624999999999994
 40
0.0624999999999994
 40
0.1249999999999988
 40
0.1249999999999988
 40
0.2499999999999978
 40
0.2499999999999978
 40
0.3124999999999973
 40
0.3124999999999973
 40
0.3749999999999969
 40
0.3749999999999969
 40
0.499999999999996
 40
0.499999999999996
 40
0.5312499999999962
 40
0.5312499999999962
 40
0.5624999999999964
 40
0.5624999999999964
 40
0.624999999999997
 40
0.624999999999997
 40
0.6874999999999974
 40
0.6874999999999974
 40
0.7187499999999978
 40
0.7187499999999978
 40
0.749999999999998
 40
0.749999999999998
 40
0.874999999999999
 40
0.874999999999999
 40
0.9374999999999994
 40
0.9374999999999994
 40
0.9687499999999998
 40
0.9687499999999998
 40
1.0
 40
1.0
 40
1.0
 40
1.0
 10
1332.247688891166
 20
696.0573814211242
 30
0.0
 10
1332.247688891166
 20
697.0883288701783
 30
0.0
 10
1332.20275330079
 20
698.1252467680537
 30
0.0
 10
1332.024602620258
 20
700.1752150236512
 30
0.0
 10
1331.891722504011
 20
701.190388978996
 30
0.0
 10
1331.363495739072
 20
704.2068896923782
 30
0.0
 10
1330.839757032995
 20
706.1794627769524
 30
0.0
 10
1329.783256058919
 20
709.0776553611713
 30
0.0
 10
1329.384000228097
 20
710.0359021891554
 30
0.0
 10
1328.508599836905
 20
711.8921394559239
 30
0.0
 10
1328.030995456549
 20
712.7949289066779
 30
0.0
 10
1326.478563948509
 20
715.4273694964413
 30
0.0
 10
1325.285380968841
 20
717.0818942543865
 30
0.0
 10
1323.579225605572
 20
719.0137841981261
 30
0.0
 10
1323.226323146504
 20
719.3940534823522
 30
0.0
 10
1322.506533084039
 20
720.131868692694
 30
0.0
 10
1322.138870550419
 20
720.4903756648196
 30
0.0
 10
1321.012766529866
 20
721.5349438519208
 30
0.0
 10
1320.231264405817
 20
722.1901270301142
 30
0.0
 10
1318.606372733077
 20
723.4176265444074
 30
0.0
 10
1317.762989829896
 20
723.9899517788008
 30
0.0
 10
1316.449837356926
 20
724.7840633560191
 30
0.0
 10
1316.00409171647
 20
725.0380175773762
 30
0.0
 10
1315.096063881123
 20
725.5237836857938
 30
0.0
 10
1314.632216155946
 20
725.7562982294224
 30
0.0
 10
1312.29285847117
 20
726.8510180364816
 30
0.0
 10
1310.360560976253
 20
727.5124543859071
 30
0.0
 10
1307.371564014056
 20
728.1854481514669
 30
0.0
 10
1306.360026745291
 20
728.3561870911234
 30
0.0
 10
1304.818889786838
 20
728.5282990651954
 30
0.0
 10
1304.30179708655
 20
728.5714570602697
 30
0.0
 10
1303.273112574532
 20
728.6285668469311
 30
0.0
 10
1302.759863283819
 20
728.6427253036276
 30
0.0
 10
1302.247688891166
 20
728.6427253036276
 30
0.0
  0
LINE
  5
196
330
1F
100
AcDbEntity
  8
0
  6
Continuous
 62
     7
370
    15
100
AcDbLine
 10
1332.2476876369
 20
692.6744836621
 30
0.0
 11
1332.2476876369
 21
696.0573806666
 31
0.0
  0
LINE
  5
197
330
1F
100
AcDbEntity
  8
0
  6
Continuous
 62
     7
370
    15
100
AcDbLine
 10
1067.2476870409
 20
692.6744836621
 30
0.0
 11
1067.2476870409
 21
696.0573806666
 31
0.0
  0
SPLINE
  5
198
330
1F
100
AcDbEntity
  8
0
  6
Continuous
 62
     7
370
    15
100
AcDbSpline
210
0.0
220
0.0
230
1.0
 70
     8
 71
     3
 72
    36
 73
    32
 74
     0
 42
0.00000001
 43
0.00000001
 12
1.0
 22
0.0
 32
0.0
 13
1.0
 23
0.0
 33
0.0
 40
0.0
 40
0.0
 40
0.0
 40
0.0
 40
0.1250000000000026
 40
0.1250000000000026
 40
0.156250000000003
 40
0.156250000000003
 40
0.1875000000000035
 40
0.1875000000000035
 40
0.2500000000000035
 40
0.2500000000000035
 40
0.3750000000000032
 40
0.3750000000000032
 40
0.4375000000000028
 40
0.4375000000000028
 40
0.5000000000000024
 40
0.5000000000000024
 40
0.625000000000002
 40
0.625000000000002
 40
0.6562500000000022
 40
0.6562500000000022
 40
0.6875000000000024
 40
0.6875000000000024
 40
0.7500000000000026
 40
0.7500000000000026
 40
0.8125000000000028
 40
0.8125000000000028
 40
0.8437500000000029
 40
0.8437500000000029
 40
0.8750000000000029
 40
0.8750000000000029
 40
1.0
 40
1.0
 40
1.0
 40
1.0
 10
1067.247688891166
 20
701.3395496943988
 30
0.0
 10
1067.247688891166
 20
703.3736378279948
 30
0.0
 10
1067.423793513025
 20
705.3943979862693
 30
0.0
 10
1067.868391010715
 20
707.9033600614957
 30
0.0
 10
1067.968626841759
 20
708.4042960323122
 30
0.0
 10
1068.192229311758
 20
709.4044173848142
 30
0.0
 10
1068.315927373987
 20
709.9046739511289
 30
0.0
 10
1068.718662908327
 20
711.388652223295
 30
0.0
 10
1069.029826524071
 20
712.359034570023
 30
0.0
 10
1070.089423937654
 20
715.2142211048459
 30
0.0
 10
1070.962768345416
 20
717.043595500039
 30
0.0
 10
1072.536387902312
 20
719.6706817880679
 30
0.0
 10
1073.108734246513
 20
720.5311156691524
 30
0.0
 10
1074.32269909011
 20
722.177400222051
 30
0.0
 10
1074.965182105334
 20
722.9658011618643
 30
0.0
 10
1076.998469749833
 20
725.2274289692784
 30
0.0
 10
1078.493980787658
 20
726.5981888007997
 30
0.0
 10
1080.551832478146
 20
728.12720638261
 30
0.0
 10
1080.974042861491
 20
728.4243779885935
 30
0.0
 10
1081.828024288999
 20
728.9928681057792
 30
0.0
 10
1082.260662337598
 20
729.2649143979559
 30
0.0
 10
1083.57533064251
 20
730.0448627387401
 30
0.0
 10
1084.474073529979
 20
730.5166639558428
 30
0.0
 10
1086.316168980617
 20
731.3639053580347
 30
0.0
 10
1087.259517810704
 20
731.7393536069242
 30
0.0
 10
1088.709040301422
 20
732.2280044138835
 30
0.0
 10
1089.197975385639
 20
732.3784438939368
 30
0.0
 10
1090.187687673375
 20
732.6537427793357
 30
0.0
 10
1090.688742891076
 20
732.778548421988
 30
0.0
 10
1093.191488343333
 20
733.330135249405
 30
0.0
 10
1095.211021655928
 20
733.5494704757228
 30
0.0
 10
1097.247688891166
 20
733.5494704757228
 30
0.0
  0
LINE
  5
199
330
1F
100
AcDbEntity
  8
0
  6
Continuous
 62
     7
370
    15
100
AcDbLine
 10
1097.247688233
 20
733.5494696401
 30
0.0
 11
1097.247688233
 21
728.6427258753
 31
0.0
  0
LINE
  5
19A
330
1F
100
AcDbEntity
  8
0
  6
Continuous
 62
     7
370
    15
100
AcDbLine
 10
1067.2476870409
 20
696.0573806666
 30
0.0
 11
1067.2476870409
 21
701.3395498745
 31
0.0
  0
LINE
  5
19B
330
1F
100
AcDbEntity
  8
0
  6
Continuous
 62
     7
370
    15
100
AcDbLine
 10
1302.2476892388
 20
733.5494696401
 30
0.0
 11
1097.247688233
 21
733.5494696401
 31
0.0
  0
LINE
  5
19C
330
1F
100
AcDbEntity
  8
0
  6
Continuous
 62
     7
370
    15
100
AcDbLine
 10
1302.2476892388
 20
728.6427258753
 30
0.0
 11
1302.2476892388
 21
733.5494696401
 31
0.0
  0
SPLINE
  5
19D
330
1F
100
AcDbEntity
  8
0
  6
Continuous
 62
     7
370
    15
100
AcDbSpline
210
0.0
220
0.0
230
1.0
 70
     8
 71
     3
 72
    36
 73
    32
 74
     0
 42
0.00000001
 43
0.00000001
 12
1.0
 22
0.0
 32
0.0
 13
1.0
 23
0.0
 33
0.0
 40
0.0
 40
0.0
 40
0.0
 40
0.0
 40
0.0624999999999999
 40
0.0624999999999999
 40
0.0937499999999999
 40
0.0937499999999999
 40
0.1249999999999999
 40
0.1249999999999999
 40
0.2499999999999998
 40
0.2499999999999998
 40
0.2812499999999997
 40
0.2812499999999997
 40
0.3124999999999996
 40
0.3124999999999996
 40
0.3749999999999994
 40
0.3749999999999994
 40
0.4999999999999989
 40
0.4999999999999989
 40
0.6249999999999987
 40
0.6249999999999987
 40
0.6874999999999988
 40
0.6874999999999988
 40
0.7187499999999988
 40
0.7187499999999988
 40
0.7499999999999989
 40
0.7499999999999989
 40
0.8749999999999994
 40
0.8749999999999994
 40
0.9374999999999997
 40
0.9374999999999997
 40
1.0
 40
1.0
 40
1.0
 40
1.0
 10
1302.247688891166
 20
733.5494704757228
 30
0.0
 10
1303.260826323002
 20
733.5494704757228
 30
0.0
 10
1304.272983848522
 20
733.4947668548433
 30
0.0
 10
1305.789735886966
 20
733.3298526450812
 30
0.0
 10
1306.295072051141
 20
733.261045002787
 30
0.0
 10
1307.305240335472
 20
733.0952912803019
 30
0.0
 10
1307.811231872908
 20
732.9980234260948
 30
0.0
 10
1310.310790818457
 20
732.44665922813
 30
0.0
 10
1312.23304186211
 20
731.7974509715107
 30
0.0
 10
1314.543252617107
 20
730.7369325448992
 30
0.0
 10
1315.000618670554
 20
730.5122549087221
 30
0.0
 10
1315.90592107278
 20
730.0375433126944
 30
0.0
 10
1316.355099320956
 20
729.7867497000901
 30
0.0
 10
1317.677845741488
 20
729.0020426499013
 30
0.0
 10
1318.525645984269
 20
728.4369636045944
 30
0.0
 10
1320.971690201902
 20
726.6217398077993
 30
0.0
 10
1322.473468035953
 20
725.2527057284374
 30
0.0
 10
1325.220620075311
 20
722.1986338938887
 30
0.0
 10
1326.424337309498
 20
720.5597247457495
 30
0.0
 10
1327.99087601892
 20
717.9497249835694
 30
0.0
 10
1328.47309181472
 20
717.0540379399165
 30
0.0
 10
1329.136268877493
 20
715.6718475145875
 30
0.0
 10
1329.347760976794
 20
715.2035024777365
 30
0.0
 10
1329.747696897031
 20
714.2603356254766
 30
0.0
 10
1329.936123371185
 20
713.7857462562328
 30
0.0
 10
1330.821976141031
 20
711.3981415679139
 30
0.0
 10
1331.35206222972
 20
709.4415430270169
 30
0.0
 10
1331.887612917737
 20
706.4390388397022
 30
0.0
 10
1332.022740982485
 20
705.4248693324514
 30
0.0
 10
1332.203015747242
 20
703.3819421703287
 30
0.0
 10
1332.247688891166
 20
702.3606578577777
 30
0.0
 10
1332.247688891166
 20
701.3395496943988
 30
0.0
  0
LINE
  5
19E
330
1F
100
AcDbEntity
  8
0
  6
Continuous
 62
     7
370
    15
100
AcDbLine
 10
1332.2476876369
 20
701.3395498745
 30
0.0
 11
1332.2476876369
 21
696.0573806666
 31
0.0
  0
SPLINE
  5
19F
330
1F
100
AcDbEntity
  8
0
  6
Continuous
 62
     7
370
    15
100
AcDbSpline
210
0.0
220
0.0
230
1.0
 70
     8
 71
     3
 72
    36
 73
    32
 74
     0
 42
0.00000001
 43
0.00000001
 12
1.0
 22
0.0
 32
0.0
 13
1.0
 23
0.0
 33
0.0
 40
0.0
 40
0.0
 40
0.0
 40
0.0
 40
0.0624999999999988
 40
0.0624999999999988
 40
0.1249999999999975
 40
0.1249999999999975
 40
0.1874999999999963
 40
0.1874999999999963
 40
0.2187499999999956
 40
0.2187499999999956
 40
0.249999999999995
 40
0.249999999999995
 40
0.374999999999993
 40
0.374999999999993
 40
0.4374999999999925
 40
0.4374999999999925
 40
0.4999999999999921
 40
0.4999999999999921
 40
0.6249999999999921
 40
0.6249999999999921
 40
0.6874999999999927
 40
0.6874999999999927
 40
0.7187499999999938
 40
0.7187499999999938
 40
0.7499999999999948
 40
0.7499999999999948
 40
0.8749999999999981
 40
0.8749999999999981
 40
0.937499999999999
 40
0.937499999999999
 40
1.0
 40
1.0
 40
1.0
 40
1.0
 10
1067.247688891166
 20
708.910440408033
 30
0.0
 10
1067.247688891166
 20
709.9282933231812
 30
0.0
 10
1067.293894446701
 20
710.9431068139273
 30
0.0
 10
1067.475843751255
 20
712.951799927479
 30
0.0
 10
1067.611584012481
 20
713.948116190847
 30
0.0
 10
1067.972156002755
 20
715.9247670154781
 30
0.0
 10
1068.196984473157
 20
716.9051021612947
 30
0.0
 10
1068.602535890724
 20
718.3633512993744
 30
0.0
 10
1068.749123658795
 20
718.8473886419076
 30
0.0
 10
1069.065603046086
 20
719.8112829580114
 30
0.0
 10
1069.23600648521
 20
720.2924280298109
 30
0.0
 10
1070.140491976727
 20
722.6683008025808
 30
0.0
 10
1071.02895566815
 20
724.4738918624878
 30
0.0
 10
1072.60650857208
 20
727.0410341992672
 30
0.0
 10
1073.173442969558
 20
727.8730496236346
 30
0.0
 10
1074.392570053104
 20
729.487899827129
 30
0.0
 10
1075.048674347116
 20
730.2744970941575
 30
0.0
 10
1077.108493852755
 20
732.5095036996245
 30
0.0
 10
1078.609037350158
 20
733.8460721627092
 30
0.0
 10
1081.052748465176
 20
735.6184812514906
 30
0.0
 10
1081.899688239272
 20
736.1702784658704
 30
0.0
 10
1083.221117631028
 20
736.9364944319126
 30
0.0
 10
1083.669401443784
 20
737.1811102312788
 30
0.0
 10
1084.572178352044
 20
737.6437859144071
 30
0.0
 10
1085.027951988957
 20
737.8626056751425
 30
0.0
 10
1087.328495443364
 20
738.8948295711485
 30
0.0
 10
1089.237631061818
 20
739.524493064621
 30
0.0
 10
1092.207489489293
 20
740.1659549004224
 30
0.0
 10
1093.220146407562
 20
740.3289069839772
 30
0.0
 10
1095.234868072767
 20
740.5434761594262
 30
0.0
 10
1096.241591259181
 20
740.5966049721306
 30
0.0
 10
1097.247688891166
 20
740.5966049721308
 30
0.0
  0
LINE
  5
1A0
330
1F
100
AcDbEntity
  8
0
  6
Continuous
 62
     7
370
    15
100
AcDbLine
 10
1097.247688233
 20
740.596605023
 30
0.0
 11
1097.247688233
 21
736.3074100815
 31
0.0
  0
SPLINE
  5
1A1
330
1F
100
AcDbEntity
  8
0
  6
Continuous
 62
     7
370
    15
100
AcDbSpline
210
0.0
220
0.0
230
1.0
 70
     8
 71
     3
 72
    40
 73
    36
 74
     0
 42
0.00000001
 43
0.00000001
 12
1.0
 22
0.0
 32
0.0
 13
1.0
 23
0.0
 33
0.0
 40
0.0
 40
0.0
 40
0.0
 40
0.0
 40
0.1250000000000019
 40
0.1250000000000019
 40
0.1875000000000029
 40
0.1875000000000029
 40
0.2500000000000038
 40
0.2500000000000038
 40
0.3125000000000048
 40
0.3125000000000048
 40
0.3437500000000059
 40
0.3437500000000059
 40
0.375000000000007
 40
0.375000000000007
 40
0.500000000000007
 40
0.500000000000007
 40
0.5312500000000069
 40
0.5312500000000069
 40
0.5625000000000069
 40
0.5625000000000069
 40
0.6250000000000066
 40
0.6250000000000066
 40
0.7500000000000056
 40
0.7500000000000056
 40
0.7812500000000051
 40
0.7812500000000051
 40
0.8125000000000046
 40
0.8125000000000046
 40
0.875000000000003
 40
0.875000000000003
 40
0.9375000000000014
 40
0.9375000000000014
 40
0.9687500000000008
 40
0.9687500000000008
 40
1.0
 40
1.0
 40
1.0
 40
1.0
 10
1097.247688891166
 20
736.3074074550807
 30
0.0
 10
1095.217731951943
 20
736.3074074550807
 30
0.0
 10
1093.208809523557
 20
736.0907887183174
 30
0.0
 10
1090.226960653152
 20
735.4411075174306
 30
0.0
 10
1089.234275900436
 20
735.1681169124913
 30
0.0
 10
1087.304262596918
 20
734.5248247325327
 30
0.0
 10
1086.361969928145
 20
734.1539044016178
 30
0.0
 10
1084.521466062841
 20
733.3164362540505
 30
0.0
 10
1083.62325836907
 20
732.8498808387386
 30
0.0
 10
1082.309023111198
 20
732.0782941739891
 30
0.0
 10
1081.876467637365
 20
731.8091174995434
 30
0.0
 10
1081.022529695477
 20
731.2465261568575
 30
0.0
 10
1080.601972735989
 20
730.953559482681
 30
0.0
 10
1078.549677073468
 20
729.4447504542416
 30
0.0
 10
1077.050203872745
 20
728.0868457622264
 30
0.0
 10
1075.345189486168
 20
726.21003484263
 30
0.0
 10
1075.01273286636
 20
725.8256164868325
 30
0.0
 10
1074.365008910037
 20
725.0385648895011
 30
0.0
 10
1074.048962013904
 20
724.6348493972285
 30
0.0
 10
1073.133955098385
 20
723.4056666183343
 30
0.0
 10
1072.567820208483
 20
722.5624882941916
 30
0.0
 10
1070.995152368505
 20
719.9649594489995
 30
0.0
 10
1070.113268668109
 20
718.1432031786454
 30
0.0
 10
1069.217636731121
 20
715.7542197813867
 30
0.0
 10
1069.048781069727
 20
715.2701316979276
 30
0.0
 10
1068.735063290733
 20
714.2999391607565
 30
0.0
 10
1068.589769321276
 20
713.8127768787626
 30
0.0
 10
1068.187836740562
 20
712.3452251602272
 30
0.0
 10
1067.965072043697
 20
711.358784323323
 30
0.0
 10
1067.607890383655
 20
709.3701197818634
 30
0.0
 10
1067.473476881166
 20
708.3678954590741
 30
0.0
 10
1067.338389552225
 20
706.8526732105064
 30
0.0
 10
1067.304467495843
 20
706.3456149097838
 30
0.0
 10
1067.259107688114
 20
705.3274816030332
 30
0.0
 10
1067.247688891166
 20
704.8154047134657
 30
0.0
 10
1067.247688891166
 20
704.3045870382425
 30
0.0
  0
LINE
  5
1A2
330
1F
100
AcDbEntity
  8
0
  6
Continuous
 62
     7
370
    15
100
AcDbLine
 10
1067.2476870409
 20
704.3045866542
 30
0.0
 11
1067.2476870409
 21
708.9104405843
 31
0.0
  0
LINE
  5
1A3
330
1F
100
AcDbEntity
  8
0
  6
Continuous
 62
     7
370
    15
100
AcDbLine
 10
1097.247688233
 20
736.3074100815
 30
0.0
 11
1302.2476892388
 21
736.3074100815
 31
0.0
  0
SPLINE
  5
1A4
330
1F
100
AcDbEntity
  8
0
  6
Continuous
 62
     7
370
    15
100
AcDbSpline
210
0.0
220
0.0
230
1.0
 70
     8
 71
     3
 72
    42
 73
    38
 74
     0
 42
0.00000001
 43
0.00000001
 12
1.0
 22
0.0
 32
0.0
 13
1.0
 23
0.0
 33
0.0
 40
0.0
 40
0.0
 40
0.0
 40
0.0
 40
0.0625
 40
0.0625
 40
0.0937500000000003
 40
0.0937500000000003
 40
0.1250000000000005
 40
0.1250000000000005
 40
0.2500000000000014
 40
0.2500000000000014
 40
0.3125000000000019
 40
0.3125000000000019
 40
0.3437500000000023
 40
0.3437500000000023
 40
0.3750000000000026
 40
0.3750000000000026
 40
0.5000000000000031
 40
0.5000000000000031
 40
0.5312500000000032
 40
0.5312500000000032
 40
0.5625000000000033
 40
0.5625000000000033
 40
0.6250000000000029
 40
0.6250000000000029
 40
0.7500000000000014
 40
0.7500000000000014
 40
0.7812500000000011
 40
0.7812500000000011
 40
0.8125000000000008
 40
0.8125000000000008
 40
0.8750000000000006
 40
0.8750000000000006
 40
0.9375000000000003
 40
0.9375000000000003
 40
0.9687500000000002
 40
0.9687500000000002
 40
1.0
 40
1.0
 40
1.0
 40
1.0
 10
1332.247688891166
 20
704.3045870382425
 30
0.0
 10
1332.247688891166
 20
705.3158838908532
 30
0.0
 10
1332.203261795308
 20
706.3295033550669
 30
0.0
 10
1332.067940093358
 20
707.8535231399577
 30
0.0
 10
1332.011169605378
 20
708.3633988869603
 30
0.0
 10
1331.87535640193
 20
709.3758176401169
 30
0.0
 10
1331.796346205666
 20
709.8787444630668
 30
0.0
 10
1331.346527380008
 20
712.3771875699892
 30
0.0
 10
1330.812876032264
 20
714.3245626908474
 30
0.0
 10
1329.748300632771
 20
717.1675500168705
 30
0.0
 10
1329.349145454316
 20
718.1021170300046
 30
0.0
 10
1328.680716196871
 20
719.4833631891538
 30
0.0
 10
1328.446646780391
 20
719.9393907345617
 30
0.0
 10
1327.960183062062
 20
720.8346907575477
 30
0.0
 10
1327.707237274735
 20
721.2751264486146
 30
0.0
 10
1326.394331759987
 20
723.4415252208281
 30
0.0
 10
1325.191209898376
 20
725.0611649391076
 30
0.0
 10
1323.489064982398
 20
726.9384841838793
 30
0.0
 10
1323.138636281561
 20
727.3065214628584
 30
0.0
 10
1322.41722279894
 20
728.0273294723958
 30
0.0
 10
1322.045063519862
 20
728.3811315461725
 30
0.0
 10
1320.906787300743
 20
729.4098373093452
 30
0.0
 10
1320.119769210372
 20
730.0518983180148
 30
0.0
 10
1317.675592461973
 20
731.8489949364445
 30
0.0
 10
1315.936181322012
 20
732.8762952121147
 30
0.0
 10
1313.616523179948
 20
733.9346282345567
 30
0.0
 10
1313.143744925467
 20
734.135467158396
 30
0.0
 10
1312.191256903295
 20
734.5104085679958
 30
0.0
 10
1311.712076091913
 20
734.6844161651503
 30
0.0
 10
1310.265861515886
 20
735.1666834513237
 30
0.0
 10
1309.29017739903
 20
735.4352875249527
 30
0.0
 10
1307.315919515229
 20
735.8675631633226
 30
0.0
 10
1306.317346631536
 20
736.0312387771311
 30
0.0
 10
1304.801931281512
 20
736.1962705090401
 30
0.0
 10
1304.293861222875
 20
736.2378417787364
 30
0.0
 10
1303.271720360454
 20
736.2934752369047
 30
0.0
 10
1302.757981205623
 20
736.3074074550807
 30
0.0
 10
1302.247688891166
 20
736.3074074550807
 30
0.0
  0
LINE
  5
1A5
330
1F
100
AcDbEntity
  8
0
  6
Continuous
 62
     7
370
    15
100
AcDbLine
 10
1332.2476876369
 20
701.3395498745
 30
0.0
 11
1332.2476876369
 21
704.3045866542
 31
0.0
  0
LINE
  5
1A6
330
1F
100
AcDbEntity
  8
0
  6
Continuous
 62
     7
370
    15
100
AcDbLine
 10
1067.2476870409
 20
701.3395498745
 30
0.0
 11
1067.2476870409
 21
704.3045866542
 31
0.0
  0
LINE
  5
1A7
330
1F
100
AcDbEntity
  8
0
  6
Continuous
 62
     7
370
    15
100
AcDbLine
 10
1302.2476892388
 20
740.596605023
 30
0.0
 11
1097.247688233
 21
740.596605023
 31
0.0
  0
LINE
  5
1A8
330
1F
100
AcDbEntity
  8
0
  6
Continuous
 62
     7
370
    15
100
AcDbLine
 10
1302.2476892388
 20
736.3074100815
 30
0.0
 11
1302.2476892388
 21
740.596605023
 31
0.0
  0
SPLINE
  5
1A9
330
1F
100
AcDbEntity
  8
0
  6
Continuous
 62
     7
370
    15
100
AcDbSpline
210
0.0
220
0.0
230
1.0
 70
     8
 71
     3
 72
    36
 73
    32
 74
     0
 42
0.00000001
 43
0.00000001
 12
1.0
 22
0.0
 32
0.0
 13
1.0
 23
0.0
 33
0.0
 40
0.0
 40
0.0
 40
0.0
 40
0.0
 40
0.0312499999999999
 40
0.0312499999999999
 40
0.0624999999999998
 40
0.0624999999999998
 40
0.1249999999999996
 40
0.1249999999999996
 40
0.1874999999999993
 40
0.1874999999999993
 40
0.2499999999999991
 40
0.2499999999999991
 40
0.3749999999999989
 40
0.3749999999999989
 40
0.4374999999999987
 40
0.4374999999999987
 40
0.4687499999999987
 40
0.4687499999999987
 40
0.4999999999999987
 40
0.4999999999999987
 40
0.624999999999999
 40
0.624999999999999
 40
0.6874999999999992
 40
0.6874999999999992
 40
0.7499999999999994
 40
0.7499999999999994
 40
0.8124999999999997
 40
0.8124999999999997
 40
0.8749999999999999
 40
0.8749999999999999
 40
1.0
 40
1.0
 40
1.0
 40
1.0
 10
1302.247688891166
 20
740.5966049721306
 30
0.0
 10
1302.751887511701
 20
740.5966049721306
 30
0.0
 10
1303.25730469156
 20
740.583236336551
 30
0.0
 10
1304.270621584242
 20
740.5292635604843
 30
0.0
 10
1304.779870495497
 20
740.4884630899898
 30
0.0
 10
1306.294614347163
 20
740.3262290065306
 30
0.0
 10
1307.290909316227
 20
740.1651653964593
 30
0.0
 10
1309.257323158552
 20
739.7407117349067
 30
0.0
 10
1310.227439536286
 20
739.4773119280202
 30
0.0
 10
1312.141563830403
 20
738.8484502664564
 30
0.0
 10
1313.086962734397
 20
738.4823663893129
 30
0.0
 10
1315.874255643437
 20
737.2306444375037
 30
0.0
 10
1317.615052491386
 20
736.2175010939225
 30
0.0
 10
1320.060547682712
 20
734.4456164699196
 30
0.0
 10
1320.847875068562
 20
733.8126236696862
 30
0.0
 10
1321.986515550368
 20
732.7986834840125
 30
0.0
 10
1322.35877161745
 20
732.4500189941544
 30
0.0
 10
1323.081253736166
 20
731.7388385233035
 30
0.0
 10
1323.432526960891
 20
731.3754157278933
 30
0.0
 10
1325.140190193895
 20
729.5200318229931
 30
0.0
 10
1326.351833523792
 20
727.9143311619648
 30
0.0
 10
1327.942172348418
 20
725.3273081734648
 30
0.0
 10
1328.43523632199
 20
724.4318641819939
 30
0.0
 10
1329.326398223999
 20
722.6160264845167
 30
0.0
 10
1329.727107217712
 20
721.6919679919378
 30
0.0
 10
1330.441513203865
 20
719.8125543396599
 30
0.0
 10
1330.755203380755
 20
718.8571967285292
 30
0.0
 10
1331.295854176674
 20
716.9152864290121
 30
0.0
 10
1331.523116728134
 20
715.9270712729461
 30
0.0
 10
1332.069792367818
 20
712.9249914276
 30
0.0
 10
1332.247688891166
 20
710.919617215143
 30
0.0
 10
1332.247688891166
 20
708.910440408033
 30
0.0
  0
LINE
  5
1AA
330
1F
100
AcDbEntity
  8
0
  6
Continuous
 62
     7
370
    15
100
AcDbLine
 10
1332.2476876369
 20
708.9104405843
 30
0.0
 11
1332.2476876369
 21
704.3045866542
 31
0.0
  0
SPLINE
  5
1AB
330
1F
100
AcDbEntity
  8
0
  6
Continuous
 62
     7
370
    15
100
AcDbSpline
210
0.0
220
0.0
230
1.0
 70
     8
 71
     3
 72
    36
 73
    32
 74
     0
 42
0.00000001
 43
0.00000001
 12
1.0
 22
0.0
 32
0.0
 13
1.0
 23
0.0
 33
0.0
 40
0.0
 40
0.0
 40
0.0
 40
0.0
 40
0.0624999999999984
 40
0.0624999999999984
 40
0.0937499999999985
 40
0.0937499999999985
 40
0.1249999999999986
 40
0.1249999999999986
 40
0.2499999999999989
 40
0.2499999999999989
 40
0.2812499999999996
 40
0.2812499999999996
 40
0.3125000000000003
 40
0.3125000000000003
 40
0.3750000000000001
 40
0.3750000000000001
 40
0.4375
 40
0.4375
 40
0.5000000000000001
 40
0.5000000000000001
 40
0.6250000000000001
 40
0.6250000000000001
 40
0.6875000000000001
 40
0.6875000000000001
 40
0.75
 40
0.75
 40
0.875
 40
0.875
 40
0.9375
 40
0.9375
 40
1.0
 40
1.0
 40
1.0
 40
1.0
 10
1097.247688891166
 20
742.9923161760885
 30
0.0
 10
1096.244950666553
 20
742.9923161760885
 30
0.0
 10
1095.239539302587
 20
742.9398160747596
 30
0.0
 10
1093.72728406518
 20
742.7797923929436
 30
0.0
 10
1093.222860194401
 20
742.7128129435969
 30
0.0
 10
1092.224711365969
 20
742.5533736844513
 30
0.0
 10
1091.729465220679
 20
742.4607741182426
 30
0.0
 10
1089.272018209881
 20
741.9345798211107
 30
0.0
 10
1087.365608345718
 20
741.3132802616929
 30
0.0
 10
1085.057090674853
 20
740.2860238661032
 30
0.0
 10
1084.597867397824
 20
740.0672503187142
 30
0.0
 10
1083.69423435027
 20
739.6076373873154
 30
0.0
 10
1083.25010719797
 20
739.3670481284234
 30
0.0
 10
1081.940230379144
 20
738.6137221341517
 30
0.0
 10
1081.096930314684
 20
738.0695043580818
 30
0.0
 10
1079.468663592886
 20
736.8992679634243
 30
0.0
 10
1078.683700507403
 20
736.2732443360301
 30
0.0
 10
1077.172278785275
 20
734.9391563872018
 30
0.0
 10
1076.442495837335
 20
734.227106344447
 30
0.0
 10
1074.381154665634
 20
732.0066698853965
 30
0.0
 10
1073.167604353869
 20
730.4099360540442
 30
0.0
 10
1071.578377944769
 20
727.8473576205633
 30
0.0
 10
1071.086488966583
 20
726.9631234697088
 30
0.0
 10
1070.186005662056
 20
725.1454120156013
 30
0.0
 10
1069.782137619984
 20
724.2219699091121
 30
0.0
 10
1068.703887377939
 20
721.4096983896559
 30
0.0
 10
1068.16170063659
 20
719.4792881484734
 30
0.0
 10
1067.613073176094
 20
716.500428804232
 30
0.0
 10
1067.474875802797
 20
715.4912442036351
 30
0.0
 10
1067.292735289067
 20
713.484269318225
 30
0.0
 10
1067.247688891166
 20
712.4817599129769
 30
0.0
 10
1067.247688891166
 20
711.4802077734917
 30
0.0
  0
LINE
  5
1AC
330
1F
100
AcDbEntity
  8
0
  6
Continuous
 62
     7
370
    15
100
AcDbLine
 10
1097.247688233
 20
742.9923168622
 30
0.0
 11
1302.2476892388
 21
742.9923168622
 31
0.0
  0
SPLINE
  5
1AD
330
1F
100
AcDbEntity
  8
0
  6
Continuous
 62
     7
370
    15
100
AcDbSpline
210
0.0
220
0.0
230
1.0
 70
     8
 71
     3
 72
    34
 73
    30
 74
     0
 42
0.00000001
 43
0.00000001
 12
1.0
 22
0.0
 32
0.0
 13
1.0
 23
0.0
 33
0.0
 40
0.0
 40
0.0
 40
0.0
 40
0.0
 40
0.1249999999999994
 40
0.1249999999999994
 40
0.1562499999999993
 40
0.1562499999999993
 40
0.1874999999999992
 40
0.1874999999999992
 40
0.249999999999999
 40
0.249999999999999
 40
0.3749999999999983
 40
0.3749999999999983
 40
0.4999999999999976
 40
0.4999999999999976
 40
0.5624999999999971
 40
0.5624999999999971
 40
0.5937499999999971
 40
0.5937499999999971
 40
0.624999999999997
 40
0.624999999999997
 40
0.7499999999999976
 40
0.7499999999999976
 40
0.8124999999999979
 40
0.8124999999999979
 40
0.8437499999999983
 40
0.8437499999999983
 40
0.8749999999999987
 40
0.8749999999999987
 40
1.0
 40
1.0
 40
1.0
 40
1.0
 10
1332.247688891166
 20
711.4802077734917
 30
0.0
 10
1332.247688891166
 20
713.4868026003533
 30
0.0
 10
1332.068125516972
 20
715.4858853870732
 30
0.0
 10
1331.610979239967
 20
717.9750041899032
 30
0.0
 10
1331.507489772293
 20
718.4736183677777
 30
0.0
 10
1331.278514859519
 20
719.4612383769588
 30
0.0
 10
1331.153031404523
 20
719.9506249678044
 30
0.0
 10
1330.744051437844
 20
721.405698899541
 30
0.0
 10
1330.428098321432
 20
722.358329764474
 30
0.0
 10
1329.351277146679
 20
725.1643442596238
 30
0.0
 10
1328.462758231163
 20
726.9663771597926
 30
0.0
 10
1326.320052533636
 20
730.4233439721912
 30
0.0
 10
1325.100011864687
 20
732.0224284559401
 30
0.0
 10
1323.055177479449
 20
734.2244076001075
 30
0.0
 10
1322.337299697839
 20
734.9257534806399
 30
0.0
 10
1321.20425145977
 20
735.9271522950274
 30
0.0
 10
1320.817179698224
 20
736.2524998494422
 30
0.0
 10
1320.023726762724
 20
736.8858125046875
 30
0.0
 10
1319.617652716232
 20
737.1934096072348
 30
0.0
 10
1317.563036787563
 20
738.6693136955944
 30
0.0
 10
1315.823961824646
 20
739.6683519312744
 30
0.0
 10
1313.072286635129
 20
740.8944018943782
 30
0.0
 10
1312.131048872452
 20
741.2573455780777
 30
0.0
 10
1310.681502178768
 20
741.7299687088308
 30
0.0
 10
1310.193646716162
 20
741.8749113557961
 30
0.0
 10
1309.216799920071
 20
742.1374636820528
 30
0.0
 10
1308.726606156351
 20
742.2554737373948
 30
0.0
 10
1306.266903179593
 20
742.7800752284326
 30
0.0
 10
1304.27145784133
 20
742.9923161760886
 30
0.0
 10
1302.247688891166
 20
742.9923161760886
 30
0.0
  0
LINE
  5
1AE
330
1F
100
AcDbEntity
  8
0
  6
Continuous
 62
     7
370
    15
100
AcDbLine
 10
1332.2476876369
 20
708.9104405843
 30
0.0
 11
1332.2476876369
 21
711.4802091621
 31
0.0
  0
LINE
  5
1AF
330
1F
100
AcDbEntity
  8
0
  6
Continuous
 62
     7
370
    15
100
AcDbLine
 10
1067.2476870409
 20
708.9104405843
 30
0.0
 11
1067.2476870409
 21
711.4802091621
 31
0.0
  0
SPLINE
  5
1B0
330
1F
100
AcDbEntity
  8
0
  6
Continuous
 62
     7
370
    15
100
AcDbSpline
210
0.0
220
0.0
230
1.0
 70
     8
 71
     3
 72
    42
 73
    38
 74
     0
 42
0.00000001
 43
0.00000001
 12
1.0
 22
0.0
 32
0.0
 13
1.0
 23
0.0
 33
0.0
 40
0.0
 40
0.0
 40
0.0
 40
0.0
 40
0.0624999999999973
 40
0.0624999999999973
 40
0.0937499999999963
 40
0.0937499999999963
 40
0.1249999999999952
 40
0.1249999999999952
 40
0.2499999999999907
 40
0.2499999999999907
 40
0.3124999999999887
 40
0.3124999999999887
 40
0.3437499999999881
 40
0.3437499999999881
 40
0.3749999999999875
 40
0.3749999999999875
 40
0.4999999999999871
 40
0.4999999999999871
 40
0.531249999999987
 40
0.531249999999987
 40
0.5624999999999869
 40
0.5624999999999869
 40
0.6249999999999885
 40
0.6249999999999885
 40
0.749999999999991
 40
0.749999999999991
 40
0.7812499999999919
 40
0.7812499999999919
 40
0.8124999999999928
 40
0.8124999999999928
 40
0.8749999999999946
 40
0.8749999999999946
 40
0.9374999999999964
 40
0.9374999999999964
 40
0.9687499999999982
 40
0.9687499999999982
 40
1.0
 40
1.0
 40
1.0
 40
1.0
 10
1067.247688891166
 20
715.4436174942917
 30
0.0
 10
1067.247688891166
 20
716.4414235717853
 30
0.0
 10
1067.293214287814
 20
717.440028306699
 30
0.0
 10
1067.431191364241
 20
718.9391579711165
 30
0.0
 10
1067.488818368858
 20
719.4390719672238
 30
0.0
 10
1067.627829115274
 20
720.4393167266895
 30
0.0
 10
1067.709185546209
 20
720.938933616495
 30
0.0
 10
1068.17112914789
 20
723.4121209894867
 30
0.0
 10
1068.718274147119
 20
725.3316340675248
 30
0.0
 10
1069.802976382223
 20
728.1231464397711
 30
0.0
 10
1070.20883597545
 20
729.0389263799003
 30
0.0
 10
1070.886590385978
 20
730.3896700395485
 30
0.0
 10
1071.124721826171
 20
730.8372620785167
 30
0.0
 10
1071.619884911178
 20
731.7162637964486
 30
0.0
 10
1071.877087728172
 20
732.1481764536392
 30
0.0
 10
1073.210565978011
 20
734.270305233342
 30
0.0
 10
1074.427896488769
 20
735.8492726440969
 30
0.0
 10
1076.140994052216
 20
737.6719995148334
 30
0.0
 10
1076.493269835507
 20
738.0289290861284
 30
0.0
 10
1077.217570185408
 20
738.7272125632715
 30
0.0
 10
1077.590504144384
 20
739.0693505621225
 30
0.0
 10
1078.733335942141
 20
740.0660853732487
 30
0.0
 10
1079.522073310969
 20
740.6869559093536
 30
0.0
 10
1081.966939514174
 20
742.4217871433185
 30
0.0
 10
1083.700936922095
 20
743.409243617086
 30
0.0
 10
1086.003947001201
 20
744.4234111164607
 30
0.0
 10
1086.47270109137
 20
744.6156195123027
 30
0.0
 10
1087.417659080099
 20
744.9746869502899
 30
0.0
 10
1087.892803008713
 20
745.1412335476917
 30
0.0
 10
1089.326089803915
 20
745.6025932353593
 30
0.0
 10
1090.292068389072
 20
745.8592202315997
 30
0.0
 10
1092.244675014936
 20
746.2718424767614
 30
0.0
 10
1093.231302761859
 20
746.42783915739
 30
0.0
 10
1094.727005913142
 20
746.5850229330721
 30
0.0
 10
1095.228205427065
 20
746.6245918931781
 30
0.0
 10
1096.235976187126
 20
746.6775515542296
 30
0.0
 10
1096.74343943205
 20
746.6908694808541
 30
0.0
 10
1097.247688891166
 20
746.6908694808541
 30
0.0
  0
LINE
  5
1B1
330
1F
100
AcDbEntity
  8
0
  6
Continuous
 62
     7
370
    15
100
AcDbLine
 10
1097.247688233
 20
746.6908670269
 30
0.0
 11
1097.247688233
 21
742.9923168622
 31
0.0
  0
LINE
  5
1B2
330
1F
100
AcDbEntity
  8
0
  6
Continuous
 62
     7
370
    15
100
AcDbLine
 10
1067.2476870409
 20
711.4802091621
 30
0.0
 11
1067.2476870409
 21
715.4436162912
 31
0.0
  0
LINE
  5
1B3
330
1F
100
AcDbEntity
  8
0
  6
Continuous
 62
     7
370
    15
100
AcDbLine
 10
1302.2476892388
 20
746.6908670269
 30
0.0
 11
1097.247688233
 21
746.6908670269
 31
0.0
  0
LINE
  5
1B4
330
1F
100
AcDbEntity
  8
0
  6
Continuous
 62
     7
370
    15
100
AcDbLine
 10
1302.2476892388
 20
742.9923168622
 30
0.0
 11
1302.2476892388
 21
746.6908670269
 31
0.0
  0
SPLINE
  5
1B5
330
1F
100
AcDbEntity
  8
0
  6
Continuous
 62
     7
370
    15
100
AcDbSpline
210
0.0
220
0.0
230
1.0
 70
     8
 71
     3
 72
    36
 73
    32
 74
     0
 42
0.00000001
 43
0.00000001
 12
1.0
 22
0.0
 32
0.0
 13
1.0
 23
0.0
 33
0.0
 40
0.0
 40
0.0
 40
0.0
 40
0.0
 40
0.1250000000000011
 40
0.1250000000000011
 40
0.1562500000000015
 40
0.1562500000000015
 40
0.1875000000000019
 40
0.1875000000000019
 40
0.2500000000000025
 40
0.2500000000000025
 40
0.3125000000000032
 40
0.3125000000000032
 40
0.3437500000000033
 40
0.3437500000000033
 40
0.3750000000000034
 40
0.3750000000000034
 40
0.5000000000000041
 40
0.5000000000000041
 40
0.5625000000000042
 40
0.5625000000000042
 40
0.593750000000004
 40
0.593750000000004
 40
0.6250000000000039
 40
0.6250000000000039
 40
0.7500000000000027
 40
0.7500000000000027
 40
0.812500000000002
 40
0.812500000000002
 40
0.8750000000000013
 40
0.8750000000000013
 40
1.0
 40
1.0
 40
1.0
 40
1.0
 10
1302.247688891166
 20
746.6908694808541
 30
0.0
 10
1304.253598957247
 20
746.6908694808541
 30
0.0
 10
1306.238563610959
 20
746.4839541315474
 30
0.0
 10
1308.693656799436
 20
745.967348746258
 30
0.0
 10
1309.183357522667
 20
745.8510082677708
 30
0.0
 10
1310.160074314414
 20
745.5918061681946
 30
0.0
 10
1310.6457838997
 20
745.4492122507681
 30
0.0
 10
1312.082547619156
 20
744.9867395113488
 30
0.0
 10
1313.018248023693
 20
744.6309820329618
 30
0.0
 10
1314.846676273329
 20
743.8273926949869
 30
0.0
 10
1315.739400771664
 20
743.379553664518
 30
0.0
 10
1317.046259153024
 20
742.6387415900383
 30
0.0
 10
1317.476497408579
 20
742.3802742900372
 30
0.0
 10
1318.326092319054
 20
741.8400244242446
 30
0.0
 10
1318.746589084202
 20
741.5574084508713
 30
0.0
 10
1320.805052790455
 20
740.0967697109276
 30
0.0
 10
1322.31010851282
 20
738.780809850696
 30
0.0
 10
1324.365882828582
 20
736.59689583606
 30
0.0
 10
1325.017249274124
 20
735.8336616229768
 30
0.0
 10
1325.942566718901
 20
734.6349850572321
 30
0.0
 10
1326.242066583123
 20
734.2266978555903
 30
0.0
 10
1326.817617217228
 20
733.4008590116405
 30
0.0
 10
1327.09449340305
 20
732.9822640430924
 30
0.0
 10
1328.425501551597
 20
730.8614961868168
 30
0.0
 10
1329.320988866613
 20
729.0767116608215
 30
0.0
 10
1330.413347663237
 20
726.2688972376819
 30
0.0
 10
1330.736354956447
 20
725.3064961968205
 30
0.0
 10
1331.286016012935
 20
723.3724399989942
 30
0.0
 10
1331.514169388475
 20
722.3981442193096
 30
0.0
 10
1332.062465974777
 20
719.4540560767272
 30
0.0
 10
1332.247688891166
 20
717.4632564849759
 30
0.0
 10
1332.247688891166
 20
715.4436174942919
 30
0.0
  0
LINE
  5
1B6
330
1F
100
AcDbEntity
  8
0
  6
Continuous
 62
     7
370
    15
100
AcDbLine
 10
1332.2476876369
 20
715.4436162912
 30
0.0
 11
1332.2476876369
 21
711.4802091621
 31
0.0
  0
SPLINE
  5
1B7
330
1F
100
AcDbEntity
  8
0
  6
Continuous
 62
     7
370
    15
100
AcDbSpline
210
0.0
220
0.0
230
1.0
 70
     8
 71
     3
 72
    38
 73
    34
 74
     0
 42
0.00000001
 43
0.00000001
 12
1.0
 22
0.0
 32
0.0
 13
1.0
 23
0.0
 33
0.0
 40
0.0
 40
0.0
 40
0.0
 40
0.0
 40
0.1249999999999971
 40
0.1249999999999971
 40
0.1874999999999961
 40
0.1874999999999961
 40
0.2187499999999955
 40
0.2187499999999955
 40
0.2499999999999949
 40
0.2499999999999949
 40
0.3749999999999946
 40
0.3749999999999946
 40
0.4374999999999952
 40
0.4374999999999952
 40
0.4687499999999961
 40
0.4687499999999961
 40
0.4999999999999969
 40
0.4999999999999969
 40
0.6249999999999984
 40
0.6249999999999984
 40
0.6562499999999987
 40
0.6562499999999987
 40
0.687499999999999
 40
0.687499999999999
 40
0.7499999999999976
 40
0.7499999999999976
 40
0.8749999999999964
 40
0.8749999999999964
 40
0.9062499999999972
 40
0.9062499999999972
 40
0.9374999999999981
 40
0.9374999999999981
 40
1.0
 40
1.0
 40
1.0
 40
1.0
 10
1067.247688891166
 20
720.9847143733107
 30
0.0
 10
1067.247688891166
 20
722.9955975946272
 30
0.0
 10
1067.436266964787
 20
724.9775325702024
 30
0.0
 10
1067.991314299567
 20
727.9004076042432
 30
0.0
 10
1068.222017667668
 20
728.8667715531193
 30
0.0
 10
1068.638179019188
 20
730.3041526029048
 30
0.0
 10
1068.788604145884
 20
730.7812486193354
 30
0.0
 10
1069.113387997301
 20
731.731287684551
 30
0.0
 10
1069.287584232173
 20
732.2035211830877
 30
0.0
 10
1070.209039721941
 20
734.5288544532527
 30
0.0
 10
1071.112843407408
 20
736.2951785754308
 30
0.0
 10
1072.716388005823
 20
738.8049460894397
 30
0.0
 10
1073.292491373288
 20
739.6180898449392
 30
0.0
 10
1074.221480784657
 20
740.8012552663204
 30
0.0
 10
1074.542484493336
 20
741.1900264523323
 30
0.0
 10
1075.199149164113
 20
741.9465784499093
 30
0.0
 10
1075.535602021331
 20
742.315430040752
 30
0.0
 10
1077.257919610643
 20
744.113203461463
 30
0.0
 10
1078.762792893512
 20
745.4040079196981
 30
0.0
 10
1080.805509844055
 20
746.8299364825583
 30
0.0
 10
1081.222207322632
 20
747.1056588308597
 30
0.0
 10
1082.072287896882
 20
747.6377387544081
 30
0.0
 10
1082.506448185897
 20
747.8944511533788
 30
0.0
 10
1083.819328725272
 20
748.6265211925473
 30
0.0
 10
1084.712779957667
 20
749.0668451463376
 30
0.0
 10
1087.446521065654
 20
750.2478094273565
 30
0.0
 10
1089.339657166267
 20
750.8498614247646
 30
0.0
 10
1091.798384372823
 20
751.3603526659884
 30
0.0
 10
1092.294167260058
 20
751.4500103432489
 30
0.0
 10
1093.283447831159
 20
751.6028057603186
 30
0.0
 10
1093.778355217652
 20
751.6662524943206
 30
0.0
 10
1095.263866322707
 20
751.8183389411272
 30
0.0
 10
1096.255257066867
 20
751.8688179931518
 30
0.0
 10
1097.247688891166
 20
751.8688179931518
 30
0.0
  0
LINE
  5
1B8
330
1F
100
AcDbEntity
  8
0
  6
Continuous
 62
     7
370
    15
100
AcDbLine
 10
1097.247688233
 20
751.8688193761
 30
0.0
 11
1097.247688233
 21
748.7389496766
 31
0.0
  0
SPLINE
  5
1B9
330
1F
100
AcDbEntity
  8
0
  6
Continuous
 62
     7
370
    15
100
AcDbSpline
210
0.0
220
0.0
230
1.0
 70
     8
 71
     3
 72
    36
 73
    32
 74
     0
 42
0.00000001
 43
0.00000001
 12
1.0
 22
0.0
 32
0.0
 13
1.0
 23
0.0
 33
0.0
 40
0.0
 40
0.0
 40
0.0
 40
0.0
 40
0.1249999999999969
 40
0.1249999999999969
 40
0.156249999999997
 40
0.156249999999997
 40
0.1874999999999971
 40
0.1874999999999971
 40
0.2499999999999974
 40
0.2499999999999974
 40
0.3124999999999976
 40
0.3124999999999976
 40
0.3749999999999978
 40
0.3749999999999978
 40
0.4999999999999983
 40
0.4999999999999983
 40
0.5624999999999986
 40
0.5624999999999986
 40
0.5937499999999983
 40
0.5937499999999983
 40
0.6249999999999984
 40
0.6249999999999984
 40
0.7500000000000002
 40
0.7500000000000002
 40
0.7812500000000003
 40
0.7812500000000003
 40
0.8125000000000003
 40
0.8125000000000003
 40
0.8750000000000003
 40
0.8750000000000003
 40
1.0
 40
1.0
 40
1.0
 40
1.0
 10
1097.247688891166
 20
748.7389530623675
 30
0.0
 10
1095.245002744714
 20
748.7389530623675
 30
0.0
 10
1093.264553078228
 20
748.5335850361631
 30
0.0
 10
1090.816596448708
 20
748.0219210932581
 30
0.0
 10
1090.328398331491
 20
747.9067211369232
 30
0.0
 10
1089.354836759807
 20
747.6501413120084
 30
0.0
 10
1088.869175219319
 20
747.5085721520607
 30
0.0
 10
1087.43326336171
 20
747.0495134235515
 30
0.0
 10
1086.49836255541
 20
746.6963976455845
 30
0.0
 10
1084.671901605506
 20
745.8989730288439
 30
0.0
 10
1083.780345233677
 20
745.4546562538818
 30
0.0
 10
1082.040489182989
 20
744.4750063237977
 30
0.0
 10
1081.190933068766
 20
743.938790217092
 30
0.0
 10
1078.716772825653
 20
742.1953644020582
 30
0.0
 10
1077.210225172002
 20
740.886711148881
 30
0.0
 10
1075.153062455594
 20
738.7161414012913
 30
0.0
 10
1074.501378702577
 20
737.9577528058502
 30
0.0
 10
1073.575703948825
 20
736.7670573986675
 30
0.0
 10
1073.275186338044
 20
736.3603372098371
 30
0.0
 10
1072.697322098064
 20
735.5370089129812
 30
0.0
 10
1072.419392506257
 20
735.1197420090095
 30
0.0
 10
1071.083556686444
 20
733.0060050361585
 30
0.0
 10
1070.185594006848
 20
731.2280878137145
 30
0.0
 10
1069.272967183634
 20
728.8988425038377
 30
0.0
 10
1069.101025439481
 20
728.4276040043269
 30
0.0
 10
1068.778593865372
 20
727.4742031676943
 30
0.0
 10
1068.628114220322
 20
726.9918027183522
 30
0.0
 10
1068.213422833573
 20
725.5431582555806
 30
0.0
 10
1067.984105913529
 20
724.5705594504824
 30
0.0
 10
1067.433292931315
 20
721.6328782049552
 30
0.0
 10
1067.247688891166
 20
719.6480915675586
 30
0.0
 10
1067.247688891166
 20
717.6363925440579
 30
0.0
  0
LINE
  5
1BA
330
1F
100
AcDbEntity
  8
0
  6
Continuous
 62
     7
370
    15
100
AcDbLine
 10
1067.2476870409
 20
717.6363929414
 30
0.0
 11
1067.2476870409
 21
720.9847136639
 31
0.0
  0
LINE
  5
1BB
330
1F
100
AcDbEntity
  8
0
  6
Continuous
 62
     7
370
    15
100
AcDbLine
 10
1097.247688233
 20
748.7389496766
 30
0.0
 11
1302.2476892388
 21
748.7389496766
 31
0.0
  0
SPLINE
  5
1BC
330
1F
100
AcDbEntity
  8
0
  6
Continuous
 62
     7
370
    15
100
AcDbSpline
210
0.0
220
0.0
230
1.0
 70
     8
 71
     3
 72
    36
 73
    32
 74
     0
 42
0.00000001
 43
0.00000001
 12
1.0
 22
0.0
 32
0.0
 13
1.0
 23
0.0
 33
0.0
 40
0.0
 40
0.0
 40
0.0
 40
0.0
 40
0.0312499999999999
 40
0.0312499999999999
 40
0.0624999999999998
 40
0.0624999999999998
 40
0.125
 40
0.125
 40
0.1875000000000002
 40
0.1875000000000002
 40
0.2187500000000002
 40
0.2187500000000002
 40
0.2500000000000001
 40
0.2500000000000001
 40
0.3750000000000001
 40
0.3750000000000001
 40
0.4375000000000001
 40
0.4375000000000001
 40
0.5
 40
0.5
 40
0.6249999999999999
 40
0.6249999999999999
 40
0.6874999999999998
 40
0.6874999999999998
 40
0.7499999999999997
 40
0.7499999999999997
 40
0.8749999999999997
 40
0.8749999999999997
 40
0.9374999999999998
 40
0.9374999999999998
 40
1.0
 40
1.0
 40
1.0
 40
1.0
 10
1332.247688891166
 20
717.6363925440579
 30
0.0
 10
1332.247688891166
 20
718.139345304276
 30
0.0
 10
1332.235893766441
 20
718.6448802381638
 30
0.0
 10
1332.188996351222
 20
719.6492587322846
 30
0.0
 10
1332.153935532588
 20
720.1491973821725
 30
0.0
 10
1332.014453733985
 20
721.6423656169158
 30
0.0
 10
1331.875810931222
 20
722.6289625113446
 30
0.0
 10
1331.50813338134
 20
724.5846370176212
 30
0.0
 10
1331.279100034574
 20
725.5537149008777
 30
0.0
 10
1330.866561622991
 20
726.9939607651866
 30
0.0
 10
1330.717531122919
 20
727.4718104217569
 30
0.0
 10
1330.395985122406
 20
728.4229579978947
 30
0.0
 10
1330.222988180557
 20
728.8974537099218
 30
0.0
 10
1329.303887827323
 20
731.242793530372
 30
0.0
 10
1328.402894859184
 20
733.0209687435521
 30
0.0
 10
1326.807640659681
 20
735.5439305802336
 30
0.0
 10
1326.234980788797
 20
736.3607013444155
 30
0.0
 10
1325.005128639662
 20
737.9442023742205
 30
0.0
 10
1324.344598303745
 20
738.7138449324698
 30
0.0
 10
1322.275721155747
 20
740.8964374149921
 30
0.0
 10
1320.771400512155
 20
742.1992129400221
 30
0.0
 10
1318.326449141862
 20
743.9238918627594
 30
0.0
 10
1317.479837552731
 20
744.4602743590607
 30
0.0
 10
1315.720338642494
 20
745.4523410358589
 30
0.0
 10
1314.822064142101
 20
745.8996993087741
 30
0.0
 10
1312.078434421994
 20
747.0972258086174
 30
0.0
 10
1310.182476482847
 20
747.7055581471931
 30
0.0
 10
1307.235282681546
 20
748.324646928822
 30
0.0
 10
1306.232825416408
 20
748.4813835541964
 30
0.0
 10
1304.239759490854
 20
748.6877904027323
 30
0.0
 10
1303.24356017998
 20
748.7389530623675
 30
0.0
 10
1302.247688891166
 20
748.7389530623675
 30
0.0
  0
LINE
  5
1BD
330
1F
100
AcDbEntity
  8
0
  6
Continuous
 62
     7
370
    15
100
AcDbLine
 10
1332.2476876369
 20
715.4436162912
 30
0.0
 11
1332.2476876369
 21
717.6363929414
 31
0.0
  0
LINE
  5
1BE
330
1F
100
AcDbEntity
  8
0
  6
Continuous
 62
     7
370
    15
100
AcDbLine
 10
1067.2476870409
 20
715.4436162912
 30
0.0
 11
1067.2476870409
 21
717.6363929414
 31
0.0
  0
LINE
  5
1BF
330
1F
100
AcDbEntity
  8
0
  6
Continuous
 62
     7
370
    15
100
AcDbLine
 10
1302.2476892388
 20
751.8688193761
 30
0.0
 11
1097.247688233
 21
751.8688193761
 31
0.0
  0
LINE
  5
1C0
330
1F
100
AcDbEntity
  8
0
  6
Continuous
 62
     7
370
    15
100
AcDbLine
 10
1302.2476892388
 20
748.7389496766
 30
0.0
 11
1302.2476892388
 21
751.8688193761
 31
0.0
  0
SPLINE
  5
1C1
330
1F
100
AcDbEntity
  8
0
  6
Continuous
 62
     7
370
    15
100
AcDbSpline
210
0.0
220
0.0
230
1.0
 70
     8
 71
     3
 72
    36
 73
    32
 74
     0
 42
0.00000001
 43
0.00000001
 12
1.0
 22
0.0
 32
0.0
 13
1.0
 23
0.0
 33
0.0
 40
0.0
 40
0.0
 40
0.0
 40
0.0
 40
0.0624999999999998
 40
0.0624999999999998
 40
0.1249999999999996
 40
0.1249999999999996
 40
0.1874999999999994
 40
0.1874999999999994
 40
0.2187499999999993
 40
0.2187499999999993
 40
0.2499999999999992
 40
0.2499999999999992
 40
0.3749999999999989
 40
0.3749999999999989
 40
0.4374999999999987
 40
0.4374999999999987
 40
0.4999999999999984
 40
0.4999999999999984
 40
0.6249999999999986
 40
0.6249999999999986
 40
0.6874999999999988
 40
0.6874999999999988
 40
0.7499999999999993
 40
0.7499999999999993
 40
0.8125
 40
0.8125
 40
0.8437500000000001
 40
0.8437500000000001
 40
0.8750000000000002
 40
0.8750000000000002
 40
1.0
 40
1.0
 40
1.0
 40
1.0
 10
1302.247688891166
 20
751.8688179931518
 30
0.0
 10
1303.246643392079
 20
751.8688179931518
 30
0.0
 10
1304.25553153301
 20
751.8167791100129
 30
0.0
 10
1306.240984247845
 20
751.6116857765763
 30
0.0
 10
1307.222735464051
 20
751.4589963577683
 30
0.0
 10
1309.164747732309
 20
751.0554341844977
 30
0.0
 10
1310.12500808823
 20
750.8045582495782
 30
0.0
 10
1311.549142237112
 20
750.3539728761409
 30
0.0
 10
1312.021139291356
 20
750.191376643621
 30
0.0
 10
1312.959620118398
 20
749.8409953359584
 30
0.0
 10
1313.427128138141
 20
749.6527103130293
 30
0.0
 10
1315.726124081145
 20
748.6579867529729
 30
0.0
 10
1317.458775282183
 20
747.6883624894238
 30
0.0
 10
1319.903921734422
 20
745.9829282800259
 30
0.0
 10
1320.693140467173
 20
745.3723044644992
 30
0.0
 10
1322.218614034633
 20
744.0646381085811
 30
0.0
 10
1322.945085387894
 20
743.3757372378458
 30
0.0
 10
1325.007453608025
 20
741.2194833337159
 30
0.0
 10
1326.233076673917
 20
739.6585225445225
 30
0.0
 10
1327.847991189854
 20
737.1322360665655
 30
0.0
 10
1328.349499578716
 20
736.2565830844418
 30
0.0
 10
1329.25677363508
 20
734.4793446790754
 30
0.0
 10
1329.665470889785
 20
733.5736705934391
 30
0.0
 10
1330.395177863737
 20
731.7290445362769
 30
0.0
 10
1330.716183226652
 20
730.7900909114998
 30
0.0
 10
1331.131696113853
 20
729.3566149613305
 30
0.0
 10
1331.259182290939
 20
728.8746082100037
 30
0.0
 10
1331.491847396069
 20
727.9021289877435
 30
0.0
 10
1331.59724553631
 20
727.4104413089741
 30
0.0
 10
1332.064513740495
 20
724.9461301913218
 30
0.0
 10
1332.247688891166
 20
722.9684269939817
 30
0.0
 10
1332.247688891166
 20
720.9847143733107
 30
0.0
  0
LINE
  5
1C2
330
1F
100
AcDbEntity
  8
0
  6
Continuous
 62
     7
370
    15
100
AcDbLine
 10
1332.2476876369
 20
720.9847136639
 30
0.0
 11
1332.2476876369
 21
717.6363929414
 31
0.0
  0
SPLINE
  5
1C3
330
1F
100
AcDbEntity
  8
0
  6
Continuous
 62
     7
370
    15
100
AcDbSpline
210
0.0
220
0.0
230
1.0
 70
     8
 71
     3
 72
    36
 73
    32
 74
     0
 42
0.00000001
 43
0.00000001
 12
1.0
 22
0.0
 32
0.0
 13
1.0
 23
0.0
 33
0.0
 40
0.0
 40
0.0
 40
0.0
 40
0.0
 40
0.0624999999999982
 40
0.0624999999999982
 40
0.1249999999999963
 40
0.1249999999999963
 40
0.1874999999999944
 40
0.1874999999999944
 40
0.2187499999999935
 40
0.2187499999999935
 40
0.2499999999999926
 40
0.2499999999999926
 40
0.3749999999999918
 40
0.3749999999999918
 40
0.4374999999999914
 40
0.4374999999999914
 40
0.4687499999999919
 40
0.4687499999999919
 40
0.4999999999999923
 40
0.4999999999999923
 40
0.6249999999999942
 40
0.6249999999999942
 40
0.6874999999999951
 40
0.6874999999999951
 40
0.749999999999996
 40
0.749999999999996
 40
0.8749999999999979
 40
0.8749999999999979
 40
0.937499999999999
 40
0.937499999999999
 40
1.0
 40
1.0
 40
1.0
 40
1.0
 10
1097.247688891166
 20
753.5811373252739
 30
0.0
 10
1096.252141847493
 20
753.5811373252739
 30
0.0
 10
1095.245492288504
 20
753.5296536991895
 30
0.0
 10
1093.261048751146
 20
753.3258218387766
 30
0.0
 10
1092.280351270664
 20
753.1740529566982
 30
0.0
 10
1090.341444572696
 20
752.7732331501701
 30
0.0
 10
1089.383236465331
 20
752.524177423441
 30
0.0
 10
1087.962876888624
 20
752.0772585993827
 30
0.0
 10
1087.492254250367
 20
751.916040956334
 30
0.0
 10
1086.556747761629
 20
751.5687802314808
 30
0.0
 10
1086.090706851232
 20
751.3822287380372
 30
0.0
 10
1083.78953613078
 20
750.3923742398198
 30
0.0
 10
1082.057225799073
 20
749.4279019460846
 30
0.0
 10
1079.614535359178
 20
747.733693336191
 30
0.0
 10
1078.82646454981
 20
747.1273943788938
 30
0.0
 10
1077.684447949496
 20
746.154250340226
 30
0.0
 10
1077.310007730572
 20
745.81870649493
 30
0.0
 10
1076.582563990026
 20
745.1335487087458
 30
0.0
 10
1076.228564675119
 20
744.7831362321433
 30
0.0
 10
1074.506203595401
 20
742.9926933398227
 30
0.0
 10
1073.279404340807
 20
741.4386042529012
 30
0.0
 10
1071.663857569198
 20
738.9264656294408
 30
0.0
 10
1071.160930574403
 20
738.0540166957855
 30
0.0
 10
1070.249384274145
 20
736.2792570327874
 30
0.0
 10
1069.839092637091
 20
735.3753373908606
 30
0.0
 10
1068.740821933996
 20
732.6153556089089
 30
0.0
 10
1068.184210843082
 20
730.711520181278
 30
0.0
 10
1067.620037372911
 20
727.7573085598706
 30
0.0
 10
1067.480023967704
 20
726.7690078455637
 30
0.0
 10
1067.293970396432
 20
724.7933518731077
 30
0.0
 10
1067.247688891166
 20
723.8046929039461
 30
0.0
 10
1067.247688891166
 20
722.8152111963025
 30
0.0
  0
LINE
  5
1C4
330
1F
100
AcDbEntity
  8
0
  6
Continuous
 62
     7
370
    15
100
AcDbLine
 10
1097.247688233
 20
753.5811341606
 30
0.0
 11
1302.2476892388
 21
753.5811341606
 31
0.0
  0
SPLINE
  5
1C5
330
1F
100
AcDbEntity
  8
0
  6
Continuous
 62
     7
370
    15
100
AcDbSpline
210
0.0
220
0.0
230
1.0
 70
     8
 71
     3
 72
    38
 73
    34
 74
     0
 42
0.00000001
 43
0.00000001
 12
1.0
 22
0.0
 32
0.0
 13
1.0
 23
0.0
 33
0.0
 40
0.0
 40
0.0
 40
0.0
 40
0.0
 40
0.1249999999999998
 40
0.1249999999999998
 40
0.1562499999999997
 40
0.1562499999999997
 40
0.1874999999999997
 40
0.1874999999999997
 40
0.2499999999999996
 40
0.2499999999999996
 40
0.3749999999999989
 40
0.3749999999999989
 40
0.4062499999999989
 40
0.4062499999999989
 40
0.4374999999999989
 40
0.4374999999999989
 40
0.4999999999999993
 40
0.4999999999999993
 40
0.5624999999999998
 40
0.5624999999999998
 40
0.5937499999999999
 40
0.5937499999999999
 40
0.6250000000000001
 40
0.6250000000000001
 40
0.7500000000000008
 40
0.7500000000000008
 40
0.812500000000001
 40
0.812500000000001
 40
0.8437500000000009
 40
0.8437500000000009
 40
0.8750000000000007
 40
0.8750000000000007
 40
1.0
 40
1.0
 40
1.0
 40
1.0
 10
1332.247688891166
 20
722.8152111963025
 30
0.0
 10
1332.247688891166
 20
724.8042219193086
 30
0.0
 10
1332.061981127793
 20
726.7756773523031
 30
0.0
 10
1331.596601075903
 20
729.2179475399013
 30
0.0
 10
1331.491761113116
 20
729.7052895097697
 30
0.0
 10
1331.258104761268
 20
730.6777069146615
 30
0.0
 10
1331.128899963109
 20
731.1639856280456
 30
0.0
 10
1330.708623002275
 20
732.6055087750215
 30
0.0
 10
1330.384576240749
 20
733.5461993592842
 30
0.0
 10
1329.283990180166
 20
736.3087518573169
 30
0.0
 10
1328.380228855591
 20
738.0716615783186
 30
0.0
 10
1327.030043532455
 20
740.1731309200993
 30
0.0
 10
1326.748057135131
 20
740.5893994100479
 30
0.0
 10
1326.165736030467
 20
741.4051309286186
 30
0.0
 10
1325.865731412441
 20
741.8042775293354
 30
0.0
 10
1324.939610482701
 20
742.975978973094
 30
0.0
 10
1324.287448302338
 20
743.7228558003145
 30
0.0
 10
1322.914357637925
 20
745.1488143561219
 30
0.0
 10
1322.193430480381
 20
745.8278973924812
 30
0.0
 10
1321.059524009808
 20
746.7947479066404
 30
0.0
 10
1320.67278702528
 20
747.1083870854586
 30
0.0
 10
1319.881420837141
 20
747.7180259206496
 30
0.0
 10
1319.475652120923
 20
748.0147998857232
 30
0.0
 10
1317.415590901257
 20
749.443254854422
 30
0.0
 10
1315.680257051741
 20
750.4037886888073
 30
0.0
 10
1312.949480790488
 20
751.5778244908045
 30
0.0
 10
1312.01777123328
 20
751.9243855617465
 30
0.0
 10
1310.586980611341
 20
752.3748585533103
 30
0.0
 10
1310.103083238739
 20
752.5137665936776
 30
0.0
 10
1309.133376836493
 20
752.765440882005
 30
0.0
 10
1308.647194625797
 20
752.8784149800059
 30
0.0
 10
1306.209755839114
 20
753.380105689265
 30
0.0
 10
1304.239107656676
 20
753.5811373252741
 30
0.0
 10
1302.247688891166
 20
753.5811373252741
 30
0.0
  0
LINE
  5
1C6
330
1F
100
AcDbEntity
  8
0
  6
Continuous
 62
     7
370
    15
100
AcDbLine
 10
1332.2476876369
 20
720.9847136639
 30
0.0
 11
1332.2476876369
 21
722.8152095579
 31
0.0
  0
LINE
  5
1C7
330
1F
100
AcDbEntity
  8
0
  6
Continuous
 62
     7
370
    15
100
AcDbLine
 10
1067.2476870409
 20
720.9847136639
 30
0.0
 11
1067.2476870409
 21
722.8152095579
 31
0.0
  0
SPLINE
  5
1C8
330
1F
100
AcDbEntity
  8
0
  6
Continuous
 62
     7
370
    15
100
AcDbSpline
210
0.0
220
0.0
230
1.0
 70
     8
 71
     3
 72
    28
 73
    24
 74
     0
 42
0.00000001
 43
0.00000001
 12
1.0
 22
0.0
 32
0.0
 13
1.0
 23
0.0
 33
0.0
 40
0.0
 40
0.0
 40
0.0
 40
0.0
 40
0.1250000000000005
 40
0.1250000000000005
 40
0.1875000000000008
 40
0.1875000000000008
 40
0.2500000000000011
 40
0.2500000000000011
 40
0.3750000000000016
 40
0.3750000000000016
 40
0.5000000000000021
 40
0.5000000000000021
 40
0.5625000000000017
 40
0.5625000000000017
 40
0.6250000000000013
 40
0.6250000000000013
 40
0.7500000000000006
 40
0.7500000000000006
 40
0.8125000000000004
 40
0.8125000000000004
 40
0.8750000000000002
 40
0.8750000000000002
 40
1.0
 40
1.0
 40
1.0
 40
1.0
 10
1067.247688891166
 20
725.5703557187918
 30
0.0
 10
1067.247688891166
 20
727.5490746992535
 30
0.0
 10
1067.433727172333
 20
729.5153109190878
 30
0.0
 10
1067.997418193919
 20
732.4455669585789
 30
0.0
 10
1068.234544468684
 20
733.4225448811778
 30
0.0
 10
1068.795868669597
 20
735.3295492164532
 30
0.0
 10
1069.120590658332
 20
736.2641234045376
 30
0.0
 10
1070.224773009454
 20
739.0119913678926
 30
0.0
 10
1071.132955812561
 20
740.7699864163336
 30
0.0
 10
1073.311992827418
 20
744.1301740980094
 30
0.0
 10
1074.547592521153
 20
745.6775636078941
 30
0.0
 10
1076.610364059818
 20
747.8021059079948
 30
0.0
 10
1077.333250527631
 20
748.4775194460981
 30
0.0
 10
1078.85152189376
 20
749.7610421342993
 30
0.0
 10
1079.65101964667
 20
750.3715121152131
 30
0.0
 10
1082.110011315694
 20
752.0615186984114
 30
0.0
 10
1083.840415721008
 20
753.0126795727247
 30
0.0
 10
1086.571884583156
 20
754.177606081658
 30
0.0
 10
1087.50644700216
 20
754.5223657261406
 30
0.0
 10
1089.417874788164
 20
755.1186378131964
 30
0.0
 10
1090.380563617428
 20
755.3658672638563
 30
0.0
 10
1093.288880556499
 20
755.9597576375221
 30
0.0
 10
1095.254563243092
 20
756.1600501727597
 30
0.0
 10
1097.247688891166
 20
756.1600501727597
 30
0.0
  0
LINE
  5
1C9
330
1F
100
AcDbEntity
  8
0
  6
Continuous
 62
     7
370
    15
100
AcDbLine
 10
1097.247688233
 20
756.1600483261
 30
0.0
 11
1097.247688233
 21
753.5811341606
 31
0.0
  0
LINE
  5
1CA
330
1F
100
AcDbEntity
  8
0
  6
Continuous
 62
     7
370
    15
100
AcDbLine
 10
1067.2476870409
 20
722.8152095579
 30
0.0
 11
1067.2476870409
 21
725.5703560315
 31
0.0
  0
LINE
  5
1CB
330
1F
100
AcDbEntity
  8
0
  6
Continuous
 62
     7
370
    15
100
AcDbLine
 10
1302.2476892388
 20
756.1600483261
 30
0.0
 11
1097.247688233
 21
756.1600483261
 31
0.0
  0
LINE
  5
1CC
330
1F
100
AcDbEntity
  8
0
  6
Continuous
 62
     7
370
    15
100
AcDbLine
 10
1302.2476892388
 20
753.5811341606
 30
0.0
 11
1302.2476892388
 21
756.1600483261
 31
0.0
  0
SPLINE
  5
1CD
330
1F
100
AcDbEntity
  8
0
  6
Continuous
 62
     7
370
    15
100
AcDbSpline
210
0.0
220
0.0
230
1.0
 70
     8
 71
     3
 72
    37
 73
    33
 74
     0
 42
0.00000001
 43
0.00000001
 12
1.0
 22
0.0
 32
0.0
 13
1.0
 23
0.0
 33
0.0
 40
0.0
 40
0.0
 40
0.0
 40
0.0
 40
0.0312499999999998
 40
0.0312499999999998
 40
0.0624999999999995
 40
0.0624999999999995
 40
0.1249999999999989
 40
0.1249999999999989
 40
0.2499999999999979
 40
0.2499999999999979
 40
0.2812499999999981
 40
0.2812499999999981
 40
0.3124999999999982
 40
0.3124999999999982
 40
0.3749999999999985
 40
0.4374999999999988
 40
0.4374999999999988
 40
0.4999999999999993
 40
0.4999999999999993
 40
0.6249999999999997
 40
0.6249999999999997
 40
0.6875000000000001
 40
0.6875000000000001
 40
0.7500000000000004
 40
0.7500000000000004
 40
0.8750000000000008
 40
0.8750000000000008
 40
0.9062500000000006
 40
0.9062500000000006
 40
0.9375000000000002
 40
0.9375000000000002
 40
1.0
 40
1.0
 40
1.0
 40
1.0
 10
1302.247688891166
 20
756.1600501727597
 30
0.0
 10
1302.742745801821
 20
756.1600501727597
 30
0.0
 10
1303.238889849912
 20
756.1475786109933
 30
0.0
 10
1304.23338942239
 20
756.0972655919052
 30
0.0
 10
1304.733182427338
 20
756.0592503283913
 30
0.0
 10
1306.222404170931
 20
755.9077483277734
 30
0.0
 10
1307.202482058249
 20
755.7572286495332
 30
0.0
 10
1310.105705695292
 20
755.1617792552673
 30
0.0
 10
1311.992198856728
 20
754.5743488487072
 30
0.0
 10
1314.287533791255
 20
753.5959741339095
 30
0.0
 10
1314.743392851914
 20
753.387895218442
 30
0.0
 10
1315.638517193636
 20
752.9518258285531
 30
0.0
 10
1316.079103524815
 20
752.7232976038391
 30
0.0
 10
1317.380318056293
 20
752.0068085606043
 30
0.0
 10
1319.060583376447
 20
750.9692253684578
 30
0.0
 10
1320.633078488662
 20
749.7695269418805
 30
0.0
 10
1322.150918399041
 20
748.4876124648018
 30
0.0
 10
1322.885364143058
 20
747.802073976504
 30
0.0
 10
1324.961724875977
 20
745.6625451075661
 30
0.0
 10
1326.190789565298
 20
744.1177413933777
 30
0.0
 10
1327.807006977895
 20
741.6269689751497
 30
0.0
 10
1328.308716771591
 20
740.7653607151489
 30
0.0
 10
1329.22847423051
 20
738.9915610116387
 30
0.0
 10
1329.641728671393
 20
738.0891699556158
 30
0.0
 10
1330.746644926065
 20
735.3371930267024
 30
0.0
 10
1331.304688654978
 20
733.4432117300986
 30
0.0
 10
1331.776247682768
 20
731.0006466816862
 30
0.0
 10
1331.859330063196
 20
730.5070684571385
 30
0.0
 10
1332.001291089509
 20
729.5189618914163
 30
0.0
 10
1332.060156944769
 20
729.0250525799935
 30
0.0
 10
1332.201127885554
 20
727.5437480350186
 30
0.0
 10
1332.247688891166
 20
726.5567752097882
 30
0.0
 10
1332.247688891166
 20
725.5703557187919
 30
0.0
  0
LINE
  5
1CE
330
1F
100
AcDbEntity
  8
0
  6
Continuous
 62
     7
370
    15
100
AcDbLine
 10
1332.2476876369
 20
725.5703560315
 30
0.0
 11
1332.2476876369
 21
722.8152095579
 31
0.0
  0
SPLINE
  5
1CF
330
1F
100
AcDbEntity
  8
0
  6
Continuous
 62
     7
370
    15
100
AcDbSpline
210
0.0
220
0.0
230
1.0
 70
     8
 71
     3
 72
    35
 73
    31
 74
     0
 42
0.00000001
 43
0.00000001
 12
1.0
 22
0.0
 32
0.0
 13
1.0
 23
0.0
 33
0.0
 40
0.0
 40
0.0
 40
0.0
 40
0.0
 40
0.0624999999999991
 40
0.0624999999999991
 40
0.1249999999999981
 40
0.1249999999999981
 40
0.2499999999999981
 40
0.2499999999999981
 40
0.2812499999999987
 40
0.2812499999999987
 40
0.3124999999999994
 40
0.3124999999999994
 40
0.3749999999999987
 40
0.3749999999999987
 40
0.4999999999999973
 40
0.4999999999999973
 40
0.5312499999999982
 40
0.5312499999999982
 40
0.562499999999999
 40
0.562499999999999
 40
0.624999999999999
 40
0.6874999999999989
 40
0.6874999999999989
 40
0.7499999999999989
 40
0.7499999999999989
 40
0.8749999999999997
 40
0.8749999999999997
 40
0.9374999999999998
 40
0.9374999999999998
 40
1.0
 40
1.0
 40
1.0
 40
1.0
 10
1097.247688891166
 20
757.5461122747519
 30
0.0
 10
1096.262507160158
 20
757.5461122747519
 30
0.0
 10
1095.276112450735
 20
757.4969551100451
 30
0.0
 10
1093.300842725964
 20
757.2981238998733
 30
0.0
 10
1092.308943497811
 20
757.1472927655501
 30
0.0
 10
1089.39501587606
 20
756.5526764499521
 30
0.0
 10
1087.513578446099
 20
755.9673697342947
 30
0.0
 10
1085.23733442691
 20
755.0024677248714
 30
0.0
 10
1084.785897838509
 20
754.7977171359375
 30
0.0
 10
1083.890766770948
 20
754.3643122528822
 30
0.0
 10
1083.445897977283
 20
754.1349764097325
 30
0.0
 10
1082.135594165311
 20
753.4173202174235
 30
0.0
 10
1081.292405255902
 20
752.8987984675923
 30
0.0
 10
1078.850915944349
 20
751.2268947132704
 30
0.0
 10
1077.339860401634
 20
749.9582739008852
 30
0.0
 10
1075.599926929706
 20
748.1758394203954
 30
0.0
 10
1075.259486160629
 20
747.8093338939814
 30
0.0
 10
1074.601065739171
 20
747.0645490694341
 30
0.0
 10
1074.282101730472
 20
746.6852943186022
 30
0.0
 10
1073.355384886362
 20
745.5273204006836
 30
0.0
 10
1072.200087956377
 20
743.9295575870011
 30
0.0
 10
1071.203021125988
 20
742.2258210173426
 30
0.0
 10
1070.286129072918
 20
740.4683878229026
 30
0.0
 10
1069.866117811756
 20
739.5580076283169
 30
0.0
 10
1068.7511456801
 20
736.7959484993398
 30
0.0
 10
1068.193381792646
 20
734.9056319892595
 30
0.0
 10
1067.62858402309
 20
731.9984503881541
 30
0.0
 10
1067.485944387782
 20
731.0173547613127
 30
0.0
 10
1067.294786773127
 20
729.0303365285218
 30
0.0
 10
1067.247688891166
 20
728.0378749919441
 30
0.0
 10
1067.247688891166
 20
727.0502756063564
 30
0.0
  0
LINE
  5
1D0
330
1F
100
AcDbEntity
  8
0
  6
Continuous
 62
     7
370
    15
100
AcDbLine
 10
1097.247688233
 20
757.5461096369
 30
0.0
 11
1302.2476892388
 21
757.5461096369
 31
0.0
  0
SPLINE
  5
1D1
330
1F
100
AcDbEntity
  8
0
  6
Continuous
 62
     7
370
    15
100
AcDbSpline
210
0.0
220
0.0
230
1.0
 70
     8
 71
     3
 72
    30
 73
    26
 74
     0
 42
0.00000001
 43
0.00000001
 12
1.0
 22
0.0
 32
0.0
 13
1.0
 23
0.0
 33
0.0
 40
0.0
 40
0.0
 40
0.0
 40
0.0
 40
0.1249999999999997
 40
0.1249999999999997
 40
0.1874999999999994
 40
0.1874999999999994
 40
0.2499999999999991
 40
0.2499999999999991
 40
0.3749999999999992
 40
0.3749999999999992
 40
0.4374999999999993
 40
0.4374999999999993
 40
0.4999999999999993
 40
0.4999999999999993
 40
0.5624999999999994
 40
0.5624999999999994
 40
0.6249999999999993
 40
0.6249999999999993
 40
0.7499999999999993
 40
0.7499999999999993
 40
0.8124999999999996
 40
0.8124999999999996
 40
0.8749999999999998
 40
0.8749999999999998
 40
1.0
 40
1.0
 40
1.0
 40
1.0
 10
1332.247688891166
 20
727.0502756063564
 30
0.0
 10
1332.247688891166
 20
729.0266565071573
 30
0.0
 10
1332.060870716244
 20
730.9894761882779
 30
0.0
 10
1331.495786006617
 20
733.9130277731291
 30
0.0
 10
1331.257999865371
 20
734.888272448903
 30
0.0
 10
1330.694799427315
 20
736.7925983158169
 30
0.0
 10
1330.369069354942
 20
737.7255254481099
 30
0.0
 10
1329.261894358584
 20
740.4676476635466
 30
0.0
 10
1328.351750078335
 20
742.220743869414
 30
0.0
 10
1326.715522515537
 20
744.7322568894471
 30
0.0
 10
1326.132129430163
 20
745.5377996945583
 30
0.0
 10
1324.896445526545
 20
747.0805262031109
 30
0.0
 10
1324.24337884341
 20
747.8188916325965
 30
0.0
 10
1322.867055730373
 20
749.2298701386427
 30
0.0
 10
1322.143802976924
 20
749.9024866592299
 30
0.0
 10
1320.625330457763
 20
751.1803024406563
 30
0.0
 10
1319.825836085252
 20
751.7879978661399
 30
0.0
 10
1317.366629948075
 20
753.4704706890944
 30
0.0
 10
1315.636937995351
 20
754.416777044848
 30
0.0
 10
1312.908126331514
 20
755.5752795915873
 30
0.0
 10
1311.975200405002
 20
755.917891096419
 30
0.0
 10
1310.065621263509
 20
756.510917984098
 30
0.0
 10
1309.104021632308
 20
756.7567429038735
 30
0.0
 10
1306.199465574183
 20
757.347161478313
 30
0.0
 10
1304.236941864771
 20
757.5461122747519
 30
0.0
 10
1302.247688891166
 20
757.5461122747519
 30
0.0
  0
LINE
  5
1D2
330
1F
100
AcDbEntity
  8
0
  6
Continuous
 62
     7
370
    15
100
AcDbLine
 10
1332.2476876369
 20
725.5703560315
 30
0.0
 11
1332.2476876369
 21
727.0502760314
 31
0.0
  0
LINE
  5
1D3
330
1F
100
AcDbEntity
  8
0
  6
Continuous
 62
     7
370
    15
100
AcDbLine
 10
1067.2476870409
 20
725.5703560315
 30
0.0
 11
1067.2476870409
 21
727.0502760314
 31
0.0
  0
SPLINE
  5
1D4
330
1F
100
AcDbEntity
  8
0
  6
Continuous
 62
     7
370
    15
100
AcDbSpline
210
0.0
220
0.0
230
1.0
 70
     8
 71
     3
 72
    40
 73
    36
 74
     0
 42
0.00000001
 43
0.00000001
 12
1.0
 22
0.0
 32
0.0
 13
1.0
 23
0.0
 33
0.0
 40
0.0
 40
0.0
 40
0.0
 40
0.0
 40
0.0625000000000011
 40
0.0625000000000011
 40
0.0937500000000016
 40
0.0937500000000016
 40
0.1250000000000021
 40
0.1250000000000021
 40
0.2500000000000044
 40
0.2500000000000044
 40
0.3125000000000058
 40
0.3125000000000058
 40
0.3437500000000069
 40
0.3437500000000069
 40
0.375000000000008
 40
0.375000000000008
 40
0.5000000000000108
 40
0.5000000000000108
 40
0.5312500000000113
 40
0.5312500000000113
 40
0.5625000000000119
 40
0.5625000000000119
 40
0.625000000000011
 40
0.625000000000011
 40
0.7500000000000073
 40
0.7500000000000073
 40
0.7812500000000064
 40
0.7812500000000064
 40
0.8125000000000056
 40
0.8125000000000056
 40
0.8750000000000038
 40
0.8750000000000038
 40
0.9375000000000019
 40
0.9375000000000019
 40
1.0
 40
1.0
 40
1.0
 40
1.0
 10
1067.247688891166
 20
729.2294965072309
 30
0.0
 10
1067.247688891166
 20
730.2123771874418
 30
0.0
 10
1067.294670289532
 20
731.1954764165461
 30
0.0
 10
1067.436753192172
 20
732.6704583806028
 30
0.0
 10
1067.496070203386
 20
733.1621746526221
 30
0.0
 10
1067.639071926588
 20
734.1457205507588
 30
0.0
 10
1067.722918076101
 20
734.6379947740885
 30
0.0
 10
1068.198716073425
 20
737.0729094189277
 30
0.0
 10
1068.761319160135
 20
738.957911968899
 30
0.0
 10
1069.872583149609
 20
741.6929544400105
 30
0.0
 10
1070.28787761723
 20
742.5891167081598
 30
0.0
 10
1070.980363735473
 20
743.9093094433531
 30
0.0
 10
1071.223135649466
 20
744.345775200861
 30
0.0
 10
1071.726658593824
 20
745.2010204027604
 30
0.0
 10
1071.988003489311
 20
745.6210029552424
 30
0.0
 10
1073.341907499444
 20
747.6833034881961
 30
0.0
 10
1074.57466413135
 20
749.2138539099993
 30
0.0
 10
1076.304525030086
 20
750.9764359855596
 30
0.0
 10
1076.660027333631
 20
751.3213548433718
 30
0.0
 10
1077.390490569805
 20
751.9956798487124
 30
0.0
 10
1077.765762595496
 20
752.3252384121228
 30
0.0
 10
1078.908190157149
 20
753.2794227201481
 30
0.0
 10
1079.695949312909
 20
753.8735241460367
 30
0.0
 10
1082.135821582101
 20
755.5327018689807
 30
0.0
 10
1083.863774879104
 20
756.4758646643409
 30
0.0
 10
1086.15561875803
 20
757.4427845721654
 30
0.0
 10
1086.62015492356
 20
757.6251694886887
 30
0.0
 10
1087.552026892264
 20
757.9644323444204
 30
0.0
 10
1088.020635918527
 20
758.1218642902079
 30
0.0
 10
1089.43436002704
 20
758.558118914686
 30
0.0
 10
1090.387353339357
 20
758.8009861801461
 30
0.0
 10
1092.314180272844
 20
759.1916077338791
 30
0.0
 10
1093.288013282659
 20
759.3393648123106
 30
0.0
 10
1095.256950421456
 20
759.5377998190352
 30
0.0
 10
1096.257074925348
 20
759.5881361942493
 30
0.0
 10
1097.247688891166
 20
759.5881361942493
 30
0.0
  0
LINE
  5
1D5
330
1F
100
AcDbEntity
  8
0
  6
Continuous
 62
     7
370
    15
100
AcDbLine
 10
1097.247688233
 20
759.5881349646
 30
0.0
 11
1097.247688233
 21
757.5461096369
 31
0.0
  0
LINE
  5
1D6
330
1F
100
AcDbEntity
  8
0
  6
Continuous
 62
     7
370
    15
100
AcDbLine
 10
1067.2476870409
 20
727.0502760314
 30
0.0
 11
1067.2476870409
 21
729.2294963502
 31
0.0
  0
LINE
  5
1D7
330
1F
100
AcDbEntity
  8
0
  6
Continuous
 62
     7
370
    15
100
AcDbLine
 10
1302.2476892388
 20
759.5881349646
 30
0.0
 11
1097.247688233
 21
759.5881349646
 31
0.0
  0
LINE
  5
1D8
330
1F
100
AcDbEntity
  8
0
  6
Continuous
 62
     7
370
    15
100
AcDbLine
 10
1302.2476892388
 20
757.5461096369
 30
0.0
 11
1302.2476892388
 21
759.5881349646
 31
0.0
  0
SPLINE
  5
1D9
330
1F
100
AcDbEntity
  8
0
  6
Continuous
 62
     7
370
    15
100
AcDbSpline
210
0.0
220
0.0
230
1.0
 70
     8
 71
     3
 72
    38
 73
    34
 74
     0
 42
0.00000001
 43
0.00000001
 12
1.0
 22
0.0
 32
0.0
 13
1.0
 23
0.0
 33
0.0
 40
0.0
 40
0.0
 40
0.0
 40
0.0
 40
0.0624999999999998
 40
0.0624999999999998
 40
0.1249999999999994
 40
0.1249999999999994
 40
0.2499999999999987
 40
0.2499999999999987
 40
0.3124999999999983
 40
0.3124999999999983
 40
0.3749999999999979
 40
0.3749999999999979
 40
0.4374999999999976
 40
0.4374999999999976
 40
0.4687499999999976
 40
0.4687499999999976
 40
0.4999999999999976
 40
0.4999999999999976
 40
0.6249999999999997
 40
0.6249999999999997
 40
0.6875000000000003
 40
0.6875000000000003
 40
0.7187500000000008
 40
0.7187500000000008
 40
0.7500000000000012
 40
0.7500000000000012
 40
0.875
 40
0.875
 40
0.9062499999999999
 40
0.9062499999999999
 40
0.9374999999999998
 40
0.9374999999999998
 40
1.0
 40
1.0
 40
1.0
 40
1.0
 10
1302.247688891166
 20
759.5881361942493
 30
0.0
 10
1303.232400936139
 20
759.5881361942493
 30
0.0
 10
1304.220315296037
 20
759.5392380808639
 30
0.0
 10
1306.202773629725
 20
759.3402102077807
 30
0.0
 10
1307.182982232053
 20
759.1913863148845
 30
0.0
 10
1310.080089324468
 20
758.6036398419611
 30
0.0
 10
1311.959056141357
 20
758.0242602047015
 30
0.0
 10
1314.697857877543
 20
756.8703211450912
 30
0.0
 10
1315.599456054794
 20
756.4361128481929
 30
0.0
 10
1317.336389245408
 20
755.4904359982922
 30
0.0
 10
1318.176703832899
 20
754.9771782226776
 30
0.0
 10
1319.802188261742
 20
753.871488395629
 30
0.0
 10
1320.587356372756
 20
753.2790538598563
 30
0.0
 10
1321.723410422249
 20
752.3305338284943
 30
0.0
 10
1322.095133094376
 20
752.0043647512837
 30
0.0
 10
1322.824444309648
 20
751.331733468237
 30
0.0
 10
1323.182960212957
 20
750.9842835955549
 30
0.0
 10
1324.923590501025
 20
749.2116915855818
 30
0.0
 10
1326.156998065319
 20
747.6780148147718
 30
0.0
 10
1327.776983450958
 20
745.2102850364006
 30
0.0
 10
1328.278344111773
 20
744.3596357833096
 30
0.0
 10
1328.970966126559
 20
743.040486758813
 30
0.0
 10
1329.192172966444
 20
742.5928645816447
 30
0.0
 10
1329.609994930607
 20
741.6926704008897
 30
0.0
 10
1329.807217467839
 20
741.2390243033483
 30
0.0
 10
1330.735950172783
 20
738.9533713127283
 30
0.0
 10
1331.296933095829
 20
737.0695865808684
 30
0.0
 10
1331.771011655523
 20
734.6458852151621
 30
0.0
 10
1331.854369160942
 20
734.1576658430005
 30
0.0
 10
1331.997762169983
 20
733.1741457501713
 30
0.0
 10
1332.05772133323
 20
732.6787494302287
 30
0.0
 10
1332.200667132861
 20
731.1980460357206
 30
0.0
 10
1332.247688891166
 20
730.2128343147259
 30
0.0
 10
1332.247688891166
 20
729.2294965072309
 30
0.0
  0
LINE
  5
1DA
330
1F
100
AcDbEntity
  8
0
  6
Continuous
 62
     7
370
    15
100
AcDbLine
 10
1332.2476876369
 20
729.2294963502
 30
0.0
 11
1332.2476876369
 21
727.0502760314
 31
0.0
  0
SPLINE
  5
1DB
330
1F
100
AcDbEntity
  8
0
  6
Continuous
 62
     7
370
    15
100
AcDbSpline
210
0.0
220
0.0
230
1.0
 70
     8
 71
     3
 72
    38
 73
    34
 74
     0
 42
0.00000001
 43
0.00000001
 12
1.0
 22
0.0
 32
0.0
 13
1.0
 23
0.0
 33
0.0
 40
0.0
 40
0.0
 40
0.0
 40
0.0
 40
0.0624999999999991
 40
0.0624999999999991
 40
0.0937499999999989
 40
0.0937499999999989
 40
0.1249999999999988
 40
0.1249999999999988
 40
0.2499999999999988
 40
0.2499999999999988
 40
0.2812499999999988
 40
0.2812499999999988
 40
0.3124999999999988
 40
0.3124999999999988
 40
0.3749999999999995
 40
0.3749999999999995
 40
0.5000000000000017
 40
0.5000000000000017
 40
0.5312500000000023
 40
0.5312500000000023
 40
0.562500000000003
 40
0.562500000000003
 40
0.6250000000000024
 40
0.6250000000000024
 40
0.6875000000000019
 40
0.6875000000000019
 40
0.7500000000000012
 40
0.7500000000000012
 40
0.8750000000000014
 40
0.8750000000000014
 40
0.9375000000000008
 40
0.9375000000000008
 40
1.0
 40
1.0
 40
1.0
 40
1.0
 10
1067.247688891166
 20
731.9844060414836
 30
0.0
 10
1067.247688891166
 20
732.9657997006722
 30
0.0
 10
1067.295092221397
 20
733.9498078804642
 30
0.0
 10
1067.43952987893
 20
735.4298647975484
 30
0.0
 10
1067.500002739027
 20
735.9238156839142
 30
0.0
 10
1067.644114084696
 20
736.9021773588638
 30
0.0
 10
1067.727866092225
 20
737.3879673998869
 30
0.0
 10
1068.20418294424
 20
739.8002317416926
 30
0.0
 10
1068.767786690879
 20
741.6771214403186
 30
0.0
 10
1069.702352481507
 20
743.9565382777033
 30
0.0
 10
1069.900871201603
 20
744.4090571639668
 30
0.0
 10
1070.321592776854
 20
745.3072288469687
 30
0.0
 10
1070.543623075739
 20
745.752322323166
 30
0.0
 10
1071.237858701487
 20
747.0626078215872
 30
0.0
 10
1071.740365797252
 20
747.9077542014314
 30
0.0
 10
1073.364204876653
 20
750.3600152922247
 30
0.0
 10
1074.600718113212
 20
751.8847646857437
 30
0.0
 10
1076.346678370969
 20
753.6474549019536
 30
0.0
 10
1076.705080839307
 20
753.9917634893329
 30
0.0
 10
1077.434311502487
 20
754.6585706590294
 30
0.0
 10
1077.805966971347
 20
754.981915605728
 30
0.0
 10
1078.941744360027
 20
755.9222166309171
 30
0.0
 10
1079.726628245184
 20
756.5095089274951
 30
0.0
 10
1081.351367207939
 20
757.6055531013045
 30
0.0
 10
1082.191220489127
 20
758.1143075451687
 30
0.0
 10
1083.927068108273
 20
759.0516045629016
 30
0.0
 10
1084.827770998346
 20
759.4817557810088
 30
0.0
 10
1087.561247089924
 20
760.6239658215961
 30
0.0
 10
1089.435930015307
 20
761.1972717791476
 30
0.0
 10
1092.325450656937
 20
761.7787599641276
 30
0.0
 10
1093.302483695287
 20
761.9259334115641
 30
0.0
 10
1095.280071306528
 20
762.1229174605752
 30
0.0
 10
1096.265503479023
 20
762.1713074363253
 30
0.0
 10
1097.247688891166
 20
762.1713074363253
 30
0.0
  0
LINE
  5
1DC
330
1F
100
AcDbEntity
  8
0
  6
Continuous
 62
     7
370
    15
100
AcDbLine
 10
1097.247688233
 20
762.1713108622
 30
0.0
 11
1097.247688233
 21
760.655378481
 31
0.0
  0
SPLINE
  5
1DD
330
1F
100
AcDbEntity
  8
0
  6
Continuous
 62
     7
370
    15
100
AcDbSpline
210
0.0
220
0.0
230
1.0
 70
     8
 71
     3
 72
    37
 73
    33
 74
     0
 42
0.00000001
 43
0.00000001
 12
1.0
 22
0.0
 32
0.0
 13
1.0
 23
0.0
 33
0.0
 40
0.0
 40
0.0
 40
0.0
 40
0.0
 40
0.1250000000000012
 40
0.1250000000000012
 40
0.1875000000000017
 40
0.1875000000000017
 40
0.2500000000000022
 40
0.2500000000000022
 40
0.3125000000000028
 40
0.3125000000000028
 40
0.3750000000000032
 40
0.3750000000000032
 40
0.5000000000000042
 40
0.5000000000000042
 40
0.5312500000000041
 40
0.5312500000000041
 40
0.5625000000000038
 40
0.5625000000000038
 40
0.6250000000000034
 40
0.6250000000000034
 40
0.7500000000000033
 40
0.7500000000000033
 40
0.7812500000000028
 40
0.7812500000000028
 40
0.8125000000000022
 40
0.8125000000000022
 40
0.8750000000000014
 40
0.9375000000000008
 40
0.9375000000000008
 40
0.9687500000000003
 40
0.9687500000000003
 40
1.0
 40
1.0
 40
1.0
 40
1.0
 10
1097.247688891166
 20
760.65537515877
 30
0.0
 10
1095.282904148672
 20
760.65537515877
 30
0.0
 10
1093.325040523608
 20
760.4625452475999
 30
0.0
 10
1090.399018933181
 20
759.8731291998631
 30
0.0
 10
1089.43826905335
 20
759.6286383950718
 30
0.0
 10
1087.556083270281
 20
759.049490738918
 30
0.0
 10
1086.632791509319
 20
758.7144549357014
 30
0.0
 10
1084.821487143223
 20
757.9542845516254
 30
0.0
 10
1083.933473630016
 20
757.5291522898806
 30
0.0
 10
1082.193433360111
 20
756.5869818605759
 30
0.0
 10
1081.338943295044
 20
756.0676807920166
 30
0.0
 10
1078.884795470251
 20
754.4042270182767
 30
0.0
 10
1077.37553949672
 20
753.1473218441174
 30
0.0
 10
1075.645316265354
 20
751.3938438013489
 30
0.0
 10
1075.307159633801
 20
751.0339484326383
 30
0.0
 10
1074.646854324616
 20
750.2954876823063
 30
0.0
 10
1074.323857992842
 20
749.9158465682747
 30
0.0
 10
1073.386576262758
 20
748.7573171147778
 30
0.0
 10
1072.804448191065
 20
747.9600706589076
 30
0.0
 10
1071.182042582028
 20
745.4960982289202
 30
0.0
 10
1070.264584734027
 20
743.7578144065203
 30
0.0
 10
1069.327077148863
 20
741.4630075913244
 30
0.0
 10
1069.149767159336
 20
740.9967298711749
 30
0.0
 10
1068.819863856377
 20
740.0608573813948
 30
0.0
 10
1068.666922102647
 20
739.5905727647711
 30
0.0
 10
1068.243455238471
 20
738.1728050625235
 30
0.0
 10
1067.772955780518
 20
736.2640436516382
 30
0.0
 10
1067.487749079095
 20
734.3190507689319
 30
0.0
 10
1067.344212591345
 20
732.8465464988042
 30
0.0
 10
1067.308115736644
 20
732.3534144555141
 30
0.0
 10
1067.259825999934
 20
731.3624762730368
 30
0.0
 10
1067.247688891166
 20
730.8637717879449
 30
0.0
 10
1067.247688891166
 20
730.3679334654778
 30
0.0
  0
LINE
  5
1DE
330
1F
100
AcDbEntity
  8
0
  6
Continuous
 62
     7
370
    15
100
AcDbLine
 10
1067.2476870409
 20
730.3679338895
 30
0.0
 11
1067.2476870409
 21
731.9844044052
 31
0.0
  0
LINE
  5
1DF
330
1F
100
AcDbEntity
  8
0
  6
Continuous
 62
     7
370
    15
100
AcDbLine
 10
1097.247688233
 20
760.655378481
 30
0.0
 11
1302.2476892388
 21
760.655378481
 31
0.0
  0
SPLINE
  5
1E0
330
1F
100
AcDbEntity
  8
0
  6
Continuous
 62
     7
370
    15
100
AcDbSpline
210
0.0
220
0.0
230
1.0
 70
     8
 71
     3
 72
    37
 73
    33
 74
     0
 42
0.00000001
 43
0.00000001
 12
1.0
 22
0.0
 32
0.0
 13
1.0
 23
0.0
 33
0.0
 40
0.0
 40
0.0
 40
0.0
 40
0.0
 40
0.1250000000000019
 40
0.1250000000000019
 40
0.1562500000000022
 40
0.1562500000000022
 40
0.1875000000000025
 40
0.1875000000000025
 40
0.2500000000000023
 40
0.3125000000000022
 40
0.3125000000000022
 40
0.3437500000000019
 40
0.3437500000000019
 40
0.3750000000000017
 40
0.3750000000000017
 40
0.5000000000000012
 40
0.5000000000000012
 40
0.5625000000000008
 40
0.5625000000000008
 40
0.5937500000000009
 40
0.5937500000000009
 40
0.6250000000000009
 40
0.6250000000000009
 40
0.7500000000000011
 40
0.7500000000000011
 40
0.7812500000000011
 40
0.7812500000000011
 40
0.812500000000001
 40
0.812500000000001
 40
0.8750000000000007
 40
0.8750000000000007
 40
1.0
 40
1.0
 40
1.0
 40
1.0
 10
1332.247688891166
 20
730.3679334654778
 30
0.0
 10
1332.247688891166
 20
732.33580201474
 30
0.0
 10
1332.059767604437
 20
734.2921380706802
 30
0.0
 10
1331.584660958611
 20
736.7228170591769
 30
0.0
 10
1331.477202028059
 20
737.2094564494317
 30
0.0
 10
1331.239101625089
 20
738.1747778167143
 30
0.0
 10
1331.108733644239
 20
738.65266289553
 30
0.0
 10
1330.684304711288
 20
740.0722564525763
 30
0.0
 10
1330.029689556051
 20
741.9276161833
 30
0.0
 10
1329.200384979777
 20
743.7092646659834
 30
0.0
 10
1328.512040111405
 20
745.0174973125523
 30
0.0
 10
1328.271511320645
 20
745.4488993774837
 30
0.0
 10
1327.767904362526
 20
746.3021886627623
 30
0.0
 10
1327.504070539585
 20
746.725197249149
 30
0.0
 10
1326.137176502626
 20
748.8008383054909
 30
0.0
 10
1324.898628667778
 20
750.3291595673988
 30
0.0
 10
1322.829538413578
 20
752.4290784314929
 30
0.0
 10
1322.104376117205
 20
753.0967259202812
 30
0.0
 10
1320.961882972224
 20
754.0482949293217
 30
0.0
 10
1320.570759917314
 20
754.3579888842148
 30
0.0
 10
1319.776568414806
 20
754.9552699795552
 30
0.0
 10
1319.373587353889
 20
755.2429078919748
 30
0.0
 10
1317.329780816634
 20
756.6270663597887
 30
0.0
 10
1315.603079636863
 20
757.5630415750476
 30
0.0
 10
1313.330013491059
 20
758.5185973023611
 30
0.0
 10
1312.86961398647
 20
758.698890957898
 30
0.0
 10
1311.93702556927
 20
759.0374378728513
 30
0.0
 10
1311.463626198371
 20
759.1960180349975
 30
0.0
 10
1310.04004858213
 20
759.6335542471536
 30
0.0
 10
1309.083456673555
 20
759.8757792569394
 30
0.0
 10
1306.191683321551
 20
760.4581430902525
 30
0.0
 10
1304.234718333423
 20
760.6553751587699
 30
0.0
 10
1302.247688891166
 20
760.6553751587699
 30
0.0
  0
LINE
  5
1E1
330
1F
100
AcDbEntity
  8
0
  6
Continuous
 62
     7
370
    15
100
AcDbLine
 10
1302.2476892388
 20
762.1713108622
 30
0.0
 11
1097.247688233
 21
762.1713108622
 31
0.0
  0
LINE
  5
1E2
330
1F
100
AcDbEntity
  8
0
  6
Continuous
 62
     7
370
    15
100
AcDbLine
 10
1302.2476892388
 20
760.655378481
 30
0.0
 11
1302.2476892388
 21
762.1713108622
 31
0.0
  0
SPLINE
  5
1E3
330
1F
100
AcDbEntity
  8
0
  6
Continuous
 62
     7
370
    15
100
AcDbSpline
210
0.0
220
0.0
230
1.0
 70
     8
 71
     3
 72
    34
 73
    30
 74
     0
 42
0.00000001
 43
0.00000001
 12
1.0
 22
0.0
 32
0.0
 13
1.0
 23
0.0
 33
0.0
 40
0.0
 40
0.0
 40
0.0
 40
0.0
 40
0.0625000000000006
 40
0.0625000000000006
 40
0.0937500000000007
 40
0.0937500000000007
 40
0.1250000000000009
 40
0.1250000000000009
 40
0.2500000000000013
 40
0.2500000000000013
 40
0.3125000000000013
 40
0.3125000000000013
 40
0.3750000000000014
 40
0.3750000000000014
 40
0.5000000000000016
 40
0.5000000000000016
 40
0.6250000000000017
 40
0.6250000000000017
 40
0.6875000000000012
 40
0.6875000000000012
 40
0.7500000000000008
 40
0.7500000000000008
 40
0.8750000000000007
 40
0.8750000000000007
 40
0.9062500000000003
 40
0.9062500000000003
 40
0.9375000000000001
 40
0.9375000000000001
 40
1.0
 40
1.0
 40
1.0
 40
1.0
 10
1302.247688891166
 20
762.1713074363253
 30
0.0
 10
1303.228830219112
 20
762.1713074363253
 30
0.0
 10
1304.212476726803
 20
762.1230178011491
 30
0.0
 10
1305.691819129922
 20
761.9759346332688
 30
0.0
 10
1306.185818584735
 20
761.9143201533592
 30
0.0
 10
1307.164029500874
 20
761.7675087947572
 30
0.0
 10
1307.649637089533
 20
761.6822007240575
 30
0.0
 10
1310.06048081578
 20
761.1971526685537
 30
0.0
 10
1311.934627223978
 20
760.6235668695391
 30
0.0
 10
1314.663653192944
 20
759.4835033690226
 30
0.0
 10
1315.564089909193
 20
759.05376488467
 30
0.0
 10
1317.302839119724
 20
758.1151371405732
 30
0.0
 10
1318.143546010253
 20
757.6058618456146
 30
0.0
 10
1320.581755008034
 20
755.9610671016923
 30
0.0
 10
1322.096164550192
 20
754.709720592045
 30
0.0
 10
1324.894306726617
 20
751.88547499848
 30
0.0
 10
1326.131555990688
 20
750.3595017618272
 30
0.0
 10
1327.755278077995
 20
747.9073198489837
 30
0.0
 10
1328.25754144257
 20
747.0625152655244
 30
0.0
 10
1329.182468623659
 20
745.3169281159896
 30
0.0
 10
1329.605668863769
 20
744.4134575782199
 30
0.0
 10
1330.727877955435
 20
741.6765121983411
 30
0.0
 10
1331.291405135167
 20
739.799292126299
 30
0.0
 10
1331.767549954238
 20
737.387742245783
 30
0.0
 10
1331.851263547308
 20
736.9021519273595
 30
0.0
 10
1331.995306153799
 20
735.9243098092662
 30
0.0
 10
1332.055749185879
 20
735.430758874692
 30
0.0
 10
1332.200279374962
 20
733.9501059886045
 30
0.0
 10
1332.247688891166
 20
732.9658686336286
 30
0.0
 10
1332.247688891166
 20
731.9844060414836
 30
0.0
  0
LINE
  5
1E4
330
1F
100
AcDbEntity
  8
0
  6
Continuous
 62
     7
370
    15
100
AcDbLine
 10
1332.2476876369
 20
731.9844044052
 30
0.0
 11
1332.2476876369
 21
730.3679338895
 31
0.0
  0
SPLINE
  5
1E5
330
1F
100
AcDbEntity
  8
0
  6
Continuous
 62
     7
370
    15
100
AcDbSpline
210
0.0
220
0.0
230
1.0
 70
     8
 71
     3
 72
    41
 73
    37
 74
     0
 42
0.00000001
 43
0.00000001
 12
1.0
 22
0.0
 32
0.0
 13
1.0
 23
0.0
 33
0.0
 40
0.0
 40
0.0
 40
0.0
 40
0.0
 40
0.0312500000000008
 40
0.0312500000000008
 40
0.0625000000000011
 40
0.0625000000000011
 40
0.125000000000001
 40
0.125000000000001
 40
0.2500000000000018
 40
0.2500000000000018
 40
0.2812500000000017
 40
0.2812500000000017
 40
0.3125000000000016
 40
0.3125000000000016
 40
0.3750000000000023
 40
0.437500000000003
 40
0.437500000000003
 40
0.4687500000000038
 40
0.4687500000000038
 40
0.5000000000000047
 40
0.5000000000000047
 40
0.6250000000000046
 40
0.6250000000000046
 40
0.6875000000000046
 40
0.6875000000000046
 40
0.7187500000000043
 40
0.7187500000000043
 40
0.750000000000004
 40
0.750000000000004
 40
0.8750000000000021
 40
0.8750000000000021
 40
0.9062500000000016
 40
0.9062500000000016
 40
0.9375000000000009
 40
0.9375000000000009
 40
1.0
 40
1.0
 40
1.0
 40
1.0
 10
1067.247688891166
 20
733.8513808131303
 30
0.0
 10
1067.247688891166
 20
734.3422085461682
 30
0.0
 10
1067.259665804549
 20
734.8340703992569
 30
0.0
 10
1067.307969117571
 20
735.819896507878
 30
0.0
 10
1067.344452171089
 20
736.3152403563189
 30
0.0
 10
1067.489985330883
 20
737.7923749330669
 30
0.0
 10
1067.634633670142
 20
738.7649121625536
 30
0.0
 10
1068.207182294919
 20
741.64696321852
 30
0.0
 10
1068.772371742264
 20
743.5212536512173
 30
0.0
 10
1069.714258543931
 20
745.8037216359795
 30
0.0
 10
1069.915100431191
 20
746.2583303877657
 30
0.0
 10
1070.336897924137
 20
747.1526545660644
 30
0.0
 10
1070.558030569007
 20
747.5929800216221
 30
0.0
 10
1071.251581963767
 20
748.8938127293925
 30
0.0
 10
1072.256584349438
 20
750.5746348004017
 30
0.0
 10
1073.419871116247
 20
752.1497168811253
 30
0.0
 10
1074.352565994728
 20
753.2907926409027
 30
0.0
 10
1074.673520371995
 20
753.6644333803939
 30
0.0
 10
1075.335912206908
 20
754.3980313821778
 30
0.0
 10
1075.678060330859
 20
754.7586218751153
 30
0.0
 10
1077.422095448727
 20
756.5079634878823
 30
0.0
 10
1078.934459776064
 20
757.751330803712
 30
0.0
 10
1081.374308825665
 20
759.3880890269595
 30
0.0
 10
1082.216347151414
 20
759.8953532649367
 30
0.0
 10
1083.523887958114
 20
760.5969672672303
 30
0.0
 10
1083.967405361325
 20
760.8209609223661
 30
0.0
 10
1084.859416626821
 20
761.2441145468069
 30
0.0
 10
1085.309124856878
 20
761.4439563680509
 30
0.0
 10
1087.57587613599
 20
762.3854503949133
 30
0.0
 10
1089.447029074656
 20
762.9556070223249
 30
0.0
 10
1091.858642036712
 20
763.4379772502774
 30
0.0
 10
1092.344630890654
 20
763.5228314672994
 30
0.0
 10
1093.324088839065
 20
763.6688320693092
 30
0.0
 10
1093.816564757989
 20
763.7297561297262
 30
0.0
 10
1095.289059754015
 20
763.8750981325516
 30
0.0
 10
1096.269144750994
 20
763.9229633747918
 30
0.0
 10
1097.247688891166
 20
763.9229633747918
 30
0.0
  0
LINE
  5
1E6
330
1F
100
AcDbEntity
  8
0
  6
Continuous
 62
     7
370
    15
100
AcDbLine
 10
1097.247688233
 20
763.9229647123
 30
0.0
 11
1097.247688233
 21
762.9252947174
 31
0.0
  0
SPLINE
  5
1E7
330
1F
100
AcDbEntity
  8
0
  6
Continuous
 62
     7
370
    15
100
AcDbSpline
210
0.0
220
0.0
230
1.0
 70
     8
 71
     3
 72
    17
 73
    13
 74
     0
 42
0.00000001
 43
0.00000001
 12
1.0
 22
0.0
 32
0.0
 13
1.0
 23
0.0
 33
0.0
 40
0.0
 40
0.0
 40
0.0
 40
0.0
 40
0.0825447057246162
 40
0.1663662928617911
 40
0.2780806497468309
 40
0.393023869149276
 40
0.5049463758229039
 40
0.6200910933917261
 40
0.7324391873846255
 40
0.8480177951051526
 40
0.9538210257378917
 40
1.0
 40
1.0
 40
1.0
 40
1.0
 10
1097.247688232987
 20
762.9252947174268
 30
0.0
 10
1096.024796910139
 20
762.8817580685652
 30
0.0
 10
1093.560097397687
 20
762.7940113038134
 30
0.0
 10
1089.503448747975
 20
762.0065529292868
 30
0.0
 10
1085.134661561836
 20
760.5175712441164
 30
0.0
 10
1080.711823677144
 20
758.1042483165847
 30
0.0
 10
1076.715171792101
 20
754.9577128243441
 30
0.0
 10
1073.329444997963
 20
751.2131874161767
 30
0.0
 10
1070.575937854681
 20
746.9120884736276
 30
0.0
 10
1068.681980255361
 20
742.3347865441185
 30
0.0
 10
1067.640406868809
 20
738.4782246829208
 30
0.0
 10
1067.507960655528
 20
736.2293108887623
 30
0.0
 10
1067.467717587082
 20
735.5459905468184
 30
0.0
  0
LINE
  5
1E8
330
1F
100
AcDbEntity
  8
0
  6
Continuous
 62
     7
370
    15
100
AcDbLine
 10
1067.4048346868
 20
734.757864406
 30
0.0
 11
1067.2476870409
 21
732.7881432377
 31
0.0
  0
LINE
  5
1E9
330
1F
100
AcDbEntity
  8
0
  6
Continuous
 62
     7
370
    15
100
AcDbLine
 10
1067.2476870409
 20
732.7881432377
 30
0.0
 11
1067.2476870409
 21
733.8513820671
 31
0.0
  0
LINE
  5
1EA
330
1F
100
AcDbEntity
  8
0
  6
Continuous
 62
     7
370
    15
100
AcDbLine
 10
1097.247688233
 20
762.9252947174
 30
0.0
 11
1302.2476892388
 21
762.9252947174
 31
0.0
  0
SPLINE
  5
1EB
330
1F
100
AcDbEntity
  8
0
  6
Continuous
 62
     7
370
    15
100
AcDbSpline
210
0.0
220
0.0
230
1.0
 70
     8
 71
     3
 72
    37
 73
    33
 74
     0
 42
0.00000001
 43
0.00000001
 12
1.0
 22
0.0
 32
0.0
 13
1.0
 23
0.0
 33
0.0
 40
0.0
 40
0.0
 40
0.0
 40
0.0
 40
0.125000000000002
 40
0.125000000000002
 40
0.1562500000000021
 40
0.1562500000000021
 40
0.1875000000000021
 40
0.1875000000000021
 40
0.2500000000000024
 40
0.3125000000000026
 40
0.3125000000000026
 40
0.3437500000000023
 40
0.3437500000000023
 40
0.3750000000000021
 40
0.3750000000000021
 40
0.5000000000000012
 40
0.5000000000000012
 40
0.5625000000000009
 40
0.5625000000000009
 40
0.593750000000001
 40
0.593750000000001
 40
0.625000000000001
 40
0.625000000000001
 40
0.7500000000000011
 40
0.7500000000000011
 40
0.7812500000000012
 40
0.7812500000000012
 40
0.8125000000000013
 40
0.8125000000000013
 40
0.8750000000000009
 40
0.8750000000000009
 40
1.0
 40
1.0
 40
1.0
 40
1.0
 10
1332.247688891166
 20
732.7881424757074
 30
0.0
 10
1332.247688891166
 20
734.7501780010228
 30
0.0
 10
1332.058903419999
 20
736.7018503198361
 30
0.0
 10
1331.580781530692
 20
739.1281486608196
 30
0.0
 10
1331.472590028536
 20
739.6140054088825
 30
0.0
 10
1331.233589335811
 20
740.5751532557524
 30
0.0
 10
1331.102737020357
 20
741.0510278919764
 30
0.0
 10
1330.676729215822
 20
742.4648044065322
 30
0.0
 10
1330.019673623803
 20
744.3129784094699
 30
0.0
 10
1329.187000107794
 20
746.0884532130383
 30
0.0
 10
1328.49566394646
 20
747.392393791312
 30
0.0
 10
1328.254060373607
 20
747.8224215825264
 30
0.0
 10
1327.748124864166
 20
748.6730684792756
 30
0.0
 10
1327.483148087766
 20
749.0945701170893
 30
0.0
 10
1326.114780801678
 20
751.1565046573012
 30
0.0
 10
1324.874739887746
 20
752.6757153000905
 30
0.0
 10
1322.802091166902
 20
754.7638979594489
 30
0.0
 10
1322.07552305551
 20
755.4279588776134
 30
0.0
 10
1320.930465529863
 20
756.3745459925015
 30
0.0
 10
1320.539032695722
 20
756.6821144591844
 30
0.0
 10
1319.746307650074
 20
757.2738547521973
 30
0.0
 10
1319.344017181999
 20
757.5588978208533
 30
0.0
 10
1317.303412971793
 20
758.930868818784
 30
0.0
 10
1315.57847774468
 20
759.8595871962306
 30
0.0
 10
1313.306009193232
 20
760.8080702624904
 30
0.0
 10
1312.845648156809
 20
760.9870505154989
 30
0.0
 10
1311.912955730118
 20
761.3231478045822
 30
0.0
 10
1311.440959490232
 20
761.4800520903509
 30
0.0
 10
1310.022879752282
 20
761.9127293192081
 30
0.0
 10
1309.06952108383
 20
762.1525037784926
 30
0.0
 10
1306.186107914031
 20
762.729333600577
 30
0.0
 10
1304.232945302414
 20
762.9252939812474
 30
0.0
 10
1302.247688891166
 20
762.9252939812474
 30
0.0
  0
LINE
  5
1EC
330
1F
100
AcDbEntity
  8
0
  6
Continuous
 62
     7
370
    15
100
AcDbLine
 10
1302.2476892388
 20
763.9229647123
 30
0.0
 11
1097.247688233
 21
763.9229647123
 31
0.0
  0
LINE
  5
1ED
330
1F
100
AcDbEntity
  8
0
  6
Continuous
 62
     7
370
    15
100
AcDbLine
 10
1302.2476892388
 20
762.9252947174
 30
0.0
 11
1302.2476892388
 21
763.9229647123
 31
0.0
  0
SPLINE
  5
1EE
330
1F
100
AcDbEntity
  8
0
  6
Continuous
 62
     7
370
    15
100
AcDbSpline
210
0.0
220
0.0
230
1.0
 70
     8
 71
     3
 72
    38
 73
    34
 74
     0
 42
0.00000001
 43
0.00000001
 12
1.0
 22
0.0
 32
0.0
 13
1.0
 23
0.0
 33
0.0
 40
0.0
 40
0.0
 40
0.0
 40
0.0
 40
0.0624999999999996
 40
0.0624999999999996
 40
0.0937499999999993
 40
0.0937499999999993
 40
0.124999999999999
 40
0.124999999999999
 40
0.2499999999999987
 40
0.2499999999999987
 40
0.2812499999999987
 40
0.2812499999999987
 40
0.3124999999999987
 40
0.3124999999999987
 40
0.3749999999999988
 40
0.3749999999999988
 40
0.4999999999999989
 40
0.4999999999999989
 40
0.5312499999999988
 40
0.5312499999999988
 40
0.5624999999999987
 40
0.5624999999999987
 40
0.6249999999999989
 40
0.6249999999999989
 40
0.687499999999999
 40
0.687499999999999
 40
0.7499999999999992
 40
0.7499999999999992
 40
0.8749999999999997
 40
0.8749999999999997
 40
0.9374999999999998
 40
0.9374999999999998
 40
1.0
 40
1.0
 40
1.0
 40
1.0
 10
1302.247688891166
 20
763.9229633747918
 30
0.0
 10
1303.226597793962
 20
763.9229633747918
 30
0.0
 10
1304.207615639567
 20
763.8750638987524
 30
0.0
 10
1305.682394317582
 20
763.7293555143129
 30
0.0
 10
1306.175682393163
 20
763.6682354704114
 30
0.0
 10
1307.153287581047
 20
763.5223940299979
 30
0.0
 10
1307.638514615947
 20
763.4376414128511
 30
0.0
 10
1310.047092173409
 20
762.9557783452904
 30
0.0
 10
1311.918270802923
 20
762.3860256717911
 30
0.0
 10
1314.187601487924
 20
761.4433802132621
 30
0.0
 10
1314.637954174606
 20
761.2432247488433
 30
0.0
 10
1315.531502477881
 20
760.8192303303217
 30
0.0
 10
1315.9750037433
 20
760.5951381124047
 30
0.0
 10
1317.280001054827
 20
759.8947192630649
 30
0.0
 10
1318.121035396719
 20
759.3880888518167
 30
0.0
 10
1320.559547122828
 20
757.7522958099195
 30
0.0
 10
1322.073250006404
 20
756.5083504988863
 30
0.0
 10
1323.820679292625
 20
754.7551607329668
 30
0.0
 10
1324.162167047981
 20
754.3951125536146
 30
0.0
 10
1324.823164619198
 20
753.6629121557376
 30
0.0
 10
1325.143584445886
 20
753.2898626598376
 30
0.0
 10
1326.075088293278
 20
752.1501980921237
 30
0.0
 10
1326.656486608307
 20
751.3631151539503
 30
0.0
 10
1327.740885358649
 20
749.7348950690762
 30
0.0
 10
1328.24388733029
 20
748.8937589816511
 30
0.0
 10
1329.170036196377
 20
747.156427881607
 30
0.0
 10
1329.594768039334
 20
746.2555613411882
 30
0.0
 10
1330.722373843491
 20
743.522272299612
 30
0.0
 10
1331.287757805558
 20
741.6491005997543
 30
0.0
 10
1331.860905369226
 20
738.7641333283276
 30
0.0
 10
1332.00583298694
 20
737.7896241674163
 30
0.0
 10
1332.200003381974
 20
735.8153805581013
 30
0.0
 10
1332.247688891166
 20
734.8317133330951
 30
0.0
 10
1332.247688891166
 20
733.8513808131303
 30
0.0
  0
LINE
  5
1EF
330
1F
100
AcDbEntity
  8
0
  6
Continuous
 62
     7
370
    15
100
AcDbLine
 10
1097.247688233
 20
764.1775063478
 30
0.0
 11
1302.2476892388
 21
764.1775063478
 31
0.0
  0
ENDSEC
  0
SECTION
  2
OBJECTS
  0
DICTIONARY
  5
C
330
0
100
AcDbDictionary
281
     1
  3
ACAD_GROUP
350
D
  3
ACAD_LAYOUT
350
1A
  3
ACAD_MLINESTYLE
350
17
  3
ACAD_PLOTSETTINGS
350
19
  3
ACAD_PLOTSTYLENAME
350
E
  0
DICTIONARY
  5
D
102
{ACAD_REACTORS
330
C
102
}
330
C
100
AcDbDictionary
281
     1
  0
DICTIONARY
  5
1A
102
{ACAD_REACTORS
330
C
102
}
330
C
100
AcDbDictionary
281
     1
  3
Layout1
350
1E
  3
Layout2
350
26
  3
Model
350
22
  0
DICTIONARY
  5
17
102
{ACAD_REACTORS
330
C
102
}
330
C
100
AcDbDictionary
281
     1
  3
Standard
350
18
  0
DICTIONARY
  5
19
102
{ACAD_REACTORS
330
C
102
}
330
C
100
AcDbDictionary
281
     1
  0
ACDBDICTIONARYWDFLT
  5
E
102
{ACAD_REACTORS
330
C
102
}
330
C
100
AcDbDictionary
281
     1
  3
Normal
350
F
100
AcDbDictionaryWithDefault
340
F
  0
LAYOUT
  5
1E
102
{ACAD_REACTORS
330
1A
102
}
330
1A
100
AcDbPlotSettings
  1

  2
none_device
  4

  6

 40
0.0
 41
0.0
 42
0.0
 43
0.0
 44
0.0
 45
0.0
 46
0.0
 47
0.0
 48
0.0
 49
0.0
140
0.0
141
0.0
142
1.0
143
1.0
 70
   688
 72
     0
 73
     0
 74
     5
  7

 75
    16
147
1.0
148
0.0
149
0.0
100
AcDbLayout
  1
Layout1
 70
     1
 71
     1
 10
0.0
 20
0.0
 11
420.0
 21
297.0
 12
0.0
 22
0.0
 32
0.0
 14
1.0000000000E+20
 24
1.0000000000E+20
 34
1.0000000000E+20
 15
-1.0000000000E+20
 25
-1.0000000000E+20
 35
-1.0000000000E+20
146
0.0
 13
0.0
 23
0.0
 33
0.0
 16
1.0
 26
0.0
 36
0.0
 17
0.0
 27
1.0
 37
0.0
 76
     0
330
1B
  0
LAYOUT
  5
26
102
{ACAD_REACTORS
330
1A
102
}
330
1A
100
AcDbPlotSettings
  1

  2
none_device
  4

  6

 40
0.0
 41
0.0
 42
0.0
 43
0.0
 44
0.0
 45
0.0
 46
0.0
 47
0.0
 48
0.0
 49
0.0
140
0.0
141
0.0
142
1.0
143
1.0
 70
   688
 72
     0
 73
     0
 74
     5
  7

 75
    16
147
1.0
148
0.0
149
0.0
100
AcDbLayout
  1
Layout2
 70
     1
 71
     2
 10
0.0
 20
0.0
 11
0.0
 21
0.0
 12
0.0
 22
0.0
 32
0.0
 14
0.0
 24
0.0
 34
0.0
 15
0.0
 25
0.0
 35
0.0
146
0.0
 13
0.0
 23
0.0
 33
0.0
 16
1.0
 26
0.0
 36
0.0
 17
0.0
 27
1.0
 37
0.0
 76
     0
330
23
  0
LAYOUT
  5
22
102
{ACAD_REACTORS
330
1A
102
}
330
1A
100
AcDbPlotSettings
  1

  2
none_device
  4

  6

 40
0.0
 41
0.0
 42
0.0
 43
0.0
 44
0.0
 45
0.0
 46
0.0
 47
0.0
 48
0.0
 49
0.0
140
0.0
141
0.0
142
1.0
143
1.0
 70
  1712
 72
     0
 73
     0
 74
     0
  7

 75
     0
147
1.0
148
0.0
149
0.0
100
AcDbLayout
  1
Model
 70
     1
 71
     0
 10
0.0
 20
0.0
 11
1397.0
 21
1079.5
 12
0.0
 22
0.0
 32
0.0
 14
0.0
 24
0.0
 34
0.0
 15
1397.0
 25
1079.5
 35
0.0
146
0.0
 13
0.0
 23
0.0
 33
0.0
 16
1.0
 26
0.0
 36
0.0
 17
0.0
 27
1.0
 37
0.0
 76
     0
330
1F
331
29
  0
MLINESTYLE
  5
18
102
{ACAD_REACTORS
330
17
102
}
330
17
100
AcDbMlineStyle
  2
Standard
 70
     0
  3

 62
   256
 51
90.0
 52
90.0
 71
     2
 49
0.5
 62
   256
  6
BYLAYER
 49
-0.5
 62
   256
  6
BYLAYER
  0
ACDBPLACEHOLDER
  5
F
102
{ACAD_REACTORS
330
E
102
}
330
E
  0
ENDSEC
  0
EOF
