  0
SECTION
  2
HEADER
  9
$ACADVER
  1
AC1021
  9
$ACADMAINTVER
 70
    50
  9
$DWGCODEPAGE
  3
ANSI_1251
  9
$LASTSAVEDBY
  1
Игорь
  9
$INSBASE
 10
0.0
 20
0.0
 30
0.0
  9
$EXTMIN
 10
68.70317410899224
 20
536.5379898933902
 30
-0.0015258207003583
  9
$EXTMAX
 10
1072.461211675975
 20
1000.303286112615
 30
0.0000000349246037
  9
$LIMMIN
 10
0.0
 20
0.0
  9
$LIMMAX
 10
1397.0
 20
1079.5
  9
$ORTHOMODE
 70
     0
  9
$REGENMODE
 70
     1
  9
$FILLMODE
 70
     1
  9
$QTEXTMODE
 70
     0
  9
$MIRRTEXT
 70
     1
  9
$LTSCALE
 40
5.0
  9
$ATTMODE
 70
     1
  9
$TEXTSIZE
 40
17.5
  9
$TRACEWID
 40
1.0
  9
$TEXTSTYLE
  7
Standard
  9
$CLAYER
  8
0
  9
$CELTYPE
  6
ByLayer
  9
$CECOLOR
 62
   256
  9
$CELTSCALE
 40
1.0
  9
$DISPSILH
 70
     0
  9
$DIMSCALE
 40
1.0
  9
$DIMASZ
 40
17.5
  9
$DIMEXO
 40
0.05
  9
$DIMDLI
 40
3.75
  9
$DIMRND
 40
0.0
  9
$DIMDLE
 40
0.0
  9
$DIMEXE
 40
5.0
  9
$DIMTP
 40
0.0
  9
$DIMTM
 40
0.0
  9
$DIMTXT
 40
17.5
  9
$DIMCEN
 40
2.5
  9
$DIMTSZ
 40
0.0
  9
$DIMTOL
 70
     0
  9
$DIMLIM
 70
     0
  9
$DIMTIH
 70
     1
  9
$DIMTOH
 70
     1
  9
$DIMSE1
 70
     0
  9
$DIMSE2
 70
     0
  9
$DIMTAD
 70
     1
  9
$DIMZIN
 70
     0
  9
$DIMBLK
  1

  9
$DIMASO
 70
     1
  9
$DIMSHO
 70
     1
  9
$DIMPOST
  1

  9
$DIMAPOST
  1

  9
$DIMALT
 70
     0
  9
$DIMALTD
 70
     3
  9
$DIMALTF
 40
0.0393700787401575
  9
$DIMLFAC
 40
1.0
  9
$DIMTOFL
 70
     1
  9
$DIMTVP
 40
0.0
  9
$DIMTIX
 70
     0
  9
$DIMSOXD
 70
     0
  9
$DIMSAH
 70
     0
  9
$DIMBLK1
  1

  9
$DIMBLK2
  1

  9
$DIMSTYLE
  2
ISO-25
  9
$DIMCLRD
 70
     0
  9
$DIMCLRE
 70
     0
  9
$DIMCLRT
 70
     0
  9
$DIMTFAC
 40
1.0
  9
$DIMGAP
 40
15.0
  9
$DIMJUST
 70
     0
  9
$DIMSD1
 70
     0
  9
$DIMSD2
 70
     0
  9
$DIMTOLJ
 70
     0
  9
$DIMTZIN
 70
     0
  9
$DIMALTZ
 70
     0
  9
$DIMALTTZ
 70
     0
  9
$DIMUPT
 70
     0
  9
$DIMDEC
 70
     2
  9
$DIMTDEC
 70
     3
  9
$DIMALTU
 70
     2
  9
$DIMALTTD
 70
     3
  9
$DIMTXSTY
  7
Standard
  9
$DIMAUNIT
 70
     0
  9
$DIMADEC
 70
     2
  9
$DIMALTRND
 40
0.0
  9
$DIMAZIN
 70
     0
  9
$DIMDSEP
 70
    44
  9
$DIMATFIT
 70
     3
  9
$DIMFRAC
 70
     0
  9
$DIMLDRBLK
  1

  9
$DIMLUNIT
 70
     2
  9
$DIMLWD
 70
    -2
  9
$DIMLWE
 70
    -2
  9
$DIMTMOVE
 70
     0
  9
$DIMFXL
 40
1.0
  9
$DIMFXLON
 70
     0
  9
$DIMJOGANG
 40
0.7853981633974483
  9
$DIMTFILL
 70
     0
  9
$DIMTFILLCLR
 70
     0
  9
$DIMARCSYM
 70
     0
  9
$DIMLTYPE
  6

  9
$DIMLTEX1
  6

  9
$DIMLTEX2
  6

  9
$LUNITS
 70
     2
  9
$LUPREC
 70
     2
  9
$SKETCHINC
 40
1.0
  9
$FILLETRAD
 40
10.0
  9
$AUNITS
 70
     0
  9
$AUPREC
 70
     2
  9
$MENU
  1
.
  9
$ELEVATION
 40
0.0
  9
$PELEVATION
 40
0.0
  9
$THICKNESS
 40
0.0
  9
$LIMCHECK
 70
     0
  9
$CHAMFERA
 40
10.0
  9
$CHAMFERB
 40
10.0
  9
$CHAMFERC
 40
20.0
  9
$CHAMFERD
 40
0.0
  9
$SKPOLY
 70
     0
  9
$TDCREATE
 40
2458091.008884363
  9
$TDUCREATE
 40
2458090.925551030
  9
$TDUPDATE
 40
2458091.010017118
  9
$TDUUPDATE
 40
2458090.926683785
  9
$TDINDWG
 40
0.0009030093
  9
$TDUSRTIMER
 40
0.0009030093
  9
$USRTIMER
 70
     1
  9
$ANGBASE
 50
0.0
  9
$ANGDIR
 70
     0
  9
$PDMODE
 70
     0
  9
$PDSIZE
 40
-1.0
  9
$PLINEWID
 40
0.0
  9
$SPLFRAME
 70
     0
  9
$SPLINETYPE
 70
     6
  9
$SPLINESEGS
 70
     8
  9
$HANDSEED
  5
14C
  9
$SURFTAB1
 70
     6
  9
$SURFTAB2
 70
     6
  9
$SURFTYPE
 70
     6
  9
$SURFU
 70
     6
  9
$SURFV
 70
     6
  9
$UCSBASE
  2

  9
$UCSNAME
  2

  9
$UCSORG
 10
0.0
 20
0.0
 30
0.0
  9
$UCSXDIR
 10
1.0
 20
0.0
 30
0.0
  9
$UCSYDIR
 10
0.0
 20
1.0
 30
0.0
  9
$UCSORTHOREF
  2

  9
$UCSORTHOVIEW
 70
     0
  9
$UCSORGTOP
 10
0.0
 20
0.0
 30
0.0
  9
$UCSORGBOTTOM
 10
0.0
 20
0.0
 30
0.0
  9
$UCSORGLEFT
 10
0.0
 20
0.0
 30
0.0
  9
$UCSORGRIGHT
 10
0.0
 20
0.0
 30
0.0
  9
$UCSORGFRONT
 10
0.0
 20
0.0
 30
0.0
  9
$UCSORGBACK
 10
0.0
 20
0.0
 30
0.0
  9
$PUCSBASE
  2

  9
$PUCSNAME
  2

  9
$PUCSORG
 10
0.0
 20
0.0
 30
0.0
  9
$PUCSXDIR
 10
1.0
 20
0.0
 30
0.0
  9
$PUCSYDIR
 10
0.0
 20
1.0
 30
0.0
  9
$PUCSORTHOREF
  2

  9
$PUCSORTHOVIEW
 70
     0
  9
$PUCSORGTOP
 10
0.0
 20
0.0
 30
0.0
  9
$PUCSORGBOTTOM
 10
0.0
 20
0.0
 30
0.0
  9
$PUCSORGLEFT
 10
0.0
 20
0.0
 30
0.0
  9
$PUCSORGRIGHT
 10
0.0
 20
0.0
 30
0.0
  9
$PUCSORGFRONT
 10
0.0
 20
0.0
 30
0.0
  9
$PUCSORGBACK
 10
0.0
 20
0.0
 30
0.0
  9
$USERI1
 70
     0
  9
$USERI2
 70
     0
  9
$USERI3
 70
     0
  9
$USERI4
 70
     0
  9
$USERI5
 70
     0
  9
$USERR1
 40
0.0
  9
$USERR2
 40
0.0
  9
$USERR3
 40
0.0
  9
$USERR4
 40
0.0
  9
$USERR5
 40
0.0
  9
$WORLDVIEW
 70
     1
  9
$SHADEDGE
 70
     3
  9
$SHADEDIF
 70
    70
  9
$TILEMODE
 70
     1
  9
$MAXACTVP
 70
    64
  9
$PINSBASE
 10
0.0
 20
0.0
 30
0.0
  9
$PLIMCHECK
 70
     0
  9
$PEXTMIN
 10
1.000000000000000E+20
 20
1.000000000000000E+20
 30
1.000000000000000E+20
  9
$PEXTMAX
 10
-1.000000000000000E+20
 20
-1.000000000000000E+20
 30
-1.000000000000000E+20
  9
$PLIMMIN
 10
0.0
 20
0.0
  9
$PLIMMAX
 10
420.0
 20
297.0
  9
$UNITMODE
 70
     0
  9
$VISRETAIN
 70
     1
  9
$PLINEGEN
 70
     0
  9
$PSLTSCALE
 70
     1
  9
$TREEDEPTH
 70
  3020
  9
$CMLSTYLE
  2
Standard
  9
$CMLJUST
 70
     0
  9
$CMLSCALE
 40
20.0
  9
$PROXYGRAPHICS
 70
     1
  9
$MEASUREMENT
 70
     1
  9
$CELWEIGHT
370
    -1
  9
$ENDCAPS
280
     0
  9
$JOINSTYLE
280
     0
  9
$LWDISPLAY
290
     1
  9
$INSUNITS
 70
     4
  9
$HYPERLINKBASE
  1

  9
$STYLESHEET
  1

  9
$XEDIT
290
     1
  9
$CEPSNTYPE
380
     0
  9
$PSTYLEMODE
290
     1
  9
$FINGERPRINTGUID
  2
{6D55983E-EBFE-42BD-9C64-C7822168CBB3}
  9
$VERSIONGUID
  2
{049D3D11-D1C1-40EE-ADD9-0C5DBB672F6A}
  9
$EXTNAMES
290
     1
  9
$PSVPSCALE
 40
0.0
  9
$OLESTARTUP
290
     0
  9
$SORTENTS
280
   127
  9
$INDEXCTL
280
     0
  9
$HIDETEXT
280
     0
  9
$XCLIPFRAME
290
     0
  9
$HALOGAP
280
     0
  9
$OBSCOLOR
 70
   257
  9
$OBSLTYPE
280
     0
  9
$INTERSECTIONDISPLAY
280
     0
  9
$INTERSECTIONCOLOR
 70
   257
  9
$DIMASSOC
280
     1
  9
$PROJECTNAME
  1

  9
$CAMERADISPLAY
290
     0
  9
$LENSLENGTH
 40
50.0
  9
$CAMERAHEIGHT
 40
0.0
  9
$STEPSPERSEC
 40
2.0
  9
$STEPSIZE
 40
6.0
  9
$3DDWFPREC
 40
2.0
  9
$PSOLWIDTH
 40
0.25
  9
$PSOLHEIGHT
 40
4.0
  9
$LOFTANG1
 40
1.570796326794896
  9
$LOFTANG2
 40
1.570796326794896
  9
$LOFTMAG1
 40
0.0
  9
$LOFTMAG2
 40
0.0
  9
$LOFTPARAM
 70
     7
  9
$LOFTNORMALS
280
     1
  9
$LATITUDE
 40
37.795
  9
$LONGITUDE
 40
-122.394
  9
$NORTHDIRECTION
 40
0.0
  9
$TIMEZONE
 70
 -8000
  9
$LIGHTGLYPHDISPLAY
280
     1
  9
$TILEMODELIGHTSYNCH
280
     1
  9
$CMATERIAL
347
D2
  9
$SOLIDHIST
280
     1
  9
$SHOWHIST
280
     1
  9
$DWFFRAME
280
     2
  9
$DGNFRAME
280
     0
  9
$REALWORLDSCALE
290
     1
  9
$INTERFERECOLOR
 62
     1
  9
$INTERFEREOBJVS
345
F4
  9
$INTERFEREVPVS
346
F1
  9
$CSHADOW
280
     0
  9
$SHADOWPLANELOCATION
 40
0.0
  0
ENDSEC
  0
SECTION
  2
CLASSES
  0
CLASS
  1
ACDBDICTIONARYWDFLT
  2
AcDbDictionaryWithDefault
  3
ObjectDBX Classes
 90
        0
 91
        1
280
     0
281
     0
  0
CLASS
  1
VISUALSTYLE
  2
AcDbVisualStyle
  3
ObjectDBX Classes
 90
     4095
 91
       16
280
     0
281
     0
  0
CLASS
  1
MATERIAL
  2
AcDbMaterial
  3
ObjectDBX Classes
 90
     1153
 91
        3
280
     0
281
     0
  0
CLASS
  1
TABLESTYLE
  2
AcDbTableStyle
  3
ObjectDBX Classes
 90
     4095
 91
        1
280
     0
281
     0
  0
CLASS
  1
SCALE
  2
AcDbScale
  3
ObjectDBX Classes
 90
     1153
 91
       17
280
     0
281
     0
  0
CLASS
  1
MLEADERSTYLE
  2
AcDbMLeaderStyle
  3
ACDB_MLEADERSTYLE_CLASS
 90
     4095
 91
        1
280
     0
281
     0
  0
CLASS
  1
DICTIONARYVAR
  2
AcDbDictionaryVar
  3
ObjectDBX Classes
 90
        0
 91
        7
280
     0
281
     0
  0
CLASS
  1
CELLSTYLEMAP
  2
AcDbCellStyleMap
  3
ObjectDBX Classes
 90
     1152
 91
        1
280
     0
281
     0
  0
ENDSEC
  0
SECTION
  2
TABLES
  0
TABLE
  2
VPORT
  5
8
330
0
100
AcDbSymbolTable
 70
     1
  0
VPORT
  5
29
330
8
100
AcDbSymbolTableRecord
100
AcDbViewportTableRecord
  2
*Active
 70
     0
 10
0.0
 20
0.0
 11
1.0
 21
1.0
 12
513.3126632543429
 22
768.420638003003
 13
0.0
 23
0.0
 14
10.0
 24
10.0
 15
10.0
 25
10.0
 16
0.0
 26
0.0
 36
1.0
 17
0.0
 27
0.0
 37
0.0
 40
469.2863116504067
 41
2.550695825049701
 42
50.0
 43
0.0
 44
0.0
 50
0.0
 51
0.0
 71
     0
 72
  2000
 73
     1
 74
     3
 75
     0
 76
     0
 77
     0
 78
     0
281
     0
 65
     1
110
0.0
120
0.0
130
0.0
111
1.0
121
0.0
131
0.0
112
0.0
122
1.0
132
0.0
 79
     0
146
0.0
348
F0
 60
     3
 61
     5
292
     1
282
     1
141
0.0
142
0.0
 63
   250
421
  3355443
  0
ENDTAB
  0
TABLE
  2
LTYPE
  5
5
330
0
100
AcDbSymbolTable
 70
     6
  0
LTYPE
  5
14
330
5
100
AcDbSymbolTableRecord
100
AcDbLinetypeTableRecord
  2
ByBlock
 70
     0
  3

 72
    65
 73
     0
 40
0.0
  0
LTYPE
  5
15
330
5
100
AcDbSymbolTableRecord
100
AcDbLinetypeTableRecord
  2
ByLayer
 70
     0
  3

 72
    65
 73
     0
 40
0.0
  0
LTYPE
  5
16
330
5
100
AcDbSymbolTableRecord
100
AcDbLinetypeTableRecord
  2
Continuous
 70
     0
  3
Solid line
 72
    65
 73
     0
 40
0.0
  0
LTYPE
  5
3F
330
5
100
AcDbSymbolTableRecord
100
AcDbLinetypeTableRecord
  2
HIDDEN
 70
     0
  3
Hidden __ __ __ __ __ __ __ __ __ __ __ __ __ __
 72
    65
 73
     2
 40
1.905
 49
1.27
 74
     0
 49
-0.635
 74
     0
  0
LTYPE
  5
40
330
5
100
AcDbSymbolTableRecord
100
AcDbLinetypeTableRecord
  2
PHANTOM
 70
     0
  3
Phantom ______  __  __  ______  __  __  ______
 72
    65
 73
     6
 40
12.7
 49
6.349999999999999
 74
     0
 49
-1.27
 74
     0
 49
1.27
 74
     0
 49
-1.27
 74
     0
 49
1.27
 74
     0
 49
-1.27
 74
     0
  0
LTYPE
  5
41
330
5
100
AcDbSymbolTableRecord
100
AcDbLinetypeTableRecord
  2
CENTER
 70
     0
  3
Center ____ _ ____ _ ____ _ ____ _ ____ _ ____
 72
    65
 73
     4
 40
10.16
 49
6.349999999999999
 74
     0
 49
-1.27
 74
     0
 49
1.27
 74
     0
 49
-1.27
 74
     0
  0
LTYPE
  5
42
330
5
100
AcDbSymbolTableRecord
100
AcDbLinetypeTableRecord
  2
CENTERX2
 70
     0
  3
Center (2x) ________  __  ________  __  _____
 72
    65
 73
     4
 40
20.32
 49
12.7
 74
     0
 49
-2.54
 74
     0
 49
2.54
 74
     0
 49
-2.54
 74
     0
  0
LTYPE
  5
43
330
5
100
AcDbSymbolTableRecord
100
AcDbLinetypeTableRecord
  2
DOT2
 70
     0
  3
Dot (.5x) ........................................
 72
    65
 73
     2
 40
0.635
 49
0.0
 74
     0
 49
-0.635
 74
     0
  0
ENDTAB
  0
TABLE
  2
LAYER
  5
2
330
0
100
AcDbSymbolTable
 70
     1
  0
LAYER
  5
10
102
{ACAD_XDICTIONARY
360
13F
102
}
330
2
100
AcDbSymbolTableRecord
100
AcDbLayerTableRecord
  2
0
 70
     0
 62
     7
  6
Continuous
370
    -3
390
F
347
E2
  0
ENDTAB
  0
TABLE
  2
STYLE
  5
3
330
0
100
AcDbSymbolTable
 70
     1
  0
STYLE
  5
11
330
3
100
AcDbSymbolTableRecord
100
AcDbTextStyleTableRecord
  2
Standard
 70
     0
 40
0.0
 41
1.0
 50
0.0
 71
     0
 42
17.5
  3
txt
  4

  0
ENDTAB
  0
TABLE
  2
VIEW
  5
6
330
0
100
AcDbSymbolTable
 70
     0
  0
ENDTAB
  0
TABLE
  2
UCS
  5
7
330
0
100
AcDbSymbolTable
 70
     0
  0
ENDTAB
  0
TABLE
  2
APPID
  5
9
330
0
100
AcDbSymbolTable
 70
     2
  0
APPID
  5
12
330
9
100
AcDbSymbolTableRecord
100
AcDbRegAppTableRecord
  2
ACAD
 70
     0
  0
APPID
  5
112
330
9
100
AcDbSymbolTableRecord
100
AcDbRegAppTableRecord
  2
ACAD_MLEADERVER
 70
     0
  0
ENDTAB
  0
TABLE
  2
DIMSTYLE
  5
A
330
0
100
AcDbSymbolTable
 70
     1
100
AcDbDimStyleTable
 71
     0
  0
DIMSTYLE
105
27
330
A
100
AcDbSymbolTableRecord
100
AcDbDimStyleTableRecord
  2
ISO-25
 70
     0
 41
2.5
 42
0.625
 43
3.75
 44
1.25
 73
     0
 74
     0
 77
     1
 78
     8
140
2.5
141
2.5
143
0.03937007874016
147
0.625
171
     3
172
     1
271
     2
272
     2
274
     3
278
    44
283
     0
284
     8
340
11
  0
ENDTAB
  0
TABLE
  2
BLOCK_RECORD
  5
1
330
0
100
AcDbSymbolTable
 70
     1
  0
BLOCK_RECORD
  5
1F
330
1
100
AcDbSymbolTableRecord
100
AcDbBlockTableRecord
  2
*Model_Space
340
22
 70
     0
280
     1
281
     0
  0
BLOCK_RECORD
  5
1B
330
1
100
AcDbSymbolTableRecord
100
AcDbBlockTableRecord
  2
*Paper_Space
340
1E
 70
     0
280
     1
281
     0
  0
BLOCK_RECORD
  5
23
330
1
100
AcDbSymbolTableRecord
100
AcDbBlockTableRecord
  2
*Paper_Space0
340
26
 70
     0
280
     1
281
     0
  0
ENDTAB
  0
ENDSEC
  0
SECTION
  2
BLOCKS
  0
BLOCK
  5
20
330
1F
100
AcDbEntity
  8
0
100
AcDbBlockBegin
  2
*Model_Space
 70
     0
 10
0.0
 20
0.0
 30
0.0
  3
*Model_Space
  1

  0
ENDBLK
  5
21
330
1F
100
AcDbEntity
  8
0
100
AcDbBlockEnd
  0
BLOCK
  5
1C
330
1B
100
AcDbEntity
 67
     1
  8
0
100
AcDbBlockBegin
  2
*Paper_Space
 70
     0
 10
0.0
 20
0.0
 30
0.0
  3
*Paper_Space
  1

  0
ENDBLK
  5
1D
330
1B
100
AcDbEntity
 67
     1
  8
0
100
AcDbBlockEnd
  0
BLOCK
  5
24
330
23
100
AcDbEntity
 67
     1
  8
0
100
AcDbBlockBegin
  2
*Paper_Space0
 70
     0
 10
0.0
 20
0.0
 30
0.0
  3
*Paper_Space0
  1

  0
ENDBLK
  5
25
330
23
100
AcDbEntity
 67
     1
  8
0
100
AcDbBlockEnd
  0
ENDSEC
  0
SECTION
  2
ENTITIES
  0
LINE
  5
44
330
1F
100
AcDbEntity
  8
0
  6
Continuous
 62
     7
370
    15
100
AcDbLine
 10
747.7734649569836
 20
1000.288470043132
 30
0.0
 11
747.7734649569836
 21
985.854571117351
 31
0.0
  0
LINE
  5
45
330
1F
100
AcDbEntity
  8
0
  6
Continuous
 62
     7
370
    15
100
AcDbLine
 10
68.77706603120238
 20
985.8545940055346
 30
0.0
 11
747.7734649569836
 21
985.854571117351
 31
0.0
  0
LINE
  5
47
330
1F
100
AcDbEntity
  8
0
  6
Continuous
 62
     7
370
    15
100
AcDbLine
 10
68.7770660312023
 20
986.6054942740893
 30
0.0
 11
68.77706603120238
 21
985.8545940055346
 31
0.0
  0
LINE
  5
48
330
1F
100
AcDbEntity
  8
0
  6
Continuous
 62
     7
370
    15
100
AcDbLine
 10
68.7770660312023
 20
986.6054942740893
 30
0.0
 11
68.77706603120238
 21
1000.288470043132
 31
0.0
  0
LINE
  5
49
330
1F
100
AcDbEntity
  8
0
  6
Continuous
 62
     7
370
    15
100
AcDbLine
 10
747.7734649569836
 20
1000.288470043132
 30
0.0
 11
68.77706603120238
 21
1000.288470043132
 31
0.0
  0
LINE
  5
4A
330
1F
100
AcDbEntity
  8
0
  6
Continuous
 62
     7
370
    15
100
AcDbLine
 10
747.7734649569836
 20
985.854571117351
 30
0.0
 11
747.7734649569836
 21
776.723368419597
 31
0.0
  0
LINE
  5
4D
330
1F
100
AcDbEntity
  8
0
  6
Continuous
 62
     7
370
    15
100
AcDbLine
 10
68.77706603120238
 20
776.7233455314134
 30
0.0
 11
68.7770660312023
 21
985.8545940055346
 31
0.0
  0
LINE
  5
4E
330
1F
100
AcDbEntity
  8
0
  6
Continuous
 62
     7
370
    15
100
AcDbLine
 10
68.77706603120238
 20
776.7233455314134
 30
0.0
 11
747.7734649569836
 21
776.723368419597
 31
0.0
  0
LINE
  5
4F
330
1F
100
AcDbEntity
  8
0
  6
Continuous
 62
     7
370
    15
100
AcDbLine
 10
747.7734649569836
 20
776.723368419597
 30
0.0
 11
747.7734649569836
 21
762.2894542350268
 31
0.0
  0
LINE
  5
50
330
1F
100
AcDbEntity
  8
0
  6
Continuous
 62
     7
370
    15
100
AcDbLine
 10
68.77706603120238
 20
762.2894466056322
 30
0.0
 11
747.7734649569836
 21
762.2894542350268
 31
0.0
  0
LINE
  5
51
330
1F
100
AcDbEntity
  8
0
  6
Continuous
 62
     7
370
    15
100
AcDbLine
 10
68.77706603120238
 20
776.7233455314134
 30
0.0
 11
68.77706603120238
 21
762.2894466056322
 31
0.0
  0
LINE
  5
52
330
1F
100
AcDbEntity
  8
0
  6
Continuous
 62
     7
370
    15
100
AcDbLine
 10
719.2129180819837
 20
952.3751094474292
 30
0.0
 11
104.0713775546399
 21
952.3752391471361
 31
0.0
  0
LINE
  5
53
330
1F
100
AcDbEntity
  8
0
  6
Continuous
 62
     7
370
    15
100
AcDbLine
 10
719.2129180819835
 20
811.4337031974292
 30
0.0
 11
719.2129180819837
 21
952.3751094474292
 31
0.0
  0
LINE
  5
54
330
1F
100
AcDbEntity
  8
0
  6
Continuous
 62
     7
370
    15
100
AcDbLine
 10
104.0713775546399
 20
811.4338176383469
 30
0.0
 11
719.2129180819835
 21
811.4337031974292
 31
0.0
  0
LINE
  5
55
330
1F
100
AcDbEntity
  8
0
  6
Continuous
 62
     7
370
    15
100
AcDbLine
 10
104.0713775546399
 20
952.3752391471361
 30
0.0
 11
104.0713775546399
 21
811.4338176383469
 31
0.0
  0
LINE
  5
56
330
1F
100
AcDbEntity
  8
0
  6
Continuous
 62
     7
370
    15
100
AcDbLine
 10
884.9677981143118
 20
988.3159415440852
 30
0.0
 11
885.1005305947344
 21
988.3159512130669
 31
0.0
  0
LINE
  5
57
330
1F
100
AcDbEntity
  8
0
  6
Continuous
 62
     7
370
    15
100
AcDbLine
 10
876.83938725462
 20
985.848750781559
 30
0.0
 11
876.8393870970125
 21
985.8486628870855
 31
0.0
  0
LINE
  5
58
330
1F
100
AcDbEntity
  8
0
  6
Continuous
 62
     7
370
    15
100
AcDbLine
 10
885.0066636366932
 20
986.6054942740893
 30
0.0
 11
885.7575619978993
 21
1000.288470043132
 31
0.0
  0
LINE
  5
59
330
1F
100
AcDbEntity
  8
0
  6
Continuous
 62
     7
370
    15
100
AcDbLine
 10
884.6956342024892
 20
1000.288470043132
 30
0.0
 11
885.0066808028309
 21
986.6054866446948
 31
0.0
  0
LINE
  5
5A
330
1F
100
AcDbEntity
  8
0
  6
Continuous
 62
     7
370
    15
100
AcDbLine
 10
885.7575619978993
 20
1000.288470043132
 30
0.0
 11
884.6956342024892
 21
1000.288470043132
 31
0.0
  0
LINE
  5
5B
330
1F
100
AcDbEntity
  8
0
  6
Continuous
 62
     7
370
    15
100
AcDbLine
 10
885.7575772566883
 20
1000.288470043132
 30
0.0
 11
885.7575600905507
 21
985.8545940055346
 31
0.0
  0
LINE
  5
5C
330
1F
100
AcDbEntity
  8
0
  6
Continuous
 62
     7
370
    15
100
AcDbLine
 10
885.0066636366932
 20
986.6054942740893
 30
0.0
 11
885.7575600905507
 21
985.8545940055346
 31
0.0
  0
LINE
  5
5D
330
1F
100
AcDbEntity
  8
0
  6
Continuous
 62
     7
370
    15
100
AcDbLine
 10
885.7575772566883
 20
1000.288470043132
 30
0.0
 11
885.7575619978993
 21
1000.288470043132
 31
0.0
  0
LINE
  5
5E
330
1F
100
AcDbEntity
  8
0
  6
Continuous
 62
     7
370
    15
100
AcDbLine
 10
885.7575600905507
 20
985.8545940055346
 30
0.0
 11
885.7575772566883
 21
985.854571117351
 31
0.0
  0
LINE
  5
5F
330
1F
100
AcDbEntity
  8
0
  6
Continuous
 62
     7
370
    15
100
AcDbLine
 10
884.6956342024892
 20
1000.288470043132
 30
0.0
 11
884.6956494612781
 21
1000.288470043132
 31
0.0
  0
LINE
  5
60
330
1F
100
AcDbEntity
  8
0
  6
Continuous
 62
     7
370
    15
100
AcDbLine
 10
885.7575600905507
 20
985.8545940055346
 30
0.0
 11
876.8393872542469
 21
985.8545940055346
 31
0.0
  0
LINE
  5
61
330
1F
100
AcDbEntity
  8
0
  6
Continuous
 62
     7
370
    15
100
AcDbLine
 10
885.0066636366932
 20
986.6054942740893
 30
0.0
 11
876.0884946150868
 21
986.6054942740893
 31
0.0
  0
LINE
  5
62
330
1F
100
AcDbEntity
  8
0
  6
Continuous
 62
     7
370
    15
100
AcDbLine
 10
876.0884946150868
 20
986.6054942740893
 30
0.0
 11
876.8393872542469
 21
985.8545940055346
 31
0.0
  0
LINE
  5
63
330
1F
100
AcDbEntity
  8
0
  6
Continuous
 62
     7
370
    15
100
AcDbLine
 10
885.7575772566883
 20
985.854571117351
 30
0.0
 11
876.839408235082
 21
985.854571117351
 31
0.0
  0
LINE
  5
64
330
1F
100
AcDbEntity
  8
0
  6
Continuous
 62
     7
370
    15
100
AcDbLine
 10
876.8393872542469
 20
985.8545940055346
 30
0.0
 11
876.839408235082
 21
985.854571117351
 31
0.0
  0
LINE
  5
65
330
1F
100
AcDbEntity
  8
0
  6
Continuous
 62
     7
370
    15
100
AcDbLine
 10
876.8393872542469
 20
776.7233455314134
 30
0.0
 11
876.0884946150868
 21
986.6054942740893
 31
0.0
  0
LINE
  5
66
330
1F
100
AcDbEntity
  8
0
  6
Continuous
 62
     7
370
    15
100
AcDbLine
 10
876.0884946150868
 20
775.9724528922533
 30
0.0
 11
876.8393872542469
 21
776.7233455314134
 31
0.0
  0
LINE
  5
67
330
1F
100
AcDbEntity
  8
0
  6
Continuous
 62
     7
370
    15
100
AcDbLine
 10
876.0885117812245
 20
986.6054866446948
 30
0.0
 11
876.0884946150868
 21
775.9724528922533
 31
0.0
  0
LINE
  5
68
330
1F
100
AcDbEntity
  8
0
  6
Continuous
 62
     7
370
    15
100
AcDbLine
 10
876.8393872542469
 20
985.8545940055346
 30
0.0
 11
876.8393893916499
 21
952.3752315363344
 31
0.0
  0
LINE
  5
69
330
1F
100
AcDbEntity
  8
0
  6
Continuous
 62
     7
370
    15
100
AcDbLine
 10
876.839398389694
 20
811.4337364913655
 30
0.0
 11
876.8394006056874
 21
776.723368419597
 31
0.0
  0
LINE
  5
6A
330
1F
100
AcDbEntity
  8
0
  6
Continuous
 62
     7
370
    15
100
AcDbLine
 10
876.8393872542469
 20
776.7233455314134
 30
0.0
 11
876.8394006056874
 21
776.723368419597
 31
0.0
  0
LINE
  5
6B
330
1F
100
AcDbEntity
  8
0
  6
Continuous
 62
     7
370
    15
100
AcDbLine
 10
876.839408235082
 20
985.854571117351
 30
0.0
 11
876.8393872546251
 21
985.8487069408923
 31
0.0
  0
LINE
  5
6C
330
1F
100
AcDbEntity
  8
0
  6
Continuous
 62
     7
370
    15
100
AcDbLine
 10
876.8394006056874
 20
776.723368419597
 30
0.0
 11
885.7575753493398
 21
776.723368419597
 31
0.0
  0
LINE
  5
6D
330
1F
100
AcDbEntity
  8
0
  6
Continuous
 62
     7
370
    15
100
AcDbLine
 10
885.7575600905507
 20
776.7233455314134
 30
0.0
 11
885.7575753493398
 21
776.723368419597
 31
0.0
  0
LINE
  5
6E
330
1F
100
AcDbEntity
  8
0
  6
Continuous
 62
     7
370
    15
100
AcDbLine
 10
876.8393872542469
 20
776.7233455314134
 30
0.0
 11
885.7575600905507
 21
776.7233455314134
 31
0.0
  0
LINE
  5
6F
330
1F
100
AcDbEntity
  8
0
  6
Continuous
 62
     7
370
    15
100
AcDbLine
 10
876.0884946150868
 20
775.9724528922533
 30
0.0
 11
885.006665544042
 21
775.9724528922533
 31
0.0
  0
LINE
  5
70
330
1F
100
AcDbEntity
  8
0
  6
Continuous
 62
     7
370
    15
100
AcDbLine
 10
885.006665544042
 20
775.9724528922533
 30
0.0
 11
885.7575600905507
 21
776.7233455314134
 31
0.0
  0
LINE
  5
71
330
1F
100
AcDbEntity
  8
0
  6
Continuous
 62
     7
370
    15
100
AcDbLine
 10
876.0885060591785
 20
775.9724452628589
 30
0.0
 11
885.0066579146304
 21
775.9724452628589
 31
0.0
  0
LINE
  5
72
330
1F
100
AcDbEntity
  8
0
  6
Continuous
 62
     7
370
    15
100
AcDbLine
 10
876.0885060591785
 20
775.9724452628589
 30
0.0
 11
876.0884946150868
 21
775.9724528922533
 31
0.0
  0
LINE
  5
73
330
1F
100
AcDbEntity
  8
0
  6
Continuous
 62
     7
370
    15
100
AcDbLine
 10
876.0884946150875
 20
775.9724338183318
 30
0.0
 11
876.0885060591785
 21
775.9724452628589
 31
0.0
  0
LINE
  5
74
330
1F
100
AcDbEntity
  8
0
  6
Continuous
 62
     7
370
    15
100
AcDbLine
 10
885.7575600905507
 20
776.7233455314134
 30
0.0
 11
885.7575600905507
 21
762.2894466056322
 31
0.0
  0
LINE
  5
75
330
1F
100
AcDbEntity
  8
0
  6
Continuous
 62
     7
370
    15
100
AcDbLine
 10
884.6956322951404
 20
762.2894466056322
 30
0.0
 11
885.7575600905507
 21
762.2894466056322
 31
0.0
  0
LINE
  5
76
330
1F
100
AcDbEntity
  8
0
  6
Continuous
 62
     7
370
    15
100
AcDbLine
 10
885.006665544042
 20
775.9724528922533
 30
0.0
 11
884.6956322951404
 21
762.2894466056322
 31
0.0
  0
LINE
  5
77
330
1F
100
AcDbEntity
  8
0
  6
Continuous
 62
     7
370
    15
100
AcDbLine
 10
885.7575753493398
 20
776.723368419597
 30
0.0
 11
885.7575772566883
 21
762.2894542350268
 31
0.0
  0
LINE
  5
78
330
1F
100
AcDbEntity
  8
0
  6
Continuous
 62
     7
370
    15
100
AcDbLine
 10
876.6414178176015
 20
952.3752315177416
 30
0.0
 11
957.8778909010976
 21
952.3752391471361
 31
0.0
  0
LINE
  5
79
330
1F
100
AcDbEntity
  8
0
  6
Continuous
 62
     7
370
    15
100
AcDbLine
 10
957.8779214186756
 20
952.3751094474292
 30
0.0
 11
957.8778909010976
 21
952.3752391471361
 31
0.0
  0
LINE
  5
7A
330
1F
100
AcDbEntity
  8
0
  6
Continuous
 62
     7
370
    15
100
AcDbLine
 10
876.7229131930209
 20
811.4338405035695
 30
0.0
 11
957.8778756423085
 21
811.4338176383469
 31
0.0
  0
LINE
  5
7B
330
1F
100
AcDbEntity
  8
0
  6
Continuous
 62
     7
370
    15
100
AcDbLine
 10
957.8778909010976
 20
952.3752391471361
 30
0.0
 11
957.8778756423085
 21
811.4338176383469
 31
0.0
  0
LINE
  5
7C
330
1F
100
AcDbEntity
  8
0
  6
Continuous
 62
     7
370
    15
100
AcDbLine
 10
876.6414178176015
 20
952.3752315177416
 30
0.0
 11
876.6414178176015
 21
836.3760825412866
 31
0.0
  0
LINE
  5
7D
330
1F
100
AcDbEntity
  8
0
  6
Continuous
 62
     7
370
    15
100
AcDbLine
 10
876.8393983896954
 20
811.4337184190375
 30
0.0
 11
957.8779214186756
 21
811.4337031974292
 31
0.0
  0
LINE
  5
7E
330
1F
100
AcDbEntity
  8
0
  6
Continuous
 62
     7
370
    15
100
AcDbLine
 10
957.8778756423085
 20
811.4338176383469
 30
0.0
 11
957.8779214186756
 21
811.4337031974292
 31
0.0
  0
LINE
  5
7F
330
1F
100
AcDbEntity
  8
0
  6
Continuous
 62
     7
370
    15
100
AcDbLine
 10
957.8779214186756
 20
811.4337031974292
 30
0.0
 11
957.8779214186756
 21
952.3751094474292
 31
0.0
  0
LINE
  5
80
330
1F
100
AcDbEntity
  8
0
  6
Continuous
 62
     7
370
    15
100
AcDbLine
 10
957.8779061598883
 20
811.4337031974308
 30
0.0
 11
957.8778756423085
 21
811.4338176383469
 31
0.0
  0
LINE
  5
81
330
1F
100
AcDbEntity
  8
0
  6
Continuous
 62
     7
370
    15
100
AcDbLine
 10
957.8779214186756
 20
952.3751094474292
 30
0.0
 11
957.8779061598924
 21
811.4337413443889
 31
0.0
  0
LINE
  5
82
330
1F
100
AcDbEntity
  8
0
  6
Continuous
 62
     7
370
    15
100
AcDbLine
 10
871.3509095473378
 20
784.849085582683
 30
0.0
 11
875.4983533187001
 21
784.849085582683
 31
0.0
  0
LINE
  5
83
330
1F
100
AcDbEntity
  8
0
  6
Continuous
 62
     7
370
    15
100
AcDbLine
 10
871.3509095473378
 20
981.0489833487963
 30
0.0
 11
875.4983533187001
 21
981.0489833487963
 31
0.0
  0
LINE
  5
84
330
1F
100
AcDbEntity
  8
0
  6
Continuous
 62
     7
370
    15
100
AcDbLine
 10
875.4983533187001
 20
784.849085582683
 30
0.0
 11
875.4983533187001
 21
981.0489833487963
 31
0.0
  0
LINE
  5
85
330
1F
100
AcDbEntity
  8
0
  6
Continuous
 62
     7
370
    15
100
AcDbLine
 10
871.3509095473378
 20
784.849085582683
 30
0.0
 11
871.3509095473378
 21
981.0489833487963
 31
0.0
  0
LINE
  5
86
330
1F
100
AcDbEntity
  8
0
  6
Continuous
 62
     7
370
    15
100
AcDbLine
 10
875.4983475966541
 20
981.0489833487963
 30
0.0
 11
875.4983456893056
 21
784.849085582683
 31
0.0
  0
LINE
  5
87
330
1F
100
AcDbEntity
  8
0
  6
Continuous
 62
     7
370
    15
100
AcDbLine
 10
870.7063897414295
 20
784.9142024650072
 30
0.0
 11
871.3509095473378
 21
784.849085582683
 31
0.0
  0
LINE
  5
88
330
1F
100
AcDbEntity
  8
0
  6
Continuous
 62
     7
370
    15
100
AcDbLine
 10
870.7063897414295
 20
784.9142024650072
 30
0.0
 11
870.7063897414295
 21
980.9839046134447
 31
0.0
  0
LINE
  5
89
330
1F
100
AcDbEntity
  8
0
  6
Continuous
 62
     7
370
    15
100
AcDbLine
 10
870.7063897414295
 20
980.9839046134447
 30
0.0
 11
871.3509095473378
 21
981.0489833487963
 31
0.0
  0
LINE
  5
8A
330
1F
100
AcDbEntity
  8
0
  6
Continuous
 62
     7
370
    15
100
AcDbLine
 10
870.2460168166249
 20
785.1095225944018
 30
0.0
 11
870.2460168166249
 21
980.7885615958666
 31
0.0
  0
LINE
  5
8B
330
1F
100
AcDbEntity
  8
0
  6
Continuous
 62
     7
370
    15
100
AcDbLine
 10
870.2460168166249
 20
980.7885615958666
 30
0.0
 11
870.7063897414295
 21
980.9839046134447
 31
0.0
  0
LINE
  5
8C
330
1F
100
AcDbEntity
  8
0
  6
Continuous
 62
     7
370
    15
100
AcDbLine
 10
870.2460168166249
 20
785.1095225944018
 30
0.0
 11
870.7063897414295
 21
784.9142024650072
 31
0.0
  0
LINE
  5
8D
330
1F
100
AcDbEntity
  8
0
  6
Continuous
 62
     7
370
    15
100
AcDbLine
 10
869.9697945876209
 20
785.4350536002612
 30
0.0
 11
869.9697945876209
 21
980.4630153312182
 31
0.0
  0
LINE
  5
8E
330
1F
100
AcDbEntity
  8
0
  6
Continuous
 62
     7
370
    15
100
AcDbLine
 10
869.9697945876209
 20
980.4630153312182
 30
0.0
 11
870.2460168166249
 21
980.7885615958666
 31
0.0
  0
LINE
  5
8F
330
1F
100
AcDbEntity
  8
0
  6
Continuous
 62
     7
370
    15
100
AcDbLine
 10
869.9697945876209
 20
785.4350536002612
 30
0.0
 11
870.2460168166249
 21
785.1095225944018
 31
0.0
  0
LINE
  5
90
330
1F
100
AcDbEntity
  8
0
  6
Continuous
 62
     7
370
    15
100
AcDbLine
 10
869.8777192397205
 20
980.0072887076829
 30
0.0
 11
869.9697945876209
 21
980.4630153312182
 31
0.0
  0
LINE
  5
91
330
1F
100
AcDbEntity
  8
0
  6
Continuous
 62
     7
370
    15
100
AcDbLine
 10
869.8777192397205
 20
785.890818370769
 30
0.0
 11
869.8777192397205
 21
980.0072887076829
 31
0.0
  0
LINE
  5
92
330
1F
100
AcDbEntity
  8
0
  6
Continuous
 62
     7
370
    15
100
AcDbLine
 10
869.8777192397205
 20
785.890818370769
 30
0.0
 11
869.9697945876209
 21
785.4350536002612
 31
0.0
  0
LINE
  5
93
330
1F
100
AcDbEntity
  8
0
  6
Continuous
 62
     7
370
    15
100
AcDbLine
 10
869.9697869582266
 20
980.4630153312182
 30
0.0
 11
869.9697869582266
 21
980.4629775695442
 31
0.0
  0
LINE
  5
94
330
1F
100
AcDbEntity
  8
0
  6
Continuous
 62
     7
370
    15
100
AcDbLine
 10
869.9697869582266
 20
785.435091365096
 30
0.0
 11
869.9697869582266
 21
785.4350536002612
 31
0.0
  0
LINE
  5
95
330
1F
100
AcDbEntity
  8
0
  6
Continuous
 62
     7
370
    15
100
AcDbLine
 10
869.8777154250235
 20
882.9490542515824
 30
0.0
 11
869.877711610326
 21
785.890818370769
 31
0.0
  0
LINE
  5
96
330
1F
100
AcDbEntity
  8
0
  6
Continuous
 62
     7
370
    15
100
AcDbLine
 10
869.8777192397205
 20
980.0072887076829
 30
0.0
 11
869.9697869582266
 21
980.4630153312182
 31
0.0
  0
LINE
  5
97
330
1F
100
AcDbEntity
  8
0
  6
Continuous
 62
     7
370
    15
100
AcDbLine
 10
869.8777192369798
 20
803.791987526141
 30
0.0
 11
869.877711610326
 21
962.163035167644
 31
0.0
  0
LINE
  5
98
330
1F
100
AcDbEntity
  8
0
  6
Continuous
 62
     7
370
    15
100
AcDbLine
 10
875.6427872939198
 20
801.7940547599291
 30
0.0
 11
875.6427872939198
 21
963.2130534781909
 31
0.0
  0
LINE
  5
99
330
1F
100
AcDbEntity
  8
0
  6
Continuous
 62
     7
370
    15
100
AcDbLine
 10
875.4983533187001
 20
963.2130534781909
 30
0.0
 11
875.6427872939198
 21
963.2130534781909
 31
0.0
  0
LINE
  5
9A
330
1F
100
AcDbEntity
  8
0
  6
Continuous
 62
     7
370
    15
100
AcDbLine
 10
875.4983533187001
 20
801.7940547599291
 30
0.0
 11
875.6427872939198
 21
801.7940547599291
 31
0.0
  0
SPLINE
  5
9B
330
1F
100
AcDbEntity
  8
0
  6
Continuous
 62
     7
370
    15
100
AcDbSpline
210
0.0
220
0.0
230
1.0
 70
     8
 71
     3
 72
    73
 73
    69
 74
     0
 42
0.0000000001
 43
0.0000000001
 40
0.0
 40
0.0
 40
0.0
 40
0.0
 40
0.0012360861706087
 40
0.0028767747121497
 40
0.0056992525591476
 40
0.0079166352830102
 40
0.0094840168260005
 40
0.024806041256118
 40
0.0393484174386644
 40
0.052016668979041
 40
0.0672419862961428
 40
0.0817131666904618
 40
0.0990695882335564
 40
0.1092805456649565
 40
0.1174873572666859
 40
0.1255166634860588
 40
0.1336070587338218
 40
0.1428190605333318
 40
0.1534744145988321
 40
0.1638521045357455
 40
0.1721806400999779
 40
0.1802689580283123
 40
0.1901915961863567
 40
0.2013019960099696
 40
0.2129189422618211
 40
0.2244915564999613
 40
0.2350881928812751
 40
0.2476805320556501
 40
0.2592003788724536
 40
0.2704155218510245
 40
0.2819794970676825
 40
0.2966301884290897
 40
0.3123163468778897
 40
0.3277303755649981
 40
0.3418243963437171
 40
0.3555672446977077
 40
0.3693842653926769
 40
0.3845159941265274
 40
0.401588099751283
 40
0.4241978153898225
 40
0.4468831179784589
 40
0.467955788017243
 40
0.4866034761292045
 40
0.5038408934306544
 40
0.5204846382483846
 40
0.5369683520565534
 40
0.5535899739387543
 40
0.571283418944678
 40
0.5903395895541013
 40
0.6112629323419523
 40
0.6340688225187784
 40
0.6571773748083581
 40
0.6859585203292781
 40
0.7135989143285732
 40
0.7397148665400472
 40
0.7640777095599593
 40
0.7865798273455832
 40
0.8220914836924643
 40
0.856064397185481
 40
0.8888397892920687
 40
0.8972976232760544
 40
0.9062368832903127
 40
0.9171429661289916
 40
0.9301270411466624
 40
0.9452314417130814
 40
0.9621772534901433
 40
0.9812679164994788
 40
1.0
 40
1.0
 40
1.0
 40
1.0
 10
68.77706603120238
 20
608.732213860529
 30
0.0
 10
68.95557698011346
 20
608.742498450942
 30
0.0
 10
69.37103004146148
 20
608.7664340391951
 30
0.0
 10
70.24471987514241
 20
608.7907064694652
 30
0.0
 10
71.26959791245508
 20
608.8142027342549
 30
0.0
 10
72.29037952678201
 20
608.8320259279454
 30
0.0
 10
75.23749877523766
 20
608.8778707496642
 30
0.0
 10
80.12218529423249
 20
608.9245137248428
 30
0.0
 10
86.73816289686497
 20
608.9726882304794
 30
0.0
 10
93.34582738191862
 20
609.0110111481696
 30
0.0
 10
99.94783340286126
 20
609.0434381917672
 30
0.0
 10
107.2802553832013
 20
609.0744817069829
 30
0.0
 10
113.8341138713774
 20
609.0987257791281
 30
0.0
 10
119.4118308155584
 20
609.1174087851485
 30
0.0
 10
123.5357363507421
 20
609.1303860138956
 30
0.0
 10
127.3291974671054
 20
609.1417157026971
 30
0.0
 10
131.279622990946
 20
609.1529450621964
 30
0.0
 10
135.6398047534208
 20
609.1647254439556
 30
0.0
 10
140.3569695083286
 20
609.1767807454125
 30
0.0
 10
144.9363715406667
 20
609.1878482598401
 30
0.0
 10
149.1157215324413
 20
609.1974806055973
 30
0.0
 10
153.2242859154578
 20
609.2065746799473
 30
0.0
 10
157.7668076597087
 20
609.2162049670041
 30
0.0
 10
162.8599215862138
 20
609.2264897924685
 30
0.0
 10
168.2105567310621
 20
609.2367602594948
 30
0.0
 10
173.4811761112123
 20
609.246383421101
 30
0.0
 10
178.9040812859887
 20
609.2558360239875
 30
0.0
 10
184.3188770772099
 20
609.2648373339932
 30
0.0
 10
189.8302827878084
 20
609.2735714678578
 30
0.0
 10
195.1813493536031
 20
609.2816856696666
 30
0.0
 10
201.020962777598
 20
609.2901653181736
 30
0.0
 10
207.5582418967455
 20
609.2992039988198
 30
0.0
 10
214.6963258297931
 20
609.3085417752202
 30
0.0
 10
221.7476704332366
 20
609.317267791788
 30
0.0
 10
228.4958981670331
 20
609.3251977616583
 30
0.0
 10
234.9950285941687
 20
609.3324759614873
 30
0.0
 10
241.656137509875
 20
609.339592156019
 30
0.0
 10
248.8367969460846
 20
609.3468961812042
 30
0.0
 10
257.3894984124822
 20
609.3551377178605
 30
0.0
 10
267.1209327752009
 20
609.3639135926961
 30
0.0
 10
277.4767272950513
 20
609.3725796726906
 30
0.0
 10
287.2144188971193
 20
609.3801631475456
 30
0.0
 10
296.1021295448672
 20
609.3866475079137
 30
0.0
 10
304.2988087095062
 20
609.3922841760175
 30
0.0
 10
312.1578662613568
 20
609.3973934981355
 30
0.0
 10
319.9208754073116
 20
609.402168862711
 30
0.0
 10
327.8477221741074
 20
609.4067806171262
 30
0.0
 10
336.176034082577
 20
609.4113508872332
 30
0.0
 10
345.1756593474051
 20
609.4159859331954
 30
0.0
 10
354.9731271369584
 20
609.4206895894276
 30
0.0
 10
365.4030269169541
 20
609.4253186208954
 30
0.0
 10
377.0591902456209
 20
609.4300717978543
 30
0.0
 10
389.469849705225
 20
609.4346536451375
 30
0.0
 10
402.3498979624382
 20
609.4389019620786
 30
0.0
 10
414.5405392590963
 20
609.4424921072802
 30
0.0
 10
425.9293919435139
 20
609.4454880564495
 30
0.0
 10
438.7845116072498
 20
609.4485122487068
 30
0.0
 10
453.1393826661734
 20
609.4514162972743
 30
0.0
 10
469.0975308397575
 20
609.4540553965023
 30
0.0
 10
480.833858170147
 20
609.4556044775295
 30
0.0
 10
488.6635688702051
 20
609.4564852829623
 30
0.0
 10
493.0804507526318
 20
609.4569463222019
 30
0.0
 10
498.2036873782019
 20
609.4574344136857
 30
0.0
 10
504.289042424937
 20
609.4579484212886
 30
0.0
 10
511.3169488755727
 20
609.4584555172986
 30
0.0
 10
519.2978455821098
 20
609.458917996494
 30
0.0
 10
527.8448838798798
 20
609.4592970235667
 30
0.0
 10
533.7474196538492
 20
609.459434407595
 30
0.0
 10
536.6707079706824
 20
609.4595024483727
 30
0.0
  0
SPLINE
  5
9C
330
1F
100
AcDbEntity
  8
0
  6
Continuous
 62
     7
370
    15
100
AcDbSpline
210
0.0
220
0.0
230
1.0
 70
     8
 71
     3
 72
    71
 73
    67
 74
     0
 42
0.0000000001
 43
0.0000000001
 40
0.0
 40
0.0
 40
0.0
 40
0.0
 40
0.0003125950235282
 40
0.0198215734938617
 40
0.0367378006559966
 40
0.0511151748536482
 40
0.0629998390293713
 40
0.0719568504029303
 40
0.0795883799012078
 40
0.087247642787492
 40
0.0949523923948645
 40
0.1027018456163291
 40
0.1260310780310445
 40
0.1510193637008903
 40
0.1785049120942921
 40
0.2013685411241239
 40
0.2259589762310415
 40
0.2518683431406494
 40
0.2763273818884113
 40
0.2987858398292272
 40
0.3191487800589911
 40
0.3372980190876671
 40
0.3523118611862281
 40
0.3677391517512939
 40
0.3845566791512887
 40
0.404162890341747
 40
0.4256222197013582
 40
0.4479595570769578
 40
0.4698127567294196
 40
0.4903147125497226
 40
0.5048760700743742
 40
0.5179066295159794
 40
0.5302480371236927
 40
0.5424229277781967
 40
0.5545372845895256
 40
0.5667927407915041
 40
0.5795603182640623
 40
0.5945334916235061
 40
0.6152776872647749
 40
0.6366313075715974
 40
0.6573941005391652
 40
0.6762199273469573
 40
0.6929523790889398
 40
0.7081064802001956
 40
0.7202166014659543
 40
0.7329293412195291
 40
0.7469870303629595
 40
0.7623997828224733
 40
0.7783056736025945
 40
0.7920670337203994
 40
0.8026191270870196
 40
0.8126561112136608
 40
0.8228152652004483
 40
0.8338775806193176
 40
0.8465135991646558
 40
0.8606460059572277
 40
0.8746892375642021
 40
0.8878671227278585
 40
0.8993127929713473
 40
0.91036527492714
 40
0.922051438319673
 40
0.9359191861658697
 40
0.9582694907134154
 40
0.9758404775784928
 40
0.995089324797901
 40
1.0
 40
1.0
 40
1.0
 40
1.0
 10
285.9832878912367
 20
609.6708945861311
 30
0.0
 10
286.0241938818872
 20
609.6708748900672
 30
0.0
 10
288.6180326796599
 20
609.6696259674986
 30
0.0
 10
293.425513868035
 20
609.6672169659653
 30
0.0
 10
300.0735010530626
 20
609.6638466710516
 30
0.0
 10
305.723775416497
 20
609.6609097385058
 30
0.0
 10
310.3325144311713
 20
609.6584722184767
 30
0.0
 10
314.0585017899318
 20
609.6564725720528
 30
0.0
 10
317.2315596804497
 20
609.6547501230414
 30
0.0
 10
320.2407419905966
 20
609.6530993317465
 30
0.0
 10
323.2653527224481
 20
609.6514224169116
 30
0.0
 10
328.3405180645601
 20
609.6485784845238
 30
0.0
 10
335.6773721680479
 20
609.6443785791434
 30
0.0
 10
345.5968438321065
 20
609.6385077583028
 30
0.0
 10
355.4553699196623
 20
609.6324575976011
 30
0.0
 10
365.2618151797549
 20
609.6262252430225
 30
0.0
 10
374.861987759306
 20
609.6199193898296
 30
0.0
 10
384.6709115436942
 20
609.6132452846285
 30
0.0
 10
394.2008348596501
 20
609.606527559316
 30
0.0
 10
403.0049580223196
 20
609.6001123253688
 30
0.0
 10
410.983382853676
 20
609.5941190965687
 30
0.0
 10
417.9875945862786
 20
609.588710651976
 30
0.0
 10
424.3459283173732
 20
609.5836823274876
 30
0.0
 10
430.5300047739329
 20
609.5786830207381
 30
0.0
 10
437.3150126954767
 20
609.5730678175518
 30
0.0
 10
444.8893282464872
 20
609.5666300969767
 30
0.0
 10
453.1859197702746
 20
609.5593614135897
 30
0.0
 10
461.7765148627062
 20
609.5515851015999
 30
0.0
 10
470.2418088670562
 20
609.5436620777286
 30
0.0
 10
477.6895660770083
 20
609.5364618111597
 30
0.0
 10
483.9828209787876
 20
609.5302097831742
 30
0.0
 10
489.2082156836592
 20
609.5249053002742
 30
0.0
 10
494.1213232670811
 20
609.5198169710328
 30
0.0
 10
498.9145394354014
 20
609.5147549848881
 30
0.0
 10
503.6965015088952
 20
609.5096053871881
 30
0.0
 10
508.5560049377098
 20
609.5042678628264
 30
0.0
 10
513.7895767648735
 20
609.498400499402
 30
0.0
 10
520.1339015459644
 20
609.491122823482
 30
0.0
 10
527.6016971503371
 20
609.4822965993688
 30
0.0
 10
535.827022313802
 20
609.4722189422697
 30
0.0
 10
543.8012814684371
 20
609.4620828105071
 30
0.0
 10
551.1708195103574
 20
609.4523780538411
 30
0.0
 10
557.8064304332693
 20
609.4433514435737
 30
0.0
 10
563.5632741466337
 20
609.4352841649558
 30
0.0
 10
568.7941295720971
 20
609.4277615688498
 30
0.0
 10
573.8815021207053
 20
609.4202681080619
 30
0.0
 10
579.4009791200458
 20
609.4119218669428
 30
0.0
 10
585.3382298490008
 20
609.4026750845641
 30
0.0
 10
591.2366673747721
 20
609.3931889875762
 30
0.0
 10
596.4990860057563
 20
609.3844570886449
 30
0.0
 10
600.9935685977288
 20
609.3768011461421
 30
0.0
 10
605.0167067687985
 20
609.3697913777098
 30
0.0
 10
609.1065801859408
 20
609.3625025473142
 30
0.0
 10
613.5364824187377
 20
609.3544144235806
 30
0.0
 10
618.4862048110722
 20
609.3451242611481
 30
0.0
 10
623.8258954458556
 20
609.3347761102197
 30
0.0
 10
629.2364306215916
 20
609.3239193645896
 30
0.0
 10
634.2953839340578
 20
609.3134089733768
 30
0.0
 10
638.9629888018109
 20
609.303391237017
 30
0.0
 10
643.4353766202044
 20
609.2934940041725
 30
0.0
 10
648.2245914354392
 20
609.2825539452377
 30
0.0
 10
654.4917877329074
 20
609.2676913293839
 30
0.0
 10
661.5287817449829
 20
609.2501079570734
 30
0.0
 10
669.2692805881314
 20
609.2293213105884
 30
0.0
 10
674.7285150176248
 20
609.2140652918443
 30
0.0
 10
677.8888133905265
 20
609.2043013816858
 30
0.0
 10
678.5311770341568
 20
609.2023167649929
 30
0.0
  0
SPLINE
  5
9D
330
1F
100
AcDbEntity
  8
0
  6
Continuous
 62
     7
370
    15
100
AcDbSpline
210
0.0
220
0.0
230
1.0
 70
     8
 71
     3
 72
    33
 73
    29
 74
     0
 42
0.0000000001
 43
0.0000000001
 40
0.0
 40
0.0
 40
0.0
 40
0.0
 40
0.0002032365537285
 40
0.0212216949044855
 40
0.0401739403781051
 40
0.0571077299034613
 40
0.0720664394973887
 40
0.0848732883540433
 40
0.0958454240470446
 40
0.1055401993051432
 40
0.1152869674944365
 40
0.1509959147147931
 40
0.1876822778775286
 40
0.3187531879611152
 40
0.4359459987096865
 40
0.5532082670799553
 40
0.5830833953967629
 40
0.6129665299187188
 40
0.6428683217341736
 40
0.6736839411419826
 40
0.7060712840767093
 40
0.7311767894094825
 40
0.7539998756459595
 40
0.7771454675832061
 40
0.8005282057650491
 40
0.8239182722325185
 40
0.9570321363690178
 40
1.0
 40
1.0
 40
1.0
 40
1.0
 10
723.2962116009933
 20
608.7089573725673
 30
0.0
 10
723.2552478791462
 20
608.7089580325028
 30
0.0
 10
718.9778696652216
 20
608.7090269420992
 30
0.0
 10
710.8805579392134
 20
608.7092802239046
 30
0.0
 10
699.4111137515529
 20
608.709697226384
 30
0.0
 10
689.1630790799118
 20
608.710181710089
 30
0.0
 10
680.1537124471825
 20
608.7106838773759
 30
0.0
 10
672.3459785374676
 20
608.7111814191707
 30
0.0
 10
665.5992496572129
 20
608.7116581685378
 30
0.0
 10
659.4693346035172
 20
608.7121293032411
 30
0.0
 10
648.3536754985309
 20
608.7130491815853
 30
0.0
 10
631.7978481784772
 20
608.7146508072186
 30
0.0
 10
590.789087227124
 20
608.7195868556748
 30
0.0
 10
533.357555909742
 20
608.7298121565852
 30
0.0
 10
459.6868349354397
 20
608.7508968007653
 30
0.0
 10
406.4126548703633
 20
608.7731014167628
 30
0.0
 10
370.7357317565337
 20
608.791924646594
 30
0.0
 10
352.665658741635
 20
608.8023559115827
 30
0.0
 10
334.4061745501919
 20
608.8138887144372
 30
0.0
 10
315.6421597844317
 20
608.8268840315764
 30
0.0
 10
297.8449478998856
 20
608.8404670623933
 30
0.0
 10
281.6587303388457
 20
608.8540014590754
 30
0.0
 10
267.3351408673883
 20
608.8669347440235
 30
0.0
 10
253.3589067244484
 20
608.88058256657
 30
0.0
 10
239.2685647907992
 20
608.8953639197363
 30
0.0
 10
203.0177331228944
 20
608.9377982446221
 30
0.0
 10
162.8177855894981
 20
608.9836723494545
 30
0.0
 10
127.3491750973162
 20
609.0890943489743
 30
0.0
 10
118.6940441071151
 20
609.1148196650334
 30
0.0
  0
SPLINE
  5
9E
330
1F
100
AcDbEntity
  8
0
  6
Continuous
 62
     7
370
    15
100
AcDbSpline
210
0.0
220
0.0
230
1.0
 70
     8
 71
     3
 72
    35
 73
    31
 74
     0
 42
0.0000000001
 43
0.0000000001
 40
0.0
 40
0.0
 40
0.0
 40
0.0
 40
0.0003188643651716
 40
0.0007195306144414
 40
0.0041068094418759
 40
0.0085385362238326
 40
0.0119064643643361
 40
0.0146407199694276
 40
0.0180599013964194
 40
0.0214562731717324
 40
0.0336324372453832
 40
0.0412298454632984
 40
0.0489713539633253
 40
0.059979111547184
 40
0.0778478885710917
 40
0.0947959934639274
 40
0.1123471005846677
 40
0.1299181907619078
 40
0.1475058054290886
 40
0.1651080928746038
 40
0.1827231932642992
 40
0.2936412642090497
 40
0.4921882345009531
 40
0.8474391159297502
 40
0.877112977695026
 40
0.9067886498380898
 40
0.9364665890858871
 40
0.9661479203332861
 40
0.9958312872201588
 40
1.0
 40
1.0
 40
1.0
 40
1.0
 10
747.7734649569836
 20
609.7540682015591
 30
0.0
 10
747.7454693312761
 20
609.7498849792097
 30
0.0
 10
747.6822960451793
 20
609.7404453651416
 30
0.0
 10
747.2404651025252
 20
609.7036472856158
 30
0.0
 10
746.2553395153032
 20
609.6705095748355
 30
0.0
 10
744.9229151438294
 20
609.6357642648995
 30
0.0
 10
743.6546435486718
 20
609.6111652225966
 30
0.0
 10
742.5076629876998
 20
609.5914384753086
 30
0.0
 10
741.355516380843
 20
609.5738708374258
 30
0.0
 10
739.0622950853578
 20
609.5423595672574
 30
0.0
 10
736.2607775800024
 20
609.5110899281885
 30
0.0
 10
732.9308210864554
 20
609.479392955797
 30
0.0
 10
729.7413581344689
 20
609.4522254816592
 30
0.0
 10
725.3018221601343
 20
609.4184673719247
 30
0.0
 10
719.7545178723816
 20
609.3821547508926
 30
0.0
 10
713.4044822499675
 20
609.3459208725339
 30
0.0
 10
707.0923945640167
 20
609.3138953220631
 30
0.0
 10
700.7009741310472
 20
609.2846437684973
 30
0.0
 10
694.3028694346224
 20
609.2579315783086
 30
0.0
 10
687.8988147515673
 20
609.2333156162109
 30
0.0
 10
670.1746887287506
 20
609.1702218384293
 30
0.0
 10
630.496861935988
 20
609.0621606925379
 30
0.0
 10
549.8474132801706
 20
608.9199283581232
 30
0.0
 10
479.04763153797
 20
608.8508462101579
 30
0.0
 10
428.7379780855941
 20
608.8137277054346
 30
0.0
 10
417.9348992503209
 20
608.8061880382381
 30
0.0
 10
407.1308743071587
 20
608.7990327520574
 30
0.0
 10
396.3258734025234
 20
608.7922888119203
 30
0.0
 10
388.6163072062003
 20
608.7876466080673
 30
0.0
 10
384.5084536576149
 20
608.785347351838
 30
0.0
 10
384.0025922229763
 20
608.7850642100363
 30
0.0
  0
SPLINE
  5
9F
330
1F
100
AcDbEntity
  8
0
  6
Continuous
 62
     7
370
    15
100
AcDbSpline
210
0.0
220
0.0
230
1.0
 70
     8
 71
     3
 72
    20
 73
    16
 74
     0
 42
0.0000000001
 43
0.0000000001
 40
0.0
 40
0.0
 40
0.0
 40
0.0
 40
0.062041467262014
 40
0.1281764474951653
 40
0.1985994779563205
 40
0.2735104895909974
 40
0.3531147939248375
 40
0.4376230708566744
 40
0.5076033047984982
 40
0.5808513615925013
 40
0.6574763824744578
 40
0.7375895407022641
 40
0.8213040390061724
 40
0.9087351072079135
 40
1.0
 40
1.0
 40
1.0
 40
1.0
 10
509.1375884991824
 20
618.9679646184933
 30
0.0
 10
503.6012307954521
 20
618.9679645784981
 30
0.0
 10
492.163224993144
 20
618.9679644958688
 30
0.0
 10
474.4404129133027
 20
618.9679643757557
 30
0.0
 10
455.5700748767359
 20
618.9679642535979
 30
0.0
 10
435.4996368619088
 20
618.9679641301885
 30
0.0
 10
414.1753207288163
 20
618.9679640054923
 30
0.0
 10
393.2945088002018
 20
618.967963889461
 30
0.0
 10
372.9844066746251
 20
618.9679637816022
 30
0.0
 10
353.3808751039765
 20
618.9679636816293
 30
0.0
 10
332.877860486725
 20
618.9679635812503
 30
0.0
 10
311.4462658910647
 20
618.9679634805267
 30
0.0
 10
289.0566348123105
 20
618.9679633796297
 30
0.0
 10
265.6783580509485
 20
618.9679632783005
 30
0.0
 10
249.7631992017694
 20
618.9679632128658
 30
0.0
 10
241.6348942414266
 20
618.9679631794465
 30
0.0
  0
LINE
  5
A0
330
1F
100
AcDbEntity
  8
0
  6
Continuous
 62
     7
370
    15
100
AcDbLine
 10
68.77706603120238
 20
609.7706760821514
 30
0.0
 11
286.0446470090721
 21
609.67114633128
 31
0.0
  0
LINE
  5
A1
330
1F
100
AcDbEntity
  8
0
  6
Continuous
 62
     7
370
    15
100
AcDbLine
 10
68.77706603120238
 20
608.7087482867413
 30
0.0
 11
68.77706603120238
 21
609.7706760821514
 31
0.0
  0
LINE
  5
A2
330
1F
100
AcDbEntity
  8
0
  6
Continuous
 62
     7
370
    15
100
AcDbLine
 10
68.77706603120238
 20
609.7706760821514
 30
0.0
 11
747.7734649569836
 21
609.7706608233623
 31
0.0
  0
LINE
  5
A3
330
1F
100
AcDbEntity
  8
0
  6
Continuous
 62
     7
370
    15
100
AcDbLine
 10
747.7734649569836
 20
608.7087330279522
 30
0.0
 11
737.1634682269671
 21
608.7087332961902
 31
0.0
  0
LINE
  5
A4
330
1F
100
AcDbEntity
  8
0
  6
Continuous
 62
     7
370
    15
100
AcDbLine
 10
747.7734649569836
 20
608.7087330279522
 30
0.0
 11
68.77706603120238
 21
608.7087482867413
 31
0.0
  0
LINE
  5
A5
330
1F
100
AcDbEntity
  8
0
  6
Continuous
 62
     7
370
    15
100
AcDbLine
 10
747.7734649569836
 20
609.7706608233623
 30
0.0
 11
747.7734649569836
 21
608.7087330279522
 31
0.0
  0
LINE
  5
A6
330
1F
100
AcDbEntity
  8
0
  6
Continuous
 62
     7
370
    15
100
AcDbLine
 10
730.5669180018079
 20
609.4596299168192
 30
0.0
 11
536.6707279687189
 21
609.4596348188315
 31
0.0
  0
LINE
  5
A7
330
1F
100
AcDbEntity
  8
0
  6
Continuous
 62
     7
370
    15
100
AcDbLine
 10
536.670687968719
 20
609.4596348188325
 30
0.0
 11
532.285777533474
 21
609.4596349296903
 31
0.0
  0
LINE
  5
A8
330
1F
100
AcDbEntity
  8
0
  6
Continuous
 62
     7
370
    15
100
AcDbLine
 10
68.7770660312023
 20
609.7706760821514
 30
0.0
 11
68.77706603120238
 21
618.3778156695538
 31
0.0
  0
LINE
  5
A9
330
1F
100
AcDbEntity
  8
0
  6
Continuous
 62
     7
370
    15
100
AcDbLine
 10
747.7734649569836
 20
618.377798503416
 30
0.0
 11
68.77706603120238
 21
618.3778156695538
 31
0.0
  0
LINE
  5
AA
330
1F
100
AcDbEntity
  8
0
  6
Continuous
 62
     7
370
    15
100
AcDbLine
 10
747.7734649569836
 20
609.7706608233623
 30
0.0
 11
747.7734649569836
 21
618.377798503416
 31
0.0
  0
LINE
  5
AB
330
1F
100
AcDbEntity
  8
0
  6
Continuous
 62
     7
370
    15
100
AcDbLine
 10
104.07137755464
 20
608.7087493017919
 30
0.0
 11
104.0713775546399
 21
536.588419383543
 31
0.0
  0
LINE
  5
AC
330
1F
100
AcDbEntity
  8
0
  6
Continuous
 62
     7
370
    15
100
AcDbLine
 10
719.2129180819837
 20
608.7087337500094
 30
0.0
 11
719.2129180819837
 21
536.5883888659649
 31
0.0
  0
LINE
  5
AD
330
1F
100
AcDbEntity
  8
0
  6
Continuous
 62
     7
370
    15
100
AcDbLine
 10
719.2129180819837
 20
536.5883888659649
 30
0.0
 11
104.0713775546399
 21
536.588419383543
 31
0.0
  0
LINE
  5
AE
330
1F
100
AcDbEntity
  8
0
  6
Continuous
 62
     7
370
    15
100
AcDbLine
 10
741.1630523593274
 20
624.5885912638835
 30
0.0
 11
75.84396056245245
 21
624.5885832020435
 31
0.0
  0
LINE
  5
AF
330
1F
100
AcDbEntity
  8
0
  6
Continuous
 62
     7
370
    15
100
AcDbLine
 10
74.80221251557735
 20
623.1154007373028
 30
0.0
 11
74.80221256298873
 21
618.9679569659404
 31
0.0
  0
LINE
  5
B0
330
1F
100
AcDbEntity
  8
0
  6
Continuous
 62
     7
370
    15
100
AcDbLine
 10
742.2047393710462
 20
623.1154083666973
 30
0.0
 11
742.2047394184576
 21
618.967964595335
 31
0.0
  0
LINE
  5
B1
330
1F
100
AcDbEntity
  8
0
  6
Continuous
 62
     7
370
    15
100
AcDbLine
 10
74.80221251557735
 20
623.1154007373028
 30
0.0
 11
742.2047393710462
 21
623.1154083666973
 31
0.0
  0
LINE
  5
B2
330
1F
100
AcDbEntity
  8
0
  6
Continuous
 62
     7
370
    15
100
AcDbLine
 10
74.80221256298873
 20
618.9679569659404
 30
0.0
 11
742.2047394184576
 21
618.967964595335
 31
0.0
  0
LINE
  5
B3
330
1F
100
AcDbEntity
  8
0
  6
Continuous
 62
     7
370
    15
100
AcDbLine
 10
742.2047393710462
 20
618.967964595335
 30
0.0
 11
74.80221251557735
 21
618.9679626879864
 31
0.0
  0
LINE
  5
B4
330
1F
100
AcDbEntity
  8
0
  6
Continuous
 62
     7
370
    15
100
AcDbLine
 10
74.86727599213989
 20
623.759920543211
 30
0.0
 11
74.80221251557735
 21
623.1154007373028
 31
0.0
  0
LINE
  5
B5
330
1F
100
AcDbEntity
  8
0
  6
Continuous
 62
     7
370
    15
100
AcDbLine
 10
75.06271056245239
 20
624.2202934680157
 30
0.0
 11
74.86727599213989
 21
623.759920543211
 31
0.0
  0
LINE
  5
B6
330
1F
100
AcDbEntity
  8
0
  6
Continuous
 62
     7
370
    15
100
AcDbLine
 10
75.3882110507336
 20
624.4965156970196
 30
0.0
 11
75.06271056245239
 21
624.2202934680157
 31
0.0
  0
LINE
  5
B7
330
1F
100
AcDbEntity
  8
0
  6
Continuous
 62
     7
370
    15
100
AcDbLine
 10
75.84396056245238
 20
624.5885910449199
 30
0.0
 11
75.3882110507336
 21
624.4965156970196
 31
0.0
  0
LINE
  5
B8
330
1F
100
AcDbEntity
  8
0
  6
Continuous
 62
     7
370
    15
100
AcDbLine
 10
93.68816832612425
 20
624.5885910449199
 30
0.0
 11
94.14391783784294
 21
624.4965156970196
 31
0.0
  0
LINE
  5
B9
330
1F
100
AcDbEntity
  8
0
  6
Continuous
 62
     7
370
    15
100
AcDbLine
 10
94.14391783784294
 20
624.4965156970196
 30
0.0
 11
94.46941832612424
 21
624.2202934680157
 31
0.0
  0
LINE
  5
BA
330
1F
100
AcDbEntity
  8
0
  6
Continuous
 62
     7
370
    15
100
AcDbLine
 10
94.46941832612424
 20
624.2202934680157
 30
0.0
 11
94.66479186128051
 21
623.759920543211
 31
0.0
  0
LINE
  5
BB
330
1F
100
AcDbEntity
  8
0
  6
Continuous
 62
     7
370
    15
100
AcDbLine
 10
94.66479186128051
 20
623.759920543211
 30
0.0
 11
94.72991637299928
 21
623.1154007373028
 31
0.0
  0
LINE
  5
BC
330
1F
100
AcDbEntity
  8
0
  6
Continuous
 62
     7
370
    15
100
AcDbLine
 10
742.1396758944837
 20
623.7599281726055
 30
0.0
 11
742.2047393710462
 21
623.1154083666973
 31
0.0
  0
LINE
  5
BD
330
1F
100
AcDbEntity
  8
0
  6
Continuous
 62
     7
370
    15
100
AcDbLine
 10
741.9443328769055
 20
624.2202934680157
 30
0.0
 11
741.9443328769055
 21
624.2203010974102
 31
0.0
  0
LINE
  5
BE
330
1F
100
AcDbEntity
  8
0
  6
Continuous
 62
     7
370
    15
100
AcDbLine
 10
741.9443328769055
 20
624.2203010974102
 30
0.0
 11
742.1396758944837
 21
623.7599281726055
 31
0.0
  0
LINE
  5
BF
330
1F
100
AcDbEntity
  8
0
  6
Continuous
 62
     7
370
    15
100
AcDbLine
 10
741.9443328769055
 20
624.2202934680157
 30
0.0
 11
742.1396758944837
 21
623.7599281726055
 31
0.0
  0
LINE
  5
C0
330
1F
100
AcDbEntity
  8
0
  6
Continuous
 62
     7
370
    15
100
AcDbLine
 10
741.6188323886242
 20
624.4965233264141
 30
0.0
 11
741.9443328769055
 21
624.2203010974102
 31
0.0
  0
LINE
  5
C1
330
1F
100
AcDbEntity
  8
0
  6
Continuous
 62
     7
370
    15
100
AcDbLine
 10
741.6188323886242
 20
624.4965233264141
 30
0.0
 11
741.9443328769055
 21
624.2202934680157
 31
0.0
  0
LINE
  5
C2
330
1F
100
AcDbEntity
  8
0
  6
Continuous
 62
     7
370
    15
100
AcDbLine
 10
741.1630523593274
 20
624.5885986743145
 30
0.0
 11
741.6188323886242
 21
624.4965233264141
 31
0.0
  0
LINE
  5
C3
330
1F
100
AcDbEntity
  8
0
  6
Continuous
 62
     7
370
    15
100
AcDbLine
 10
741.1630523593274
 20
624.5885910449199
 30
0.0
 11
741.1630523593274
 21
624.5885986743145
 31
0.0
  0
LINE
  5
C4
330
1F
100
AcDbEntity
  8
0
  6
Continuous
 62
     7
370
    15
100
AcDbLine
 10
741.1630523593274
 20
624.5885910449199
 30
0.0
 11
741.6188323886242
 21
624.4965233264141
 31
0.0
  0
LINE
  5
C5
330
1F
100
AcDbEntity
  8
0
  6
Continuous
 62
     7
370
    15
100
AcDbLine
 10
723.3188445956556
 20
624.5885910449199
 30
0.0
 11
722.8630950839368
 21
624.4965233264141
 31
0.0
  0
LINE
  5
C6
330
1F
100
AcDbEntity
  8
0
  6
Continuous
 62
     7
370
    15
100
AcDbLine
 10
723.3188445956556
 20
624.5885910449199
 30
0.0
 11
723.3188445956556
 21
624.5885986743145
 31
0.0
  0
LINE
  5
C7
330
1F
100
AcDbEntity
  8
0
  6
Continuous
 62
     7
370
    15
100
AcDbLine
 10
723.3188445956556
 20
624.5885986743145
 30
0.0
 11
722.8630950839368
 21
624.4965233264141
 31
0.0
  0
LINE
  5
C8
330
1F
100
AcDbEntity
  8
0
  6
Continuous
 62
     7
370
    15
100
AcDbLine
 10
722.8630950839368
 20
624.4965233264141
 30
0.0
 11
722.5375030429212
 21
624.2203010974102
 31
0.0
  0
LINE
  5
C9
330
1F
100
AcDbEntity
  8
0
  6
Continuous
 62
     7
370
    15
100
AcDbLine
 10
722.5375030429212
 20
624.2203010974102
 30
0.0
 11
722.3421905429211
 21
623.7599281726055
 31
0.0
  0
LINE
  5
CA
330
1F
100
AcDbEntity
  8
0
  6
Continuous
 62
     7
370
    15
100
AcDbLine
 10
722.3421905429211
 20
623.7599281726055
 30
0.0
 11
722.2770965487805
 21
623.1154083666973
 31
0.0
  0
LINE
  5
CB
330
1F
100
AcDbEntity
  8
0
  6
Continuous
 62
     7
370
    15
100
AcDbLine
 10
724.3659332187024
 20
618.8235287127667
 30
0.0
 11
724.3659312719948
 21
618.8235287127667
 31
0.0
  0
LINE
  5
CC
330
1F
100
AcDbEntity
  8
0
  6
Continuous
 62
     7
370
    15
100
AcDbLine
 10
724.3659312719948
 20
618.8235287127667
 30
0.0
 11
724.3659312719948
 21
618.967968308071
 31
0.0
  0
LINE
  5
CD
330
1F
100
AcDbEntity
  8
0
  6
Continuous
 62
     7
370
    15
100
AcDbLine
 10
91.74435118745231
 20
618.8235229907207
 30
0.0
 11
91.74434924074473
 21
618.8235229907207
 31
0.0
  0
LINE
  5
CE
330
1F
100
AcDbEntity
  8
0
  6
Continuous
 62
     7
370
    15
100
AcDbLine
 10
91.74434924074473
 20
618.8235229907207
 30
0.0
 11
724.3659312719948
 21
618.8235287127667
 31
0.0
  0
LINE
  5
CF
330
1F
100
AcDbEntity
  8
0
  6
Continuous
 62
     7
370
    15
100
AcDbLine
 10
91.74434924074473
 20
618.9679627378949
 30
0.0
 11
91.74434924074473
 21
618.8235229907207
 31
0.0
  0
ENDSEC
  0
SECTION
  2
OBJECTS
  0
DICTIONARY
  5
C
330
0
100
AcDbDictionary
281
     1
  3
ACAD_COLOR
350
FB
  3
ACAD_GROUP
350
D
  3
ACAD_LAYOUT
350
1A
  3
ACAD_MATERIAL
350
D1
  3
ACAD_MLEADERSTYLE
350
110
  3
ACAD_MLINESTYLE
350
17
  3
ACAD_PLOTSETTINGS
350
19
  3
ACAD_PLOTSTYLENAME
350
E
  3
ACAD_SCALELIST
350
FE
  3
ACAD_TABLESTYLE
350
FC
  3
ACAD_VISUALSTYLE
350
EA
  3
ACDB_RECOMPOSE_DATA
350
14B
  3
AcDbVariableDictionary
350
141
  0
DICTIONARY
  5
13F
330
10
100
AcDbDictionary
280
     1
281
     1
  3
ADSK_XREC_LAYER_RECONCILED
360
140
  0
DICTIONARY
  5
FB
102
{ACAD_REACTORS
330
C
102
}
330
C
100
AcDbDictionary
281
     1
  0
DICTIONARY
  5
D
102
{ACAD_REACTORS
330
C
102
}
330
C
100
AcDbDictionary
281
     1
  0
DICTIONARY
  5
1A
102
{ACAD_REACTORS
330
C
102
}
330
C
100
AcDbDictionary
281
     1
  3
Layout1
350
1E
  3
Layout2
350
26
  3
Model
350
22
  0
DICTIONARY
  5
D1
102
{ACAD_REACTORS
330
C
102
}
330
C
100
AcDbDictionary
281
     1
  3
ByBlock
350
DA
  3
ByLayer
350
D2
  3
Global
350
E2
  0
DICTIONARY
  5
110
102
{ACAD_REACTORS
330
C
102
}
330
C
100
AcDbDictionary
281
     1
  3
Standard
350
111
  0
DICTIONARY
  5
17
102
{ACAD_REACTORS
330
C
102
}
330
C
100
AcDbDictionary
281
     1
  3
Standard
350
18
  0
DICTIONARY
  5
19
102
{ACAD_REACTORS
330
C
102
}
330
C
100
AcDbDictionary
281
     1
  0
ACDBDICTIONARYWDFLT
  5
E
102
{ACAD_REACTORS
330
C
102
}
330
C
100
AcDbDictionary
281
     1
  3
Normal
350
F
100
AcDbDictionaryWithDefault
340
F
  0
DICTIONARY
  5
FE
102
{ACAD_REACTORS
330
C
102
}
330
C
100
AcDbDictionary
281
     1
  3
A0
350
FF
  3
A1
350
100
  3
A2
350
101
  3
A3
350
102
  3
A4
350
103
  3
A5
350
104
  3
A6
350
105
  3
A7
350
106
  3
A8
350
107
  3
A9
350
108
  3
B0
350
109
  3
B1
350
10A
  3
B2
350
10B
  3
B3
350
10C
  3
B4
350
10D
  3
B5
350
10E
  3
B6
350
10F
  0
DICTIONARY
  5
FC
102
{ACAD_REACTORS
330
C
102
}
330
C
100
AcDbDictionary
281
     1
  3
Standard
350
FD
  0
DICTIONARY
  5
EA
102
{ACAD_REACTORS
330
C
102
}
330
C
100
AcDbDictionary
281
     1
  3
2dWireframe
350
F0
  3
3D Hidden
350
F2
  3
3dWireframe
350
F1
  3
Basic
350
EF
  3
Brighten
350
F6
  3
ColorChange
350
FA
  3
Conceptual
350
F3
  3
Dim
350
F5
  3
Facepattern
350
F9
  3
Flat
350
EB
  3
FlatWithEdges
350
EC
  3
Gouraud
350
ED
  3
GouraudWithEdges
350
EE
  3
Linepattern
350
F8
  3
Realistic
350
F4
  3
Thicken
350
F7
  0
XRECORD
  5
14B
102
{ACAD_REACTORS
330
C
102
}
330
C
100
AcDbXrecord
280
     1
 90
        1
330
FD
  0
DICTIONARY
  5
141
102
{ACAD_REACTORS
330
C
102
}
330
C
100
AcDbDictionary
281
     1
  3
CANNOSCALE
350
145
  3
CMLEADERSTYLE
350
143
  3
CTABLESTYLE
350
142
  3
LAYEREVAL
350
147
  3
LAYERNOTIFY
350
148
  3
LIGHTINGUNITS
350
146
  3
MSLTSCALE
350
144
  0
XRECORD
  5
140
102
{ACAD_REACTORS
330
13F
102
}
330
13F
100
AcDbXrecord
280
     1
290
     1
  0
LAYOUT
  5
1E
102
{ACAD_REACTORS
330
1A
102
}
330
1A
100
AcDbPlotSettings
  1

  2
none_device
  4

  6

 40
0.0
 41
0.0
 42
0.0
 43
0.0
 44
0.0
 45
0.0
 46
0.0
 47
0.0
 48
0.0
 49
0.0
140
0.0
141
0.0
142
1.0
143
1.0
 70
   688
 72
     0
 73
     0
 74
     5
  7

 75
    16
147
1.0
 76
     0
 77
     2
 78
   300
148
0.0
149
0.0
100
AcDbLayout
  1
Layout1
 70
     1
 71
     1
 10
0.0
 20
0.0
 11
420.0
 21
297.0
 12
0.0
 22
0.0
 32
0.0
 14
1.000000000000000E+20
 24
1.000000000000000E+20
 34
1.000000000000000E+20
 15
-1.000000000000000E+20
 25
-1.000000000000000E+20
 35
-1.000000000000000E+20
146
0.0
 13
0.0
 23
0.0
 33
0.0
 16
1.0
 26
0.0
 36
0.0
 17
0.0
 27
1.0
 37
0.0
 76
     0
330
1B
  0
LAYOUT
  5
26
102
{ACAD_REACTORS
330
1A
102
}
330
1A
100
AcDbPlotSettings
  1

  2
none_device
  4

  6

 40
0.0
 41
0.0
 42
0.0
 43
0.0
 44
0.0
 45
0.0
 46
0.0
 47
0.0
 48
0.0
 49
0.0
140
0.0
141
0.0
142
1.0
143
1.0
 70
   688
 72
     0
 73
     0
 74
     5
  7

 75
    16
147
1.0
 76
     0
 77
     2
 78
   300
148
0.0
149
0.0
100
AcDbLayout
  1
Layout2
 70
     1
 71
     2
 10
0.0
 20
0.0
 11
0.0
 21
0.0
 12
0.0
 22
0.0
 32
0.0
 14
0.0
 24
0.0
 34
0.0
 15
0.0
 25
0.0
 35
0.0
146
0.0
 13
0.0
 23
0.0
 33
0.0
 16
1.0
 26
0.0
 36
0.0
 17
0.0
 27
1.0
 37
0.0
 76
     0
330
23
  0
LAYOUT
  5
22
102
{ACAD_REACTORS
330
1A
102
}
330
1A
100
AcDbPlotSettings
  1

  2
none_device
  4

  6

 40
0.0
 41
0.0
 42
0.0
 43
0.0
 44
0.0
 45
0.0
 46
0.0
 47
0.0
 48
0.0
 49
0.0
140
0.0
141
0.0
142
1.0
143
1.0
 70
  1712
 72
     0
 73
     0
 74
     0
  7

 75
     0
147
1.0
 76
     0
 77
     2
 78
   300
148
0.0
149
0.0
100
AcDbLayout
  1
Model
 70
     1
 71
     0
 10
0.0
 20
0.0
 11
1397.0
 21
1079.5
 12
0.0
 22
0.0
 32
0.0
 14
0.0
 24
0.0
 34
0.0
 15
1397.0
 25
1079.5
 35
0.0
146
0.0
 13
0.0
 23
0.0
 33
0.0
 16
1.0
 26
0.0
 36
0.0
 17
0.0
 27
1.0
 37
0.0
 76
     0
330
1F
331
29
  0
MATERIAL
  5
DA
102
{ACAD_XDICTIONARY
360
DB
102
}
102
{ACAD_REACTORS
330
D1
102
}
330
D1
100
AcDbMaterial
  1
ByBlock
 72
     0
 43
0.0008202099737533
 43
0.0
 43
0.0
 43
0.0
 43
0.0
 43
0.0008202099737533
 43
0.0
 43
0.0
 43
0.0
 43
0.0
 43
1.0
 43
0.0
 43
0.0
 43
0.0
 43
0.0
 43
1.0
 77
     0
 47
0.0008202099737533
 47
0.0
 47
0.0
 47
0.0
 47
0.0
 47
0.0008202099737533
 47
0.0
 47
0.0
 47
0.0
 47
0.0
 47
1.0
 47
0.0
 47
0.0
 47
0.0
 47
0.0
 47
1.0
171
     0
 49
0.0008202099737533
 49
0.0
 49
0.0
 49
0.0
 49
0.0
 49
0.0008202099737533
 49
0.0
 49
0.0
 49
0.0
 49
0.0
 49
1.0
 49
0.0
 49
0.0
 49
0.0
 49
0.0
 49
1.0
175
     0
142
0.0008202099737533
142
0.0
142
0.0
142
0.0
142
0.0
142
0.0008202099737533
142
0.0
142
0.0
142
0.0
142
0.0
142
1.0
142
0.0
142
0.0
142
0.0
142
0.0
142
1.0
179
     0
144
0.0008202099737533
144
0.0
144
0.0
144
0.0
144
0.0
144
0.0008202099737533
144
0.0
144
0.0
144
0.0
144
0.0
144
1.0
144
0.0
144
0.0
144
0.0
144
0.0
144
1.0
147
0.0008202099737533
147
0.0
147
0.0
147
0.0
147
0.0
147
0.0008202099737533
147
0.0
147
0.0
147
0.0
147
0.0
147
1.0
147
0.0
147
0.0
147
0.0
147
0.0
147
1.0
  0
MATERIAL
  5
D2
102
{ACAD_XDICTIONARY
360
D3
102
}
102
{ACAD_REACTORS
330
D1
102
}
330
D1
100
AcDbMaterial
  1
ByLayer
 72
     0
 43
0.0008202099737533
 43
0.0
 43
0.0
 43
0.0
 43
0.0
 43
0.0008202099737533
 43
0.0
 43
0.0
 43
0.0
 43
0.0
 43
1.0
 43
0.0
 43
0.0
 43
0.0
 43
0.0
 43
1.0
 77
     0
 47
0.0008202099737533
 47
0.0
 47
0.0
 47
0.0
 47
0.0
 47
0.0008202099737533
 47
0.0
 47
0.0
 47
0.0
 47
0.0
 47
1.0
 47
0.0
 47
0.0
 47
0.0
 47
0.0
 47
1.0
171
     0
 49
0.0008202099737533
 49
0.0
 49
0.0
 49
0.0
 49
0.0
 49
0.0008202099737533
 49
0.0
 49
0.0
 49
0.0
 49
0.0
 49
1.0
 49
0.0
 49
0.0
 49
0.0
 49
0.0
 49
1.0
175
     0
142
0.0008202099737533
142
0.0
142
0.0
142
0.0
142
0.0
142
0.0008202099737533
142
0.0
142
0.0
142
0.0
142
0.0
142
1.0
142
0.0
142
0.0
142
0.0
142
0.0
142
1.0
179
     0
144
0.0008202099737533
144
0.0
144
0.0
144
0.0
144
0.0
144
0.0008202099737533
144
0.0
144
0.0
144
0.0
144
0.0
144
1.0
144
0.0
144
0.0
144
0.0
144
0.0
144
1.0
147
0.0008202099737533
147
0.0
147
0.0
147
0.0
147
0.0
147
0.0008202099737533
147
0.0
147
0.0
147
0.0
147
0.0
147
1.0
147
0.0
147
0.0
147
0.0
147
0.0
147
1.0
  0
MATERIAL
  5
E2
102
{ACAD_XDICTIONARY
360
E3
102
}
102
{ACAD_REACTORS
330
D1
102
}
330
D1
100
AcDbMaterial
  1
Global
 72
     0
 43
0.0008202099737533
 43
0.0
 43
0.0
 43
0.0
 43
0.0
 43
0.0008202099737533
 43
0.0
 43
0.0
 43
0.0
 43
0.0
 43
1.0
 43
0.0
 43
0.0
 43
0.0
 43
0.0
 43
1.0
 77
     0
 47
0.0008202099737533
 47
0.0
 47
0.0
 47
0.0
 47
0.0
 47
0.0008202099737533
 47
0.0
 47
0.0
 47
0.0
 47
0.0
 47
1.0
 47
0.0
 47
0.0
 47
0.0
 47
0.0
 47
1.0
171
     0
 49
0.0008202099737533
 49
0.0
 49
0.0
 49
0.0
 49
0.0
 49
0.0008202099737533
 49
0.0
 49
0.0
 49
0.0
 49
0.0
 49
1.0
 49
0.0
 49
0.0
 49
0.0
 49
0.0
 49
1.0
175
     0
142
0.0008202099737533
142
0.0
142
0.0
142
0.0
142
0.0
142
0.0008202099737533
142
0.0
142
0.0
142
0.0
142
0.0
142
1.0
142
0.0
142
0.0
142
0.0
142
0.0
142
1.0
179
     0
144
0.0008202099737533
144
0.0
144
0.0
144
0.0
144
0.0
144
0.0008202099737533
144
0.0
144
0.0
144
0.0
144
0.0
144
1.0
144
0.0
144
0.0
144
0.0
144
0.0
144
1.0
147
0.0008202099737533
147
0.0
147
0.0
147
0.0
147
0.0
147
0.0008202099737533
147
0.0
147
0.0
147
0.0
147
0.0
147
1.0
147
0.0
147
0.0
147
0.0
147
0.0
147
1.0
  0
MLEADERSTYLE
  5
111
102
{ACAD_REACTORS
330
110
102
}
330
110
100
AcDbMLeaderStyle
170
     2
171
     1
172
     0
 90
        2
 40
0.0
 41
0.0
173
     1
 91
-1056964608
340
14
 92
       -2
290
     1
 42
2.0
291
     1
 43
0.36
  3
Standard
 44
4.0
300

342
11
174
     1
178
     6
175
     1
176
     0
 93
-1056964608
 45
4.0
292
     0
297
     0
 46
4.0
 94
-1056964608
 47
1.0
 49
1.0
140
1.0
293
     1
141
0.0
294
     1
177
     0
142
1.0
295
     1
296
     0
143
0.125
1001
ACAD_MLEADERVER
1070
     2
  0
MLINESTYLE
  5
18
102
{ACAD_REACTORS
330
17
102
}
330
17
100
AcDbMlineStyle
  2
STANDARD
 70
     0
  3

 62
   256
 51
90.0
 52
90.0
 71
     2
 49
0.5
 62
   256
  6
BYLAYER
 49
-0.5
 62
   256
  6
BYLAYER
  0
ACDBPLACEHOLDER
  5
F
102
{ACAD_REACTORS
330
E
102
}
330
E
  0
SCALE
  5
FF
102
{ACAD_REACTORS
330
FE
102
}
330
FE
100
AcDbScale
 70
     0
300
1:1
140
1.0
141
1.0
290
     1
  0
SCALE
  5
100
102
{ACAD_REACTORS
330
FE
102
}
330
FE
100
AcDbScale
 70
     0
300
1:2
140
1.0
141
2.0
290
     0
  0
SCALE
  5
101
102
{ACAD_REACTORS
330
FE
102
}
330
FE
100
AcDbScale
 70
     0
300
1:4
140
1.0
141
4.0
290
     0
  0
SCALE
  5
102
102
{ACAD_REACTORS
330
FE
102
}
330
FE
100
AcDbScale
 70
     0
300
1:5
140
1.0
141
5.0
290
     0
  0
SCALE
  5
103
102
{ACAD_REACTORS
330
FE
102
}
330
FE
100
AcDbScale
 70
     0
300
1:8
140
1.0
141
8.0
290
     0
  0
SCALE
  5
104
102
{ACAD_REACTORS
330
FE
102
}
330
FE
100
AcDbScale
 70
     0
300
1:10
140
1.0
141
10.0
290
     0
  0
SCALE
  5
105
102
{ACAD_REACTORS
330
FE
102
}
330
FE
100
AcDbScale
 70
     0
300
1:16
140
1.0
141
16.0
290
     0
  0
SCALE
  5
106
102
{ACAD_REACTORS
330
FE
102
}
330
FE
100
AcDbScale
 70
     0
300
1:20
140
1.0
141
20.0
290
     0
  0
SCALE
  5
107
102
{ACAD_REACTORS
330
FE
102
}
330
FE
100
AcDbScale
 70
     0
300
1:30
140
1.0
141
30.0
290
     0
  0
SCALE
  5
108
102
{ACAD_REACTORS
330
FE
102
}
330
FE
100
AcDbScale
 70
     0
300
1:40
140
1.0
141
40.0
290
     0
  0
SCALE
  5
109
102
{ACAD_REACTORS
330
FE
102
}
330
FE
100
AcDbScale
 70
     0
300
1:50
140
1.0
141
50.0
290
     0
  0
SCALE
  5
10A
102
{ACAD_REACTORS
330
FE
102
}
330
FE
100
AcDbScale
 70
     0
300
1:100
140
1.0
141
100.0
290
     0
  0
SCALE
  5
10B
102
{ACAD_REACTORS
330
FE
102
}
330
FE
100
AcDbScale
 70
     0
300
2:1
140
2.0
141
1.0
290
     0
  0
SCALE
  5
10C
102
{ACAD_REACTORS
330
FE
102
}
330
FE
100
AcDbScale
 70
     0
300
4:1
140
4.0
141
1.0
290
     0
  0
SCALE
  5
10D
102
{ACAD_REACTORS
330
FE
102
}
330
FE
100
AcDbScale
 70
     0
300
8:1
140
8.0
141
1.0
290
     0
  0
SCALE
  5
10E
102
{ACAD_REACTORS
330
FE
102
}
330
FE
100
AcDbScale
 70
     0
300
10:1
140
10.0
141
1.0
290
     0
  0
SCALE
  5
10F
102
{ACAD_REACTORS
330
FE
102
}
330
FE
100
AcDbScale
 70
     0
300
100:1
140
100.0
141
1.0
290
     0
  0
TABLESTYLE
  5
FD
102
{ACAD_XDICTIONARY
360
149
102
}
102
{ACAD_REACTORS
330
FC
102
}
330
FC
100
AcDbTableStyle
  3
Standard
 70
     0
 71
     0
 40
1.5
 41
1.5
280
     0
281
     0
  7
Standard
140
4.5
170
     2
 62
     0
 63
     7
283
     0
 90
      512
 91
        0
  1

274
    -2
284
     1
 64
     0
275
    -2
285
     1
 65
     0
276
    -2
286
     1
 66
     0
277
    -2
287
     1
 67
     0
278
    -2
288
     1
 68
     0
279
    -2
289
     1
 69
     0
  7
Standard
140
6.0
170
     5
 62
     0
 63
     7
283
     0
 90
      512
 91
        0
  1

274
    -2
284
     1
 64
     0
275
    -2
285
     1
 65
     0
276
    -2
286
     1
 66
     0
277
    -2
287
     1
 67
     0
278
    -2
288
     1
 68
     0
279
    -2
289
     1
 69
     0
  7
Standard
140
4.5
170
     5
 62
     0
 63
     7
283
     0
 90
      512
 91
        0
  1

274
    -2
284
     1
 64
     0
275
    -2
285
     1
 65
     0
276
    -2
286
     1
 66
     0
277
    -2
287
     1
 67
     0
278
    -2
288
     1
 68
     0
279
    -2
289
     1
 69
     0
  0
VISUALSTYLE
  5
F0
102
{ACAD_REACTORS
330
EA
102
}
330
EA
100
AcDbVisualStyle
  2
2dWireframe
 70
     4
 71
     0
 72
     2
 73
     0
 90
        0
 40
-0.6
 41
-30.0
 62
     5
 63
     7
421
 16777215
 74
     1
 91
        4
 64
     7
 65
   257
 75
     1
175
     1
 42
1.0
 92
        0
 66
   257
 43
1.0
 76
     1
 77
     6
 78
     2
 67
     7
 79
     5
170
     0
171
     0
290
     0
174
     0
 93
        1
 44
0.0
173
     0
291
     0
 45
0.0
  0
VISUALSTYLE
  5
F2
102
{ACAD_REACTORS
330
EA
102
}
330
EA
100
AcDbVisualStyle
  2
3D Hidden
 70
     6
 71
     1
 72
     2
 73
     2
 90
        0
 40
-0.6
 41
-30.0
 62
     5
 63
     7
421
 16777215
 74
     2
 91
        2
 64
     7
 65
   257
 75
     2
175
     1
 42
40.0
 92
        0
 66
   257
 43
1.0
 76
     1
 77
     6
 78
     2
 67
     7
 79
     3
170
     0
171
     0
290
     0
174
     0
 93
        1
 44
0.0
173
     0
291
     0
 45
0.0
  0
VISUALSTYLE
  5
F1
102
{ACAD_REACTORS
330
EA
102
}
330
EA
100
AcDbVisualStyle
  2
3dWireframe
 70
     5
 71
     0
 72
     2
 73
     0
 90
        0
 40
-0.6
 41
-30.0
 62
     5
 63
     7
421
 16777215
 74
     1
 91
        4
 64
     7
 65
   257
 75
     1
175
     1
 42
1.0
 92
        0
 66
   257
 43
1.0
 76
     1
 77
     6
 78
     2
 67
     7
 79
     5
170
     0
171
     0
290
     0
174
     0
 93
        1
 44
0.0
173
     0
291
     0
 45
0.0
  0
VISUALSTYLE
  5
EF
102
{ACAD_REACTORS
330
EA
102
}
330
EA
100
AcDbVisualStyle
  2
Basic
 70
     7
 71
     1
 72
     0
 73
     1
 90
        0
 40
-0.6
 41
-30.0
 62
     5
 63
     7
421
 16777215
 74
     0
 91
        4
 64
     7
 65
   257
 75
     1
175
     1
 42
1.0
 92
        8
 66
     7
 43
1.0
 76
     1
 77
     6
 78
     2
 67
     7
 79
     5
170
     0
171
     0
290
     0
174
     0
 93
        1
 44
0.0
173
     0
291
     1
 45
0.0
  0
VISUALSTYLE
  5
F6
102
{ACAD_REACTORS
330
EA
102
}
330
EA
100
AcDbVisualStyle
  2
Brighten
 70
    12
 71
     2
 72
     2
 73
     0
 90
        0
 40
-0.6
 41
-30.0
 62
     5
 63
     7
421
 16777215
 74
     1
 91
        4
 64
     7
 65
   257
 75
     1
175
     1
 42
1.0
 92
        8
 66
     7
 43
1.0
 76
     1
 77
     6
 78
     2
 67
     7
 79
     5
170
     0
171
     0
290
     0
174
     0
 93
        1
 44
50.0
173
     0
291
     1
 45
0.0
  0
VISUALSTYLE
  5
FA
102
{ACAD_REACTORS
330
EA
102
}
330
EA
100
AcDbVisualStyle
  2
ColorChange
 70
    16
 71
     2
 72
     2
 73
     3
 90
        0
 40
-0.6
 41
-30.0
 62
     5
 63
     8
421
  8421504
 74
     1
 91
        4
 64
     7
 65
   257
 75
     1
175
     1
 42
1.0
 92
        8
 66
     8
424
  8421504
 43
1.0
 76
     1
 77
     6
 78
     2
 67
     7
 79
     5
170
     0
171
     0
290
     0
174
     0
 93
        1
 44
0.0
173
     0
291
     1
 45
0.0
  0
VISUALSTYLE
  5
F3
102
{ACAD_REACTORS
330
EA
102
}
330
EA
100
AcDbVisualStyle
  2
Conceptual
 70
     9
 71
     3
 72
     2
 73
     0
 90
        0
 40
-0.6
 41
-30.0
 62
     5
 63
     7
421
 16777215
 74
     2
 91
        2
 64
     7
 65
   257
 75
     1
175
     1
 42
40.0
 92
        8
 66
     7
 43
1.0
 76
     1
 77
     6
 78
     2
 67
     7
 79
     3
170
     0
171
     0
290
     0
174
     0
 93
        1
 44
0.0
173
     0
291
     0
 45
0.0
  0
VISUALSTYLE
  5
F5
102
{ACAD_REACTORS
330
EA
102
}
330
EA
100
AcDbVisualStyle
  2
Dim
 70
    11
 71
     2
 72
     2
 73
     0
 90
        0
 40
-0.6
 41
-30.0
 62
     5
 63
     7
421
 16777215
 74
     1
 91
        4
 64
     7
 65
   257
 75
     1
175
     1
 42
1.0
 92
        8
 66
     7
 43
1.0
 76
     1
 77
     6
 78
     2
 67
     7
 79
     5
170
     0
171
     0
290
     0
174
     0
 93
        1
 44
-50.0
173
     0
291
     1
 45
0.0
  0
VISUALSTYLE
  5
F9
102
{ACAD_REACTORS
330
EA
102
}
330
EA
100
AcDbVisualStyle
  2
Facepattern
 70
    15
 71
     2
 72
     2
 73
     0
 90
        0
 40
-0.6
 41
-30.0
 62
     5
 63
     7
421
 16777215
 74
     1
 91
        4
 64
     7
 65
   257
 75
     1
175
     1
 42
1.0
 92
        8
 66
     7
 43
1.0
 76
     1
 77
     6
 78
     2
 67
     7
 79
     5
170
     0
171
     0
290
     0
174
     0
 93
        1
 44
0.0
173
     0
291
     1
 45
0.0
  0
VISUALSTYLE
  5
EB
102
{ACAD_REACTORS
330
EA
102
}
330
EA
100
AcDbVisualStyle
  2
Flat
 70
     0
 71
     2
 72
     1
 73
     1
 90
        2
 40
-0.6
 41
30.0
 62
     5
 63
     7
421
 16777215
 74
     0
 91
        4
 64
     7
 65
   257
 75
     1
175
     1
 42
1.0
 92
        8
 66
     7
 43
1.0
 76
     1
 77
     6
 78
     2
 67
     7
 79
     5
170
     0
171
     0
290
     0
174
     0
 93
       13
 44
0.0
173
     0
291
     1
 45
0.0
  0
VISUALSTYLE
  5
EC
102
{ACAD_REACTORS
330
EA
102
}
330
EA
100
AcDbVisualStyle
  2
FlatWithEdges
 70
     1
 71
     2
 72
     1
 73
     1
 90
        2
 40
-0.6
 41
30.0
 62
     5
 63
     7
421
 16777215
 74
     1
 91
        4
 64
     7
 65
   257
 75
     1
175
     1
 42
1.0
 92
        0
 66
   257
 43
1.0
 76
     1
 77
     6
 78
     2
 67
     7
 79
     5
170
     0
171
     0
290
     0
174
     0
 93
       13
 44
0.0
173
     0
291
     1
 45
0.0
  0
VISUALSTYLE
  5
ED
102
{ACAD_REACTORS
330
EA
102
}
330
EA
100
AcDbVisualStyle
  2
Gouraud
 70
     2
 71
     2
 72
     2
 73
     1
 90
        2
 40
-0.6
 41
30.0
 62
     5
 63
     7
421
 16777215
 74
     0
 91
        4
 64
     7
 65
   257
 75
     1
175
     1
 42
1.0
 92
        0
 66
     7
 43
1.0
 76
     1
 77
     6
 78
     2
 67
     7
 79
     5
170
     0
171
     0
290
     0
174
     0
 93
       13
 44
0.0
173
     0
291
     1
 45
0.0
  0
VISUALSTYLE
  5
EE
102
{ACAD_REACTORS
330
EA
102
}
330
EA
100
AcDbVisualStyle
  2
GouraudWithEdges
 70
     3
 71
     2
 72
     2
 73
     1
 90
        2
 40
-0.6
 41
30.0
 62
     5
 63
     7
421
 16777215
 74
     1
 91
        4
 64
     7
 65
   257
 75
     1
175
     1
 42
1.0
 92
        0
 66
   257
 43
1.0
 76
     1
 77
     6
 78
     2
 67
     7
 79
     5
170
     0
171
     0
290
     0
174
     0
 93
       13
 44
0.0
173
     0
291
     1
 45
0.0
  0
VISUALSTYLE
  5
F8
102
{ACAD_REACTORS
330
EA
102
}
330
EA
100
AcDbVisualStyle
  2
Linepattern
 70
    14
 71
     2
 72
     2
 73
     0
 90
        0
 40
-0.6
 41
-30.0
 62
     5
 63
     7
421
 16777215
 74
     1
 91
        4
 64
     7
 65
   257
 75
     7
175
     7
 42
1.0
 92
        8
 66
     7
 43
1.0
 76
     1
 77
     6
 78
     2
 67
     7
 79
     5
170
     0
171
     0
290
     0
174
     0
 93
        1
 44
0.0
173
     0
291
     1
 45
0.0
  0
VISUALSTYLE
  5
F4
102
{ACAD_REACTORS
330
EA
102
}
330
EA
100
AcDbVisualStyle
  2
Realistic
 70
     8
 71
     2
 72
     2
 73
     0
 90
        0
 40
-0.6
 41
-30.0
 62
     5
 63
     7
421
 16777215
 74
     1
 91
        0
 64
     7
 65
   257
 75
     1
175
     1
 42
1.0
 92
        8
 66
     8
424
  7895160
 43
1.0
 76
     1
 77
     6
 78
     2
 67
     7
 79
     5
170
     0
171
     0
290
     0
174
     0
 93
       13
 44
0.0
173
     0
291
     0
 45
0.0
  0
VISUALSTYLE
  5
F7
102
{ACAD_REACTORS
330
EA
102
}
330
EA
100
AcDbVisualStyle
  2
Thicken
 70
    13
 71
     2
 72
     2
 73
     0
 90
        0
 40
-0.6
 41
-30.0
 62
     5
 63
     7
421
 16777215
 74
     1
 91
        4
 64
     7
 65
   257
 75
     1
175
     1
 42
1.0
 92
       12
 66
     7
 43
1.0
 76
     1
 77
     6
 78
     2
 67
     7
 79
     5
170
     0
171
     0
290
     0
174
     0
 93
        1
 44
0.0
173
     0
291
     1
 45
0.0
  0
DICTIONARYVAR
  5
145
102
{ACAD_REACTORS
330
141
102
}
330
141
100
DictionaryVariables
280
     0
  1
1:1
  0
DICTIONARYVAR
  5
143
102
{ACAD_REACTORS
330
141
102
}
330
141
100
DictionaryVariables
280
     0
  1
STANDARD
  0
DICTIONARYVAR
  5
142
102
{ACAD_REACTORS
330
141
102
}
330
141
100
DictionaryVariables
280
     0
  1
STANDARD
  0
DICTIONARYVAR
  5
147
102
{ACAD_REACTORS
330
141
102
}
330
141
100
DictionaryVariables
280
     0
  1
1
  0
DICTIONARYVAR
  5
148
102
{ACAD_REACTORS
330
141
102
}
330
141
100
DictionaryVariables
280
     0
  1
15
  0
DICTIONARYVAR
  5
146
102
{ACAD_REACTORS
330
141
102
}
330
141
100
DictionaryVariables
280
     0
  1
0
  0
DICTIONARYVAR
  5
144
102
{ACAD_REACTORS
330
141
102
}
330
141
100
DictionaryVariables
280
     0
  1
0
  0
DICTIONARY
  5
DB
330
DA
100
AcDbDictionary
280
     1
281
     1
  3
BUMPTILE
360
DD
  3
DIFFUSETILE
360
DC
  3
OPACITYTILE
360
E0
  3
REFLECTIONTILE
360
DF
  3
REFRACTIONTILE
360
E1
  3
SPECULARTILE
360
DE
  0
DICTIONARY
  5
D3
330
D2
100
AcDbDictionary
280
     1
281
     1
  3
BUMPTILE
360
D5
  3
DIFFUSETILE
360
D4
  3
OPACITYTILE
360
D8
  3
REFLECTIONTILE
360
D7
  3
REFRACTIONTILE
360
D9
  3
SPECULARTILE
360
D6
  0
DICTIONARY
  5
E3
330
E2
100
AcDbDictionary
280
     1
281
     1
  3
BUMPTILE
360
E5
  3
DIFFUSETILE
360
E4
  3
OPACITYTILE
360
E8
  3
REFLECTIONTILE
360
E7
  3
REFRACTIONTILE
360
E9
  3
SPECULARTILE
360
E6
  0
DICTIONARY
  5
149
330
FD
100
AcDbDictionary
280
     1
281
     1
  3
ACAD_ROUNDTRIP_2008_TABLESTYLE_CELLSTYLEMAP
360
14A
  0
XRECORD
  5
DD
102
{ACAD_REACTORS
330
DB
102
}
330
DB
100
AcDbXrecord
280
     1
270
     1
271
     1
  0
XRECORD
  5
DC
102
{ACAD_REACTORS
330
DB
102
}
330
DB
100
AcDbXrecord
280
     1
270
     1
271
     1
  0
XRECORD
  5
E0
102
{ACAD_REACTORS
330
DB
102
}
330
DB
100
AcDbXrecord
280
     1
270
     1
271
     1
  0
XRECORD
  5
DF
102
{ACAD_REACTORS
330
DB
102
}
330
DB
100
AcDbXrecord
280
     1
270
     1
271
     1
  0
XRECORD
  5
E1
102
{ACAD_REACTORS
330
DB
102
}
330
DB
100
AcDbXrecord
280
     1
270
     1
271
     1
  0
XRECORD
  5
DE
102
{ACAD_REACTORS
330
DB
102
}
330
DB
100
AcDbXrecord
280
     1
270
     1
271
     1
  0
XRECORD
  5
D5
102
{ACAD_REACTORS
330
D3
102
}
330
D3
100
AcDbXrecord
280
     1
270
     1
271
     1
  0
XRECORD
  5
D4
102
{ACAD_REACTORS
330
D3
102
}
330
D3
100
AcDbXrecord
280
     1
270
     1
271
     1
  0
XRECORD
  5
D8
102
{ACAD_REACTORS
330
D3
102
}
330
D3
100
AcDbXrecord
280
     1
270
     1
271
     1
  0
XRECORD
  5
D7
102
{ACAD_REACTORS
330
D3
102
}
330
D3
100
AcDbXrecord
280
     1
270
     1
271
     1
  0
XRECORD
  5
D9
102
{ACAD_REACTORS
330
D3
102
}
330
D3
100
AcDbXrecord
280
     1
270
     1
271
     1
  0
XRECORD
  5
D6
102
{ACAD_REACTORS
330
D3
102
}
330
D3
100
AcDbXrecord
280
     1
270
     1
271
     1
  0
XRECORD
  5
E5
102
{ACAD_REACTORS
330
E3
102
}
330
E3
100
AcDbXrecord
280
     1
270
     1
271
     1
  0
XRECORD
  5
E4
102
{ACAD_REACTORS
330
E3
102
}
330
E3
100
AcDbXrecord
280
     1
270
     1
271
     1
  0
XRECORD
  5
E8
102
{ACAD_REACTORS
330
E3
102
}
330
E3
100
AcDbXrecord
280
     1
270
     1
271
     1
  0
XRECORD
  5
E7
102
{ACAD_REACTORS
330
E3
102
}
330
E3
100
AcDbXrecord
280
     1
270
     1
271
     1
  0
XRECORD
  5
E9
102
{ACAD_REACTORS
330
E3
102
}
330
E3
100
AcDbXrecord
280
     1
270
     1
271
     1
  0
XRECORD
  5
E6
102
{ACAD_REACTORS
330
E3
102
}
330
E3
100
AcDbXrecord
280
     1
270
     1
271
     1
  0
CELLSTYLEMAP
  5
14A
102
{ACAD_REACTORS
330
149
102
}
330
149
100
AcDbCellStyleMap
 90
        3
300
CELLSTYLE
  1
TABLEFORMAT_BEGIN
 90
        5
170
     1
 91
        0
 92
    32768
 62
   257
 93
        1
300
CONTENTFORMAT
  1
CONTENTFORMAT_BEGIN
 90
        0
 91
        0
 92
      512
 93
        0
300

 40
0.0
140
1.0
 94
        5
 62
     0
340
11
144
6.0
309
CONTENTFORMAT_END
171
     1
301
MARGIN
  1
CELLMARGIN_BEGIN
 40
1.5
 40
1.5
 40
1.5
 40
1.5
 40
4.5
 40
4.5
309
CELLMARGIN_END
 94
        6
 95
        1
302
GRIDFORMAT
  1
GRIDFORMAT_BEGIN
 90
        0
 91
        1
 62
     0
 92
       -2
340
0
 93
        0
 40
1.125
309
GRIDFORMAT_END
 95
        2
302
GRIDFORMAT
  1
GRIDFORMAT_BEGIN
 90
        0
 91
        1
 62
     0
 92
       -2
340
0
 93
        0
 40
1.125
309
GRIDFORMAT_END
 95
        4
302
GRIDFORMAT
  1
GRIDFORMAT_BEGIN
 90
        0
 91
        1
 62
     0
 92
       -2
340
0
 93
        0
 40
1.125
309
GRIDFORMAT_END
 95
        8
302
GRIDFORMAT
  1
GRIDFORMAT_BEGIN
 90
        0
 91
        1
 62
     0
 92
       -2
340
0
 93
        0
 40
1.125
309
GRIDFORMAT_END
 95
       16
302
GRIDFORMAT
  1
GRIDFORMAT_BEGIN
 90
        0
 91
        1
 62
     0
 92
       -2
340
0
 93
        0
 40
1.125
309
GRIDFORMAT_END
 95
       32
302
GRIDFORMAT
  1
GRIDFORMAT_BEGIN
 90
        0
 91
        1
 62
     0
 92
       -2
340
0
 93
        0
 40
1.125
309
GRIDFORMAT_END
309
TABLEFORMAT_END
  1
CELLSTYLE_BEGIN
 90
        1
 91
        1
300
_TITLE
309
CELLSTYLE_END
300
CELLSTYLE
  1
TABLEFORMAT_BEGIN
 90
        5
170
     1
 91
        0
 92
        0
 62
   257
 93
        1
300
CONTENTFORMAT
  1
CONTENTFORMAT_BEGIN
 90
        0
 91
        0
 92
      512
 93
        0
300

 40
0.0
140
1.0
 94
        5
 62
     0
340
11
144
4.5
309
CONTENTFORMAT_END
171
     1
301
MARGIN
  1
CELLMARGIN_BEGIN
 40
1.5
 40
1.5
 40
1.5
 40
1.5
 40
4.5
 40
4.5
309
CELLMARGIN_END
 94
        6
 95
        1
302
GRIDFORMAT
  1
GRIDFORMAT_BEGIN
 90
        0
 91
        1
 62
     0
 92
       -2
340
0
 93
        0
 40
1.125
309
GRIDFORMAT_END
 95
        2
302
GRIDFORMAT
  1
GRIDFORMAT_BEGIN
 90
        0
 91
        1
 62
     0
 92
       -2
340
0
 93
        0
 40
1.125
309
GRIDFORMAT_END
 95
        4
302
GRIDFORMAT
  1
GRIDFORMAT_BEGIN
 90
        0
 91
        1
 62
     0
 92
       -2
340
0
 93
        0
 40
1.125
309
GRIDFORMAT_END
 95
        8
302
GRIDFORMAT
  1
GRIDFORMAT_BEGIN
 90
        0
 91
        1
 62
     0
 92
       -2
340
0
 93
        0
 40
1.125
309
GRIDFORMAT_END
 95
       16
302
GRIDFORMAT
  1
GRIDFORMAT_BEGIN
 90
        0
 91
        1
 62
     0
 92
       -2
340
0
 93
        0
 40
1.125
309
GRIDFORMAT_END
 95
       32
302
GRIDFORMAT
  1
GRIDFORMAT_BEGIN
 90
        0
 91
        1
 62
     0
 92
       -2
340
0
 93
        0
 40
1.125
309
GRIDFORMAT_END
309
TABLEFORMAT_END
  1
CELLSTYLE_BEGIN
 90
        2
 91
        1
300
_HEADER
309
CELLSTYLE_END
300
CELLSTYLE
  1
TABLEFORMAT_BEGIN
 90
        5
170
     1
 91
        0
 92
        0
 62
   257
 93
        1
300
CONTENTFORMAT
  1
CONTENTFORMAT_BEGIN
 90
        0
 91
        0
 92
      512
 93
        0
300

 40
0.0
140
1.0
 94
        2
 62
     0
340
11
144
4.5
309
CONTENTFORMAT_END
171
     1
301
MARGIN
  1
CELLMARGIN_BEGIN
 40
1.5
 40
1.5
 40
1.5
 40
1.5
 40
4.5
 40
4.5
309
CELLMARGIN_END
 94
        6
 95
        1
302
GRIDFORMAT
  1
GRIDFORMAT_BEGIN
 90
        0
 91
        1
 62
     0
 92
       -2
340
0
 93
        0
 40
1.125
309
GRIDFORMAT_END
 95
        2
302
GRIDFORMAT
  1
GRIDFORMAT_BEGIN
 90
        0
 91
        1
 62
     0
 92
       -2
340
0
 93
        0
 40
1.125
309
GRIDFORMAT_END
 95
        4
302
GRIDFORMAT
  1
GRIDFORMAT_BEGIN
 90
        0
 91
        1
 62
     0
 92
       -2
340
0
 93
        0
 40
1.125
309
GRIDFORMAT_END
 95
        8
302
GRIDFORMAT
  1
GRIDFORMAT_BEGIN
 90
        0
 91
        1
 62
     0
 92
       -2
340
0
 93
        0
 40
1.125
309
GRIDFORMAT_END
 95
       16
302
GRIDFORMAT
  1
GRIDFORMAT_BEGIN
 90
        0
 91
        1
 62
     0
 92
       -2
340
0
 93
        0
 40
1.125
309
GRIDFORMAT_END
 95
       32
302
GRIDFORMAT
  1
GRIDFORMAT_BEGIN
 90
        0
 91
        1
 62
     0
 92
       -2
340
0
 93
        0
 40
1.125
309
GRIDFORMAT_END
309
TABLEFORMAT_END
  1
CELLSTYLE_BEGIN
 90
        3
 91
        2
300
_DATA
309
CELLSTYLE_END
  0
ENDSEC
  0
EOF
