  0
SECTION
  2
HEADER
  9
$ACADVER
  1
AC1021
  9
$ACADMAINTVER
 70
    50
  9
$DWGCODEPAGE
  3
ANSI_1251
  9
$LASTSAVEDBY
  1
Игорь
  9
$INSBASE
 10
0.0
 20
0.0
 30
0.0
  9
$EXTMIN
 10
667.8042032488206
 20
332.945765535284
 30
-0.0015258207003583
  9
$EXTMAX
 10
1311.56335764537
 20
705.8687383455326
 30
0.0000000349246037
  9
$LIMMIN
 10
0.0
 20
0.0
  9
$LIMMAX
 10
1397.0
 20
1079.5
  9
$ORTHOMODE
 70
     0
  9
$REGENMODE
 70
     1
  9
$FILLMODE
 70
     1
  9
$QTEXTMODE
 70
     0
  9
$MIRRTEXT
 70
     1
  9
$LTSCALE
 40
5.0
  9
$ATTMODE
 70
     1
  9
$TEXTSIZE
 40
17.5
  9
$TRACEWID
 40
1.0
  9
$TEXTSTYLE
  7
Standard
  9
$CLAYER
  8
0
  9
$CELTYPE
  6
ByLayer
  9
$CECOLOR
 62
   256
  9
$CELTSCALE
 40
1.0
  9
$DISPSILH
 70
     0
  9
$DIMSCALE
 40
1.0
  9
$DIMASZ
 40
17.5
  9
$DIMEXO
 40
0.05
  9
$DIMDLI
 40
3.75
  9
$DIMRND
 40
0.0
  9
$DIMDLE
 40
0.0
  9
$DIMEXE
 40
5.0
  9
$DIMTP
 40
0.0
  9
$DIMTM
 40
0.0
  9
$DIMTXT
 40
17.5
  9
$DIMCEN
 40
2.5
  9
$DIMTSZ
 40
0.0
  9
$DIMTOL
 70
     0
  9
$DIMLIM
 70
     0
  9
$DIMTIH
 70
     1
  9
$DIMTOH
 70
     1
  9
$DIMSE1
 70
     0
  9
$DIMSE2
 70
     0
  9
$DIMTAD
 70
     1
  9
$DIMZIN
 70
     0
  9
$DIMBLK
  1

  9
$DIMASO
 70
     1
  9
$DIMSHO
 70
     1
  9
$DIMPOST
  1

  9
$DIMAPOST
  1

  9
$DIMALT
 70
     0
  9
$DIMALTD
 70
     3
  9
$DIMALTF
 40
0.0393700787401575
  9
$DIMLFAC
 40
1.0
  9
$DIMTOFL
 70
     1
  9
$DIMTVP
 40
0.0
  9
$DIMTIX
 70
     0
  9
$DIMSOXD
 70
     0
  9
$DIMSAH
 70
     0
  9
$DIMBLK1
  1

  9
$DIMBLK2
  1

  9
$DIMSTYLE
  2
ISO-25
  9
$DIMCLRD
 70
     0
  9
$DIMCLRE
 70
     0
  9
$DIMCLRT
 70
     0
  9
$DIMTFAC
 40
1.0
  9
$DIMGAP
 40
15.0
  9
$DIMJUST
 70
     0
  9
$DIMSD1
 70
     0
  9
$DIMSD2
 70
     0
  9
$DIMTOLJ
 70
     0
  9
$DIMTZIN
 70
     0
  9
$DIMALTZ
 70
     0
  9
$DIMALTTZ
 70
     0
  9
$DIMUPT
 70
     0
  9
$DIMDEC
 70
     2
  9
$DIMTDEC
 70
     3
  9
$DIMALTU
 70
     2
  9
$DIMALTTD
 70
     3
  9
$DIMTXSTY
  7
Standard
  9
$DIMAUNIT
 70
     0
  9
$DIMADEC
 70
     2
  9
$DIMALTRND
 40
0.0
  9
$DIMAZIN
 70
     0
  9
$DIMDSEP
 70
    44
  9
$DIMATFIT
 70
     3
  9
$DIMFRAC
 70
     0
  9
$DIMLDRBLK
  1

  9
$DIMLUNIT
 70
     2
  9
$DIMLWD
 70
    -2
  9
$DIMLWE
 70
    -2
  9
$DIMTMOVE
 70
     0
  9
$DIMFXL
 40
1.0
  9
$DIMFXLON
 70
     0
  9
$DIMJOGANG
 40
0.7853981633974483
  9
$DIMTFILL
 70
     0
  9
$DIMTFILLCLR
 70
     0
  9
$DIMARCSYM
 70
     0
  9
$DIMLTYPE
  6

  9
$DIMLTEX1
  6

  9
$DIMLTEX2
  6

  9
$LUNITS
 70
     2
  9
$LUPREC
 70
     2
  9
$SKETCHINC
 40
1.0
  9
$FILLETRAD
 40
10.0
  9
$AUNITS
 70
     0
  9
$AUPREC
 70
     2
  9
$MENU
  1
.
  9
$ELEVATION
 40
0.0
  9
$PELEVATION
 40
0.0
  9
$THICKNESS
 40
0.0
  9
$LIMCHECK
 70
     0
  9
$CHAMFERA
 40
10.0
  9
$CHAMFERB
 40
10.0
  9
$CHAMFERC
 40
20.0
  9
$CHAMFERD
 40
0.0
  9
$SKPOLY
 70
     0
  9
$TDCREATE
 40
2458077.487980764
  9
$TDUCREATE
 40
2458077.404647430
  9
$TDUPDATE
 40
2458077.489627246
  9
$TDUUPDATE
 40
2458077.406293912
  9
$TDINDWG
 40
0.0007235995
  9
$TDUSRTIMER
 40
0.0007235995
  9
$USRTIMER
 70
     1
  9
$ANGBASE
 50
0.0
  9
$ANGDIR
 70
     0
  9
$PDMODE
 70
     0
  9
$PDSIZE
 40
-1.0
  9
$PLINEWID
 40
0.0
  9
$SPLFRAME
 70
     0
  9
$SPLINETYPE
 70
     6
  9
$SPLINESEGS
 70
     8
  9
$HANDSEED
  5
374
  9
$SURFTAB1
 70
     6
  9
$SURFTAB2
 70
     6
  9
$SURFTYPE
 70
     6
  9
$SURFU
 70
     6
  9
$SURFV
 70
     6
  9
$UCSBASE
  2

  9
$UCSNAME
  2

  9
$UCSORG
 10
0.0
 20
0.0
 30
0.0
  9
$UCSXDIR
 10
1.0
 20
0.0
 30
0.0
  9
$UCSYDIR
 10
0.0
 20
1.0
 30
0.0
  9
$UCSORTHOREF
  2

  9
$UCSORTHOVIEW
 70
     0
  9
$UCSORGTOP
 10
0.0
 20
0.0
 30
0.0
  9
$UCSORGBOTTOM
 10
0.0
 20
0.0
 30
0.0
  9
$UCSORGLEFT
 10
0.0
 20
0.0
 30
0.0
  9
$UCSORGRIGHT
 10
0.0
 20
0.0
 30
0.0
  9
$UCSORGFRONT
 10
0.0
 20
0.0
 30
0.0
  9
$UCSORGBACK
 10
0.0
 20
0.0
 30
0.0
  9
$PUCSBASE
  2

  9
$PUCSNAME
  2

  9
$PUCSORG
 10
0.0
 20
0.0
 30
0.0
  9
$PUCSXDIR
 10
1.0
 20
0.0
 30
0.0
  9
$PUCSYDIR
 10
0.0
 20
1.0
 30
0.0
  9
$PUCSORTHOREF
  2

  9
$PUCSORTHOVIEW
 70
     0
  9
$PUCSORGTOP
 10
0.0
 20
0.0
 30
0.0
  9
$PUCSORGBOTTOM
 10
0.0
 20
0.0
 30
0.0
  9
$PUCSORGLEFT
 10
0.0
 20
0.0
 30
0.0
  9
$PUCSORGRIGHT
 10
0.0
 20
0.0
 30
0.0
  9
$PUCSORGFRONT
 10
0.0
 20
0.0
 30
0.0
  9
$PUCSORGBACK
 10
0.0
 20
0.0
 30
0.0
  9
$USERI1
 70
     0
  9
$USERI2
 70
     0
  9
$USERI3
 70
     0
  9
$USERI4
 70
     0
  9
$USERI5
 70
     0
  9
$USERR1
 40
0.0
  9
$USERR2
 40
0.0
  9
$USERR3
 40
0.0
  9
$USERR4
 40
0.0
  9
$USERR5
 40
0.0
  9
$WORLDVIEW
 70
     1
  9
$SHADEDGE
 70
     3
  9
$SHADEDIF
 70
    70
  9
$TILEMODE
 70
     1
  9
$MAXACTVP
 70
    64
  9
$PINSBASE
 10
0.0
 20
0.0
 30
0.0
  9
$PLIMCHECK
 70
     0
  9
$PEXTMIN
 10
1.000000000000000E+20
 20
1.000000000000000E+20
 30
1.000000000000000E+20
  9
$PEXTMAX
 10
-1.000000000000000E+20
 20
-1.000000000000000E+20
 30
-1.000000000000000E+20
  9
$PLIMMIN
 10
0.0
 20
0.0
  9
$PLIMMAX
 10
420.0
 20
297.0
  9
$UNITMODE
 70
     0
  9
$VISRETAIN
 70
     1
  9
$PLINEGEN
 70
     0
  9
$PSLTSCALE
 70
     1
  9
$TREEDEPTH
 70
  3020
  9
$CMLSTYLE
  2
Standard
  9
$CMLJUST
 70
     0
  9
$CMLSCALE
 40
20.0
  9
$PROXYGRAPHICS
 70
     1
  9
$MEASUREMENT
 70
     1
  9
$CELWEIGHT
370
    -1
  9
$ENDCAPS
280
     0
  9
$JOINSTYLE
280
     0
  9
$LWDISPLAY
290
     1
  9
$INSUNITS
 70
     4
  9
$HYPERLINKBASE
  1

  9
$STYLESHEET
  1

  9
$XEDIT
290
     1
  9
$CEPSNTYPE
380
     0
  9
$PSTYLEMODE
290
     1
  9
$FINGERPRINTGUID
  2
{C0ECE8B9-B009-4A59-B9AE-8BEEFC17E48E}
  9
$VERSIONGUID
  2
{6BE4B646-23C3-4733-91C4-1138E285A17B}
  9
$EXTNAMES
290
     1
  9
$PSVPSCALE
 40
0.0
  9
$OLESTARTUP
290
     0
  9
$SORTENTS
280
   127
  9
$INDEXCTL
280
     0
  9
$HIDETEXT
280
     0
  9
$XCLIPFRAME
290
     0
  9
$HALOGAP
280
     0
  9
$OBSCOLOR
 70
   257
  9
$OBSLTYPE
280
     0
  9
$INTERSECTIONDISPLAY
280
     0
  9
$INTERSECTIONCOLOR
 70
   257
  9
$DIMASSOC
280
     1
  9
$PROJECTNAME
  1

  9
$CAMERADISPLAY
290
     0
  9
$LENSLENGTH
 40
50.0
  9
$CAMERAHEIGHT
 40
0.0
  9
$STEPSPERSEC
 40
2.0
  9
$STEPSIZE
 40
6.0
  9
$3DDWFPREC
 40
2.0
  9
$PSOLWIDTH
 40
0.25
  9
$PSOLHEIGHT
 40
4.0
  9
$LOFTANG1
 40
1.570796326794896
  9
$LOFTANG2
 40
1.570796326794896
  9
$LOFTMAG1
 40
0.0
  9
$LOFTMAG2
 40
0.0
  9
$LOFTPARAM
 70
     7
  9
$LOFTNORMALS
280
     1
  9
$LATITUDE
 40
37.795
  9
$LONGITUDE
 40
-122.394
  9
$NORTHDIRECTION
 40
0.0
  9
$TIMEZONE
 70
 -8000
  9
$LIGHTGLYPHDISPLAY
280
     1
  9
$TILEMODELIGHTSYNCH
280
     1
  9
$CMATERIAL
347
30D
  9
$SOLIDHIST
280
     1
  9
$SHOWHIST
280
     1
  9
$DWFFRAME
280
     2
  9
$DGNFRAME
280
     0
  9
$REALWORLDSCALE
290
     1
  9
$INTERFERECOLOR
 62
     1
  9
$INTERFEREOBJVS
345
32F
  9
$INTERFEREVPVS
346
32C
  9
$CSHADOW
280
     0
  9
$SHADOWPLANELOCATION
 40
0.0
  0
ENDSEC
  0
SECTION
  2
CLASSES
  0
CLASS
  1
ACDBDICTIONARYWDFLT
  2
AcDbDictionaryWithDefault
  3
ObjectDBX Classes
 90
        0
 91
        1
280
     0
281
     0
  0
CLASS
  1
VISUALSTYLE
  2
AcDbVisualStyle
  3
ObjectDBX Classes
 90
     4095
 91
       16
280
     0
281
     0
  0
CLASS
  1
MATERIAL
  2
AcDbMaterial
  3
ObjectDBX Classes
 90
     1153
 91
        3
280
     0
281
     0
  0
CLASS
  1
TABLESTYLE
  2
AcDbTableStyle
  3
ObjectDBX Classes
 90
     4095
 91
        1
280
     0
281
     0
  0
CLASS
  1
SCALE
  2
AcDbScale
  3
ObjectDBX Classes
 90
     1153
 91
       17
280
     0
281
     0
  0
CLASS
  1
MLEADERSTYLE
  2
AcDbMLeaderStyle
  3
ACDB_MLEADERSTYLE_CLASS
 90
     4095
 91
        1
280
     0
281
     0
  0
CLASS
  1
DICTIONARYVAR
  2
AcDbDictionaryVar
  3
ObjectDBX Classes
 90
        0
 91
        7
280
     0
281
     0
  0
CLASS
  1
CELLSTYLEMAP
  2
AcDbCellStyleMap
  3
ObjectDBX Classes
 90
     1152
 91
        1
280
     0
281
     0
  0
ENDSEC
  0
SECTION
  2
TABLES
  0
TABLE
  2
VPORT
  5
8
330
0
100
AcDbSymbolTable
 70
     1
  0
VPORT
  5
29
330
8
100
AcDbSymbolTableRecord
100
AcDbViewportTableRecord
  2
*Active
 70
     0
 10
0.0
 20
0.0
 11
1.0
 21
1.0
 12
989.6837804470953
 22
519.4072519404082
 13
0.0
 23
0.0
 14
10.0
 24
10.0
 15
10.0
 25
10.0
 16
0.0
 26
0.0
 36
1.0
 17
0.0
 27
0.0
 37
0.0
 40
377.5269601288937
 41
2.604123711340206
 42
50.0
 43
0.0
 44
0.0
 50
0.0
 51
0.0
 71
     0
 72
  2000
 73
     1
 74
     3
 75
     0
 76
     0
 77
     0
 78
     0
281
     0
 65
     1
110
0.0
120
0.0
130
0.0
111
1.0
121
0.0
131
0.0
112
0.0
122
1.0
132
0.0
 79
     0
146
0.0
348
32B
 60
     3
 61
     5
292
     1
282
     1
141
0.0
142
0.0
 63
   250
421
  3355443
  0
ENDTAB
  0
TABLE
  2
LTYPE
  5
5
330
0
100
AcDbSymbolTable
 70
     6
  0
LTYPE
  5
14
330
5
100
AcDbSymbolTableRecord
100
AcDbLinetypeTableRecord
  2
ByBlock
 70
     0
  3

 72
    65
 73
     0
 40
0.0
  0
LTYPE
  5
15
330
5
100
AcDbSymbolTableRecord
100
AcDbLinetypeTableRecord
  2
ByLayer
 70
     0
  3

 72
    65
 73
     0
 40
0.0
  0
LTYPE
  5
16
330
5
100
AcDbSymbolTableRecord
100
AcDbLinetypeTableRecord
  2
Continuous
 70
     0
  3
Solid line
 72
    65
 73
     0
 40
0.0
  0
LTYPE
  5
3F
330
5
100
AcDbSymbolTableRecord
100
AcDbLinetypeTableRecord
  2
HIDDEN
 70
     0
  3
Hidden __ __ __ __ __ __ __ __ __ __ __ __ __ __
 72
    65
 73
     2
 40
1.905
 49
1.27
 74
     0
 49
-0.635
 74
     0
  0
LTYPE
  5
40
330
5
100
AcDbSymbolTableRecord
100
AcDbLinetypeTableRecord
  2
PHANTOM
 70
     0
  3
Phantom ______  __  __  ______  __  __  ______
 72
    65
 73
     6
 40
12.7
 49
6.349999999999999
 74
     0
 49
-1.27
 74
     0
 49
1.27
 74
     0
 49
-1.27
 74
     0
 49
1.27
 74
     0
 49
-1.27
 74
     0
  0
LTYPE
  5
41
330
5
100
AcDbSymbolTableRecord
100
AcDbLinetypeTableRecord
  2
CENTER
 70
     0
  3
Center ____ _ ____ _ ____ _ ____ _ ____ _ ____
 72
    65
 73
     4
 40
10.16
 49
6.349999999999999
 74
     0
 49
-1.27
 74
     0
 49
1.27
 74
     0
 49
-1.27
 74
     0
  0
LTYPE
  5
42
330
5
100
AcDbSymbolTableRecord
100
AcDbLinetypeTableRecord
  2
CENTERX2
 70
     0
  3
Center (2x) ________  __  ________  __  _____
 72
    65
 73
     4
 40
20.32
 49
12.7
 74
     0
 49
-2.54
 74
     0
 49
2.54
 74
     0
 49
-2.54
 74
     0
  0
LTYPE
  5
43
330
5
100
AcDbSymbolTableRecord
100
AcDbLinetypeTableRecord
  2
DOT2
 70
     0
  3
Dot (.5x) ........................................
 72
    65
 73
     2
 40
0.635
 49
0.0
 74
     0
 49
-0.635
 74
     0
  0
ENDTAB
  0
TABLE
  2
LAYER
  5
2
330
0
100
AcDbSymbolTable
 70
     2
  0
LAYER
  5
10
102
{ACAD_XDICTIONARY
360
367
102
}
330
2
100
AcDbSymbolTableRecord
100
AcDbLayerTableRecord
  2
0
 70
     0
 62
     7
  6
Continuous
370
    -3
390
F
347
31D
  0
LAYER
  5
351
330
2
100
AcDbSymbolTableRecord
100
AcDbLayerTableRecord
  2
Defpoints
 70
     0
 62
     7
  6
Continuous
290
     0
370
    -3
390
F
347
31D
  0
ENDTAB
  0
TABLE
  2
STYLE
  5
3
330
0
100
AcDbSymbolTable
 70
     1
  0
STYLE
  5
11
330
3
100
AcDbSymbolTableRecord
100
AcDbTextStyleTableRecord
  2
Standard
 70
     0
 40
0.0
 41
1.0
 50
0.0
 71
     0
 42
17.5
  3
txt
  4

  0
ENDTAB
  0
TABLE
  2
VIEW
  5
6
330
0
100
AcDbSymbolTable
 70
     0
  0
ENDTAB
  0
TABLE
  2
UCS
  5
7
330
0
100
AcDbSymbolTable
 70
     0
  0
ENDTAB
  0
TABLE
  2
APPID
  5
9
330
0
100
AcDbSymbolTable
 70
     2
  0
APPID
  5
12
330
9
100
AcDbSymbolTableRecord
100
AcDbRegAppTableRecord
  2
ACAD
 70
     0
  0
APPID
  5
34D
330
9
100
AcDbSymbolTableRecord
100
AcDbRegAppTableRecord
  2
ACAD_MLEADERVER
 70
     0
  0
ENDTAB
  0
TABLE
  2
DIMSTYLE
  5
A
330
0
100
AcDbSymbolTable
 70
     1
100
AcDbDimStyleTable
 71
     1
340
27
  0
DIMSTYLE
105
27
330
A
100
AcDbSymbolTableRecord
100
AcDbDimStyleTableRecord
  2
ISO-25
 70
     0
 41
2.5
 42
0.625
 43
3.75
 44
1.25
 73
     0
 74
     0
 77
     1
 78
     8
140
2.5
141
2.5
143
0.03937007874016
147
0.625
171
     3
172
     1
271
     2
272
     2
274
     3
278
    44
283
     0
284
     8
340
11
  0
ENDTAB
  0
TABLE
  2
BLOCK_RECORD
  5
1
330
0
100
AcDbSymbolTable
 70
     2
  0
BLOCK_RECORD
  5
1F
330
1
100
AcDbSymbolTableRecord
100
AcDbBlockTableRecord
  2
*Model_Space
340
22
 70
     0
280
     1
281
     0
  0
BLOCK_RECORD
  5
1B
330
1
100
AcDbSymbolTableRecord
100
AcDbBlockTableRecord
  2
*Paper_Space
340
1E
 70
     0
280
     1
281
     0
  0
BLOCK_RECORD
  5
23
330
1
100
AcDbSymbolTableRecord
100
AcDbBlockTableRecord
  2
*Paper_Space0
340
26
 70
     0
280
     1
281
     0
  0
BLOCK_RECORD
  5
352
330
1
100
AcDbSymbolTableRecord
100
AcDbBlockTableRecord
  2
*D1
340
0
 70
     0
280
     1
281
     0
  0
ENDTAB
  0
ENDSEC
  0
SECTION
  2
BLOCKS
  0
BLOCK
  5
20
330
1F
100
AcDbEntity
  8
0
100
AcDbBlockBegin
  2
*Model_Space
 70
     0
 10
0.0
 20
0.0
 30
0.0
  3
*Model_Space
  1

  0
ENDBLK
  5
21
330
1F
100
AcDbEntity
  8
0
100
AcDbBlockEnd
  0
BLOCK
  5
1C
330
1B
100
AcDbEntity
 67
     1
  8
0
100
AcDbBlockBegin
  2
*Paper_Space
 70
     0
 10
0.0
 20
0.0
 30
0.0
  3
*Paper_Space
  1

  0
ENDBLK
  5
1D
330
1B
100
AcDbEntity
 67
     1
  8
0
100
AcDbBlockEnd
  0
BLOCK
  5
24
330
23
100
AcDbEntity
 67
     1
  8
0
100
AcDbBlockBegin
  2
*Paper_Space0
 70
     0
 10
0.0
 20
0.0
 30
0.0
  3
*Paper_Space0
  1

  0
ENDBLK
  5
25
330
23
100
AcDbEntity
 67
     1
  8
0
100
AcDbBlockEnd
  0
BLOCK
  5
353
330
352
100
AcDbEntity
  8
0
100
AcDbBlockBegin
  2
*D1
 70
     1
 10
0.0
 20
0.0
 30
0.0
  3
*D1
  1

  0
LINE
  5
35E
330
352
100
AcDbEntity
  8
0
 62
     0
370
    -2
100
AcDbLine
 10
667.8629709924639
 20
494.7742175654155
 30
0.0
 11
667.8629709924639
 21
456.7679238984292
 31
0.0
  0
LINE
  5
35F
330
352
100
AcDbEntity
  8
0
 62
     0
370
    -2
100
AcDbLine
 10
1130.862970992464
 20
494.7742175654155
 30
0.0
 11
1130.862970992464
 21
456.7679238984292
 31
0.0
  0
LINE
  5
360
330
352
100
AcDbEntity
  8
0
 62
     0
370
    -2
100
AcDbLine
 10
685.3629709924639
 20
461.7679238984292
 30
0.0
 11
1113.362970992464
 21
461.7679238984292
 31
0.0
  0
SOLID
  5
361
330
352
100
AcDbEntity
  8
0
 62
     0
100
AcDbTrace
 10
685.3629709924639
 20
464.6845905650959
 30
0.0
 11
685.3629709924639
 21
458.8512572317625
 31
0.0
 12
667.8629709924639
 22
461.7679238984292
 32
0.0
 13
667.8629709924639
 23
461.7679238984292
 33
0.0
  0
SOLID
  5
362
330
352
100
AcDbEntity
  8
0
 62
     0
100
AcDbTrace
 10
1113.362970992464
 20
464.6845905650959
 30
0.0
 11
1113.362970992464
 21
458.8512572317625
 31
0.0
 12
1130.862970992464
 22
461.7679238984292
 32
0.0
 13
1130.862970992464
 23
461.7679238984292
 33
0.0
  0
MTEXT
  5
363
330
352
100
AcDbEntity
  8
0
 62
     0
100
AcDbMText
 10
899.362970992464
 20
486.9762572317625
 30
0.0
 40
17.5
 41
0.0
 46
0.0
 71
     5
 72
     1
  1
463,00
 73
     1
 44
1.0
  0
POINT
  5
364
330
352
100
AcDbEntity
  8
Defpoints
 62
     0
100
AcDbPoint
 10
667.8629709924639
 20
494.8242175654156
 30
0.0
  0
POINT
  5
365
330
352
100
AcDbEntity
  8
Defpoints
 62
     0
100
AcDbPoint
 10
1130.862970992464
 20
494.8242175654156
 30
0.0
  0
POINT
  5
366
330
352
100
AcDbEntity
  8
Defpoints
 62
     0
100
AcDbPoint
 10
1130.862970992464
 20
461.7679238984292
 30
0.0
  0
ENDBLK
  5
354
330
352
100
AcDbEntity
  8
0
100
AcDbBlockEnd
  0
ENDSEC
  0
SECTION
  2
ENTITIES
  0
LINE
  5
44
330
1F
100
AcDbEntity
  8
0
  6
Continuous
 62
     7
370
    15
100
AcDbLine
 10
1202.472698068537
 20
549.1874603257704
 30
0.0
 11
1202.472698068537
 21
502.8039958256725
 31
0.0
  0
LINE
  5
45
330
1F
100
AcDbEntity
  8
0
  6
Continuous
 62
     7
370
    15
100
AcDbLine
 10
1311.472698068537
 20
502.8039958256726
 30
0.0
 11
1311.472698068537
 21
549.1874603257704
 31
0.0
  0
LINE
  5
46
330
1F
100
AcDbEntity
  8
0
  6
Continuous
 62
     7
370
    15
100
AcDbLine
 10
1231.609455308183
 20
494.8242175654156
 30
0.0
 11
1282.33594082889
 21
494.8242175654156
 31
0.0
  0
LINE
  5
47
330
1F
100
AcDbEntity
  8
0
  6
Continuous
 62
     7
370
    15
100
AcDbLine
 10
1231.609455308183
 20
494.8242175654156
 30
0.0
 11
1202.472698068537
 21
502.8039958256725
 31
0.0
  0
LINE
  5
48
330
1F
100
AcDbEntity
  8
0
  6
Continuous
 62
     7
370
    15
100
AcDbLine
 10
1282.33594082889
 20
494.8242175654156
 30
0.0
 11
1311.472698068537
 21
502.8039958256726
 31
0.0
  0
ARC
  5
49
330
1F
100
AcDbEntity
  8
0
  6
Continuous
 62
     7
370
    15
100
AcDbCircle
 10
1243.530835798467
 20
402.4905375059216
 30
0.0
 40
152.3343619760904
100
AcDbArc
 50
90.17143697045231
 51
105.6360890115519
  0
LINE
  5
4A
330
1F
100
AcDbEntity
  8
0
  6
Continuous
 62
     7
370
    15
100
AcDbLine
 10
1270.87036533448
 20
554.8242175654157
 30
0.0
 11
1243.075030802593
 21
554.8242175654157
 31
0.0
  0
ARC
  5
4B
330
1F
100
AcDbEntity
  8
0
  6
Continuous
 62
     7
370
    15
100
AcDbCircle
 10
1270.414560338607
 20
402.4905375059216
 30
0.0
 40
152.3343619760904
100
AcDbArc
 50
74.36391098844804
 51
89.8285630295477
  0
LINE
  5
4C
330
1F
100
AcDbEntity
  8
0
  6
Continuous
 62
     7
370
    15
100
AcDbLine
 10
1248.941542048841
 20
492.8242175654156
 30
0.0
 11
1239.598396298334
 21
492.8242175654156
 31
0.0
  0
ARC
  5
4D
330
1F
100
AcDbEntity
  8
0
  6
Continuous
 62
     7
370
    15
100
AcDbCircle
 10
1239.598396298334
 20
495.8242175654156
 30
0.0
 40
3.000000000000107
100
AcDbArc
 50
199.4712206344888
 51
270.0
  0
ARC
  5
4E
330
1F
100
AcDbEntity
  8
0
  6
Continuous
 62
     7
370
    15
100
AcDbCircle
 10
1248.941542048841
 20
495.8242175654156
 30
0.0
 40
3.000000000000021
100
AcDbArc
 50
270.0
 51
340.5287793655112
  0
LINE
  5
4F
330
1F
100
AcDbEntity
  8
0
  6
Continuous
 62
     7
370
    15
100
AcDbLine
 10
1274.228706554855
 20
492.8242175654156
 30
0.0
 11
1264.885560804348
 21
492.8242175654156
 31
0.0
  0
ARC
  5
50
330
1F
100
AcDbEntity
  8
0
  6
Continuous
 62
     7
370
    15
100
AcDbCircle
 10
1274.228706554855
 20
495.8242175654156
 30
0.0
 40
3.0
100
AcDbArc
 50
270.0
 51
340.5287793655112
  0
ARC
  5
51
330
1F
100
AcDbEntity
  8
0
  6
Continuous
 62
     7
370
    15
100
AcDbCircle
 10
1264.885560804348
 20
495.8242175654156
 30
0.0
 40
3.000000000000107
100
AcDbArc
 50
199.4712206344888
 51
270.0
  0
LINE
  5
52
330
1F
100
AcDbEntity
  8
0
  6
Continuous
 62
     7
370
    15
100
AcDbLine
 10
1248.075030802593
 20
554.8242175654157
 30
0.0
 11
1248.075030802593
 21
705.8242175654156
 31
0.0
  0
LINE
  5
53
330
1F
100
AcDbEntity
  8
0
  6
Continuous
 62
     7
370
    15
100
AcDbLine
 10
1266.075030802593
 20
554.8242175654157
 30
0.0
 11
1266.075030802593
 21
705.8242175654156
 31
0.0
  0
LINE
  5
54
330
1F
100
AcDbEntity
  8
0
  6
Continuous
 62
     7
370
    15
100
AcDbLine
 10
1266.075030802593
 20
705.8242175654156
 30
0.0
 11
1248.075030802593
 21
705.8242175654156
 31
0.0
  0
LINE
  5
55
330
1F
100
AcDbEntity
  8
0
  6
Continuous
 62
     7
370
    15
100
AcDbLine
 10
1270.87036533448
 20
644.8242175654156
 30
0.0
 11
1270.87036533448
 21
554.8242175654157
 31
0.0
  0
LINE
  5
56
330
1F
100
AcDbEntity
  8
0
  6
Continuous
 62
     7
370
    15
100
AcDbLine
 10
1266.075030802593
 20
644.8242175654156
 30
0.0
 11
1270.87036533448
 21
644.8242175654156
 31
0.0
  0
LINE
  5
57
330
1F
100
AcDbEntity
  8
0
  6
Continuous
 62
     7
370
    15
100
AcDbLine
 10
1243.075030802593
 20
644.8242175654156
 30
0.0
 11
1248.075030802593
 21
644.8242175654156
 31
0.0
  0
LINE
  5
58
330
1F
100
AcDbEntity
  8
0
  6
Continuous
 62
     7
370
    15
100
AcDbLine
 10
1243.075030802593
 20
644.8242175654156
 30
0.0
 11
1243.075030802593
 21
554.8242175654157
 31
0.0
  0
LINE
  5
59
330
1F
100
AcDbEntity
  8
0
  6
Continuous
 62
     7
370
    15
100
AcDbLine
 10
1109.704321483091
 20
550.3941218614588
 30
0.0
 11
1119.704321483091
 21
550.3941218614588
 31
0.0
  0
LINE
  5
5A
330
1F
100
AcDbEntity
  8
0
  6
Continuous
 62
     7
370
    15
100
AcDbLine
 10
1119.704321483091
 20
550.3941218614588
 30
0.0
 11
1119.704321483091
 21
553.9315972180031
 31
0.0
  0
LINE
  5
5B
330
1F
100
AcDbEntity
  8
0
  6
Continuous
 62
     7
370
    15
100
AcDbLine
 10
1119.704321483091
 20
553.9315972180031
 30
0.0
 11
1109.704321483091
 21
553.9315972180031
 31
0.0
  0
LINE
  5
5C
330
1F
100
AcDbEntity
  8
0
  6
Continuous
 62
     7
370
    15
100
AcDbLine
 10
1109.704321483091
 20
553.9315972180031
 30
0.0
 11
1109.704321483091
 21
550.3941218614588
 31
0.0
  0
LINE
  5
5D
330
1F
100
AcDbEntity
  8
0
  6
Continuous
 62
     7
370
    15
100
AcDbLine
 10
1079.704321483091
 20
550.3941218614588
 30
0.0
 11
1089.704321483091
 21
550.3941218614588
 31
0.0
  0
LINE
  5
5E
330
1F
100
AcDbEntity
  8
0
  6
Continuous
 62
     7
370
    15
100
AcDbLine
 10
1089.704321483091
 20
550.3941218614588
 30
0.0
 11
1089.704321483091
 21
553.9315972180031
 31
0.0
  0
LINE
  5
5F
330
1F
100
AcDbEntity
  8
0
  6
Continuous
 62
     7
370
    15
100
AcDbLine
 10
1089.704321483091
 20
553.9315972180031
 30
0.0
 11
1079.704321483091
 21
553.9315972180031
 31
0.0
  0
LINE
  5
60
330
1F
100
AcDbEntity
  8
0
  6
Continuous
 62
     7
370
    15
100
AcDbLine
 10
1079.704321483091
 20
553.9315972180031
 30
0.0
 11
1079.704321483091
 21
550.3941218614588
 31
0.0
  0
LINE
  5
61
330
1F
100
AcDbEntity
  8
0
  6
Continuous
 62
     7
370
    15
100
AcDbLine
 10
1049.704321483091
 20
550.3941218614588
 30
0.0
 11
1059.704321483091
 21
550.3941218614588
 31
0.0
  0
LINE
  5
62
330
1F
100
AcDbEntity
  8
0
  6
Continuous
 62
     7
370
    15
100
AcDbLine
 10
1059.704321483091
 20
550.3941218614588
 30
0.0
 11
1059.704321483091
 21
553.9315972180031
 31
0.0
  0
LINE
  5
63
330
1F
100
AcDbEntity
  8
0
  6
Continuous
 62
     7
370
    15
100
AcDbLine
 10
1059.704321483091
 20
553.9315972180031
 30
0.0
 11
1049.704321483091
 21
553.9315972180031
 31
0.0
  0
LINE
  5
64
330
1F
100
AcDbEntity
  8
0
  6
Continuous
 62
     7
370
    15
100
AcDbLine
 10
1049.704321483091
 20
553.9315972180031
 30
0.0
 11
1049.704321483091
 21
550.3941218614588
 31
0.0
  0
LINE
  5
65
330
1F
100
AcDbEntity
  8
0
  6
Continuous
 62
     7
370
    15
100
AcDbLine
 10
1019.704321483091
 20
550.3941218614591
 30
0.0
 11
1029.704321483091
 21
550.3941218614591
 31
0.0
  0
LINE
  5
66
330
1F
100
AcDbEntity
  8
0
  6
Continuous
 62
     7
370
    15
100
AcDbLine
 10
1029.704321483091
 20
550.3941218614591
 30
0.0
 11
1029.704321483091
 21
553.9315972180032
 31
0.0
  0
LINE
  5
67
330
1F
100
AcDbEntity
  8
0
  6
Continuous
 62
     7
370
    15
100
AcDbLine
 10
1029.704321483091
 20
553.9315972180032
 30
0.0
 11
1019.704321483091
 21
553.9315972180032
 31
0.0
  0
LINE
  5
68
330
1F
100
AcDbEntity
  8
0
  6
Continuous
 62
     7
370
    15
100
AcDbLine
 10
1019.704321483091
 20
553.9315972180032
 30
0.0
 11
1019.704321483091
 21
550.3941218614591
 31
0.0
  0
LINE
  5
69
330
1F
100
AcDbEntity
  8
0
  6
Continuous
 62
     7
370
    15
100
AcDbLine
 10
989.7043214830912
 20
550.3941218614591
 30
0.0
 11
999.7043214830911
 21
550.3941218614591
 31
0.0
  0
LINE
  5
6A
330
1F
100
AcDbEntity
  8
0
  6
Continuous
 62
     7
370
    15
100
AcDbLine
 10
999.7043214830911
 20
550.3941218614591
 30
0.0
 11
999.7043214830911
 21
553.9315972180032
 31
0.0
  0
LINE
  5
6B
330
1F
100
AcDbEntity
  8
0
  6
Continuous
 62
     7
370
    15
100
AcDbLine
 10
999.7043214830911
 20
553.9315972180032
 30
0.0
 11
989.7043214830912
 21
553.9315972180032
 31
0.0
  0
LINE
  5
6C
330
1F
100
AcDbEntity
  8
0
  6
Continuous
 62
     7
370
    15
100
AcDbLine
 10
989.7043214830912
 20
553.9315972180032
 30
0.0
 11
989.7043214830912
 21
550.3941218614591
 31
0.0
  0
LINE
  5
6D
330
1F
100
AcDbEntity
  8
0
  6
Continuous
 62
     7
370
    15
100
AcDbLine
 10
959.7043214830913
 20
550.3941218614592
 30
0.0
 11
969.7043214830912
 21
550.3941218614592
 31
0.0
  0
LINE
  5
6E
330
1F
100
AcDbEntity
  8
0
  6
Continuous
 62
     7
370
    15
100
AcDbLine
 10
969.7043214830912
 20
550.3941218614592
 30
0.0
 11
969.7043214830912
 21
553.9315972180033
 31
0.0
  0
LINE
  5
6F
330
1F
100
AcDbEntity
  8
0
  6
Continuous
 62
     7
370
    15
100
AcDbLine
 10
969.7043214830912
 20
553.9315972180033
 30
0.0
 11
959.7043214830913
 21
553.9315972180033
 31
0.0
  0
LINE
  5
70
330
1F
100
AcDbEntity
  8
0
  6
Continuous
 62
     7
370
    15
100
AcDbLine
 10
959.7043214830913
 20
553.9315972180033
 30
0.0
 11
959.7043214830913
 21
550.3941218614592
 31
0.0
  0
LINE
  5
71
330
1F
100
AcDbEntity
  8
0
  6
Continuous
 62
     7
370
    15
100
AcDbLine
 10
929.704321483091
 20
550.3941218614593
 30
0.0
 11
939.7043214830912
 21
550.3941218614593
 31
0.0
  0
LINE
  5
72
330
1F
100
AcDbEntity
  8
0
  6
Continuous
 62
     7
370
    15
100
AcDbLine
 10
939.7043214830912
 20
550.3941218614593
 30
0.0
 11
939.7043214830912
 21
553.9315972180033
 31
0.0
  0
LINE
  5
73
330
1F
100
AcDbEntity
  8
0
  6
Continuous
 62
     7
370
    15
100
AcDbLine
 10
939.7043214830912
 20
553.9315972180033
 30
0.0
 11
929.704321483091
 21
553.9315972180033
 31
0.0
  0
LINE
  5
74
330
1F
100
AcDbEntity
  8
0
  6
Continuous
 62
     7
370
    15
100
AcDbLine
 10
929.704321483091
 20
553.9315972180033
 30
0.0
 11
929.704321483091
 21
550.3941218614593
 31
0.0
  0
LINE
  5
75
330
1F
100
AcDbEntity
  8
0
  6
Continuous
 62
     7
370
    15
100
AcDbLine
 10
899.7043214830911
 20
550.3941218614593
 30
0.0
 11
909.7043214830913
 21
550.3941218614593
 31
0.0
  0
LINE
  5
76
330
1F
100
AcDbEntity
  8
0
  6
Continuous
 62
     7
370
    15
100
AcDbLine
 10
909.7043214830913
 20
550.3941218614593
 30
0.0
 11
909.7043214830913
 21
553.9315972180033
 31
0.0
  0
LINE
  5
77
330
1F
100
AcDbEntity
  8
0
  6
Continuous
 62
     7
370
    15
100
AcDbLine
 10
909.7043214830913
 20
553.9315972180033
 30
0.0
 11
899.7043214830911
 21
553.9315972180033
 31
0.0
  0
LINE
  5
78
330
1F
100
AcDbEntity
  8
0
  6
Continuous
 62
     7
370
    15
100
AcDbLine
 10
899.7043214830911
 20
553.9315972180033
 30
0.0
 11
899.7043214830911
 21
550.3941218614593
 31
0.0
  0
LINE
  5
79
330
1F
100
AcDbEntity
  8
0
  6
Continuous
 62
     7
370
    15
100
AcDbLine
 10
869.7043214830912
 20
550.3941218614594
 30
0.0
 11
879.7043214830912
 21
550.3941218614594
 31
0.0
  0
LINE
  5
7A
330
1F
100
AcDbEntity
  8
0
  6
Continuous
 62
     7
370
    15
100
AcDbLine
 10
879.7043214830912
 20
550.3941218614594
 30
0.0
 11
879.704321483091
 21
553.9315972180033
 31
0.0
  0
LINE
  5
7B
330
1F
100
AcDbEntity
  8
0
  6
Continuous
 62
     7
370
    15
100
AcDbLine
 10
879.704321483091
 20
553.9315972180033
 30
0.0
 11
869.7043214830912
 21
553.9315972180033
 31
0.0
  0
LINE
  5
7C
330
1F
100
AcDbEntity
  8
0
  6
Continuous
 62
     7
370
    15
100
AcDbLine
 10
869.7043214830912
 20
553.9315972180033
 30
0.0
 11
869.7043214830912
 21
550.3941218614594
 31
0.0
  0
LINE
  5
7D
330
1F
100
AcDbEntity
  8
0
  6
Continuous
 62
     7
370
    15
100
AcDbLine
 10
839.7043214830912
 20
550.3941218614595
 30
0.0
 11
849.7043214830911
 21
550.3941218614595
 31
0.0
  0
LINE
  5
7E
330
1F
100
AcDbEntity
  8
0
  6
Continuous
 62
     7
370
    15
100
AcDbLine
 10
849.7043214830911
 20
550.3941218614595
 30
0.0
 11
849.704321483091
 21
553.9315972180033
 31
0.0
  0
LINE
  5
7F
330
1F
100
AcDbEntity
  8
0
  6
Continuous
 62
     7
370
    15
100
AcDbLine
 10
849.704321483091
 20
553.9315972180033
 30
0.0
 11
839.7043214830912
 21
553.9315972180033
 31
0.0
  0
LINE
  5
80
330
1F
100
AcDbEntity
  8
0
  6
Continuous
 62
     7
370
    15
100
AcDbLine
 10
839.7043214830912
 20
553.9315972180033
 30
0.0
 11
839.7043214830912
 21
550.3941218614595
 31
0.0
  0
LINE
  5
81
330
1F
100
AcDbEntity
  8
0
  6
Continuous
 62
     7
370
    15
100
AcDbLine
 10
809.7043214830911
 20
550.3941218614595
 30
0.0
 11
819.7043214830911
 21
550.3941218614595
 31
0.0
  0
LINE
  5
82
330
1F
100
AcDbEntity
  8
0
  6
Continuous
 62
     7
370
    15
100
AcDbLine
 10
819.7043214830911
 20
550.3941218614595
 30
0.0
 11
819.7043214830911
 21
553.9315972180035
 31
0.0
  0
LINE
  5
83
330
1F
100
AcDbEntity
  8
0
  6
Continuous
 62
     7
370
    15
100
AcDbLine
 10
819.7043214830911
 20
553.9315972180035
 30
0.0
 11
809.7043214830911
 21
553.9315972180035
 31
0.0
  0
LINE
  5
84
330
1F
100
AcDbEntity
  8
0
  6
Continuous
 62
     7
370
    15
100
AcDbLine
 10
809.7043214830911
 20
553.9315972180035
 30
0.0
 11
809.7043214830911
 21
550.3941218614595
 31
0.0
  0
LINE
  5
85
330
1F
100
AcDbEntity
  8
0
  6
Continuous
 62
     7
370
    15
100
AcDbLine
 10
779.7043214830912
 20
550.3941218614596
 30
0.0
 11
789.7043214830912
 21
550.3941218614596
 31
0.0
  0
LINE
  5
86
330
1F
100
AcDbEntity
  8
0
  6
Continuous
 62
     7
370
    15
100
AcDbLine
 10
789.7043214830912
 20
550.3941218614596
 30
0.0
 11
789.7043214830911
 21
553.9315972180036
 31
0.0
  0
LINE
  5
87
330
1F
100
AcDbEntity
  8
0
  6
Continuous
 62
     7
370
    15
100
AcDbLine
 10
789.7043214830911
 20
553.9315972180036
 30
0.0
 11
779.7043214830912
 21
553.9315972180036
 31
0.0
  0
LINE
  5
88
330
1F
100
AcDbEntity
  8
0
  6
Continuous
 62
     7
370
    15
100
AcDbLine
 10
779.7043214830912
 20
553.9315972180036
 30
0.0
 11
779.7043214830912
 21
550.3941218614596
 31
0.0
  0
LINE
  5
89
330
1F
100
AcDbEntity
  8
0
  6
Continuous
 62
     7
370
    15
100
AcDbLine
 10
749.704321483091
 20
550.3941218614597
 30
0.0
 11
759.7043214830912
 21
550.3941218614597
 31
0.0
  0
LINE
  5
8A
330
1F
100
AcDbEntity
  8
0
  6
Continuous
 62
     7
370
    15
100
AcDbLine
 10
759.7043214830912
 20
550.3941218614597
 30
0.0
 11
759.7043214830911
 21
553.9315972180036
 31
0.0
  0
LINE
  5
8B
330
1F
100
AcDbEntity
  8
0
  6
Continuous
 62
     7
370
    15
100
AcDbLine
 10
759.7043214830911
 20
553.9315972180036
 30
0.0
 11
749.704321483091
 21
553.9315972180036
 31
0.0
  0
LINE
  5
8C
330
1F
100
AcDbEntity
  8
0
  6
Continuous
 62
     7
370
    15
100
AcDbLine
 10
749.704321483091
 20
553.9315972180036
 30
0.0
 11
749.704321483091
 21
550.3941218614597
 31
0.0
  0
LINE
  5
8D
330
1F
100
AcDbEntity
  8
0
  6
Continuous
 62
     7
370
    15
100
AcDbLine
 10
719.7043214830911
 20
550.3941218614597
 30
0.0
 11
729.7043214830911
 21
550.3941218614597
 31
0.0
  0
LINE
  5
8E
330
1F
100
AcDbEntity
  8
0
  6
Continuous
 62
     7
370
    15
100
AcDbLine
 10
729.7043214830911
 20
550.3941218614597
 30
0.0
 11
729.7043214830911
 21
553.9315972180036
 31
0.0
  0
LINE
  5
8F
330
1F
100
AcDbEntity
  8
0
  6
Continuous
 62
     7
370
    15
100
AcDbLine
 10
729.7043214830911
 20
553.9315972180036
 30
0.0
 11
719.7043214830911
 21
553.9315972180036
 31
0.0
  0
LINE
  5
90
330
1F
100
AcDbEntity
  8
0
  6
Continuous
 62
     7
370
    15
100
AcDbLine
 10
719.7043214830911
 20
553.9315972180036
 30
0.0
 11
719.7043214830911
 21
550.3941218614597
 31
0.0
  0
LINE
  5
91
330
1F
100
AcDbEntity
  8
0
  6
Continuous
 62
     7
370
    15
100
AcDbLine
 10
689.7043214830911
 20
550.3941218614598
 30
0.0
 11
699.704321483091
 21
550.3941218614598
 31
0.0
  0
LINE
  5
92
330
1F
100
AcDbEntity
  8
0
  6
Continuous
 62
     7
370
    15
100
AcDbLine
 10
699.704321483091
 20
550.3941218614598
 30
0.0
 11
699.704321483091
 21
553.9315972180036
 31
0.0
  0
LINE
  5
93
330
1F
100
AcDbEntity
  8
0
  6
Continuous
 62
     7
370
    15
100
AcDbLine
 10
699.704321483091
 20
553.9315972180036
 30
0.0
 11
689.7043214830911
 21
553.9315972180036
 31
0.0
  0
LINE
  5
94
330
1F
100
AcDbEntity
  8
0
  6
Continuous
 62
     7
370
    15
100
AcDbLine
 10
689.7043214830911
 20
553.9315972180036
 30
0.0
 11
689.7043214830911
 21
550.3941218614598
 31
0.0
  0
LINE
  5
95
330
1F
100
AcDbEntity
  8
0
  6
Continuous
 62
     7
370
    15
100
AcDbLine
 10
667.8629709924639
 20
549.1874603257704
 30
0.0
 11
1130.862970992464
 21
549.1874603257704
 31
0.0
  0
LINE
  5
96
330
1F
100
AcDbEntity
  8
0
  6
Continuous
 62
     7
370
    15
100
AcDbLine
 10
667.8629709924639
 20
549.1874603257704
 30
0.0
 11
667.8629709924639
 21
554.8242175654157
 31
0.0
  0
LINE
  5
97
330
1F
100
AcDbEntity
  8
0
  6
Continuous
 62
     7
370
    15
100
AcDbLine
 10
667.8629709924639
 20
554.8242175654157
 30
0.0
 11
765.6701119265508
 21
554.8242175654157
 31
0.0
  0
LINE
  5
98
330
1F
100
AcDbEntity
  8
0
  6
Continuous
 62
     7
370
    15
100
AcDbLine
 10
765.6701119265508
 20
554.8242175654157
 30
0.0
 11
1033.055830058377
 21
554.8242175654157
 31
0.0
  0
LINE
  5
99
330
1F
100
AcDbEntity
  8
0
  6
Continuous
 62
     7
370
    15
100
AcDbLine
 10
1033.055830058377
 20
554.8242175654157
 30
0.0
 11
1130.862970992464
 21
554.8242175654157
 31
0.0
  0
LINE
  5
9A
330
1F
100
AcDbEntity
  8
0
  6
Continuous
 62
     7
370
    15
100
AcDbLine
 10
1130.862970992464
 20
549.1874603257704
 30
0.0
 11
1130.862970992464
 21
554.8242175654157
 31
0.0
  0
LINE
  5
9B
330
1F
100
AcDbEntity
  8
0
  6
Continuous
 62
     7
370
    15
100
AcDbLine
 10
674.704321483091
 20
550.39412186146
 30
0.0
 11
684.7043214830911
 21
550.39412186146
 31
0.0
  0
LINE
  5
9C
330
1F
100
AcDbEntity
  8
0
  6
Continuous
 62
     7
370
    15
100
AcDbLine
 10
684.7043214830911
 20
550.39412186146
 30
0.0
 11
684.7043214830911
 21
553.9315972180036
 31
0.0
  0
LINE
  5
9D
330
1F
100
AcDbEntity
  8
0
  6
Continuous
 62
     7
370
    15
100
AcDbLine
 10
684.7043214830911
 20
553.9315972180036
 30
0.0
 11
674.704321483091
 21
553.9315972180036
 31
0.0
  0
LINE
  5
9E
330
1F
100
AcDbEntity
  8
0
  6
Continuous
 62
     7
370
    15
100
AcDbLine
 10
674.704321483091
 20
553.9315972180036
 30
0.0
 11
674.704321483091
 21
550.39412186146
 31
0.0
  0
LINE
  5
9F
330
1F
100
AcDbEntity
  8
0
  6
Continuous
 62
     7
370
    15
100
AcDbLine
 10
704.7043214830912
 20
550.3941218614598
 30
0.0
 11
714.7043214830912
 21
550.3941218614598
 31
0.0
  0
LINE
  5
A0
330
1F
100
AcDbEntity
  8
0
  6
Continuous
 62
     7
370
    15
100
AcDbLine
 10
714.7043214830912
 20
550.3941218614598
 30
0.0
 11
714.7043214830912
 21
553.9315972180036
 31
0.0
  0
LINE
  5
A1
330
1F
100
AcDbEntity
  8
0
  6
Continuous
 62
     7
370
    15
100
AcDbLine
 10
714.7043214830912
 20
553.9315972180036
 30
0.0
 11
704.7043214830912
 21
553.9315972180036
 31
0.0
  0
LINE
  5
A2
330
1F
100
AcDbEntity
  8
0
  6
Continuous
 62
     7
370
    15
100
AcDbLine
 10
704.7043214830912
 20
553.9315972180036
 30
0.0
 11
704.7043214830912
 21
550.3941218614598
 31
0.0
  0
LINE
  5
A3
330
1F
100
AcDbEntity
  8
0
  6
Continuous
 62
     7
370
    15
100
AcDbLine
 10
734.7043214830911
 20
550.3941218614597
 30
0.0
 11
744.7043214830911
 21
550.3941218614597
 31
0.0
  0
LINE
  5
A4
330
1F
100
AcDbEntity
  8
0
  6
Continuous
 62
     7
370
    15
100
AcDbLine
 10
744.7043214830911
 20
550.3941218614597
 30
0.0
 11
744.7043214830911
 21
553.9315972180036
 31
0.0
  0
LINE
  5
A5
330
1F
100
AcDbEntity
  8
0
  6
Continuous
 62
     7
370
    15
100
AcDbLine
 10
744.7043214830911
 20
553.9315972180036
 30
0.0
 11
734.7043214830911
 21
553.9315972180036
 31
0.0
  0
LINE
  5
A6
330
1F
100
AcDbEntity
  8
0
  6
Continuous
 62
     7
370
    15
100
AcDbLine
 10
734.7043214830911
 20
553.9315972180036
 30
0.0
 11
734.7043214830911
 21
550.3941218614597
 31
0.0
  0
LINE
  5
A7
330
1F
100
AcDbEntity
  8
0
  6
Continuous
 62
     7
370
    15
100
AcDbLine
 10
764.7043214830912
 20
550.3941218614597
 30
0.0
 11
774.7043214830912
 21
550.3941218614597
 31
0.0
  0
LINE
  5
A8
330
1F
100
AcDbEntity
  8
0
  6
Continuous
 62
     7
370
    15
100
AcDbLine
 10
774.7043214830912
 20
550.3941218614597
 30
0.0
 11
774.704321483091
 21
553.9315972180036
 31
0.0
  0
LINE
  5
A9
330
1F
100
AcDbEntity
  8
0
  6
Continuous
 62
     7
370
    15
100
AcDbLine
 10
774.704321483091
 20
553.9315972180036
 30
0.0
 11
764.7043214830912
 21
553.9315972180036
 31
0.0
  0
LINE
  5
AA
330
1F
100
AcDbEntity
  8
0
  6
Continuous
 62
     7
370
    15
100
AcDbLine
 10
764.7043214830912
 20
553.9315972180036
 30
0.0
 11
764.7043214830912
 21
550.3941218614597
 31
0.0
  0
LINE
  5
AB
330
1F
100
AcDbEntity
  8
0
  6
Continuous
 62
     7
370
    15
100
AcDbLine
 10
794.7043214830911
 20
550.3941218614595
 30
0.0
 11
804.704321483091
 21
550.3941218614595
 31
0.0
  0
LINE
  5
AC
330
1F
100
AcDbEntity
  8
0
  6
Continuous
 62
     7
370
    15
100
AcDbLine
 10
804.704321483091
 20
550.3941218614595
 30
0.0
 11
804.704321483091
 21
553.9315972180035
 31
0.0
  0
LINE
  5
AD
330
1F
100
AcDbEntity
  8
0
  6
Continuous
 62
     7
370
    15
100
AcDbLine
 10
804.704321483091
 20
553.9315972180035
 30
0.0
 11
794.7043214830911
 21
553.9315972180035
 31
0.0
  0
LINE
  5
AE
330
1F
100
AcDbEntity
  8
0
  6
Continuous
 62
     7
370
    15
100
AcDbLine
 10
794.7043214830911
 20
553.9315972180035
 30
0.0
 11
794.7043214830911
 21
550.3941218614595
 31
0.0
  0
LINE
  5
AF
330
1F
100
AcDbEntity
  8
0
  6
Continuous
 62
     7
370
    15
100
AcDbLine
 10
824.7043214830911
 20
550.3941218614595
 30
0.0
 11
834.7043214830913
 21
550.3941218614595
 31
0.0
  0
LINE
  5
B0
330
1F
100
AcDbEntity
  8
0
  6
Continuous
 62
     7
370
    15
100
AcDbLine
 10
834.7043214830913
 20
550.3941218614595
 30
0.0
 11
834.7043214830913
 21
553.9315972180035
 31
0.0
  0
LINE
  5
B1
330
1F
100
AcDbEntity
  8
0
  6
Continuous
 62
     7
370
    15
100
AcDbLine
 10
834.7043214830913
 20
553.9315972180035
 30
0.0
 11
824.7043214830911
 21
553.9315972180035
 31
0.0
  0
LINE
  5
B2
330
1F
100
AcDbEntity
  8
0
  6
Continuous
 62
     7
370
    15
100
AcDbLine
 10
824.7043214830911
 20
553.9315972180035
 30
0.0
 11
824.7043214830911
 21
550.3941218614595
 31
0.0
  0
LINE
  5
B3
330
1F
100
AcDbEntity
  8
0
  6
Continuous
 62
     7
370
    15
100
AcDbLine
 10
854.704321483091
 20
550.3941218614594
 30
0.0
 11
864.7043214830912
 21
550.3941218614594
 31
0.0
  0
LINE
  5
B4
330
1F
100
AcDbEntity
  8
0
  6
Continuous
 62
     7
370
    15
100
AcDbLine
 10
864.7043214830912
 20
550.3941218614594
 30
0.0
 11
864.7043214830912
 21
553.9315972180033
 31
0.0
  0
LINE
  5
B5
330
1F
100
AcDbEntity
  8
0
  6
Continuous
 62
     7
370
    15
100
AcDbLine
 10
864.7043214830912
 20
553.9315972180033
 30
0.0
 11
854.704321483091
 21
553.9315972180033
 31
0.0
  0
LINE
  5
B6
330
1F
100
AcDbEntity
  8
0
  6
Continuous
 62
     7
370
    15
100
AcDbLine
 10
854.704321483091
 20
553.9315972180033
 30
0.0
 11
854.704321483091
 21
550.3941218614594
 31
0.0
  0
LINE
  5
B7
330
1F
100
AcDbEntity
  8
0
  6
Continuous
 62
     7
370
    15
100
AcDbLine
 10
884.7043214830913
 20
550.3941218614593
 30
0.0
 11
894.7043214830912
 21
550.3941218614593
 31
0.0
  0
LINE
  5
B8
330
1F
100
AcDbEntity
  8
0
  6
Continuous
 62
     7
370
    15
100
AcDbLine
 10
894.7043214830912
 20
550.3941218614593
 30
0.0
 11
894.7043214830912
 21
553.9315972180033
 31
0.0
  0
LINE
  5
B9
330
1F
100
AcDbEntity
  8
0
  6
Continuous
 62
     7
370
    15
100
AcDbLine
 10
894.7043214830912
 20
553.9315972180033
 30
0.0
 11
884.7043214830913
 21
553.9315972180033
 31
0.0
  0
LINE
  5
BA
330
1F
100
AcDbEntity
  8
0
  6
Continuous
 62
     7
370
    15
100
AcDbLine
 10
884.7043214830913
 20
553.9315972180033
 30
0.0
 11
884.7043214830913
 21
550.3941218614593
 31
0.0
  0
LINE
  5
BB
330
1F
100
AcDbEntity
  8
0
  6
Continuous
 62
     7
370
    15
100
AcDbLine
 10
914.7043214830912
 20
550.3941218614593
 30
0.0
 11
924.7043214830911
 21
550.3941218614593
 31
0.0
  0
LINE
  5
BC
330
1F
100
AcDbEntity
  8
0
  6
Continuous
 62
     7
370
    15
100
AcDbLine
 10
924.7043214830911
 20
550.3941218614593
 30
0.0
 11
924.7043214830911
 21
553.9315972180033
 31
0.0
  0
LINE
  5
BD
330
1F
100
AcDbEntity
  8
0
  6
Continuous
 62
     7
370
    15
100
AcDbLine
 10
924.7043214830911
 20
553.9315972180033
 30
0.0
 11
914.7043214830912
 21
553.9315972180033
 31
0.0
  0
LINE
  5
BE
330
1F
100
AcDbEntity
  8
0
  6
Continuous
 62
     7
370
    15
100
AcDbLine
 10
914.7043214830912
 20
553.9315972180033
 30
0.0
 11
914.7043214830912
 21
550.3941218614593
 31
0.0
  0
LINE
  5
BF
330
1F
100
AcDbEntity
  8
0
  6
Continuous
 62
     7
370
    15
100
AcDbLine
 10
944.7043214830912
 20
550.3941218614592
 30
0.0
 11
954.7043214830912
 21
550.3941218614592
 31
0.0
  0
LINE
  5
C0
330
1F
100
AcDbEntity
  8
0
  6
Continuous
 62
     7
370
    15
100
AcDbLine
 10
954.7043214830912
 20
550.3941218614592
 30
0.0
 11
954.7043214830912
 21
553.9315972180033
 31
0.0
  0
LINE
  5
C1
330
1F
100
AcDbEntity
  8
0
  6
Continuous
 62
     7
370
    15
100
AcDbLine
 10
954.7043214830912
 20
553.9315972180033
 30
0.0
 11
944.7043214830912
 21
553.9315972180033
 31
0.0
  0
LINE
  5
C2
330
1F
100
AcDbEntity
  8
0
  6
Continuous
 62
     7
370
    15
100
AcDbLine
 10
944.7043214830912
 20
553.9315972180033
 30
0.0
 11
944.7043214830912
 21
550.3941218614592
 31
0.0
  0
LINE
  5
C3
330
1F
100
AcDbEntity
  8
0
  6
Continuous
 62
     7
370
    15
100
AcDbLine
 10
974.7043214830911
 20
550.3941218614591
 30
0.0
 11
984.7043214830913
 21
550.3941218614591
 31
0.0
  0
LINE
  5
C4
330
1F
100
AcDbEntity
  8
0
  6
Continuous
 62
     7
370
    15
100
AcDbLine
 10
984.7043214830913
 20
550.3941218614591
 30
0.0
 11
984.7043214830913
 21
553.9315972180033
 31
0.0
  0
LINE
  5
C5
330
1F
100
AcDbEntity
  8
0
  6
Continuous
 62
     7
370
    15
100
AcDbLine
 10
984.7043214830913
 20
553.9315972180033
 30
0.0
 11
974.7043214830911
 21
553.9315972180033
 31
0.0
  0
LINE
  5
C6
330
1F
100
AcDbEntity
  8
0
  6
Continuous
 62
     7
370
    15
100
AcDbLine
 10
974.7043214830911
 20
553.9315972180033
 30
0.0
 11
974.7043214830911
 21
550.3941218614591
 31
0.0
  0
LINE
  5
C7
330
1F
100
AcDbEntity
  8
0
  6
Continuous
 62
     7
370
    15
100
AcDbLine
 10
1004.704321483091
 20
550.3941218614591
 30
0.0
 11
1014.704321483091
 21
550.3941218614591
 31
0.0
  0
LINE
  5
C8
330
1F
100
AcDbEntity
  8
0
  6
Continuous
 62
     7
370
    15
100
AcDbLine
 10
1014.704321483091
 20
550.3941218614591
 30
0.0
 11
1014.704321483091
 21
553.9315972180032
 31
0.0
  0
LINE
  5
C9
330
1F
100
AcDbEntity
  8
0
  6
Continuous
 62
     7
370
    15
100
AcDbLine
 10
1014.704321483091
 20
553.9315972180032
 30
0.0
 11
1004.704321483091
 21
553.9315972180032
 31
0.0
  0
LINE
  5
CA
330
1F
100
AcDbEntity
  8
0
  6
Continuous
 62
     7
370
    15
100
AcDbLine
 10
1004.704321483091
 20
553.9315972180032
 30
0.0
 11
1004.704321483091
 21
550.3941218614591
 31
0.0
  0
LINE
  5
CB
330
1F
100
AcDbEntity
  8
0
  6
Continuous
 62
     7
370
    15
100
AcDbLine
 10
1034.704321483091
 20
550.3941218614591
 30
0.0
 11
1044.704321483091
 21
550.3941218614591
 31
0.0
  0
LINE
  5
CC
330
1F
100
AcDbEntity
  8
0
  6
Continuous
 62
     7
370
    15
100
AcDbLine
 10
1044.704321483091
 20
550.3941218614591
 30
0.0
 11
1044.704321483091
 21
553.9315972180031
 31
0.0
  0
LINE
  5
CD
330
1F
100
AcDbEntity
  8
0
  6
Continuous
 62
     7
370
    15
100
AcDbLine
 10
1044.704321483091
 20
553.9315972180031
 30
0.0
 11
1034.704321483091
 21
553.9315972180031
 31
0.0
  0
LINE
  5
CE
330
1F
100
AcDbEntity
  8
0
  6
Continuous
 62
     7
370
    15
100
AcDbLine
 10
1034.704321483091
 20
553.9315972180031
 30
0.0
 11
1034.704321483091
 21
550.3941218614591
 31
0.0
  0
LINE
  5
CF
330
1F
100
AcDbEntity
  8
0
  6
Continuous
 62
     7
370
    15
100
AcDbLine
 10
1064.704321483091
 20
550.3941218614588
 30
0.0
 11
1074.704321483091
 21
550.3941218614588
 31
0.0
  0
LINE
  5
D0
330
1F
100
AcDbEntity
  8
0
  6
Continuous
 62
     7
370
    15
100
AcDbLine
 10
1074.704321483091
 20
550.3941218614588
 30
0.0
 11
1074.704321483091
 21
553.9315972180031
 31
0.0
  0
LINE
  5
D1
330
1F
100
AcDbEntity
  8
0
  6
Continuous
 62
     7
370
    15
100
AcDbLine
 10
1074.704321483091
 20
553.9315972180031
 30
0.0
 11
1064.704321483091
 21
553.9315972180031
 31
0.0
  0
LINE
  5
D2
330
1F
100
AcDbEntity
  8
0
  6
Continuous
 62
     7
370
    15
100
AcDbLine
 10
1064.704321483091
 20
553.9315972180031
 30
0.0
 11
1064.704321483091
 21
550.3941218614588
 31
0.0
  0
LINE
  5
D3
330
1F
100
AcDbEntity
  8
0
  6
Continuous
 62
     7
370
    15
100
AcDbLine
 10
1094.704321483091
 20
550.3941218614588
 30
0.0
 11
1104.704321483091
 21
550.3941218614588
 31
0.0
  0
LINE
  5
D4
330
1F
100
AcDbEntity
  8
0
  6
Continuous
 62
     7
370
    15
100
AcDbLine
 10
1104.704321483091
 20
550.3941218614588
 30
0.0
 11
1104.704321483091
 21
553.9315972180031
 31
0.0
  0
LINE
  5
D5
330
1F
100
AcDbEntity
  8
0
  6
Continuous
 62
     7
370
    15
100
AcDbLine
 10
1104.704321483091
 20
553.9315972180031
 30
0.0
 11
1094.704321483091
 21
553.9315972180031
 31
0.0
  0
LINE
  5
D6
330
1F
100
AcDbEntity
  8
0
  6
Continuous
 62
     7
370
    15
100
AcDbLine
 10
1094.704321483091
 20
553.9315972180031
 30
0.0
 11
1094.704321483091
 21
550.3941218614588
 31
0.0
  0
LINE
  5
D7
330
1F
100
AcDbEntity
  8
0
  6
Continuous
 62
     7
370
    15
100
AcDbLine
 10
1119.704321483091
 20
501.5482787274828
 30
0.0
 11
1109.704321483091
 21
501.5482787274828
 31
0.0
  0
LINE
  5
D8
330
1F
100
AcDbEntity
  8
0
  6
Continuous
 62
     7
370
    15
100
AcDbLine
 10
1109.704321483091
 20
501.5482787274828
 30
0.0
 11
1109.704321483091
 21
496.0708138231875
 31
0.0
  0
LINE
  5
D9
330
1F
100
AcDbEntity
  8
0
  6
Continuous
 62
     7
370
    15
100
AcDbLine
 10
1109.704321483091
 20
496.0708138231875
 30
0.0
 11
1119.704321483091
 21
496.0708138231875
 31
0.0
  0
LINE
  5
DA
330
1F
100
AcDbEntity
  8
0
  6
Continuous
 62
     7
370
    15
100
AcDbLine
 10
1119.704321483091
 20
496.0708138231875
 30
0.0
 11
1119.704321483091
 21
501.5482787274828
 31
0.0
  0
LINE
  5
DB
330
1F
100
AcDbEntity
  8
0
  6
Continuous
 62
     7
370
    15
100
AcDbLine
 10
1089.704321483091
 20
501.5482787274827
 30
0.0
 11
1079.704321483091
 21
501.5482787274827
 31
0.0
  0
LINE
  5
DC
330
1F
100
AcDbEntity
  8
0
  6
Continuous
 62
     7
370
    15
100
AcDbLine
 10
1079.704321483091
 20
501.5482787274827
 30
0.0
 11
1079.704321483091
 21
496.0708138231874
 31
0.0
  0
LINE
  5
DD
330
1F
100
AcDbEntity
  8
0
  6
Continuous
 62
     7
370
    15
100
AcDbLine
 10
1079.704321483091
 20
496.0708138231874
 30
0.0
 11
1089.704321483091
 21
496.0708138231874
 31
0.0
  0
LINE
  5
DE
330
1F
100
AcDbEntity
  8
0
  6
Continuous
 62
     7
370
    15
100
AcDbLine
 10
1089.704321483091
 20
496.0708138231874
 30
0.0
 11
1089.704321483091
 21
501.5482787274827
 31
0.0
  0
LINE
  5
DF
330
1F
100
AcDbEntity
  8
0
  6
Continuous
 62
     7
370
    15
100
AcDbLine
 10
1059.704321483091
 20
501.5482787274826
 30
0.0
 11
1049.704321483091
 21
501.5482787274826
 31
0.0
  0
LINE
  5
E0
330
1F
100
AcDbEntity
  8
0
  6
Continuous
 62
     7
370
    15
100
AcDbLine
 10
1049.704321483091
 20
501.5482787274826
 30
0.0
 11
1049.704321483091
 21
496.0708138231873
 31
0.0
  0
LINE
  5
E1
330
1F
100
AcDbEntity
  8
0
  6
Continuous
 62
     7
370
    15
100
AcDbLine
 10
1049.704321483091
 20
496.0708138231873
 30
0.0
 11
1059.704321483091
 21
496.0708138231873
 31
0.0
  0
LINE
  5
E2
330
1F
100
AcDbEntity
  8
0
  6
Continuous
 62
     7
370
    15
100
AcDbLine
 10
1059.704321483091
 20
496.0708138231873
 30
0.0
 11
1059.704321483091
 21
501.5482787274826
 31
0.0
  0
LINE
  5
E3
330
1F
100
AcDbEntity
  8
0
  6
Continuous
 62
     7
370
    15
100
AcDbLine
 10
1029.704321483091
 20
501.5482787274826
 30
0.0
 11
1019.704321483091
 21
501.5482787274826
 31
0.0
  0
LINE
  5
E4
330
1F
100
AcDbEntity
  8
0
  6
Continuous
 62
     7
370
    15
100
AcDbLine
 10
1019.704321483091
 20
501.5482787274826
 30
0.0
 11
1019.704321483091
 21
496.0708138231872
 31
0.0
  0
LINE
  5
E5
330
1F
100
AcDbEntity
  8
0
  6
Continuous
 62
     7
370
    15
100
AcDbLine
 10
1019.704321483091
 20
496.0708138231872
 30
0.0
 11
1029.704321483091
 21
496.0708138231872
 31
0.0
  0
LINE
  5
E6
330
1F
100
AcDbEntity
  8
0
  6
Continuous
 62
     7
370
    15
100
AcDbLine
 10
1029.704321483091
 20
496.0708138231872
 30
0.0
 11
1029.704321483091
 21
501.5482787274826
 31
0.0
  0
LINE
  5
E7
330
1F
100
AcDbEntity
  8
0
  6
Continuous
 62
     7
370
    15
100
AcDbLine
 10
999.7043214830911
 20
501.5482787274825
 30
0.0
 11
989.7043214830912
 21
501.5482787274825
 31
0.0
  0
LINE
  5
E8
330
1F
100
AcDbEntity
  8
0
  6
Continuous
 62
     7
370
    15
100
AcDbLine
 10
989.7043214830912
 20
501.5482787274825
 30
0.0
 11
989.7043214830912
 21
496.0708138231871
 31
0.0
  0
LINE
  5
E9
330
1F
100
AcDbEntity
  8
0
  6
Continuous
 62
     7
370
    15
100
AcDbLine
 10
989.7043214830912
 20
496.0708138231871
 30
0.0
 11
999.7043214830911
 21
496.0708138231871
 31
0.0
  0
LINE
  5
EA
330
1F
100
AcDbEntity
  8
0
  6
Continuous
 62
     7
370
    15
100
AcDbLine
 10
999.7043214830911
 20
496.0708138231871
 30
0.0
 11
999.7043214830911
 21
501.5482787274825
 31
0.0
  0
LINE
  5
EB
330
1F
100
AcDbEntity
  8
0
  6
Continuous
 62
     7
370
    15
100
AcDbLine
 10
969.7043214830912
 20
501.5482787274824
 30
0.0
 11
959.7043214830913
 21
501.5482787274824
 31
0.0
  0
LINE
  5
EC
330
1F
100
AcDbEntity
  8
0
  6
Continuous
 62
     7
370
    15
100
AcDbLine
 10
959.7043214830913
 20
501.5482787274824
 30
0.0
 11
959.7043214830913
 21
496.0708138231871
 31
0.0
  0
LINE
  5
ED
330
1F
100
AcDbEntity
  8
0
  6
Continuous
 62
     7
370
    15
100
AcDbLine
 10
959.7043214830913
 20
496.0708138231871
 30
0.0
 11
969.7043214830912
 21
496.0708138231871
 31
0.0
  0
LINE
  5
EE
330
1F
100
AcDbEntity
  8
0
  6
Continuous
 62
     7
370
    15
100
AcDbLine
 10
969.7043214830912
 20
496.0708138231871
 30
0.0
 11
969.7043214830912
 21
501.5482787274824
 31
0.0
  0
LINE
  5
EF
330
1F
100
AcDbEntity
  8
0
  6
Continuous
 62
     7
370
    15
100
AcDbLine
 10
939.7043214830912
 20
501.5482787274823
 30
0.0
 11
929.704321483091
 21
501.5482787274823
 31
0.0
  0
LINE
  5
F0
330
1F
100
AcDbEntity
  8
0
  6
Continuous
 62
     7
370
    15
100
AcDbLine
 10
929.704321483091
 20
501.5482787274823
 30
0.0
 11
929.704321483091
 21
496.0708138231869
 31
0.0
  0
LINE
  5
F1
330
1F
100
AcDbEntity
  8
0
  6
Continuous
 62
     7
370
    15
100
AcDbLine
 10
929.704321483091
 20
496.0708138231869
 30
0.0
 11
939.7043214830912
 21
496.0708138231869
 31
0.0
  0
LINE
  5
F2
330
1F
100
AcDbEntity
  8
0
  6
Continuous
 62
     7
370
    15
100
AcDbLine
 10
939.7043214830912
 20
496.0708138231869
 30
0.0
 11
939.7043214830912
 21
501.5482787274823
 31
0.0
  0
LINE
  5
F3
330
1F
100
AcDbEntity
  8
0
  6
Continuous
 62
     7
370
    15
100
AcDbLine
 10
909.7043214830913
 20
501.5482787274822
 30
0.0
 11
899.7043214830911
 21
501.5482787274822
 31
0.0
  0
LINE
  5
F4
330
1F
100
AcDbEntity
  8
0
  6
Continuous
 62
     7
370
    15
100
AcDbLine
 10
899.7043214830911
 20
501.5482787274822
 30
0.0
 11
899.7043214830911
 21
496.0708138231869
 31
0.0
  0
LINE
  5
F5
330
1F
100
AcDbEntity
  8
0
  6
Continuous
 62
     7
370
    15
100
AcDbLine
 10
899.7043214830911
 20
496.0708138231869
 30
0.0
 11
909.7043214830913
 21
496.0708138231869
 31
0.0
  0
LINE
  5
F6
330
1F
100
AcDbEntity
  8
0
  6
Continuous
 62
     7
370
    15
100
AcDbLine
 10
909.7043214830913
 20
496.0708138231869
 30
0.0
 11
909.7043214830913
 21
501.5482787274822
 31
0.0
  0
LINE
  5
F7
330
1F
100
AcDbEntity
  8
0
  6
Continuous
 62
     7
370
    15
100
AcDbLine
 10
879.7043214830912
 20
501.548278727482
 30
0.0
 11
869.7043214830912
 21
501.548278727482
 31
0.0
  0
LINE
  5
F8
330
1F
100
AcDbEntity
  8
0
  6
Continuous
 62
     7
370
    15
100
AcDbLine
 10
869.7043214830912
 20
501.548278727482
 30
0.0
 11
869.7043214830912
 21
496.0708138231868
 31
0.0
  0
LINE
  5
F9
330
1F
100
AcDbEntity
  8
0
  6
Continuous
 62
     7
370
    15
100
AcDbLine
 10
869.7043214830912
 20
496.0708138231868
 30
0.0
 11
879.7043214830912
 21
496.0708138231868
 31
0.0
  0
LINE
  5
FA
330
1F
100
AcDbEntity
  8
0
  6
Continuous
 62
     7
370
    15
100
AcDbLine
 10
879.7043214830912
 20
496.0708138231868
 30
0.0
 11
879.7043214830912
 21
501.548278727482
 31
0.0
  0
LINE
  5
FB
330
1F
100
AcDbEntity
  8
0
  6
Continuous
 62
     7
370
    15
100
AcDbLine
 10
849.7043214830911
 20
501.548278727482
 30
0.0
 11
839.7043214830912
 21
501.548278727482
 31
0.0
  0
LINE
  5
FC
330
1F
100
AcDbEntity
  8
0
  6
Continuous
 62
     7
370
    15
100
AcDbLine
 10
839.7043214830912
 20
501.548278727482
 30
0.0
 11
839.7043214830912
 21
496.0708138231867
 31
0.0
  0
LINE
  5
FD
330
1F
100
AcDbEntity
  8
0
  6
Continuous
 62
     7
370
    15
100
AcDbLine
 10
839.7043214830912
 20
496.0708138231867
 30
0.0
 11
849.7043214830911
 21
496.0708138231867
 31
0.0
  0
LINE
  5
FE
330
1F
100
AcDbEntity
  8
0
  6
Continuous
 62
     7
370
    15
100
AcDbLine
 10
849.7043214830911
 20
496.0708138231867
 30
0.0
 11
849.7043214830911
 21
501.548278727482
 31
0.0
  0
LINE
  5
FF
330
1F
100
AcDbEntity
  8
0
  6
Continuous
 62
     7
370
    15
100
AcDbLine
 10
819.7043214830911
 20
501.5482787274819
 30
0.0
 11
809.7043214830911
 21
501.5482787274819
 31
0.0
  0
LINE
  5
100
330
1F
100
AcDbEntity
  8
0
  6
Continuous
 62
     7
370
    15
100
AcDbLine
 10
809.7043214830911
 20
501.5482787274819
 30
0.0
 11
809.7043214830911
 21
496.0708138231866
 31
0.0
  0
LINE
  5
101
330
1F
100
AcDbEntity
  8
0
  6
Continuous
 62
     7
370
    15
100
AcDbLine
 10
809.7043214830911
 20
496.0708138231866
 30
0.0
 11
819.7043214830911
 21
496.0708138231866
 31
0.0
  0
LINE
  5
102
330
1F
100
AcDbEntity
  8
0
  6
Continuous
 62
     7
370
    15
100
AcDbLine
 10
819.7043214830911
 20
496.0708138231866
 30
0.0
 11
819.7043214830911
 21
501.5482787274819
 31
0.0
  0
LINE
  5
103
330
1F
100
AcDbEntity
  8
0
  6
Continuous
 62
     7
370
    15
100
AcDbLine
 10
789.7043214830912
 20
501.5482787274819
 30
0.0
 11
779.7043214830912
 21
501.5482787274819
 31
0.0
  0
LINE
  5
104
330
1F
100
AcDbEntity
  8
0
  6
Continuous
 62
     7
370
    15
100
AcDbLine
 10
779.7043214830912
 20
501.5482787274819
 30
0.0
 11
779.7043214830912
 21
496.0708138231865
 31
0.0
  0
LINE
  5
105
330
1F
100
AcDbEntity
  8
0
  6
Continuous
 62
     7
370
    15
100
AcDbLine
 10
779.7043214830912
 20
496.0708138231865
 30
0.0
 11
789.7043214830912
 21
496.0708138231865
 31
0.0
  0
LINE
  5
106
330
1F
100
AcDbEntity
  8
0
  6
Continuous
 62
     7
370
    15
100
AcDbLine
 10
789.7043214830912
 20
496.0708138231865
 30
0.0
 11
789.7043214830912
 21
501.5482787274819
 31
0.0
  0
LINE
  5
107
330
1F
100
AcDbEntity
  8
0
  6
Continuous
 62
     7
370
    15
100
AcDbLine
 10
759.7043214830912
 20
501.5482787274818
 30
0.0
 11
749.704321483091
 21
501.5482787274818
 31
0.0
  0
LINE
  5
108
330
1F
100
AcDbEntity
  8
0
  6
Continuous
 62
     7
370
    15
100
AcDbLine
 10
749.704321483091
 20
501.5482787274818
 30
0.0
 11
749.704321483091
 21
496.0708138231864
 31
0.0
  0
LINE
  5
109
330
1F
100
AcDbEntity
  8
0
  6
Continuous
 62
     7
370
    15
100
AcDbLine
 10
749.704321483091
 20
496.0708138231864
 30
0.0
 11
759.7043214830912
 21
496.0708138231864
 31
0.0
  0
LINE
  5
10A
330
1F
100
AcDbEntity
  8
0
  6
Continuous
 62
     7
370
    15
100
AcDbLine
 10
759.7043214830912
 20
496.0708138231864
 30
0.0
 11
759.7043214830912
 21
501.5482787274818
 31
0.0
  0
LINE
  5
10B
330
1F
100
AcDbEntity
  8
0
  6
Continuous
 62
     7
370
    15
100
AcDbLine
 10
729.7043214830911
 20
501.5482787274817
 30
0.0
 11
719.7043214830911
 21
501.5482787274817
 31
0.0
  0
LINE
  5
10C
330
1F
100
AcDbEntity
  8
0
  6
Continuous
 62
     7
370
    15
100
AcDbLine
 10
719.7043214830911
 20
501.5482787274817
 30
0.0
 11
719.7043214830911
 21
496.0708138231863
 31
0.0
  0
LINE
  5
10D
330
1F
100
AcDbEntity
  8
0
  6
Continuous
 62
     7
370
    15
100
AcDbLine
 10
719.7043214830911
 20
496.0708138231863
 30
0.0
 11
729.7043214830911
 21
496.0708138231863
 31
0.0
  0
LINE
  5
10E
330
1F
100
AcDbEntity
  8
0
  6
Continuous
 62
     7
370
    15
100
AcDbLine
 10
729.7043214830911
 20
496.0708138231863
 30
0.0
 11
729.7043214830911
 21
501.5482787274817
 31
0.0
  0
LINE
  5
10F
330
1F
100
AcDbEntity
  8
0
  6
Continuous
 62
     7
370
    15
100
AcDbLine
 10
699.704321483091
 20
501.5482787274816
 30
0.0
 11
689.7043214830911
 21
501.5482787274816
 31
0.0
  0
LINE
  5
110
330
1F
100
AcDbEntity
  8
0
  6
Continuous
 62
     7
370
    15
100
AcDbLine
 10
689.7043214830911
 20
501.5482787274816
 30
0.0
 11
689.7043214830911
 21
496.0708138231863
 31
0.0
  0
LINE
  5
111
330
1F
100
AcDbEntity
  8
0
  6
Continuous
 62
     7
370
    15
100
AcDbLine
 10
689.7043214830911
 20
496.0708138231863
 30
0.0
 11
699.704321483091
 21
496.0708138231863
 31
0.0
  0
LINE
  5
112
330
1F
100
AcDbEntity
  8
0
  6
Continuous
 62
     7
370
    15
100
AcDbLine
 10
699.704321483091
 20
496.0708138231863
 30
0.0
 11
699.704321483091
 21
501.5482787274816
 31
0.0
  0
LINE
  5
113
330
1F
100
AcDbEntity
  8
0
  6
Continuous
 62
     7
370
    15
100
AcDbLine
 10
667.8629709924639
 20
494.8242175654156
 30
0.0
 11
1130.862970992464
 21
494.8242175654156
 31
0.0
  0
LINE
  5
114
330
1F
100
AcDbEntity
  8
0
  6
Continuous
 62
     7
370
    15
100
AcDbLine
 10
667.8629709924639
 20
502.8039958256725
 30
0.0
 11
1130.862970992464
 21
502.8039958256725
 31
0.0
  0
LINE
  5
115
330
1F
100
AcDbEntity
  8
0
  6
Continuous
 62
     7
370
    15
100
AcDbLine
 10
1130.862970992464
 20
494.8242175654156
 30
0.0
 11
1130.862970992464
 21
502.8039958256725
 31
0.0
  0
LINE
  5
116
330
1F
100
AcDbEntity
  8
0
  6
Continuous
 62
     7
370
    15
100
AcDbLine
 10
684.7043214830911
 20
501.5482787274816
 30
0.0
 11
674.704321483091
 21
501.5482787274816
 31
0.0
  0
LINE
  5
117
330
1F
100
AcDbEntity
  8
0
  6
Continuous
 62
     7
370
    15
100
AcDbLine
 10
674.704321483091
 20
501.5482787274816
 30
0.0
 11
674.704321483091
 21
496.0708138231862
 31
0.0
  0
LINE
  5
118
330
1F
100
AcDbEntity
  8
0
  6
Continuous
 62
     7
370
    15
100
AcDbLine
 10
674.704321483091
 20
496.0708138231862
 30
0.0
 11
684.7043214830911
 21
496.0708138231862
 31
0.0
  0
LINE
  5
119
330
1F
100
AcDbEntity
  8
0
  6
Continuous
 62
     7
370
    15
100
AcDbLine
 10
684.7043214830911
 20
496.0708138231862
 30
0.0
 11
684.7043214830911
 21
501.5482787274816
 31
0.0
  0
LINE
  5
11A
330
1F
100
AcDbEntity
  8
0
  6
Continuous
 62
     7
370
    15
100
AcDbLine
 10
714.7043214830912
 20
501.5482787274816
 30
0.0
 11
704.7043214830912
 21
501.5482787274816
 31
0.0
  0
LINE
  5
11B
330
1F
100
AcDbEntity
  8
0
  6
Continuous
 62
     7
370
    15
100
AcDbLine
 10
704.7043214830912
 20
501.5482787274816
 30
0.0
 11
704.7043214830912
 21
496.0708138231863
 31
0.0
  0
LINE
  5
11C
330
1F
100
AcDbEntity
  8
0
  6
Continuous
 62
     7
370
    15
100
AcDbLine
 10
704.7043214830912
 20
496.0708138231863
 30
0.0
 11
714.7043214830912
 21
496.0708138231863
 31
0.0
  0
LINE
  5
11D
330
1F
100
AcDbEntity
  8
0
  6
Continuous
 62
     7
370
    15
100
AcDbLine
 10
714.7043214830912
 20
496.0708138231863
 30
0.0
 11
714.7043214830912
 21
501.5482787274816
 31
0.0
  0
LINE
  5
11E
330
1F
100
AcDbEntity
  8
0
  6
Continuous
 62
     7
370
    15
100
AcDbLine
 10
744.7043214830911
 20
501.5482787274817
 30
0.0
 11
734.7043214830911
 21
501.5482787274817
 31
0.0
  0
LINE
  5
11F
330
1F
100
AcDbEntity
  8
0
  6
Continuous
 62
     7
370
    15
100
AcDbLine
 10
734.7043214830911
 20
501.5482787274817
 30
0.0
 11
734.7043214830911
 21
496.0708138231864
 31
0.0
  0
LINE
  5
120
330
1F
100
AcDbEntity
  8
0
  6
Continuous
 62
     7
370
    15
100
AcDbLine
 10
734.7043214830911
 20
496.0708138231864
 30
0.0
 11
744.7043214830911
 21
496.0708138231864
 31
0.0
  0
LINE
  5
121
330
1F
100
AcDbEntity
  8
0
  6
Continuous
 62
     7
370
    15
100
AcDbLine
 10
744.7043214830911
 20
496.0708138231864
 30
0.0
 11
744.7043214830911
 21
501.5482787274817
 31
0.0
  0
LINE
  5
122
330
1F
100
AcDbEntity
  8
0
  6
Continuous
 62
     7
370
    15
100
AcDbLine
 10
774.7043214830912
 20
501.5482787274818
 30
0.0
 11
764.7043214830912
 21
501.5482787274818
 31
0.0
  0
LINE
  5
123
330
1F
100
AcDbEntity
  8
0
  6
Continuous
 62
     7
370
    15
100
AcDbLine
 10
764.7043214830912
 20
501.5482787274818
 30
0.0
 11
764.7043214830912
 21
496.0708138231865
 31
0.0
  0
LINE
  5
124
330
1F
100
AcDbEntity
  8
0
  6
Continuous
 62
     7
370
    15
100
AcDbLine
 10
764.7043214830912
 20
496.0708138231865
 30
0.0
 11
774.7043214830912
 21
496.0708138231865
 31
0.0
  0
LINE
  5
125
330
1F
100
AcDbEntity
  8
0
  6
Continuous
 62
     7
370
    15
100
AcDbLine
 10
774.7043214830912
 20
496.0708138231865
 30
0.0
 11
774.7043214830912
 21
501.5482787274818
 31
0.0
  0
LINE
  5
126
330
1F
100
AcDbEntity
  8
0
  6
Continuous
 62
     7
370
    15
100
AcDbLine
 10
804.704321483091
 20
501.5482787274819
 30
0.0
 11
794.7043214830911
 21
501.5482787274819
 31
0.0
  0
LINE
  5
127
330
1F
100
AcDbEntity
  8
0
  6
Continuous
 62
     7
370
    15
100
AcDbLine
 10
794.7043214830911
 20
501.5482787274819
 30
0.0
 11
794.7043214830911
 21
496.0708138231866
 31
0.0
  0
LINE
  5
128
330
1F
100
AcDbEntity
  8
0
  6
Continuous
 62
     7
370
    15
100
AcDbLine
 10
794.7043214830911
 20
496.0708138231866
 30
0.0
 11
804.704321483091
 21
496.0708138231866
 31
0.0
  0
LINE
  5
129
330
1F
100
AcDbEntity
  8
0
  6
Continuous
 62
     7
370
    15
100
AcDbLine
 10
804.704321483091
 20
496.0708138231866
 30
0.0
 11
804.704321483091
 21
501.5482787274819
 31
0.0
  0
LINE
  5
12A
330
1F
100
AcDbEntity
  8
0
  6
Continuous
 62
     7
370
    15
100
AcDbLine
 10
834.7043214830913
 20
501.5482787274819
 30
0.0
 11
824.7043214830911
 21
501.5482787274819
 31
0.0
  0
LINE
  5
12B
330
1F
100
AcDbEntity
  8
0
  6
Continuous
 62
     7
370
    15
100
AcDbLine
 10
824.7043214830911
 20
501.5482787274819
 30
0.0
 11
824.7043214830911
 21
496.0708138231867
 31
0.0
  0
LINE
  5
12C
330
1F
100
AcDbEntity
  8
0
  6
Continuous
 62
     7
370
    15
100
AcDbLine
 10
824.7043214830911
 20
496.0708138231867
 30
0.0
 11
834.7043214830913
 21
496.0708138231867
 31
0.0
  0
LINE
  5
12D
330
1F
100
AcDbEntity
  8
0
  6
Continuous
 62
     7
370
    15
100
AcDbLine
 10
834.7043214830913
 20
496.0708138231867
 30
0.0
 11
834.7043214830913
 21
501.5482787274819
 31
0.0
  0
LINE
  5
12E
330
1F
100
AcDbEntity
  8
0
  6
Continuous
 62
     7
370
    15
100
AcDbLine
 10
864.7043214830912
 20
501.548278727482
 30
0.0
 11
854.704321483091
 21
501.548278727482
 31
0.0
  0
LINE
  5
12F
330
1F
100
AcDbEntity
  8
0
  6
Continuous
 62
     7
370
    15
100
AcDbLine
 10
854.704321483091
 20
501.548278727482
 30
0.0
 11
854.704321483091
 21
496.0708138231868
 31
0.0
  0
LINE
  5
130
330
1F
100
AcDbEntity
  8
0
  6
Continuous
 62
     7
370
    15
100
AcDbLine
 10
854.704321483091
 20
496.0708138231868
 30
0.0
 11
864.7043214830912
 21
496.0708138231868
 31
0.0
  0
LINE
  5
131
330
1F
100
AcDbEntity
  8
0
  6
Continuous
 62
     7
370
    15
100
AcDbLine
 10
864.7043214830912
 20
496.0708138231868
 30
0.0
 11
864.7043214830912
 21
501.548278727482
 31
0.0
  0
LINE
  5
132
330
1F
100
AcDbEntity
  8
0
  6
Continuous
 62
     7
370
    15
100
AcDbLine
 10
894.7043214830912
 20
501.5482787274821
 30
0.0
 11
884.7043214830913
 21
501.5482787274821
 31
0.0
  0
LINE
  5
133
330
1F
100
AcDbEntity
  8
0
  6
Continuous
 62
     7
370
    15
100
AcDbLine
 10
884.7043214830913
 20
501.5482787274821
 30
0.0
 11
884.7043214830913
 21
496.0708138231868
 31
0.0
  0
LINE
  5
134
330
1F
100
AcDbEntity
  8
0
  6
Continuous
 62
     7
370
    15
100
AcDbLine
 10
884.7043214830913
 20
496.0708138231868
 30
0.0
 11
894.7043214830912
 21
496.0708138231868
 31
0.0
  0
LINE
  5
135
330
1F
100
AcDbEntity
  8
0
  6
Continuous
 62
     7
370
    15
100
AcDbLine
 10
894.7043214830912
 20
496.0708138231868
 30
0.0
 11
894.7043214830912
 21
501.5482787274821
 31
0.0
  0
LINE
  5
136
330
1F
100
AcDbEntity
  8
0
  6
Continuous
 62
     7
370
    15
100
AcDbLine
 10
924.7043214830911
 20
501.5482787274822
 30
0.0
 11
914.7043214830912
 21
501.5482787274822
 31
0.0
  0
LINE
  5
137
330
1F
100
AcDbEntity
  8
0
  6
Continuous
 62
     7
370
    15
100
AcDbLine
 10
914.7043214830912
 20
501.5482787274822
 30
0.0
 11
914.7043214830912
 21
496.0708138231869
 31
0.0
  0
LINE
  5
138
330
1F
100
AcDbEntity
  8
0
  6
Continuous
 62
     7
370
    15
100
AcDbLine
 10
914.7043214830912
 20
496.0708138231869
 30
0.0
 11
924.7043214830911
 21
496.0708138231869
 31
0.0
  0
LINE
  5
139
330
1F
100
AcDbEntity
  8
0
  6
Continuous
 62
     7
370
    15
100
AcDbLine
 10
924.7043214830911
 20
496.0708138231869
 30
0.0
 11
924.7043214830911
 21
501.5482787274822
 31
0.0
  0
LINE
  5
13A
330
1F
100
AcDbEntity
  8
0
  6
Continuous
 62
     7
370
    15
100
AcDbLine
 10
954.7043214830912
 20
501.5482787274823
 30
0.0
 11
944.7043214830912
 21
501.5482787274823
 31
0.0
  0
LINE
  5
13B
330
1F
100
AcDbEntity
  8
0
  6
Continuous
 62
     7
370
    15
100
AcDbLine
 10
944.7043214830912
 20
501.5482787274823
 30
0.0
 11
944.7043214830912
 21
496.0708138231869
 31
0.0
  0
LINE
  5
13C
330
1F
100
AcDbEntity
  8
0
  6
Continuous
 62
     7
370
    15
100
AcDbLine
 10
944.7043214830912
 20
496.0708138231869
 30
0.0
 11
954.7043214830912
 21
496.0708138231869
 31
0.0
  0
LINE
  5
13D
330
1F
100
AcDbEntity
  8
0
  6
Continuous
 62
     7
370
    15
100
AcDbLine
 10
954.7043214830912
 20
496.0708138231869
 30
0.0
 11
954.7043214830912
 21
501.5482787274823
 31
0.0
  0
LINE
  5
13E
330
1F
100
AcDbEntity
  8
0
  6
Continuous
 62
     7
370
    15
100
AcDbLine
 10
984.7043214830913
 20
501.5482787274824
 30
0.0
 11
974.7043214830911
 21
501.5482787274824
 31
0.0
  0
LINE
  5
13F
330
1F
100
AcDbEntity
  8
0
  6
Continuous
 62
     7
370
    15
100
AcDbLine
 10
974.7043214830911
 20
501.5482787274824
 30
0.0
 11
974.7043214830911
 21
496.0708138231871
 31
0.0
  0
LINE
  5
140
330
1F
100
AcDbEntity
  8
0
  6
Continuous
 62
     7
370
    15
100
AcDbLine
 10
974.7043214830911
 20
496.0708138231871
 30
0.0
 11
984.7043214830913
 21
496.0708138231871
 31
0.0
  0
LINE
  5
141
330
1F
100
AcDbEntity
  8
0
  6
Continuous
 62
     7
370
    15
100
AcDbLine
 10
984.7043214830913
 20
496.0708138231871
 30
0.0
 11
984.7043214830913
 21
501.5482787274824
 31
0.0
  0
LINE
  5
142
330
1F
100
AcDbEntity
  8
0
  6
Continuous
 62
     7
370
    15
100
AcDbLine
 10
1014.704321483091
 20
501.5482787274825
 30
0.0
 11
1004.704321483091
 21
501.5482787274825
 31
0.0
  0
LINE
  5
143
330
1F
100
AcDbEntity
  8
0
  6
Continuous
 62
     7
370
    15
100
AcDbLine
 10
1004.704321483091
 20
501.5482787274825
 30
0.0
 11
1004.704321483091
 21
496.0708138231872
 31
0.0
  0
LINE
  5
144
330
1F
100
AcDbEntity
  8
0
  6
Continuous
 62
     7
370
    15
100
AcDbLine
 10
1004.704321483091
 20
496.0708138231872
 30
0.0
 11
1014.704321483091
 21
496.0708138231872
 31
0.0
  0
LINE
  5
145
330
1F
100
AcDbEntity
  8
0
  6
Continuous
 62
     7
370
    15
100
AcDbLine
 10
1014.704321483091
 20
496.0708138231872
 30
0.0
 11
1014.704321483091
 21
501.5482787274825
 31
0.0
  0
LINE
  5
146
330
1F
100
AcDbEntity
  8
0
  6
Continuous
 62
     7
370
    15
100
AcDbLine
 10
1044.704321483091
 20
501.5482787274826
 30
0.0
 11
1034.704321483091
 21
501.5482787274826
 31
0.0
  0
LINE
  5
147
330
1F
100
AcDbEntity
  8
0
  6
Continuous
 62
     7
370
    15
100
AcDbLine
 10
1034.704321483091
 20
501.5482787274826
 30
0.0
 11
1034.704321483091
 21
496.0708138231873
 31
0.0
  0
LINE
  5
148
330
1F
100
AcDbEntity
  8
0
  6
Continuous
 62
     7
370
    15
100
AcDbLine
 10
1034.704321483091
 20
496.0708138231873
 30
0.0
 11
1044.704321483091
 21
496.0708138231873
 31
0.0
  0
LINE
  5
149
330
1F
100
AcDbEntity
  8
0
  6
Continuous
 62
     7
370
    15
100
AcDbLine
 10
1044.704321483091
 20
496.0708138231873
 30
0.0
 11
1044.704321483091
 21
501.5482787274826
 31
0.0
  0
LINE
  5
14A
330
1F
100
AcDbEntity
  8
0
  6
Continuous
 62
     7
370
    15
100
AcDbLine
 10
1074.704321483091
 20
501.5482787274827
 30
0.0
 11
1064.704321483091
 21
501.5482787274827
 31
0.0
  0
LINE
  5
14B
330
1F
100
AcDbEntity
  8
0
  6
Continuous
 62
     7
370
    15
100
AcDbLine
 10
1064.704321483091
 20
501.5482787274827
 30
0.0
 11
1064.704321483091
 21
496.0708138231874
 31
0.0
  0
LINE
  5
14C
330
1F
100
AcDbEntity
  8
0
  6
Continuous
 62
     7
370
    15
100
AcDbLine
 10
1064.704321483091
 20
496.0708138231874
 30
0.0
 11
1074.704321483091
 21
496.0708138231873
 31
0.0
  0
LINE
  5
14D
330
1F
100
AcDbEntity
  8
0
  6
Continuous
 62
     7
370
    15
100
AcDbLine
 10
1074.704321483091
 20
496.0708138231873
 30
0.0
 11
1074.704321483091
 21
501.5482787274827
 31
0.0
  0
LINE
  5
14E
330
1F
100
AcDbEntity
  8
0
  6
Continuous
 62
     7
370
    15
100
AcDbLine
 10
1104.704321483091
 20
501.5482787274827
 30
0.0
 11
1094.704321483091
 21
501.5482787274827
 31
0.0
  0
LINE
  5
14F
330
1F
100
AcDbEntity
  8
0
  6
Continuous
 62
     7
370
    15
100
AcDbLine
 10
1094.704321483091
 20
501.5482787274827
 30
0.0
 11
1094.704321483091
 21
496.0708138231874
 31
0.0
  0
LINE
  5
150
330
1F
100
AcDbEntity
  8
0
  6
Continuous
 62
     7
370
    15
100
AcDbLine
 10
1094.704321483091
 20
496.0708138231874
 30
0.0
 11
1104.704321483091
 21
496.0708138231874
 31
0.0
  0
LINE
  5
151
330
1F
100
AcDbEntity
  8
0
  6
Continuous
 62
     7
370
    15
100
AcDbLine
 10
1104.704321483091
 20
496.0708138231874
 30
0.0
 11
1104.704321483091
 21
501.5482787274827
 31
0.0
  0
LINE
  5
152
330
1F
100
AcDbEntity
  8
0
  6
Continuous
 62
     7
370
    15
100
AcDbLine
 10
667.8629709924639
 20
494.8242175654156
 30
0.0
 11
667.8629709924639
 21
502.8039958256725
 31
0.0
  0
LINE
  5
153
330
1F
100
AcDbEntity
  8
0
  6
Continuous
 62
     7
370
    15
100
AcDbLine
 10
1130.862970992464
 20
549.1874603257704
 30
0.0
 11
1130.862970992464
 21
502.8039958256725
 31
0.0
  0
LINE
  5
154
330
1F
100
AcDbEntity
  8
0
  6
Continuous
 62
     7
370
    15
100
AcDbLine
 10
667.8629709924639
 20
549.1874603257704
 30
0.0
 11
667.8629709924639
 21
502.8039958256725
 31
0.0
  0
LINE
  5
155
330
1F
100
AcDbEntity
  8
0
  6
Continuous
 62
     7
370
    15
100
AcDbLine
 10
695.7325524936162
 20
492.8242175654156
 30
0.0
 11
686.3894067431085
 21
492.8242175654156
 31
0.0
  0
ARC
  5
156
330
1F
100
AcDbEntity
  8
0
  6
Continuous
 62
     7
370
    15
100
AcDbCircle
 10
686.3894067431085
 20
495.8242175654156
 30
0.0
 40
3.0
100
AcDbArc
 50
199.4712206344888
 51
270.0
  0
ARC
  5
157
330
1F
100
AcDbEntity
  8
0
  6
Continuous
 62
     7
370
    15
100
AcDbCircle
 10
695.7325524936162
 20
495.8242175654156
 30
0.0
 40
3.0
100
AcDbArc
 50
270.0
 51
340.5287793655112
  0
LINE
  5
158
330
1F
100
AcDbEntity
  8
0
  6
Continuous
 62
     7
370
    15
100
AcDbLine
 10
715.7325524936161
 20
492.8242175654156
 30
0.0
 11
706.3894067431085
 21
492.8242175654156
 31
0.0
  0
ARC
  5
159
330
1F
100
AcDbEntity
  8
0
  6
Continuous
 62
     7
370
    15
100
AcDbCircle
 10
706.3894067431085
 20
495.8242175654156
 30
0.0
 40
3.0
100
AcDbArc
 50
199.4712206344888
 51
270.0
  0
ARC
  5
15A
330
1F
100
AcDbEntity
  8
0
  6
Continuous
 62
     7
370
    15
100
AcDbCircle
 10
715.7325524936161
 20
495.8242175654156
 30
0.0
 40
3.0
100
AcDbArc
 50
270.0
 51
340.5287793655112
  0
LINE
  5
15B
330
1F
100
AcDbEntity
  8
0
  6
Continuous
 62
     7
370
    15
100
AcDbLine
 10
735.7325524936161
 20
492.8242175654156
 30
0.0
 11
726.3894067431086
 21
492.8242175654156
 31
0.0
  0
ARC
  5
15C
330
1F
100
AcDbEntity
  8
0
  6
Continuous
 62
     7
370
    15
100
AcDbCircle
 10
735.7325524936161
 20
495.8242175654156
 30
0.0
 40
3.0
100
AcDbArc
 50
270.0
 51
340.5287793655112
  0
ARC
  5
15D
330
1F
100
AcDbEntity
  8
0
  6
Continuous
 62
     7
370
    15
100
AcDbCircle
 10
726.3894067431086
 20
495.8242175654156
 30
0.0
 40
3.0
100
AcDbArc
 50
199.4712206344888
 51
270.0
  0
LINE
  5
15E
330
1F
100
AcDbEntity
  8
0
  6
Continuous
 62
     7
370
    15
100
AcDbLine
 10
755.7325524936161
 20
492.8242175654156
 30
0.0
 11
746.3894067431085
 21
492.8242175654156
 31
0.0
  0
ARC
  5
15F
330
1F
100
AcDbEntity
  8
0
  6
Continuous
 62
     7
370
    15
100
AcDbCircle
 10
755.7325524936161
 20
495.8242175654156
 30
0.0
 40
3.0
100
AcDbArc
 50
270.0
 51
340.5287793655112
  0
ARC
  5
160
330
1F
100
AcDbEntity
  8
0
  6
Continuous
 62
     7
370
    15
100
AcDbCircle
 10
746.3894067431085
 20
495.8242175654156
 30
0.0
 40
3.0
100
AcDbArc
 50
199.4712206344888
 51
270.0
  0
LINE
  5
161
330
1F
100
AcDbEntity
  8
0
  6
Continuous
 62
     7
370
    15
100
AcDbLine
 10
775.7325524936161
 20
492.8242175654156
 30
0.0
 11
766.3894067431085
 21
492.8242175654156
 31
0.0
  0
ARC
  5
162
330
1F
100
AcDbEntity
  8
0
  6
Continuous
 62
     7
370
    15
100
AcDbCircle
 10
775.7325524936161
 20
495.8242175654156
 30
0.0
 40
3.0
100
AcDbArc
 50
270.0
 51
340.5287793655112
  0
ARC
  5
163
330
1F
100
AcDbEntity
  8
0
  6
Continuous
 62
     7
370
    15
100
AcDbCircle
 10
766.3894067431085
 20
495.8242175654156
 30
0.0
 40
3.0
100
AcDbArc
 50
199.4712206344888
 51
270.0
  0
LINE
  5
164
330
1F
100
AcDbEntity
  8
0
  6
Continuous
 62
     7
370
    15
100
AcDbLine
 10
795.7325524936162
 20
492.8242175654156
 30
0.0
 11
786.3894067431085
 21
492.8242175654156
 31
0.0
  0
ARC
  5
165
330
1F
100
AcDbEntity
  8
0
  6
Continuous
 62
     7
370
    15
100
AcDbCircle
 10
795.7325524936162
 20
495.8242175654156
 30
0.0
 40
3.0
100
AcDbArc
 50
270.0
 51
340.5287793655112
  0
ARC
  5
166
330
1F
100
AcDbEntity
  8
0
  6
Continuous
 62
     7
370
    15
100
AcDbCircle
 10
786.3894067431085
 20
495.8242175654156
 30
0.0
 40
3.0
100
AcDbArc
 50
199.4712206344888
 51
270.0
  0
LINE
  5
167
330
1F
100
AcDbEntity
  8
0
  6
Continuous
 62
     7
370
    15
100
AcDbLine
 10
815.7325524936162
 20
492.8242175654156
 30
0.0
 11
806.3894067431085
 21
492.8242175654156
 31
0.0
  0
ARC
  5
168
330
1F
100
AcDbEntity
  8
0
  6
Continuous
 62
     7
370
    15
100
AcDbCircle
 10
815.7325524936162
 20
495.8242175654156
 30
0.0
 40
3.0
100
AcDbArc
 50
270.0
 51
340.5287793655112
  0
ARC
  5
169
330
1F
100
AcDbEntity
  8
0
  6
Continuous
 62
     7
370
    15
100
AcDbCircle
 10
806.3894067431085
 20
495.8242175654156
 30
0.0
 40
3.0
100
AcDbArc
 50
199.4712206344888
 51
270.0
  0
LINE
  5
16A
330
1F
100
AcDbEntity
  8
0
  6
Continuous
 62
     7
370
    15
100
AcDbLine
 10
835.7325524936161
 20
492.8242175654156
 30
0.0
 11
826.3894067431085
 21
492.8242175654156
 31
0.0
  0
ARC
  5
16B
330
1F
100
AcDbEntity
  8
0
  6
Continuous
 62
     7
370
    15
100
AcDbCircle
 10
826.3894067431085
 20
495.8242175654156
 30
0.0
 40
3.0
100
AcDbArc
 50
199.4712206344888
 51
270.0
  0
ARC
  5
16C
330
1F
100
AcDbEntity
  8
0
  6
Continuous
 62
     7
370
    15
100
AcDbCircle
 10
835.7325524936161
 20
495.8242175654156
 30
0.0
 40
3.0
100
AcDbArc
 50
270.0
 51
340.5287793655112
  0
LINE
  5
16D
330
1F
100
AcDbEntity
  8
0
  6
Continuous
 62
     7
370
    15
100
AcDbLine
 10
855.732552493616
 20
492.8242175654156
 30
0.0
 11
846.3894067431084
 21
492.8242175654156
 31
0.0
  0
ARC
  5
16E
330
1F
100
AcDbEntity
  8
0
  6
Continuous
 62
     7
370
    15
100
AcDbCircle
 10
846.3894067431084
 20
495.8242175654156
 30
0.0
 40
3.0
100
AcDbArc
 50
199.4712206344888
 51
270.0
  0
ARC
  5
16F
330
1F
100
AcDbEntity
  8
0
  6
Continuous
 62
     7
370
    15
100
AcDbCircle
 10
855.732552493616
 20
495.8242175654156
 30
0.0
 40
3.0
100
AcDbArc
 50
270.0
 51
340.5287793655112
  0
LINE
  5
170
330
1F
100
AcDbEntity
  8
0
  6
Continuous
 62
     7
370
    15
100
AcDbLine
 10
875.7325524936161
 20
492.8242175654156
 30
0.0
 11
866.3894067431085
 21
492.8242175654156
 31
0.0
  0
ARC
  5
171
330
1F
100
AcDbEntity
  8
0
  6
Continuous
 62
     7
370
    15
100
AcDbCircle
 10
875.7325524936161
 20
495.8242175654156
 30
0.0
 40
3.000000000000021
100
AcDbArc
 50
270.0
 51
340.5287793655112
  0
ARC
  5
172
330
1F
100
AcDbEntity
  8
0
  6
Continuous
 62
     7
370
    15
100
AcDbCircle
 10
866.3894067431085
 20
495.8242175654156
 30
0.0
 40
3.0
100
AcDbArc
 50
199.4712206344888
 51
270.0
  0
LINE
  5
173
330
1F
100
AcDbEntity
  8
0
  6
Continuous
 62
     7
370
    15
100
AcDbLine
 10
932.0063691835059
 20
492.8242175654156
 30
0.0
 11
922.6632234329983
 21
492.8242175654156
 31
0.0
  0
ARC
  5
174
330
1F
100
AcDbEntity
  8
0
  6
Continuous
 62
     7
370
    15
100
AcDbCircle
 10
932.0063691835059
 20
495.8242175654156
 30
0.0
 40
3.000000000000021
100
AcDbArc
 50
270.0
 51
340.5287793655112
  0
ARC
  5
175
330
1F
100
AcDbEntity
  8
0
  6
Continuous
 62
     7
370
    15
100
AcDbCircle
 10
922.6632234329983
 20
495.8242175654156
 30
0.0
 40
3.000000000000021
100
AcDbArc
 50
199.4712206344888
 51
270.0
  0
LINE
  5
176
330
1F
100
AcDbEntity
  8
0
  6
Continuous
 62
     7
370
    15
100
AcDbLine
 10
952.006369183506
 20
492.8242175654156
 30
0.0
 11
942.6632234329984
 21
492.8242175654156
 31
0.0
  0
ARC
  5
177
330
1F
100
AcDbEntity
  8
0
  6
Continuous
 62
     7
370
    15
100
AcDbCircle
 10
952.006369183506
 20
495.8242175654156
 30
0.0
 40
3.0
100
AcDbArc
 50
270.0
 51
340.5287793655112
  0
ARC
  5
178
330
1F
100
AcDbEntity
  8
0
  6
Continuous
 62
     7
370
    15
100
AcDbCircle
 10
942.6632234329984
 20
495.8242175654156
 30
0.0
 40
3.0
100
AcDbArc
 50
199.4712206344888
 51
270.0
  0
LINE
  5
179
330
1F
100
AcDbEntity
  8
0
  6
Continuous
 62
     7
370
    15
100
AcDbLine
 10
972.006369183506
 20
492.8242175654156
 30
0.0
 11
962.6632234329983
 21
492.8242175654156
 31
0.0
  0
ARC
  5
17A
330
1F
100
AcDbEntity
  8
0
  6
Continuous
 62
     7
370
    15
100
AcDbCircle
 10
972.006369183506
 20
495.8242175654156
 30
0.0
 40
3.0
100
AcDbArc
 50
270.0
 51
340.5287793655112
  0
ARC
  5
17B
330
1F
100
AcDbEntity
  8
0
  6
Continuous
 62
     7
370
    15
100
AcDbCircle
 10
962.6632234329983
 20
495.8242175654156
 30
0.0
 40
3.0
100
AcDbArc
 50
199.4712206344888
 51
270.0
  0
LINE
  5
17C
330
1F
100
AcDbEntity
  8
0
  6
Continuous
 62
     7
370
    15
100
AcDbLine
 10
992.0063691835059
 20
492.8242175654156
 30
0.0
 11
982.6632234329984
 21
492.8242175654156
 31
0.0
  0
ARC
  5
17D
330
1F
100
AcDbEntity
  8
0
  6
Continuous
 62
     7
370
    15
100
AcDbCircle
 10
992.0063691835059
 20
495.8242175654156
 30
0.0
 40
3.000000000000021
100
AcDbArc
 50
270.0
 51
340.5287793655112
  0
ARC
  5
17E
330
1F
100
AcDbEntity
  8
0
  6
Continuous
 62
     7
370
    15
100
AcDbCircle
 10
982.6632234329984
 20
495.8242175654156
 30
0.0
 40
3.000000000000021
100
AcDbArc
 50
199.4712206344888
 51
270.0
  0
LINE
  5
17F
330
1F
100
AcDbEntity
  8
0
  6
Continuous
 62
     7
370
    15
100
AcDbLine
 10
1012.006369183506
 20
492.8242175654156
 30
0.0
 11
1002.663223432998
 21
492.8242175654156
 31
0.0
  0
ARC
  5
180
330
1F
100
AcDbEntity
  8
0
  6
Continuous
 62
     7
370
    15
100
AcDbCircle
 10
1012.006369183506
 20
495.8242175654156
 30
0.0
 40
3.000000000000064
100
AcDbArc
 50
270.0
 51
340.5287793655112
  0
ARC
  5
181
330
1F
100
AcDbEntity
  8
0
  6
Continuous
 62
     7
370
    15
100
AcDbCircle
 10
1002.663223432998
 20
495.8242175654156
 30
0.0
 40
3.0
100
AcDbArc
 50
199.4712206344888
 51
270.0
  0
LINE
  5
182
330
1F
100
AcDbEntity
  8
0
  6
Continuous
 62
     7
370
    15
100
AcDbLine
 10
1032.006369183506
 20
492.8242175654156
 30
0.0
 11
1022.663223432998
 21
492.8242175654156
 31
0.0
  0
ARC
  5
183
330
1F
100
AcDbEntity
  8
0
  6
Continuous
 62
     7
370
    15
100
AcDbCircle
 10
1032.006369183506
 20
495.8242175654156
 30
0.0
 40
3.000000000000021
100
AcDbArc
 50
270.0
 51
340.5287793655112
  0
ARC
  5
184
330
1F
100
AcDbEntity
  8
0
  6
Continuous
 62
     7
370
    15
100
AcDbCircle
 10
1022.663223432998
 20
495.8242175654156
 30
0.0
 40
3.000000000000021
100
AcDbArc
 50
199.4712206344888
 51
270.0
  0
LINE
  5
185
330
1F
100
AcDbEntity
  8
0
  6
Continuous
 62
     7
370
    15
100
AcDbLine
 10
1052.006369183506
 20
492.8242175654156
 30
0.0
 11
1042.663223432998
 21
492.8242175654156
 31
0.0
  0
ARC
  5
186
330
1F
100
AcDbEntity
  8
0
  6
Continuous
 62
     7
370
    15
100
AcDbCircle
 10
1042.663223432998
 20
495.8242175654156
 30
0.0
 40
3.000000000000021
100
AcDbArc
 50
199.4712206344888
 51
270.0
  0
ARC
  5
187
330
1F
100
AcDbEntity
  8
0
  6
Continuous
 62
     7
370
    15
100
AcDbCircle
 10
1052.006369183506
 20
495.8242175654156
 30
0.0
 40
3.0
100
AcDbArc
 50
270.0
 51
340.5287793655112
  0
LINE
  5
188
330
1F
100
AcDbEntity
  8
0
  6
Continuous
 62
     7
370
    15
100
AcDbLine
 10
1072.006369183506
 20
492.8242175654156
 30
0.0
 11
1062.663223432998
 21
492.8242175654156
 31
0.0
  0
ARC
  5
189
330
1F
100
AcDbEntity
  8
0
  6
Continuous
 62
     7
370
    15
100
AcDbCircle
 10
1072.006369183506
 20
495.8242175654156
 30
0.0
 40
3.0
100
AcDbArc
 50
270.0
 51
340.5287793655112
  0
ARC
  5
18A
330
1F
100
AcDbEntity
  8
0
  6
Continuous
 62
     7
370
    15
100
AcDbCircle
 10
1062.663223432998
 20
495.8242175654156
 30
0.0
 40
3.000000000000021
100
AcDbArc
 50
199.4712206344888
 51
270.0
  0
LINE
  5
18B
330
1F
100
AcDbEntity
  8
0
  6
Continuous
 62
     7
370
    15
100
AcDbLine
 10
1092.006369183506
 20
492.8242175654156
 30
0.0
 11
1082.663223432998
 21
492.8242175654156
 31
0.0
  0
ARC
  5
18C
330
1F
100
AcDbEntity
  8
0
  6
Continuous
 62
     7
370
    15
100
AcDbCircle
 10
1092.006369183506
 20
495.8242175654156
 30
0.0
 40
3.000000000000021
100
AcDbArc
 50
270.0
 51
340.5287793655112
  0
ARC
  5
18D
330
1F
100
AcDbEntity
  8
0
  6
Continuous
 62
     7
370
    15
100
AcDbCircle
 10
1082.663223432998
 20
495.8242175654156
 30
0.0
 40
3.000000000000021
100
AcDbArc
 50
199.4712206344888
 51
270.0
  0
LINE
  5
18E
330
1F
100
AcDbEntity
  8
0
  6
Continuous
 62
     7
370
    15
100
AcDbLine
 10
1112.006369183506
 20
492.8242175654156
 30
0.0
 11
1102.663223432998
 21
492.8242175654156
 31
0.0
  0
ARC
  5
18F
330
1F
100
AcDbEntity
  8
0
  6
Continuous
 62
     7
370
    15
100
AcDbCircle
 10
1112.006369183506
 20
495.8242175654156
 30
0.0
 40
3.000000000000021
100
AcDbArc
 50
270.0
 51
340.5287793655112
  0
ARC
  5
190
330
1F
100
AcDbEntity
  8
0
  6
Continuous
 62
     7
370
    15
100
AcDbCircle
 10
1102.663223432998
 20
495.8242175654156
 30
0.0
 40
3.0
100
AcDbArc
 50
199.4712206344888
 51
270.0
  0
LINE
  5
191
330
1F
100
AcDbEntity
  8
0
  6
Continuous
 62
     7
370
    15
100
AcDbLine
 10
765.6701119265508
 20
644.8242175654156
 30
0.0
 11
765.6701119265508
 21
554.8242175654157
 31
0.0
  0
LINE
  5
192
330
1F
100
AcDbEntity
  8
0
  6
Continuous
 62
     7
370
    15
100
AcDbLine
 10
765.6701119265508
 20
644.8242175654156
 30
0.0
 11
1033.055830058377
 21
644.8242175654156
 31
0.0
  0
LINE
  5
193
330
1F
100
AcDbEntity
  8
0
  6
Continuous
 62
     7
370
    15
100
AcDbLine
 10
1033.055830058377
 20
644.8242175654156
 30
0.0
 11
1033.055830058377
 21
554.8242175654157
 31
0.0
  0
LINE
  5
194
330
1F
100
AcDbEntity
  8
0
  6
Continuous
 62
     7
370
    15
100
AcDbLine
 10
777.3503603320971
 20
556.7016432865125
 30
0.0
 11
777.3503603320971
 21
635.6314847573054
 31
0.0
  0
LINE
  5
195
330
1F
100
AcDbEntity
  8
0
  6
Continuous
 62
     7
370
    15
100
AcDbLine
 10
777.3503603320971
 20
635.6314847573054
 30
0.0
 11
773.7561128231593
 21
635.6314847573054
 31
0.0
  0
LINE
  5
196
330
1F
100
AcDbEntity
  8
0
  6
Continuous
 62
     7
370
    15
100
AcDbLine
 10
773.7561128231593
 20
635.6314847573054
 30
0.0
 11
773.7561128231593
 21
556.7016432865125
 31
0.0
  0
LINE
  5
197
330
1F
100
AcDbEntity
  8
0
  6
Continuous
 62
     7
370
    15
100
AcDbLine
 10
773.7561128231593
 20
556.7016432865125
 30
0.0
 11
777.3503603320971
 21
556.7016432865125
 31
0.0
  0
LINE
  5
198
330
1F
100
AcDbEntity
  8
0
  6
Continuous
 62
     7
370
    15
100
AcDbLine
 10
787.3503603320971
 20
556.7016432865125
 30
0.0
 11
787.3503603320971
 21
635.6314847573054
 31
0.0
  0
LINE
  5
199
330
1F
100
AcDbEntity
  8
0
  6
Continuous
 62
     7
370
    15
100
AcDbLine
 10
787.3503603320971
 20
635.6314847573054
 30
0.0
 11
783.7561128231593
 21
635.6314847573054
 31
0.0
  0
LINE
  5
19A
330
1F
100
AcDbEntity
  8
0
  6
Continuous
 62
     7
370
    15
100
AcDbLine
 10
783.7561128231593
 20
635.6314847573054
 30
0.0
 11
783.7561128231593
 21
556.7016432865125
 31
0.0
  0
LINE
  5
19B
330
1F
100
AcDbEntity
  8
0
  6
Continuous
 62
     7
370
    15
100
AcDbLine
 10
783.7561128231593
 20
556.7016432865125
 30
0.0
 11
787.3503603320971
 21
556.7016432865125
 31
0.0
  0
LINE
  5
19C
330
1F
100
AcDbEntity
  8
0
  6
Continuous
 62
     7
370
    15
100
AcDbLine
 10
797.3503603320971
 20
556.7016432865125
 30
0.0
 11
797.350360332097
 21
635.6314847573054
 31
0.0
  0
LINE
  5
19D
330
1F
100
AcDbEntity
  8
0
  6
Continuous
 62
     7
370
    15
100
AcDbLine
 10
797.350360332097
 20
635.6314847573054
 30
0.0
 11
793.7561128231592
 21
635.6314847573054
 31
0.0
  0
LINE
  5
19E
330
1F
100
AcDbEntity
  8
0
  6
Continuous
 62
     7
370
    15
100
AcDbLine
 10
793.7561128231592
 20
635.6314847573054
 30
0.0
 11
793.7561128231593
 21
556.7016432865125
 31
0.0
  0
LINE
  5
19F
330
1F
100
AcDbEntity
  8
0
  6
Continuous
 62
     7
370
    15
100
AcDbLine
 10
793.7561128231593
 20
556.7016432865125
 30
0.0
 11
797.3503603320971
 21
556.7016432865125
 31
0.0
  0
LINE
  5
1A0
330
1F
100
AcDbEntity
  8
0
  6
Continuous
 62
     7
370
    15
100
AcDbLine
 10
807.350360332097
 20
556.7016432865125
 30
0.0
 11
807.350360332097
 21
635.6314847573054
 31
0.0
  0
LINE
  5
1A1
330
1F
100
AcDbEntity
  8
0
  6
Continuous
 62
     7
370
    15
100
AcDbLine
 10
807.350360332097
 20
635.6314847573054
 30
0.0
 11
803.7561128231592
 21
635.6314847573054
 31
0.0
  0
LINE
  5
1A2
330
1F
100
AcDbEntity
  8
0
  6
Continuous
 62
     7
370
    15
100
AcDbLine
 10
803.7561128231592
 20
635.6314847573054
 30
0.0
 11
803.7561128231592
 21
556.7016432865125
 31
0.0
  0
LINE
  5
1A3
330
1F
100
AcDbEntity
  8
0
  6
Continuous
 62
     7
370
    15
100
AcDbLine
 10
803.7561128231592
 20
556.7016432865125
 30
0.0
 11
807.350360332097
 21
556.7016432865125
 31
0.0
  0
LINE
  5
1A4
330
1F
100
AcDbEntity
  8
0
  6
Continuous
 62
     7
370
    15
100
AcDbLine
 10
817.350360332097
 20
556.7016432865125
 30
0.0
 11
817.350360332097
 21
635.6314847573054
 31
0.0
  0
LINE
  5
1A5
330
1F
100
AcDbEntity
  8
0
  6
Continuous
 62
     7
370
    15
100
AcDbLine
 10
817.350360332097
 20
635.6314847573054
 30
0.0
 11
813.7561128231592
 21
635.6314847573054
 31
0.0
  0
LINE
  5
1A6
330
1F
100
AcDbEntity
  8
0
  6
Continuous
 62
     7
370
    15
100
AcDbLine
 10
813.7561128231592
 20
635.6314847573054
 30
0.0
 11
813.7561128231592
 21
556.7016432865125
 31
0.0
  0
LINE
  5
1A7
330
1F
100
AcDbEntity
  8
0
  6
Continuous
 62
     7
370
    15
100
AcDbLine
 10
813.7561128231592
 20
556.7016432865125
 30
0.0
 11
817.350360332097
 21
556.7016432865125
 31
0.0
  0
LINE
  5
1A8
330
1F
100
AcDbEntity
  8
0
  6
Continuous
 62
     7
370
    15
100
AcDbLine
 10
827.3503603320969
 20
556.7016432865125
 30
0.0
 11
827.3503603320969
 21
635.6314847573054
 31
0.0
  0
LINE
  5
1A9
330
1F
100
AcDbEntity
  8
0
  6
Continuous
 62
     7
370
    15
100
AcDbLine
 10
827.3503603320969
 20
635.6314847573054
 30
0.0
 11
823.7561128231591
 21
635.6314847573054
 31
0.0
  0
LINE
  5
1AA
330
1F
100
AcDbEntity
  8
0
  6
Continuous
 62
     7
370
    15
100
AcDbLine
 10
823.7561128231591
 20
635.6314847573054
 30
0.0
 11
823.7561128231591
 21
556.7016432865125
 31
0.0
  0
LINE
  5
1AB
330
1F
100
AcDbEntity
  8
0
  6
Continuous
 62
     7
370
    15
100
AcDbLine
 10
823.7561128231591
 20
556.7016432865125
 30
0.0
 11
827.3503603320969
 21
556.7016432865125
 31
0.0
  0
LINE
  5
1AC
330
1F
100
AcDbEntity
  8
0
  6
Continuous
 62
     7
370
    15
100
AcDbLine
 10
837.3503603320969
 20
556.7016432865125
 30
0.0
 11
837.3503603320969
 21
635.6314847573054
 31
0.0
  0
LINE
  5
1AD
330
1F
100
AcDbEntity
  8
0
  6
Continuous
 62
     7
370
    15
100
AcDbLine
 10
837.3503603320969
 20
635.6314847573054
 30
0.0
 11
833.7561128231591
 21
635.6314847573054
 31
0.0
  0
LINE
  5
1AE
330
1F
100
AcDbEntity
  8
0
  6
Continuous
 62
     7
370
    15
100
AcDbLine
 10
833.7561128231591
 20
635.6314847573054
 30
0.0
 11
833.7561128231593
 21
556.7016432865125
 31
0.0
  0
LINE
  5
1AF
330
1F
100
AcDbEntity
  8
0
  6
Continuous
 62
     7
370
    15
100
AcDbLine
 10
833.7561128231593
 20
556.7016432865125
 30
0.0
 11
837.3503603320969
 21
556.7016432865125
 31
0.0
  0
LINE
  5
1B0
330
1F
100
AcDbEntity
  8
0
  6
Continuous
 62
     7
370
    15
100
AcDbLine
 10
847.350360332097
 20
556.7016432865125
 30
0.0
 11
847.3503603320969
 21
635.6314847573054
 31
0.0
  0
LINE
  5
1B1
330
1F
100
AcDbEntity
  8
0
  6
Continuous
 62
     7
370
    15
100
AcDbLine
 10
847.3503603320969
 20
635.6314847573054
 30
0.0
 11
843.7561128231591
 21
635.6314847573054
 31
0.0
  0
LINE
  5
1B2
330
1F
100
AcDbEntity
  8
0
  6
Continuous
 62
     7
370
    15
100
AcDbLine
 10
843.7561128231591
 20
635.6314847573054
 30
0.0
 11
843.7561128231591
 21
556.7016432865125
 31
0.0
  0
LINE
  5
1B3
330
1F
100
AcDbEntity
  8
0
  6
Continuous
 62
     7
370
    15
100
AcDbLine
 10
843.7561128231591
 20
556.7016432865125
 30
0.0
 11
847.350360332097
 21
556.7016432865125
 31
0.0
  0
LINE
  5
1B4
330
1F
100
AcDbEntity
  8
0
  6
Continuous
 62
     7
370
    15
100
AcDbLine
 10
857.350360332097
 20
556.7016432865125
 30
0.0
 11
857.3503603320968
 21
635.6314847573054
 31
0.0
  0
LINE
  5
1B5
330
1F
100
AcDbEntity
  8
0
  6
Continuous
 62
     7
370
    15
100
AcDbLine
 10
857.3503603320968
 20
635.6314847573054
 30
0.0
 11
853.756112823159
 21
635.6314847573054
 31
0.0
  0
LINE
  5
1B6
330
1F
100
AcDbEntity
  8
0
  6
Continuous
 62
     7
370
    15
100
AcDbLine
 10
853.756112823159
 20
635.6314847573054
 30
0.0
 11
853.756112823159
 21
556.7016432865125
 31
0.0
  0
LINE
  5
1B7
330
1F
100
AcDbEntity
  8
0
  6
Continuous
 62
     7
370
    15
100
AcDbLine
 10
853.756112823159
 20
556.7016432865125
 30
0.0
 11
857.350360332097
 21
556.7016432865125
 31
0.0
  0
LINE
  5
1B8
330
1F
100
AcDbEntity
  8
0
  6
Continuous
 62
     7
370
    15
100
AcDbLine
 10
867.350360332097
 20
556.7016432865125
 30
0.0
 11
867.3503603320968
 21
635.6314847573054
 31
0.0
  0
LINE
  5
1B9
330
1F
100
AcDbEntity
  8
0
  6
Continuous
 62
     7
370
    15
100
AcDbLine
 10
867.3503603320968
 20
635.6314847573054
 30
0.0
 11
863.7561128231592
 21
635.6314847573054
 31
0.0
  0
LINE
  5
1BA
330
1F
100
AcDbEntity
  8
0
  6
Continuous
 62
     7
370
    15
100
AcDbLine
 10
863.7561128231592
 20
635.6314847573054
 30
0.0
 11
863.7561128231592
 21
556.7016432865125
 31
0.0
  0
LINE
  5
1BB
330
1F
100
AcDbEntity
  8
0
  6
Continuous
 62
     7
370
    15
100
AcDbLine
 10
863.7561128231592
 20
556.7016432865125
 30
0.0
 11
867.350360332097
 21
556.7016432865125
 31
0.0
  0
LINE
  5
1BC
330
1F
100
AcDbEntity
  8
0
  6
Continuous
 62
     7
370
    15
100
AcDbLine
 10
877.3503603320969
 20
556.7016432865125
 30
0.0
 11
877.3503603320969
 21
635.6314847573054
 31
0.0
  0
LINE
  5
1BD
330
1F
100
AcDbEntity
  8
0
  6
Continuous
 62
     7
370
    15
100
AcDbLine
 10
877.3503603320969
 20
635.6314847573054
 30
0.0
 11
873.7561128231591
 21
635.6314847573054
 31
0.0
  0
LINE
  5
1BE
330
1F
100
AcDbEntity
  8
0
  6
Continuous
 62
     7
370
    15
100
AcDbLine
 10
873.7561128231591
 20
635.6314847573054
 30
0.0
 11
873.7561128231591
 21
556.7016432865125
 31
0.0
  0
LINE
  5
1BF
330
1F
100
AcDbEntity
  8
0
  6
Continuous
 62
     7
370
    15
100
AcDbLine
 10
873.7561128231591
 20
556.7016432865125
 30
0.0
 11
877.3503603320969
 21
556.7016432865125
 31
0.0
  0
LINE
  5
1C0
330
1F
100
AcDbEntity
  8
0
  6
Continuous
 62
     7
370
    15
100
AcDbLine
 10
887.3503603320971
 20
556.7016432865125
 30
0.0
 11
887.3503603320969
 21
635.6314847573054
 31
0.0
  0
LINE
  5
1C1
330
1F
100
AcDbEntity
  8
0
  6
Continuous
 62
     7
370
    15
100
AcDbLine
 10
887.3503603320969
 20
635.6314847573054
 30
0.0
 11
883.7561128231591
 21
635.6314847573054
 31
0.0
  0
LINE
  5
1C2
330
1F
100
AcDbEntity
  8
0
  6
Continuous
 62
     7
370
    15
100
AcDbLine
 10
883.7561128231591
 20
635.6314847573054
 30
0.0
 11
883.7561128231591
 21
556.7016432865125
 31
0.0
  0
LINE
  5
1C3
330
1F
100
AcDbEntity
  8
0
  6
Continuous
 62
     7
370
    15
100
AcDbLine
 10
883.7561128231591
 20
556.7016432865125
 30
0.0
 11
887.3503603320971
 21
556.7016432865125
 31
0.0
  0
LINE
  5
1C4
330
1F
100
AcDbEntity
  8
0
  6
Continuous
 62
     7
370
    15
100
AcDbLine
 10
897.350360332097
 20
556.7016432865125
 30
0.0
 11
897.3503603320969
 21
635.6314847573054
 31
0.0
  0
LINE
  5
1C5
330
1F
100
AcDbEntity
  8
0
  6
Continuous
 62
     7
370
    15
100
AcDbLine
 10
897.3503603320969
 20
635.6314847573054
 30
0.0
 11
893.7561128231591
 21
635.6314847573054
 31
0.0
  0
LINE
  5
1C6
330
1F
100
AcDbEntity
  8
0
  6
Continuous
 62
     7
370
    15
100
AcDbLine
 10
893.7561128231591
 20
635.6314847573054
 30
0.0
 11
893.7561128231591
 21
556.7016432865125
 31
0.0
  0
LINE
  5
1C7
330
1F
100
AcDbEntity
  8
0
  6
Continuous
 62
     7
370
    15
100
AcDbLine
 10
893.7561128231591
 20
556.7016432865125
 30
0.0
 11
897.350360332097
 21
556.7016432865125
 31
0.0
  0
LINE
  5
1C8
330
1F
100
AcDbEntity
  8
0
  6
Continuous
 62
     7
370
    15
100
AcDbLine
 10
907.350360332097
 20
556.7016432865125
 30
0.0
 11
907.3503603320968
 21
635.6314847573054
 31
0.0
  0
LINE
  5
1C9
330
1F
100
AcDbEntity
  8
0
  6
Continuous
 62
     7
370
    15
100
AcDbLine
 10
907.3503603320968
 20
635.6314847573054
 30
0.0
 11
903.756112823159
 21
635.6314847573054
 31
0.0
  0
LINE
  5
1CA
330
1F
100
AcDbEntity
  8
0
  6
Continuous
 62
     7
370
    15
100
AcDbLine
 10
903.756112823159
 20
635.6314847573054
 30
0.0
 11
903.756112823159
 21
556.7016432865125
 31
0.0
  0
LINE
  5
1CB
330
1F
100
AcDbEntity
  8
0
  6
Continuous
 62
     7
370
    15
100
AcDbLine
 10
903.756112823159
 20
556.7016432865125
 30
0.0
 11
907.350360332097
 21
556.7016432865125
 31
0.0
  0
LINE
  5
1CC
330
1F
100
AcDbEntity
  8
0
  6
Continuous
 62
     7
370
    15
100
AcDbLine
 10
917.3503603320972
 20
556.7016432865125
 30
0.0
 11
917.3503603320968
 21
635.6314847573054
 31
0.0
  0
LINE
  5
1CD
330
1F
100
AcDbEntity
  8
0
  6
Continuous
 62
     7
370
    15
100
AcDbLine
 10
917.3503603320968
 20
635.6314847573054
 30
0.0
 11
913.7561128231592
 21
635.6314847573054
 31
0.0
  0
LINE
  5
1CE
330
1F
100
AcDbEntity
  8
0
  6
Continuous
 62
     7
370
    15
100
AcDbLine
 10
913.7561128231592
 20
635.6314847573054
 30
0.0
 11
913.7561128231592
 21
556.7016432865125
 31
0.0
  0
LINE
  5
1CF
330
1F
100
AcDbEntity
  8
0
  6
Continuous
 62
     7
370
    15
100
AcDbLine
 10
913.7561128231592
 20
556.7016432865125
 30
0.0
 11
917.3503603320972
 21
556.7016432865125
 31
0.0
  0
LINE
  5
1D0
330
1F
100
AcDbEntity
  8
0
  6
Continuous
 62
     7
370
    15
100
AcDbLine
 10
927.3503603320971
 20
556.7016432865125
 30
0.0
 11
927.3503603320968
 21
635.6314847573054
 31
0.0
  0
LINE
  5
1D1
330
1F
100
AcDbEntity
  8
0
  6
Continuous
 62
     7
370
    15
100
AcDbLine
 10
927.3503603320968
 20
635.6314847573054
 30
0.0
 11
923.756112823159
 21
635.6314847573054
 31
0.0
  0
LINE
  5
1D2
330
1F
100
AcDbEntity
  8
0
  6
Continuous
 62
     7
370
    15
100
AcDbLine
 10
923.756112823159
 20
635.6314847573054
 30
0.0
 11
923.756112823159
 21
556.7016432865125
 31
0.0
  0
LINE
  5
1D3
330
1F
100
AcDbEntity
  8
0
  6
Continuous
 62
     7
370
    15
100
AcDbLine
 10
923.756112823159
 20
556.7016432865125
 30
0.0
 11
927.3503603320971
 21
556.7016432865125
 31
0.0
  0
LINE
  5
1D4
330
1F
100
AcDbEntity
  8
0
  6
Continuous
 62
     7
370
    15
100
AcDbLine
 10
937.3503603320971
 20
556.7016432865125
 30
0.0
 11
937.3503603320967
 21
635.6314847573054
 31
0.0
  0
LINE
  5
1D5
330
1F
100
AcDbEntity
  8
0
  6
Continuous
 62
     7
370
    15
100
AcDbLine
 10
937.3503603320967
 20
635.6314847573054
 30
0.0
 11
933.7561128231589
 21
635.6314847573054
 31
0.0
  0
LINE
  5
1D6
330
1F
100
AcDbEntity
  8
0
  6
Continuous
 62
     7
370
    15
100
AcDbLine
 10
933.7561128231589
 20
635.6314847573054
 30
0.0
 11
933.7561128231589
 21
556.7016432865125
 31
0.0
  0
LINE
  5
1D7
330
1F
100
AcDbEntity
  8
0
  6
Continuous
 62
     7
370
    15
100
AcDbLine
 10
933.7561128231589
 20
556.7016432865125
 30
0.0
 11
937.3503603320971
 21
556.7016432865125
 31
0.0
  0
LINE
  5
1D8
330
1F
100
AcDbEntity
  8
0
  6
Continuous
 62
     7
370
    15
100
AcDbLine
 10
947.350360332097
 20
556.7016432865125
 30
0.0
 11
947.3503603320967
 21
635.6314847573054
 31
0.0
  0
LINE
  5
1D9
330
1F
100
AcDbEntity
  8
0
  6
Continuous
 62
     7
370
    15
100
AcDbLine
 10
947.3503603320967
 20
635.6314847573054
 30
0.0
 11
943.7561128231589
 21
635.6314847573054
 31
0.0
  0
LINE
  5
1DA
330
1F
100
AcDbEntity
  8
0
  6
Continuous
 62
     7
370
    15
100
AcDbLine
 10
943.7561128231589
 20
635.6314847573054
 30
0.0
 11
943.7561128231589
 21
556.7016432865125
 31
0.0
  0
LINE
  5
1DB
330
1F
100
AcDbEntity
  8
0
  6
Continuous
 62
     7
370
    15
100
AcDbLine
 10
943.7561128231589
 20
556.7016432865125
 30
0.0
 11
947.350360332097
 21
556.7016432865125
 31
0.0
  0
LINE
  5
1DC
330
1F
100
AcDbEntity
  8
0
  6
Continuous
 62
     7
370
    15
100
AcDbLine
 10
957.350360332097
 20
556.7016432865125
 30
0.0
 11
957.3503603320968
 21
635.6314847573054
 31
0.0
  0
LINE
  5
1DD
330
1F
100
AcDbEntity
  8
0
  6
Continuous
 62
     7
370
    15
100
AcDbLine
 10
957.3503603320968
 20
635.6314847573054
 30
0.0
 11
953.7561128231589
 21
635.6314847573054
 31
0.0
  0
LINE
  5
1DE
330
1F
100
AcDbEntity
  8
0
  6
Continuous
 62
     7
370
    15
100
AcDbLine
 10
953.7561128231589
 20
635.6314847573054
 30
0.0
 11
953.7561128231589
 21
556.7016432865125
 31
0.0
  0
LINE
  5
1DF
330
1F
100
AcDbEntity
  8
0
  6
Continuous
 62
     7
370
    15
100
AcDbLine
 10
953.7561128231589
 20
556.7016432865125
 30
0.0
 11
957.350360332097
 21
556.7016432865125
 31
0.0
  0
LINE
  5
1E0
330
1F
100
AcDbEntity
  8
0
  6
Continuous
 62
     7
370
    15
100
AcDbLine
 10
967.3503603320972
 20
556.7016432865125
 30
0.0
 11
967.3503603320966
 21
635.6314847573054
 31
0.0
  0
LINE
  5
1E1
330
1F
100
AcDbEntity
  8
0
  6
Continuous
 62
     7
370
    15
100
AcDbLine
 10
967.3503603320966
 20
635.6314847573054
 30
0.0
 11
963.7561128231588
 21
635.6314847573054
 31
0.0
  0
LINE
  5
1E2
330
1F
100
AcDbEntity
  8
0
  6
Continuous
 62
     7
370
    15
100
AcDbLine
 10
963.7561128231588
 20
635.6314847573054
 30
0.0
 11
963.7561128231588
 21
556.7016432865125
 31
0.0
  0
LINE
  5
1E3
330
1F
100
AcDbEntity
  8
0
  6
Continuous
 62
     7
370
    15
100
AcDbLine
 10
963.7561128231588
 20
556.7016432865125
 30
0.0
 11
967.3503603320972
 21
556.7016432865125
 31
0.0
  0
LINE
  5
1E4
330
1F
100
AcDbEntity
  8
0
  6
Continuous
 62
     7
370
    15
100
AcDbLine
 10
977.3503603320971
 20
556.7016432865125
 30
0.0
 11
977.3503603320966
 21
635.6314847573054
 31
0.0
  0
LINE
  5
1E5
330
1F
100
AcDbEntity
  8
0
  6
Continuous
 62
     7
370
    15
100
AcDbLine
 10
977.3503603320966
 20
635.6314847573054
 30
0.0
 11
973.7561128231588
 21
635.6314847573054
 31
0.0
  0
LINE
  5
1E6
330
1F
100
AcDbEntity
  8
0
  6
Continuous
 62
     7
370
    15
100
AcDbLine
 10
973.7561128231588
 20
635.6314847573054
 30
0.0
 11
973.7561128231588
 21
556.7016432865125
 31
0.0
  0
LINE
  5
1E7
330
1F
100
AcDbEntity
  8
0
  6
Continuous
 62
     7
370
    15
100
AcDbLine
 10
973.7561128231588
 20
556.7016432865125
 30
0.0
 11
977.3503603320971
 21
556.7016432865125
 31
0.0
  0
LINE
  5
1E8
330
1F
100
AcDbEntity
  8
0
  6
Continuous
 62
     7
370
    15
100
AcDbLine
 10
987.3503603320971
 20
556.7016432865125
 30
0.0
 11
987.3503603320967
 21
635.6314847573054
 31
0.0
  0
LINE
  5
1E9
330
1F
100
AcDbEntity
  8
0
  6
Continuous
 62
     7
370
    15
100
AcDbLine
 10
987.3503603320967
 20
635.6314847573054
 30
0.0
 11
983.7561128231589
 21
635.6314847573054
 31
0.0
  0
LINE
  5
1EA
330
1F
100
AcDbEntity
  8
0
  6
Continuous
 62
     7
370
    15
100
AcDbLine
 10
983.7561128231589
 20
635.6314847573054
 30
0.0
 11
983.7561128231589
 21
556.7016432865125
 31
0.0
  0
LINE
  5
1EB
330
1F
100
AcDbEntity
  8
0
  6
Continuous
 62
     7
370
    15
100
AcDbLine
 10
983.7561128231589
 20
556.7016432865125
 30
0.0
 11
987.3503603320971
 21
556.7016432865125
 31
0.0
  0
LINE
  5
1EC
330
1F
100
AcDbEntity
  8
0
  6
Continuous
 62
     7
370
    15
100
AcDbLine
 10
997.350360332097
 20
556.7016432865125
 30
0.0
 11
997.3503603320967
 21
635.6314847573054
 31
0.0
  0
LINE
  5
1ED
330
1F
100
AcDbEntity
  8
0
  6
Continuous
 62
     7
370
    15
100
AcDbLine
 10
997.3503603320967
 20
635.6314847573054
 30
0.0
 11
993.7561128231589
 21
635.6314847573054
 31
0.0
  0
LINE
  5
1EE
330
1F
100
AcDbEntity
  8
0
  6
Continuous
 62
     7
370
    15
100
AcDbLine
 10
993.7561128231589
 20
635.6314847573054
 30
0.0
 11
993.7561128231589
 21
556.7016432865125
 31
0.0
  0
LINE
  5
1EF
330
1F
100
AcDbEntity
  8
0
  6
Continuous
 62
     7
370
    15
100
AcDbLine
 10
993.7561128231589
 20
556.7016432865125
 30
0.0
 11
997.350360332097
 21
556.7016432865125
 31
0.0
  0
LINE
  5
1F0
330
1F
100
AcDbEntity
  8
0
  6
Continuous
 62
     7
370
    15
100
AcDbLine
 10
1007.350360332097
 20
556.7016432865125
 30
0.0
 11
1007.350360332097
 21
635.6314847573054
 31
0.0
  0
LINE
  5
1F1
330
1F
100
AcDbEntity
  8
0
  6
Continuous
 62
     7
370
    15
100
AcDbLine
 10
1007.350360332097
 20
635.6314847573054
 30
0.0
 11
1003.756112823159
 21
635.6314847573054
 31
0.0
  0
LINE
  5
1F2
330
1F
100
AcDbEntity
  8
0
  6
Continuous
 62
     7
370
    15
100
AcDbLine
 10
1003.756112823159
 20
635.6314847573054
 30
0.0
 11
1003.756112823159
 21
556.7016432865125
 31
0.0
  0
LINE
  5
1F3
330
1F
100
AcDbEntity
  8
0
  6
Continuous
 62
     7
370
    15
100
AcDbLine
 10
1003.756112823159
 20
556.7016432865125
 30
0.0
 11
1007.350360332097
 21
556.7016432865125
 31
0.0
  0
LINE
  5
1F4
330
1F
100
AcDbEntity
  8
0
  6
Continuous
 62
     7
370
    15
100
AcDbLine
 10
1017.350360332097
 20
556.7016432865125
 30
0.0
 11
1017.350360332097
 21
635.6314847573054
 31
0.0
  0
LINE
  5
1F5
330
1F
100
AcDbEntity
  8
0
  6
Continuous
 62
     7
370
    15
100
AcDbLine
 10
1017.350360332097
 20
635.6314847573054
 30
0.0
 11
1013.756112823159
 21
635.6314847573054
 31
0.0
  0
LINE
  5
1F6
330
1F
100
AcDbEntity
  8
0
  6
Continuous
 62
     7
370
    15
100
AcDbLine
 10
1013.756112823159
 20
635.6314847573054
 30
0.0
 11
1013.756112823159
 21
556.7016432865125
 31
0.0
  0
LINE
  5
1F7
330
1F
100
AcDbEntity
  8
0
  6
Continuous
 62
     7
370
    15
100
AcDbLine
 10
1013.756112823159
 20
556.7016432865125
 30
0.0
 11
1017.350360332097
 21
556.7016432865125
 31
0.0
  0
LINE
  5
1F8
330
1F
100
AcDbEntity
  8
0
  6
Continuous
 62
     7
370
    15
100
AcDbLine
 10
1027.350360332097
 20
556.7016432865125
 30
0.0
 11
1027.350360332096
 21
635.6314847573054
 31
0.0
  0
LINE
  5
1F9
330
1F
100
AcDbEntity
  8
0
  6
Continuous
 62
     7
370
    15
100
AcDbLine
 10
1027.350360332096
 20
635.6314847573054
 30
0.0
 11
1023.756112823159
 21
635.6314847573054
 31
0.0
  0
LINE
  5
1FA
330
1F
100
AcDbEntity
  8
0
  6
Continuous
 62
     7
370
    15
100
AcDbLine
 10
1023.756112823159
 20
635.6314847573054
 30
0.0
 11
1023.756112823159
 21
556.7016432865125
 31
0.0
  0
LINE
  5
1FB
330
1F
100
AcDbEntity
  8
0
  6
Continuous
 62
     7
370
    15
100
AcDbLine
 10
1023.756112823159
 20
556.7016432865125
 30
0.0
 11
1027.350360332097
 21
556.7016432865125
 31
0.0
  0
LINE
  5
1FC
330
1F
100
AcDbEntity
  8
0
  6
Continuous
 62
     7
370
    15
100
AcDbLine
 10
770.5194995690826
 20
690.4621901204152
 30
0.0
 11
1028.394652361654
 21
690.4621901204152
 31
0.0
  0
LINE
  5
1FD
330
1F
100
AcDbEntity
  8
0
  6
Continuous
 62
     7
370
    15
100
AcDbLine
 10
765.6701119265506
 20
685.6128024778832
 30
0.0
 11
770.5194995690826
 21
690.4621901204152
 31
0.0
  0
LINE
  5
1FE
330
1F
100
AcDbEntity
  8
0
  6
Continuous
 62
     7
370
    15
100
AcDbLine
 10
765.6701119265508
 20
644.8242175654156
 30
0.0
 11
765.6701119265506
 21
685.6128024778832
 31
0.0
  0
LINE
  5
1FF
330
1F
100
AcDbEntity
  8
0
  6
Continuous
 62
     7
370
    15
100
AcDbLine
 10
763.6701119265508
 20
705.8242175654156
 30
0.0
 11
763.6701119265508
 21
554.8242175654157
 31
0.0
  0
LINE
  5
200
330
1F
100
AcDbEntity
  8
0
  6
Continuous
 62
     7
370
    15
100
AcDbLine
 10
1035.055830058377
 20
705.8242175654156
 30
0.0
 11
763.6701119265508
 21
705.8242175654156
 31
0.0
  0
LINE
  5
201
330
1F
100
AcDbEntity
  8
0
  6
Continuous
 62
     7
370
    15
100
AcDbLine
 10
1035.055830058377
 20
554.8242175654157
 30
0.0
 11
1035.055830058377
 21
705.8242175654156
 31
0.0
  0
LINE
  5
202
330
1F
100
AcDbEntity
  8
0
  6
Continuous
 62
     7
370
    15
100
AcDbLine
 10
1033.055830058377
 20
685.8010124236918
 30
0.0
 11
1033.055830058377
 21
644.8242175654156
 31
0.0
  0
LINE
  5
203
330
1F
100
AcDbEntity
  8
0
  6
Continuous
 62
     7
370
    15
100
AcDbLine
 10
1028.394652361654
 20
690.4621901204152
 30
0.0
 11
1033.055830058377
 21
685.8010124236918
 31
0.0
  0
LINE
  5
204
330
1F
100
AcDbEntity
  8
0
  6
Continuous
 62
     7
370
    15
100
AcDbLine
 10
1033.055830058377
 20
685.6128024778834
 30
0.0
 11
1028.206442415845
 21
690.4621901204152
 31
0.0
  0
LINE
  5
205
330
1F
100
AcDbEntity
  8
0
  6
Continuous
 62
     7
370
    15
100
AcDbLine
 10
763.6701119265508
 20
396.5930224337014
 30
0.0
 11
763.6701119265508
 21
378.5930224337014
 31
0.0
  0
LINE
  5
206
330
1F
100
AcDbEntity
  8
0
  6
Continuous
 62
     7
370
    15
100
AcDbLine
 10
1035.055830058377
 20
396.5930224337014
 30
0.0
 11
1035.055830058377
 21
378.5930224337014
 31
0.0
  0
LINE
  5
207
330
1F
100
AcDbEntity
  8
0
  6
Continuous
 62
     7
370
    15
100
AcDbLine
 10
1035.055830058377
 20
378.5930224337014
 30
0.0
 11
763.6701119265508
 21
378.5930224337014
 31
0.0
  0
LINE
  5
208
330
1F
100
AcDbEntity
  8
0
  6
Continuous
 62
     7
370
    15
100
AcDbLine
 10
1035.055830058377
 20
396.5930224337014
 30
0.0
 11
763.6701119265508
 21
396.5930224337014
 31
0.0
  0
LINE
  5
209
330
1F
100
AcDbEntity
  8
0
  6
Continuous
 62
     7
370
    15
100
AcDbLine
 10
765.6701119265508
 20
373.5930224337014
 30
0.0
 11
1033.055830058377
 21
373.5930224337014
 31
0.0
  0
LINE
  5
20A
330
1F
100
AcDbEntity
  8
0
  6
Continuous
 62
     7
370
    15
100
AcDbLine
 10
765.6701119265508
 20
378.5930224337014
 30
0.0
 11
765.6701119265508
 21
373.5930224337014
 31
0.0
  0
LINE
  5
20B
330
1F
100
AcDbEntity
  8
0
  6
Continuous
 62
     7
370
    15
100
AcDbLine
 10
1033.055830058377
 20
373.5930224337014
 30
0.0
 11
1033.055830058377
 21
378.5930224337014
 31
0.0
  0
LINE
  5
20C
330
1F
100
AcDbEntity
  8
0
  6
Continuous
 62
     7
370
    15
100
AcDbLine
 10
1033.055830058377
 20
396.5930224337014
 30
0.0
 11
1033.055830058377
 21
401.3883569655878
 31
0.0
  0
LINE
  5
20D
330
1F
100
AcDbEntity
  8
0
  6
Continuous
 62
     7
370
    15
100
AcDbLine
 10
765.6701119265508
 20
401.3883569655878
 30
0.0
 11
765.6701119265508
 21
396.5930224337014
 31
0.0
  0
LINE
  5
20E
330
1F
100
AcDbEntity
  8
0
  6
Continuous
 62
     7
370
    15
100
AcDbLine
 10
1033.055830058377
 20
401.3883569655878
 30
0.0
 11
765.6701119265508
 21
401.3883569655878
 31
0.0
  0
LINE
  5
20F
330
1F
100
AcDbEntity
  8
0
  6
Continuous
 62
     7
370
    15
100
AcDbLine
 10
1119.704321483091
 20
437.575719892006
 30
0.0
 11
1119.704321483091
 21
417.5757198920059
 31
0.0
  0
LINE
  5
210
330
1F
100
AcDbEntity
  8
0
  6
Continuous
 62
     7
370
    15
100
AcDbLine
 10
1109.704321483091
 20
437.575719892006
 30
0.0
 11
1119.704321483091
 21
437.575719892006
 31
0.0
  0
LINE
  5
211
330
1F
100
AcDbEntity
  8
0
  6
Continuous
 62
     7
370
    15
100
AcDbLine
 10
1109.704321483091
 20
417.5757198920059
 30
0.0
 11
1109.704321483091
 21
437.575719892006
 31
0.0
  0
LINE
  5
212
330
1F
100
AcDbEntity
  8
0
  6
Continuous
 62
     7
370
    15
100
AcDbLine
 10
1119.704321483091
 20
417.5757198920059
 30
0.0
 11
1109.704321483091
 21
417.5757198920059
 31
0.0
  0
LINE
  5
213
330
1F
100
AcDbEntity
  8
0
  6
Continuous
 62
     7
370
    15
100
AcDbLine
 10
1089.704321483091
 20
437.5757198920063
 30
0.0
 11
1089.704321483091
 21
417.5757198920063
 31
0.0
  0
LINE
  5
214
330
1F
100
AcDbEntity
  8
0
  6
Continuous
 62
     7
370
    15
100
AcDbLine
 10
1079.704321483091
 20
437.5757198920063
 30
0.0
 11
1089.704321483091
 21
437.5757198920063
 31
0.0
  0
LINE
  5
215
330
1F
100
AcDbEntity
  8
0
  6
Continuous
 62
     7
370
    15
100
AcDbLine
 10
1079.704321483091
 20
417.5757198920063
 30
0.0
 11
1079.704321483091
 21
437.5757198920063
 31
0.0
  0
LINE
  5
216
330
1F
100
AcDbEntity
  8
0
  6
Continuous
 62
     7
370
    15
100
AcDbLine
 10
1089.704321483091
 20
417.5757198920063
 30
0.0
 11
1079.704321483091
 21
417.5757198920063
 31
0.0
  0
LINE
  5
217
330
1F
100
AcDbEntity
  8
0
  6
Continuous
 62
     7
370
    15
100
AcDbLine
 10
1059.704321483091
 20
437.5757198920066
 30
0.0
 11
1059.704321483091
 21
417.5757198920066
 31
0.0
  0
LINE
  5
218
330
1F
100
AcDbEntity
  8
0
  6
Continuous
 62
     7
370
    15
100
AcDbLine
 10
1049.704321483091
 20
437.5757198920066
 30
0.0
 11
1059.704321483091
 21
437.5757198920066
 31
0.0
  0
LINE
  5
219
330
1F
100
AcDbEntity
  8
0
  6
Continuous
 62
     7
370
    15
100
AcDbLine
 10
1049.704321483091
 20
417.5757198920066
 30
0.0
 11
1049.704321483091
 21
437.5757198920066
 31
0.0
  0
LINE
  5
21A
330
1F
100
AcDbEntity
  8
0
  6
Continuous
 62
     7
370
    15
100
AcDbLine
 10
1059.704321483091
 20
417.5757198920066
 30
0.0
 11
1049.704321483091
 21
417.5757198920066
 31
0.0
  0
LINE
  5
21B
330
1F
100
AcDbEntity
  8
0
  6
Continuous
 62
     7
370
    15
100
AcDbLine
 10
1029.704321483091
 20
437.5757198920069
 30
0.0
 11
1029.704321483091
 21
417.5757198920069
 31
0.0
  0
LINE
  5
21C
330
1F
100
AcDbEntity
  8
0
  6
Continuous
 62
     7
370
    15
100
AcDbLine
 10
1019.704321483091
 20
437.5757198920069
 30
0.0
 11
1029.704321483091
 21
437.5757198920069
 31
0.0
  0
LINE
  5
21D
330
1F
100
AcDbEntity
  8
0
  6
Continuous
 62
     7
370
    15
100
AcDbLine
 10
1019.704321483091
 20
417.5757198920069
 30
0.0
 11
1019.704321483091
 21
437.5757198920069
 31
0.0
  0
LINE
  5
21E
330
1F
100
AcDbEntity
  8
0
  6
Continuous
 62
     7
370
    15
100
AcDbLine
 10
1029.704321483091
 20
417.5757198920069
 30
0.0
 11
1019.704321483091
 21
417.5757198920069
 31
0.0
  0
LINE
  5
21F
330
1F
100
AcDbEntity
  8
0
  6
Continuous
 62
     7
370
    15
100
AcDbLine
 10
999.7043214830911
 20
437.5757198920073
 30
0.0
 11
999.7043214830911
 21
417.5757198920072
 31
0.0
  0
LINE
  5
220
330
1F
100
AcDbEntity
  8
0
  6
Continuous
 62
     7
370
    15
100
AcDbLine
 10
989.7043214830912
 20
437.5757198920073
 30
0.0
 11
999.7043214830911
 21
437.5757198920073
 31
0.0
  0
LINE
  5
221
330
1F
100
AcDbEntity
  8
0
  6
Continuous
 62
     7
370
    15
100
AcDbLine
 10
989.7043214830912
 20
417.5757198920072
 30
0.0
 11
989.7043214830912
 21
437.5757198920073
 31
0.0
  0
LINE
  5
222
330
1F
100
AcDbEntity
  8
0
  6
Continuous
 62
     7
370
    15
100
AcDbLine
 10
999.7043214830911
 20
417.5757198920072
 30
0.0
 11
989.7043214830912
 21
417.5757198920072
 31
0.0
  0
LINE
  5
223
330
1F
100
AcDbEntity
  8
0
  6
Continuous
 62
     7
370
    15
100
AcDbLine
 10
969.7043214830912
 20
437.5757198920076
 30
0.0
 11
969.7043214830912
 21
417.5757198920075
 31
0.0
  0
LINE
  5
224
330
1F
100
AcDbEntity
  8
0
  6
Continuous
 62
     7
370
    15
100
AcDbLine
 10
959.7043214830913
 20
437.5757198920076
 30
0.0
 11
969.7043214830912
 21
437.5757198920076
 31
0.0
  0
LINE
  5
225
330
1F
100
AcDbEntity
  8
0
  6
Continuous
 62
     7
370
    15
100
AcDbLine
 10
959.7043214830913
 20
417.5757198920075
 30
0.0
 11
959.7043214830913
 21
437.5757198920076
 31
0.0
  0
LINE
  5
226
330
1F
100
AcDbEntity
  8
0
  6
Continuous
 62
     7
370
    15
100
AcDbLine
 10
969.7043214830912
 20
417.5757198920075
 30
0.0
 11
959.7043214830913
 21
417.5757198920075
 31
0.0
  0
LINE
  5
227
330
1F
100
AcDbEntity
  8
0
  6
Continuous
 62
     7
370
    15
100
AcDbLine
 10
939.7043214830912
 20
437.5757198920078
 30
0.0
 11
939.7043214830912
 21
417.5757198920079
 31
0.0
  0
LINE
  5
228
330
1F
100
AcDbEntity
  8
0
  6
Continuous
 62
     7
370
    15
100
AcDbLine
 10
929.704321483091
 20
437.5757198920078
 30
0.0
 11
939.7043214830912
 21
437.5757198920078
 31
0.0
  0
LINE
  5
229
330
1F
100
AcDbEntity
  8
0
  6
Continuous
 62
     7
370
    15
100
AcDbLine
 10
929.704321483091
 20
417.5757198920079
 30
0.0
 11
929.704321483091
 21
437.5757198920078
 31
0.0
  0
LINE
  5
22A
330
1F
100
AcDbEntity
  8
0
  6
Continuous
 62
     7
370
    15
100
AcDbLine
 10
939.7043214830912
 20
417.5757198920079
 30
0.0
 11
929.704321483091
 21
417.5757198920079
 31
0.0
  0
LINE
  5
22B
330
1F
100
AcDbEntity
  8
0
  6
Continuous
 62
     7
370
    15
100
AcDbLine
 10
909.7043214830913
 20
437.5757198920082
 30
0.0
 11
909.7043214830913
 21
417.5757198920082
 31
0.0
  0
LINE
  5
22C
330
1F
100
AcDbEntity
  8
0
  6
Continuous
 62
     7
370
    15
100
AcDbLine
 10
899.7043214830911
 20
437.5757198920082
 30
0.0
 11
909.7043214830913
 21
437.5757198920082
 31
0.0
  0
LINE
  5
22D
330
1F
100
AcDbEntity
  8
0
  6
Continuous
 62
     7
370
    15
100
AcDbLine
 10
899.7043214830911
 20
417.5757198920082
 30
0.0
 11
899.7043214830911
 21
437.5757198920082
 31
0.0
  0
LINE
  5
22E
330
1F
100
AcDbEntity
  8
0
  6
Continuous
 62
     7
370
    15
100
AcDbLine
 10
909.7043214830913
 20
417.5757198920082
 30
0.0
 11
899.7043214830911
 21
417.5757198920082
 31
0.0
  0
LINE
  5
22F
330
1F
100
AcDbEntity
  8
0
  6
Continuous
 62
     7
370
    15
100
AcDbLine
 10
879.704321483091
 20
437.5757198920085
 30
0.0
 11
879.7043214830912
 21
417.5757198920085
 31
0.0
  0
LINE
  5
230
330
1F
100
AcDbEntity
  8
0
  6
Continuous
 62
     7
370
    15
100
AcDbLine
 10
869.7043214830912
 20
437.5757198920085
 30
0.0
 11
879.704321483091
 21
437.5757198920085
 31
0.0
  0
LINE
  5
231
330
1F
100
AcDbEntity
  8
0
  6
Continuous
 62
     7
370
    15
100
AcDbLine
 10
869.7043214830912
 20
417.5757198920085
 30
0.0
 11
869.7043214830912
 21
437.5757198920085
 31
0.0
  0
LINE
  5
232
330
1F
100
AcDbEntity
  8
0
  6
Continuous
 62
     7
370
    15
100
AcDbLine
 10
879.7043214830912
 20
417.5757198920085
 30
0.0
 11
869.7043214830912
 21
417.5757198920085
 31
0.0
  0
LINE
  5
233
330
1F
100
AcDbEntity
  8
0
  6
Continuous
 62
     7
370
    15
100
AcDbLine
 10
849.704321483091
 20
437.5757198920088
 30
0.0
 11
849.7043214830911
 21
417.5757198920088
 31
0.0
  0
LINE
  5
234
330
1F
100
AcDbEntity
  8
0
  6
Continuous
 62
     7
370
    15
100
AcDbLine
 10
839.7043214830912
 20
437.5757198920088
 30
0.0
 11
849.704321483091
 21
437.5757198920088
 31
0.0
  0
LINE
  5
235
330
1F
100
AcDbEntity
  8
0
  6
Continuous
 62
     7
370
    15
100
AcDbLine
 10
839.7043214830912
 20
417.5757198920088
 30
0.0
 11
839.7043214830912
 21
437.5757198920088
 31
0.0
  0
LINE
  5
236
330
1F
100
AcDbEntity
  8
0
  6
Continuous
 62
     7
370
    15
100
AcDbLine
 10
849.7043214830911
 20
417.5757198920088
 30
0.0
 11
839.7043214830912
 21
417.5757198920088
 31
0.0
  0
LINE
  5
237
330
1F
100
AcDbEntity
  8
0
  6
Continuous
 62
     7
370
    15
100
AcDbLine
 10
819.7043214830911
 20
437.5757198920091
 30
0.0
 11
819.7043214830911
 21
417.5757198920091
 31
0.0
  0
LINE
  5
238
330
1F
100
AcDbEntity
  8
0
  6
Continuous
 62
     7
370
    15
100
AcDbLine
 10
809.7043214830911
 20
437.5757198920091
 30
0.0
 11
819.7043214830911
 21
437.5757198920091
 31
0.0
  0
LINE
  5
239
330
1F
100
AcDbEntity
  8
0
  6
Continuous
 62
     7
370
    15
100
AcDbLine
 10
809.7043214830911
 20
417.5757198920091
 30
0.0
 11
809.7043214830911
 21
437.5757198920091
 31
0.0
  0
LINE
  5
23A
330
1F
100
AcDbEntity
  8
0
  6
Continuous
 62
     7
370
    15
100
AcDbLine
 10
819.7043214830911
 20
417.5757198920091
 30
0.0
 11
809.7043214830911
 21
417.5757198920091
 31
0.0
  0
LINE
  5
23B
330
1F
100
AcDbEntity
  8
0
  6
Continuous
 62
     7
370
    15
100
AcDbLine
 10
789.7043214830911
 20
437.5757198920094
 30
0.0
 11
789.7043214830912
 21
417.5757198920094
 31
0.0
  0
LINE
  5
23C
330
1F
100
AcDbEntity
  8
0
  6
Continuous
 62
     7
370
    15
100
AcDbLine
 10
779.7043214830912
 20
437.5757198920094
 30
0.0
 11
789.7043214830911
 21
437.5757198920094
 31
0.0
  0
LINE
  5
23D
330
1F
100
AcDbEntity
  8
0
  6
Continuous
 62
     7
370
    15
100
AcDbLine
 10
779.7043214830912
 20
417.5757198920094
 30
0.0
 11
779.7043214830912
 21
437.5757198920094
 31
0.0
  0
LINE
  5
23E
330
1F
100
AcDbEntity
  8
0
  6
Continuous
 62
     7
370
    15
100
AcDbLine
 10
789.7043214830912
 20
417.5757198920094
 30
0.0
 11
779.7043214830912
 21
417.5757198920094
 31
0.0
  0
LINE
  5
23F
330
1F
100
AcDbEntity
  8
0
  6
Continuous
 62
     7
370
    15
100
AcDbLine
 10
759.7043214830911
 20
437.5757198920098
 30
0.0
 11
759.7043214830912
 21
417.5757198920098
 31
0.0
  0
LINE
  5
240
330
1F
100
AcDbEntity
  8
0
  6
Continuous
 62
     7
370
    15
100
AcDbLine
 10
749.704321483091
 20
437.5757198920098
 30
0.0
 11
759.7043214830911
 21
437.5757198920098
 31
0.0
  0
LINE
  5
241
330
1F
100
AcDbEntity
  8
0
  6
Continuous
 62
     7
370
    15
100
AcDbLine
 10
749.704321483091
 20
417.5757198920098
 30
0.0
 11
749.704321483091
 21
437.5757198920098
 31
0.0
  0
LINE
  5
242
330
1F
100
AcDbEntity
  8
0
  6
Continuous
 62
     7
370
    15
100
AcDbLine
 10
759.7043214830912
 20
417.5757198920098
 30
0.0
 11
749.704321483091
 21
417.5757198920098
 31
0.0
  0
LINE
  5
243
330
1F
100
AcDbEntity
  8
0
  6
Continuous
 62
     7
370
    15
100
AcDbLine
 10
729.7043214830911
 20
437.57571989201
 30
0.0
 11
729.7043214830911
 21
417.57571989201
 31
0.0
  0
LINE
  5
244
330
1F
100
AcDbEntity
  8
0
  6
Continuous
 62
     7
370
    15
100
AcDbLine
 10
719.7043214830911
 20
437.57571989201
 30
0.0
 11
729.7043214830911
 21
437.57571989201
 31
0.0
  0
LINE
  5
245
330
1F
100
AcDbEntity
  8
0
  6
Continuous
 62
     7
370
    15
100
AcDbLine
 10
719.7043214830911
 20
417.57571989201
 30
0.0
 11
719.7043214830911
 21
437.57571989201
 31
0.0
  0
LINE
  5
246
330
1F
100
AcDbEntity
  8
0
  6
Continuous
 62
     7
370
    15
100
AcDbLine
 10
729.7043214830911
 20
417.57571989201
 30
0.0
 11
719.7043214830911
 21
417.57571989201
 31
0.0
  0
LINE
  5
247
330
1F
100
AcDbEntity
  8
0
  6
Continuous
 62
     7
370
    15
100
AcDbLine
 10
699.704321483091
 20
437.5757198920104
 30
0.0
 11
699.704321483091
 21
417.5757198920104
 31
0.0
  0
LINE
  5
248
330
1F
100
AcDbEntity
  8
0
  6
Continuous
 62
     7
370
    15
100
AcDbLine
 10
689.7043214830911
 20
437.5757198920104
 30
0.0
 11
699.704321483091
 21
437.5757198920104
 31
0.0
  0
LINE
  5
249
330
1F
100
AcDbEntity
  8
0
  6
Continuous
 62
     7
370
    15
100
AcDbLine
 10
689.7043214830911
 20
417.5757198920104
 30
0.0
 11
689.7043214830911
 21
437.5757198920104
 31
0.0
  0
LINE
  5
24A
330
1F
100
AcDbEntity
  8
0
  6
Continuous
 62
     7
370
    15
100
AcDbLine
 10
699.704321483091
 20
417.5757198920104
 30
0.0
 11
689.7043214830911
 21
417.5757198920104
 31
0.0
  0
LINE
  5
24B
330
1F
100
AcDbEntity
  8
0
  6
Continuous
 62
     7
370
    15
100
AcDbLine
 10
1033.055830058377
 20
401.3883569655878
 30
0.0
 11
1130.862970992464
 21
401.3883569655878
 31
0.0
  0
LINE
  5
24C
330
1F
100
AcDbEntity
  8
0
  6
Continuous
 62
     7
370
    15
100
AcDbLine
 10
667.8629709924639
 20
401.3883569655878
 30
0.0
 11
765.6701119265508
 21
401.3883569655878
 31
0.0
  0
LINE
  5
24D
330
1F
100
AcDbEntity
  8
0
  6
Continuous
 62
     7
370
    15
100
AcDbLine
 10
667.8629709924639
 20
441.9906896996446
 30
0.0
 11
667.8629709924639
 21
401.3883569655878
 31
0.0
  0
LINE
  5
24E
330
1F
100
AcDbEntity
  8
0
  6
Continuous
 62
     7
370
    15
100
AcDbLine
 10
667.8629709924639
 20
441.9906896996446
 30
0.0
 11
1130.862970992464
 21
441.9906896996446
 31
0.0
  0
LINE
  5
24F
330
1F
100
AcDbEntity
  8
0
  6
Continuous
 62
     7
370
    15
100
AcDbLine
 10
1130.862970992464
 20
441.9906896996446
 30
0.0
 11
1130.862970992464
 21
401.3883569655878
 31
0.0
  0
LINE
  5
250
330
1F
100
AcDbEntity
  8
0
  6
Continuous
 62
     7
370
    15
100
AcDbLine
 10
684.7043214830911
 20
437.5757198920105
 30
0.0
 11
684.7043214830911
 21
417.5757198920106
 31
0.0
  0
LINE
  5
251
330
1F
100
AcDbEntity
  8
0
  6
Continuous
 62
     7
370
    15
100
AcDbLine
 10
674.704321483091
 20
437.5757198920105
 30
0.0
 11
684.7043214830911
 21
437.5757198920105
 31
0.0
  0
LINE
  5
252
330
1F
100
AcDbEntity
  8
0
  6
Continuous
 62
     7
370
    15
100
AcDbLine
 10
674.704321483091
 20
417.5757198920106
 30
0.0
 11
674.704321483091
 21
437.5757198920105
 31
0.0
  0
LINE
  5
253
330
1F
100
AcDbEntity
  8
0
  6
Continuous
 62
     7
370
    15
100
AcDbLine
 10
684.7043214830911
 20
417.5757198920106
 30
0.0
 11
674.704321483091
 21
417.5757198920106
 31
0.0
  0
LINE
  5
254
330
1F
100
AcDbEntity
  8
0
  6
Continuous
 62
     7
370
    15
100
AcDbLine
 10
714.7043214830912
 20
437.5757198920102
 30
0.0
 11
714.7043214830912
 21
417.5757198920102
 31
0.0
  0
LINE
  5
255
330
1F
100
AcDbEntity
  8
0
  6
Continuous
 62
     7
370
    15
100
AcDbLine
 10
704.7043214830912
 20
437.5757198920102
 30
0.0
 11
714.7043214830912
 21
437.5757198920102
 31
0.0
  0
LINE
  5
256
330
1F
100
AcDbEntity
  8
0
  6
Continuous
 62
     7
370
    15
100
AcDbLine
 10
704.7043214830912
 20
417.5757198920102
 30
0.0
 11
704.7043214830912
 21
437.5757198920102
 31
0.0
  0
LINE
  5
257
330
1F
100
AcDbEntity
  8
0
  6
Continuous
 62
     7
370
    15
100
AcDbLine
 10
714.7043214830912
 20
417.5757198920102
 30
0.0
 11
704.7043214830912
 21
417.5757198920102
 31
0.0
  0
LINE
  5
258
330
1F
100
AcDbEntity
  8
0
  6
Continuous
 62
     7
370
    15
100
AcDbLine
 10
744.7043214830911
 20
437.5757198920099
 30
0.0
 11
744.7043214830911
 21
417.5757198920099
 31
0.0
  0
LINE
  5
259
330
1F
100
AcDbEntity
  8
0
  6
Continuous
 62
     7
370
    15
100
AcDbLine
 10
734.7043214830911
 20
437.5757198920099
 30
0.0
 11
744.7043214830911
 21
437.5757198920099
 31
0.0
  0
LINE
  5
25A
330
1F
100
AcDbEntity
  8
0
  6
Continuous
 62
     7
370
    15
100
AcDbLine
 10
734.7043214830911
 20
417.5757198920099
 30
0.0
 11
734.7043214830911
 21
437.5757198920099
 31
0.0
  0
LINE
  5
25B
330
1F
100
AcDbEntity
  8
0
  6
Continuous
 62
     7
370
    15
100
AcDbLine
 10
744.7043214830911
 20
417.5757198920099
 30
0.0
 11
734.7043214830911
 21
417.5757198920099
 31
0.0
  0
LINE
  5
25C
330
1F
100
AcDbEntity
  8
0
  6
Continuous
 62
     7
370
    15
100
AcDbLine
 10
774.704321483091
 20
437.5757198920096
 30
0.0
 11
774.7043214830912
 21
417.5757198920096
 31
0.0
  0
LINE
  5
25D
330
1F
100
AcDbEntity
  8
0
  6
Continuous
 62
     7
370
    15
100
AcDbLine
 10
764.7043214830912
 20
437.5757198920096
 30
0.0
 11
774.704321483091
 21
437.5757198920096
 31
0.0
  0
LINE
  5
25E
330
1F
100
AcDbEntity
  8
0
  6
Continuous
 62
     7
370
    15
100
AcDbLine
 10
764.7043214830912
 20
417.5757198920096
 30
0.0
 11
764.7043214830912
 21
437.5757198920096
 31
0.0
  0
LINE
  5
25F
330
1F
100
AcDbEntity
  8
0
  6
Continuous
 62
     7
370
    15
100
AcDbLine
 10
774.7043214830912
 20
417.5757198920096
 30
0.0
 11
764.7043214830912
 21
417.5757198920096
 31
0.0
  0
LINE
  5
260
330
1F
100
AcDbEntity
  8
0
  6
Continuous
 62
     7
370
    15
100
AcDbLine
 10
804.704321483091
 20
437.5757198920092
 30
0.0
 11
804.704321483091
 21
417.5757198920093
 31
0.0
  0
LINE
  5
261
330
1F
100
AcDbEntity
  8
0
  6
Continuous
 62
     7
370
    15
100
AcDbLine
 10
794.7043214830911
 20
437.5757198920092
 30
0.0
 11
804.704321483091
 21
437.5757198920092
 31
0.0
  0
LINE
  5
262
330
1F
100
AcDbEntity
  8
0
  6
Continuous
 62
     7
370
    15
100
AcDbLine
 10
794.7043214830911
 20
417.5757198920093
 30
0.0
 11
794.7043214830911
 21
437.5757198920092
 31
0.0
  0
LINE
  5
263
330
1F
100
AcDbEntity
  8
0
  6
Continuous
 62
     7
370
    15
100
AcDbLine
 10
804.704321483091
 20
417.5757198920093
 30
0.0
 11
794.7043214830911
 21
417.5757198920093
 31
0.0
  0
LINE
  5
264
330
1F
100
AcDbEntity
  8
0
  6
Continuous
 62
     7
370
    15
100
AcDbLine
 10
834.7043214830913
 20
437.575719892009
 30
0.0
 11
834.7043214830913
 21
417.575719892009
 31
0.0
  0
LINE
  5
265
330
1F
100
AcDbEntity
  8
0
  6
Continuous
 62
     7
370
    15
100
AcDbLine
 10
824.7043214830911
 20
437.575719892009
 30
0.0
 11
834.7043214830913
 21
437.575719892009
 31
0.0
  0
LINE
  5
266
330
1F
100
AcDbEntity
  8
0
  6
Continuous
 62
     7
370
    15
100
AcDbLine
 10
824.7043214830911
 20
417.575719892009
 30
0.0
 11
824.7043214830911
 21
437.575719892009
 31
0.0
  0
LINE
  5
267
330
1F
100
AcDbEntity
  8
0
  6
Continuous
 62
     7
370
    15
100
AcDbLine
 10
834.7043214830913
 20
417.575719892009
 30
0.0
 11
824.7043214830911
 21
417.575719892009
 31
0.0
  0
LINE
  5
268
330
1F
100
AcDbEntity
  8
0
  6
Continuous
 62
     7
370
    15
100
AcDbLine
 10
864.7043214830912
 20
437.5757198920086
 30
0.0
 11
864.7043214830912
 21
417.5757198920086
 31
0.0
  0
LINE
  5
269
330
1F
100
AcDbEntity
  8
0
  6
Continuous
 62
     7
370
    15
100
AcDbLine
 10
854.704321483091
 20
437.5757198920086
 30
0.0
 11
864.7043214830912
 21
437.5757198920086
 31
0.0
  0
LINE
  5
26A
330
1F
100
AcDbEntity
  8
0
  6
Continuous
 62
     7
370
    15
100
AcDbLine
 10
854.704321483091
 20
417.5757198920086
 30
0.0
 11
854.704321483091
 21
437.5757198920086
 31
0.0
  0
LINE
  5
26B
330
1F
100
AcDbEntity
  8
0
  6
Continuous
 62
     7
370
    15
100
AcDbLine
 10
864.7043214830912
 20
417.5757198920086
 30
0.0
 11
854.704321483091
 21
417.5757198920086
 31
0.0
  0
LINE
  5
26C
330
1F
100
AcDbEntity
  8
0
  6
Continuous
 62
     7
370
    15
100
AcDbLine
 10
894.7043214830912
 20
437.5757198920084
 30
0.0
 11
894.7043214830912
 21
417.5757198920083
 31
0.0
  0
LINE
  5
26D
330
1F
100
AcDbEntity
  8
0
  6
Continuous
 62
     7
370
    15
100
AcDbLine
 10
884.7043214830913
 20
437.5757198920084
 30
0.0
 11
894.7043214830912
 21
437.5757198920084
 31
0.0
  0
LINE
  5
26E
330
1F
100
AcDbEntity
  8
0
  6
Continuous
 62
     7
370
    15
100
AcDbLine
 10
884.7043214830913
 20
417.5757198920083
 30
0.0
 11
884.7043214830913
 21
437.5757198920084
 31
0.0
  0
LINE
  5
26F
330
1F
100
AcDbEntity
  8
0
  6
Continuous
 62
     7
370
    15
100
AcDbLine
 10
894.7043214830912
 20
417.5757198920083
 30
0.0
 11
884.7043214830913
 21
417.5757198920083
 31
0.0
  0
LINE
  5
270
330
1F
100
AcDbEntity
  8
0
  6
Continuous
 62
     7
370
    15
100
AcDbLine
 10
924.7043214830911
 20
437.575719892008
 30
0.0
 11
924.7043214830911
 21
417.575719892008
 31
0.0
  0
LINE
  5
271
330
1F
100
AcDbEntity
  8
0
  6
Continuous
 62
     7
370
    15
100
AcDbLine
 10
914.7043214830912
 20
437.575719892008
 30
0.0
 11
924.7043214830911
 21
437.575719892008
 31
0.0
  0
LINE
  5
272
330
1F
100
AcDbEntity
  8
0
  6
Continuous
 62
     7
370
    15
100
AcDbLine
 10
914.7043214830912
 20
417.575719892008
 30
0.0
 11
914.7043214830912
 21
437.575719892008
 31
0.0
  0
LINE
  5
273
330
1F
100
AcDbEntity
  8
0
  6
Continuous
 62
     7
370
    15
100
AcDbLine
 10
924.7043214830911
 20
417.575719892008
 30
0.0
 11
914.7043214830912
 21
417.575719892008
 31
0.0
  0
LINE
  5
274
330
1F
100
AcDbEntity
  8
0
  6
Continuous
 62
     7
370
    15
100
AcDbLine
 10
954.7043214830912
 20
437.5757198920077
 30
0.0
 11
954.7043214830912
 21
417.5757198920077
 31
0.0
  0
LINE
  5
275
330
1F
100
AcDbEntity
  8
0
  6
Continuous
 62
     7
370
    15
100
AcDbLine
 10
944.7043214830912
 20
437.5757198920077
 30
0.0
 11
954.7043214830912
 21
437.5757198920077
 31
0.0
  0
LINE
  5
276
330
1F
100
AcDbEntity
  8
0
  6
Continuous
 62
     7
370
    15
100
AcDbLine
 10
944.7043214830912
 20
417.5757198920077
 30
0.0
 11
944.7043214830912
 21
437.5757198920077
 31
0.0
  0
LINE
  5
277
330
1F
100
AcDbEntity
  8
0
  6
Continuous
 62
     7
370
    15
100
AcDbLine
 10
954.7043214830912
 20
417.5757198920077
 30
0.0
 11
944.7043214830912
 21
417.5757198920077
 31
0.0
  0
LINE
  5
278
330
1F
100
AcDbEntity
  8
0
  6
Continuous
 62
     7
370
    15
100
AcDbLine
 10
984.7043214830913
 20
437.5757198920074
 30
0.0
 11
984.7043214830913
 21
417.5757198920074
 31
0.0
  0
LINE
  5
279
330
1F
100
AcDbEntity
  8
0
  6
Continuous
 62
     7
370
    15
100
AcDbLine
 10
974.7043214830911
 20
437.5757198920074
 30
0.0
 11
984.7043214830913
 21
437.5757198920074
 31
0.0
  0
LINE
  5
27A
330
1F
100
AcDbEntity
  8
0
  6
Continuous
 62
     7
370
    15
100
AcDbLine
 10
974.7043214830911
 20
417.5757198920074
 30
0.0
 11
974.7043214830911
 21
437.5757198920074
 31
0.0
  0
LINE
  5
27B
330
1F
100
AcDbEntity
  8
0
  6
Continuous
 62
     7
370
    15
100
AcDbLine
 10
984.7043214830913
 20
417.5757198920074
 30
0.0
 11
974.7043214830911
 21
417.5757198920074
 31
0.0
  0
LINE
  5
27C
330
1F
100
AcDbEntity
  8
0
  6
Continuous
 62
     7
370
    15
100
AcDbLine
 10
1014.704321483091
 20
437.575719892007
 30
0.0
 11
1014.704321483091
 21
417.5757198920071
 31
0.0
  0
LINE
  5
27D
330
1F
100
AcDbEntity
  8
0
  6
Continuous
 62
     7
370
    15
100
AcDbLine
 10
1004.704321483091
 20
437.575719892007
 30
0.0
 11
1014.704321483091
 21
437.575719892007
 31
0.0
  0
LINE
  5
27E
330
1F
100
AcDbEntity
  8
0
  6
Continuous
 62
     7
370
    15
100
AcDbLine
 10
1004.704321483091
 20
417.5757198920071
 30
0.0
 11
1004.704321483091
 21
437.575719892007
 31
0.0
  0
LINE
  5
27F
330
1F
100
AcDbEntity
  8
0
  6
Continuous
 62
     7
370
    15
100
AcDbLine
 10
1014.704321483091
 20
417.5757198920071
 30
0.0
 11
1004.704321483091
 21
417.5757198920071
 31
0.0
  0
LINE
  5
280
330
1F
100
AcDbEntity
  8
0
  6
Continuous
 62
     7
370
    15
100
AcDbLine
 10
1044.704321483091
 20
437.5757198920068
 30
0.0
 11
1044.704321483091
 21
417.5757198920067
 31
0.0
  0
LINE
  5
281
330
1F
100
AcDbEntity
  8
0
  6
Continuous
 62
     7
370
    15
100
AcDbLine
 10
1034.704321483091
 20
437.5757198920068
 30
0.0
 11
1044.704321483091
 21
437.5757198920068
 31
0.0
  0
LINE
  5
282
330
1F
100
AcDbEntity
  8
0
  6
Continuous
 62
     7
370
    15
100
AcDbLine
 10
1034.704321483091
 20
417.5757198920067
 30
0.0
 11
1034.704321483091
 21
437.5757198920068
 31
0.0
  0
LINE
  5
283
330
1F
100
AcDbEntity
  8
0
  6
Continuous
 62
     7
370
    15
100
AcDbLine
 10
1044.704321483091
 20
417.5757198920067
 30
0.0
 11
1034.704321483091
 21
417.5757198920067
 31
0.0
  0
LINE
  5
284
330
1F
100
AcDbEntity
  8
0
  6
Continuous
 62
     7
370
    15
100
AcDbLine
 10
1074.704321483091
 20
437.5757198920065
 30
0.0
 11
1074.704321483091
 21
417.5757198920065
 31
0.0
  0
LINE
  5
285
330
1F
100
AcDbEntity
  8
0
  6
Continuous
 62
     7
370
    15
100
AcDbLine
 10
1064.704321483091
 20
437.5757198920065
 30
0.0
 11
1074.704321483091
 21
437.5757198920065
 31
0.0
  0
LINE
  5
286
330
1F
100
AcDbEntity
  8
0
  6
Continuous
 62
     7
370
    15
100
AcDbLine
 10
1064.704321483091
 20
417.5757198920065
 30
0.0
 11
1064.704321483091
 21
437.5757198920065
 31
0.0
  0
LINE
  5
287
330
1F
100
AcDbEntity
  8
0
  6
Continuous
 62
     7
370
    15
100
AcDbLine
 10
1074.704321483091
 20
417.5757198920065
 30
0.0
 11
1064.704321483091
 21
417.5757198920065
 31
0.0
  0
LINE
  5
288
330
1F
100
AcDbEntity
  8
0
  6
Continuous
 62
     7
370
    15
100
AcDbLine
 10
1104.704321483091
 20
437.5757198920061
 30
0.0
 11
1104.704321483091
 21
417.5757198920061
 31
0.0
  0
LINE
  5
289
330
1F
100
AcDbEntity
  8
0
  6
Continuous
 62
     7
370
    15
100
AcDbLine
 10
1094.704321483091
 20
437.5757198920061
 30
0.0
 11
1104.704321483091
 21
437.5757198920061
 31
0.0
  0
LINE
  5
28A
330
1F
100
AcDbEntity
  8
0
  6
Continuous
 62
     7
370
    15
100
AcDbLine
 10
1094.704321483091
 20
417.5757198920061
 30
0.0
 11
1094.704321483091
 21
437.5757198920061
 31
0.0
  0
LINE
  5
28B
330
1F
100
AcDbEntity
  8
0
  6
Continuous
 62
     7
370
    15
100
AcDbLine
 10
1104.704321483091
 20
417.5757198920061
 30
0.0
 11
1094.704321483091
 21
417.5757198920061
 31
0.0
  0
LINE
  5
28C
330
1F
100
AcDbEntity
  8
0
  6
Continuous
 62
     7
370
    15
100
AcDbLine
 10
667.8629709924639
 20
373.5930224337014
 30
0.0
 11
765.6701119265508
 21
373.5930224337014
 31
0.0
  0
LINE
  5
28D
330
1F
100
AcDbEntity
  8
0
  6
Continuous
 62
     7
370
    15
100
AcDbLine
 10
667.8629709924639
 20
401.3883569655878
 30
0.0
 11
667.8629709924639
 21
373.5930224337014
 31
0.0
  0
LINE
  5
28E
330
1F
100
AcDbEntity
  8
0
  6
Continuous
 62
     7
370
    15
100
AcDbLine
 10
1130.862970992464
 20
401.3883569655878
 30
0.0
 11
1130.862970992464
 21
373.5930224337014
 31
0.0
  0
LINE
  5
28F
330
1F
100
AcDbEntity
  8
0
  6
Continuous
 62
     7
370
    15
100
AcDbLine
 10
1033.055830058377
 20
373.5930224337014
 30
0.0
 11
1130.862970992464
 21
373.5930224337014
 31
0.0
  0
LINE
  5
290
330
1F
100
AcDbEntity
  8
0
  6
Continuous
 62
     7
370
    15
100
AcDbLine
 10
1109.704321483091
 20
337.575719892006
 30
0.0
 11
1119.704321483091
 21
337.575719892006
 31
0.0
  0
LINE
  5
291
330
1F
100
AcDbEntity
  8
0
  6
Continuous
 62
     7
370
    15
100
AcDbLine
 10
1119.704321483091
 20
337.575719892006
 30
0.0
 11
1119.704321483091
 21
357.575719892006
 31
0.0
  0
LINE
  5
292
330
1F
100
AcDbEntity
  8
0
  6
Continuous
 62
     7
370
    15
100
AcDbLine
 10
1119.704321483091
 20
357.575719892006
 30
0.0
 11
1109.704321483091
 21
357.575719892006
 31
0.0
  0
LINE
  5
293
330
1F
100
AcDbEntity
  8
0
  6
Continuous
 62
     7
370
    15
100
AcDbLine
 10
1109.704321483091
 20
357.575719892006
 30
0.0
 11
1109.704321483091
 21
337.575719892006
 31
0.0
  0
LINE
  5
294
330
1F
100
AcDbEntity
  8
0
  6
Continuous
 62
     7
370
    15
100
AcDbLine
 10
1079.704321483091
 20
337.5757198920064
 30
0.0
 11
1089.704321483091
 21
337.5757198920064
 31
0.0
  0
LINE
  5
295
330
1F
100
AcDbEntity
  8
0
  6
Continuous
 62
     7
370
    15
100
AcDbLine
 10
1089.704321483091
 20
337.5757198920064
 30
0.0
 11
1089.704321483091
 21
357.5757198920064
 31
0.0
  0
LINE
  5
296
330
1F
100
AcDbEntity
  8
0
  6
Continuous
 62
     7
370
    15
100
AcDbLine
 10
1089.704321483091
 20
357.5757198920064
 30
0.0
 11
1079.704321483091
 21
357.5757198920064
 31
0.0
  0
LINE
  5
297
330
1F
100
AcDbEntity
  8
0
  6
Continuous
 62
     7
370
    15
100
AcDbLine
 10
1079.704321483091
 20
357.5757198920064
 30
0.0
 11
1079.704321483091
 21
337.5757198920064
 31
0.0
  0
LINE
  5
298
330
1F
100
AcDbEntity
  8
0
  6
Continuous
 62
     7
370
    15
100
AcDbLine
 10
1049.704321483091
 20
337.5757198920066
 30
0.0
 11
1059.704321483091
 21
337.5757198920066
 31
0.0
  0
LINE
  5
299
330
1F
100
AcDbEntity
  8
0
  6
Continuous
 62
     7
370
    15
100
AcDbLine
 10
1059.704321483091
 20
337.5757198920066
 30
0.0
 11
1059.704321483091
 21
357.5757198920066
 31
0.0
  0
LINE
  5
29A
330
1F
100
AcDbEntity
  8
0
  6
Continuous
 62
     7
370
    15
100
AcDbLine
 10
1059.704321483091
 20
357.5757198920066
 30
0.0
 11
1049.704321483091
 21
357.5757198920066
 31
0.0
  0
LINE
  5
29B
330
1F
100
AcDbEntity
  8
0
  6
Continuous
 62
     7
370
    15
100
AcDbLine
 10
1049.704321483091
 20
357.5757198920066
 30
0.0
 11
1049.704321483091
 21
337.5757198920066
 31
0.0
  0
LINE
  5
29C
330
1F
100
AcDbEntity
  8
0
  6
Continuous
 62
     7
370
    15
100
AcDbLine
 10
1019.704321483091
 20
337.575719892007
 30
0.0
 11
1029.704321483091
 21
337.575719892007
 31
0.0
  0
LINE
  5
29D
330
1F
100
AcDbEntity
  8
0
  6
Continuous
 62
     7
370
    15
100
AcDbLine
 10
1029.704321483091
 20
337.575719892007
 30
0.0
 11
1029.704321483091
 21
357.575719892007
 31
0.0
  0
LINE
  5
29E
330
1F
100
AcDbEntity
  8
0
  6
Continuous
 62
     7
370
    15
100
AcDbLine
 10
1029.704321483091
 20
357.575719892007
 30
0.0
 11
1019.704321483091
 21
357.575719892007
 31
0.0
  0
LINE
  5
29F
330
1F
100
AcDbEntity
  8
0
  6
Continuous
 62
     7
370
    15
100
AcDbLine
 10
1019.704321483091
 20
357.575719892007
 30
0.0
 11
1019.704321483091
 21
337.575719892007
 31
0.0
  0
LINE
  5
2A0
330
1F
100
AcDbEntity
  8
0
  6
Continuous
 62
     7
370
    15
100
AcDbLine
 10
989.7043214830912
 20
337.5757198920073
 30
0.0
 11
999.7043214830911
 21
337.5757198920073
 31
0.0
  0
LINE
  5
2A1
330
1F
100
AcDbEntity
  8
0
  6
Continuous
 62
     7
370
    15
100
AcDbLine
 10
999.7043214830911
 20
337.5757198920073
 30
0.0
 11
999.7043214830911
 21
357.5757198920073
 31
0.0
  0
LINE
  5
2A2
330
1F
100
AcDbEntity
  8
0
  6
Continuous
 62
     7
370
    15
100
AcDbLine
 10
999.7043214830911
 20
357.5757198920073
 30
0.0
 11
989.7043214830912
 21
357.5757198920073
 31
0.0
  0
LINE
  5
2A3
330
1F
100
AcDbEntity
  8
0
  6
Continuous
 62
     7
370
    15
100
AcDbLine
 10
989.7043214830912
 20
357.5757198920073
 30
0.0
 11
989.7043214830912
 21
337.5757198920073
 31
0.0
  0
LINE
  5
2A4
330
1F
100
AcDbEntity
  8
0
  6
Continuous
 62
     7
370
    15
100
AcDbLine
 10
959.7043214830913
 20
337.5757198920076
 30
0.0
 11
969.7043214830912
 21
337.5757198920076
 31
0.0
  0
LINE
  5
2A5
330
1F
100
AcDbEntity
  8
0
  6
Continuous
 62
     7
370
    15
100
AcDbLine
 10
969.7043214830912
 20
337.5757198920076
 30
0.0
 11
969.7043214830912
 21
357.5757198920076
 31
0.0
  0
LINE
  5
2A6
330
1F
100
AcDbEntity
  8
0
  6
Continuous
 62
     7
370
    15
100
AcDbLine
 10
969.7043214830912
 20
357.5757198920076
 30
0.0
 11
959.7043214830913
 21
357.5757198920076
 31
0.0
  0
LINE
  5
2A7
330
1F
100
AcDbEntity
  8
0
  6
Continuous
 62
     7
370
    15
100
AcDbLine
 10
959.7043214830913
 20
357.5757198920076
 30
0.0
 11
959.7043214830913
 21
337.5757198920076
 31
0.0
  0
LINE
  5
2A8
330
1F
100
AcDbEntity
  8
0
  6
Continuous
 62
     7
370
    15
100
AcDbLine
 10
929.704321483091
 20
337.5757198920079
 30
0.0
 11
939.7043214830912
 21
337.5757198920079
 31
0.0
  0
LINE
  5
2A9
330
1F
100
AcDbEntity
  8
0
  6
Continuous
 62
     7
370
    15
100
AcDbLine
 10
939.7043214830912
 20
337.5757198920079
 30
0.0
 11
939.7043214830912
 21
357.5757198920079
 31
0.0
  0
LINE
  5
2AA
330
1F
100
AcDbEntity
  8
0
  6
Continuous
 62
     7
370
    15
100
AcDbLine
 10
939.7043214830912
 20
357.5757198920079
 30
0.0
 11
929.704321483091
 21
357.5757198920079
 31
0.0
  0
LINE
  5
2AB
330
1F
100
AcDbEntity
  8
0
  6
Continuous
 62
     7
370
    15
100
AcDbLine
 10
929.704321483091
 20
357.5757198920079
 30
0.0
 11
929.704321483091
 21
337.5757198920079
 31
0.0
  0
LINE
  5
2AC
330
1F
100
AcDbEntity
  8
0
  6
Continuous
 62
     7
370
    15
100
AcDbLine
 10
899.7043214830911
 20
337.5757198920082
 30
0.0
 11
909.7043214830913
 21
337.5757198920082
 31
0.0
  0
LINE
  5
2AD
330
1F
100
AcDbEntity
  8
0
  6
Continuous
 62
     7
370
    15
100
AcDbLine
 10
909.7043214830913
 20
337.5757198920082
 30
0.0
 11
909.7043214830913
 21
357.5757198920082
 31
0.0
  0
LINE
  5
2AE
330
1F
100
AcDbEntity
  8
0
  6
Continuous
 62
     7
370
    15
100
AcDbLine
 10
909.7043214830913
 20
357.5757198920082
 30
0.0
 11
899.7043214830911
 21
357.5757198920082
 31
0.0
  0
LINE
  5
2AF
330
1F
100
AcDbEntity
  8
0
  6
Continuous
 62
     7
370
    15
100
AcDbLine
 10
899.7043214830911
 20
357.5757198920082
 30
0.0
 11
899.7043214830911
 21
337.5757198920082
 31
0.0
  0
LINE
  5
2B0
330
1F
100
AcDbEntity
  8
0
  6
Continuous
 62
     7
370
    15
100
AcDbLine
 10
869.7043214830912
 20
337.5757198920085
 30
0.0
 11
879.7043214830912
 21
337.5757198920085
 31
0.0
  0
LINE
  5
2B1
330
1F
100
AcDbEntity
  8
0
  6
Continuous
 62
     7
370
    15
100
AcDbLine
 10
879.7043214830912
 20
337.5757198920085
 30
0.0
 11
879.704321483091
 21
357.5757198920085
 31
0.0
  0
LINE
  5
2B2
330
1F
100
AcDbEntity
  8
0
  6
Continuous
 62
     7
370
    15
100
AcDbLine
 10
879.704321483091
 20
357.5757198920085
 30
0.0
 11
869.7043214830912
 21
357.5757198920085
 31
0.0
  0
LINE
  5
2B3
330
1F
100
AcDbEntity
  8
0
  6
Continuous
 62
     7
370
    15
100
AcDbLine
 10
869.7043214830912
 20
357.5757198920085
 30
0.0
 11
869.7043214830912
 21
337.5757198920085
 31
0.0
  0
LINE
  5
2B4
330
1F
100
AcDbEntity
  8
0
  6
Continuous
 62
     7
370
    15
100
AcDbLine
 10
839.7043214830912
 20
337.5757198920088
 30
0.0
 11
849.7043214830911
 21
337.5757198920088
 31
0.0
  0
LINE
  5
2B5
330
1F
100
AcDbEntity
  8
0
  6
Continuous
 62
     7
370
    15
100
AcDbLine
 10
849.7043214830911
 20
337.5757198920088
 30
0.0
 11
849.704321483091
 21
357.5757198920089
 31
0.0
  0
LINE
  5
2B6
330
1F
100
AcDbEntity
  8
0
  6
Continuous
 62
     7
370
    15
100
AcDbLine
 10
849.704321483091
 20
357.5757198920089
 30
0.0
 11
839.7043214830912
 21
357.5757198920089
 31
0.0
  0
LINE
  5
2B7
330
1F
100
AcDbEntity
  8
0
  6
Continuous
 62
     7
370
    15
100
AcDbLine
 10
839.7043214830912
 20
357.5757198920089
 30
0.0
 11
839.7043214830912
 21
337.5757198920088
 31
0.0
  0
LINE
  5
2B8
330
1F
100
AcDbEntity
  8
0
  6
Continuous
 62
     7
370
    15
100
AcDbLine
 10
809.7043214830911
 20
337.5757198920092
 30
0.0
 11
819.7043214830911
 21
337.5757198920092
 31
0.0
  0
LINE
  5
2B9
330
1F
100
AcDbEntity
  8
0
  6
Continuous
 62
     7
370
    15
100
AcDbLine
 10
819.7043214830911
 20
337.5757198920092
 30
0.0
 11
819.7043214830911
 21
357.5757198920091
 31
0.0
  0
LINE
  5
2BA
330
1F
100
AcDbEntity
  8
0
  6
Continuous
 62
     7
370
    15
100
AcDbLine
 10
819.7043214830911
 20
357.5757198920091
 30
0.0
 11
809.7043214830911
 21
357.5757198920091
 31
0.0
  0
LINE
  5
2BB
330
1F
100
AcDbEntity
  8
0
  6
Continuous
 62
     7
370
    15
100
AcDbLine
 10
809.7043214830911
 20
357.5757198920091
 30
0.0
 11
809.7043214830911
 21
337.5757198920092
 31
0.0
  0
LINE
  5
2BC
330
1F
100
AcDbEntity
  8
0
  6
Continuous
 62
     7
370
    15
100
AcDbLine
 10
779.7043214830912
 20
337.5757198920095
 30
0.0
 11
789.7043214830912
 21
337.5757198920095
 31
0.0
  0
LINE
  5
2BD
330
1F
100
AcDbEntity
  8
0
  6
Continuous
 62
     7
370
    15
100
AcDbLine
 10
789.7043214830912
 20
337.5757198920095
 30
0.0
 11
789.7043214830911
 21
357.5757198920095
 31
0.0
  0
LINE
  5
2BE
330
1F
100
AcDbEntity
  8
0
  6
Continuous
 62
     7
370
    15
100
AcDbLine
 10
789.7043214830911
 20
357.5757198920095
 30
0.0
 11
779.7043214830912
 21
357.5757198920095
 31
0.0
  0
LINE
  5
2BF
330
1F
100
AcDbEntity
  8
0
  6
Continuous
 62
     7
370
    15
100
AcDbLine
 10
779.7043214830912
 20
357.5757198920095
 30
0.0
 11
779.7043214830912
 21
337.5757198920095
 31
0.0
  0
LINE
  5
2C0
330
1F
100
AcDbEntity
  8
0
  6
Continuous
 62
     7
370
    15
100
AcDbLine
 10
749.704321483091
 20
337.5757198920098
 30
0.0
 11
759.7043214830912
 21
337.5757198920098
 31
0.0
  0
LINE
  5
2C1
330
1F
100
AcDbEntity
  8
0
  6
Continuous
 62
     7
370
    15
100
AcDbLine
 10
759.7043214830912
 20
337.5757198920098
 30
0.0
 11
759.7043214830911
 21
357.5757198920098
 31
0.0
  0
LINE
  5
2C2
330
1F
100
AcDbEntity
  8
0
  6
Continuous
 62
     7
370
    15
100
AcDbLine
 10
759.7043214830911
 20
357.5757198920098
 30
0.0
 11
749.704321483091
 21
357.5757198920098
 31
0.0
  0
LINE
  5
2C3
330
1F
100
AcDbEntity
  8
0
  6
Continuous
 62
     7
370
    15
100
AcDbLine
 10
749.704321483091
 20
357.5757198920098
 30
0.0
 11
749.704321483091
 21
337.5757198920098
 31
0.0
  0
LINE
  5
2C4
330
1F
100
AcDbEntity
  8
0
  6
Continuous
 62
     7
370
    15
100
AcDbLine
 10
719.7043214830911
 20
337.5757198920101
 30
0.0
 11
729.7043214830911
 21
337.5757198920101
 31
0.0
  0
LINE
  5
2C5
330
1F
100
AcDbEntity
  8
0
  6
Continuous
 62
     7
370
    15
100
AcDbLine
 10
729.7043214830911
 20
337.5757198920101
 30
0.0
 11
729.7043214830911
 21
357.5757198920101
 31
0.0
  0
LINE
  5
2C6
330
1F
100
AcDbEntity
  8
0
  6
Continuous
 62
     7
370
    15
100
AcDbLine
 10
729.7043214830911
 20
357.5757198920101
 30
0.0
 11
719.7043214830911
 21
357.5757198920101
 31
0.0
  0
LINE
  5
2C7
330
1F
100
AcDbEntity
  8
0
  6
Continuous
 62
     7
370
    15
100
AcDbLine
 10
719.7043214830911
 20
357.5757198920101
 30
0.0
 11
719.7043214830911
 21
337.5757198920101
 31
0.0
  0
LINE
  5
2C8
330
1F
100
AcDbEntity
  8
0
  6
Continuous
 62
     7
370
    15
100
AcDbLine
 10
689.7043214830911
 20
337.5757198920104
 30
0.0
 11
699.704321483091
 21
337.5757198920104
 31
0.0
  0
LINE
  5
2C9
330
1F
100
AcDbEntity
  8
0
  6
Continuous
 62
     7
370
    15
100
AcDbLine
 10
699.704321483091
 20
337.5757198920104
 30
0.0
 11
699.704321483091
 21
357.5757198920104
 31
0.0
  0
LINE
  5
2CA
330
1F
100
AcDbEntity
  8
0
  6
Continuous
 62
     7
370
    15
100
AcDbLine
 10
699.704321483091
 20
357.5757198920104
 30
0.0
 11
689.7043214830911
 21
357.5757198920104
 31
0.0
  0
LINE
  5
2CB
330
1F
100
AcDbEntity
  8
0
  6
Continuous
 62
     7
370
    15
100
AcDbLine
 10
689.7043214830911
 20
357.5757198920104
 30
0.0
 11
689.7043214830911
 21
337.5757198920104
 31
0.0
  0
LINE
  5
2CC
330
1F
100
AcDbEntity
  8
0
  6
Continuous
 62
     7
370
    15
100
AcDbLine
 10
667.8629709924639
 20
332.9906896996446
 30
0.0
 11
1130.862970992464
 21
332.9906896996446
 31
0.0
  0
LINE
  5
2CD
330
1F
100
AcDbEntity
  8
0
  6
Continuous
 62
     7
370
    15
100
AcDbLine
 10
667.8629709924639
 20
332.9906896996446
 30
0.0
 11
667.8629709924639
 21
373.5930224337014
 31
0.0
  0
LINE
  5
2CE
330
1F
100
AcDbEntity
  8
0
  6
Continuous
 62
     7
370
    15
100
AcDbLine
 10
1130.862970992464
 20
332.9906896996446
 30
0.0
 11
1130.862970992464
 21
373.5930224337014
 31
0.0
  0
LINE
  5
2CF
330
1F
100
AcDbEntity
  8
0
  6
Continuous
 62
     7
370
    15
100
AcDbLine
 10
674.704321483091
 20
337.5757198920106
 30
0.0
 11
684.7043214830911
 21
337.5757198920106
 31
0.0
  0
LINE
  5
2D0
330
1F
100
AcDbEntity
  8
0
  6
Continuous
 62
     7
370
    15
100
AcDbLine
 10
684.7043214830911
 20
337.5757198920106
 30
0.0
 11
684.7043214830911
 21
357.5757198920106
 31
0.0
  0
LINE
  5
2D1
330
1F
100
AcDbEntity
  8
0
  6
Continuous
 62
     7
370
    15
100
AcDbLine
 10
684.7043214830911
 20
357.5757198920106
 30
0.0
 11
674.704321483091
 21
357.5757198920106
 31
0.0
  0
LINE
  5
2D2
330
1F
100
AcDbEntity
  8
0
  6
Continuous
 62
     7
370
    15
100
AcDbLine
 10
674.704321483091
 20
357.5757198920106
 30
0.0
 11
674.704321483091
 21
337.5757198920106
 31
0.0
  0
LINE
  5
2D3
330
1F
100
AcDbEntity
  8
0
  6
Continuous
 62
     7
370
    15
100
AcDbLine
 10
704.7043214830912
 20
337.5757198920103
 30
0.0
 11
714.7043214830912
 21
337.5757198920103
 31
0.0
  0
LINE
  5
2D4
330
1F
100
AcDbEntity
  8
0
  6
Continuous
 62
     7
370
    15
100
AcDbLine
 10
714.7043214830912
 20
337.5757198920103
 30
0.0
 11
714.7043214830912
 21
357.5757198920103
 31
0.0
  0
LINE
  5
2D5
330
1F
100
AcDbEntity
  8
0
  6
Continuous
 62
     7
370
    15
100
AcDbLine
 10
714.7043214830912
 20
357.5757198920103
 30
0.0
 11
704.7043214830912
 21
357.5757198920103
 31
0.0
  0
LINE
  5
2D6
330
1F
100
AcDbEntity
  8
0
  6
Continuous
 62
     7
370
    15
100
AcDbLine
 10
704.7043214830912
 20
357.5757198920103
 30
0.0
 11
704.7043214830912
 21
337.5757198920103
 31
0.0
  0
LINE
  5
2D7
330
1F
100
AcDbEntity
  8
0
  6
Continuous
 62
     7
370
    15
100
AcDbLine
 10
734.7043214830911
 20
337.57571989201
 30
0.0
 11
744.7043214830911
 21
337.57571989201
 31
0.0
  0
LINE
  5
2D8
330
1F
100
AcDbEntity
  8
0
  6
Continuous
 62
     7
370
    15
100
AcDbLine
 10
744.7043214830911
 20
337.57571989201
 30
0.0
 11
744.7043214830911
 21
357.5757198920099
 31
0.0
  0
LINE
  5
2D9
330
1F
100
AcDbEntity
  8
0
  6
Continuous
 62
     7
370
    15
100
AcDbLine
 10
744.7043214830911
 20
357.5757198920099
 30
0.0
 11
734.7043214830911
 21
357.5757198920099
 31
0.0
  0
LINE
  5
2DA
330
1F
100
AcDbEntity
  8
0
  6
Continuous
 62
     7
370
    15
100
AcDbLine
 10
734.7043214830911
 20
357.5757198920099
 30
0.0
 11
734.7043214830911
 21
337.57571989201
 31
0.0
  0
LINE
  5
2DB
330
1F
100
AcDbEntity
  8
0
  6
Continuous
 62
     7
370
    15
100
AcDbLine
 10
764.7043214830912
 20
337.5757198920096
 30
0.0
 11
774.7043214830912
 21
337.5757198920096
 31
0.0
  0
LINE
  5
2DC
330
1F
100
AcDbEntity
  8
0
  6
Continuous
 62
     7
370
    15
100
AcDbLine
 10
774.7043214830912
 20
337.5757198920096
 30
0.0
 11
774.704321483091
 21
357.5757198920096
 31
0.0
  0
LINE
  5
2DD
330
1F
100
AcDbEntity
  8
0
  6
Continuous
 62
     7
370
    15
100
AcDbLine
 10
774.704321483091
 20
357.5757198920096
 30
0.0
 11
764.7043214830912
 21
357.5757198920096
 31
0.0
  0
LINE
  5
2DE
330
1F
100
AcDbEntity
  8
0
  6
Continuous
 62
     7
370
    15
100
AcDbLine
 10
764.7043214830912
 20
357.5757198920096
 30
0.0
 11
764.7043214830912
 21
337.5757198920096
 31
0.0
  0
LINE
  5
2DF
330
1F
100
AcDbEntity
  8
0
  6
Continuous
 62
     7
370
    15
100
AcDbLine
 10
794.7043214830911
 20
337.5757198920093
 30
0.0
 11
804.704321483091
 21
337.5757198920093
 31
0.0
  0
LINE
  5
2E0
330
1F
100
AcDbEntity
  8
0
  6
Continuous
 62
     7
370
    15
100
AcDbLine
 10
804.704321483091
 20
337.5757198920093
 30
0.0
 11
804.704321483091
 21
357.5757198920093
 31
0.0
  0
LINE
  5
2E1
330
1F
100
AcDbEntity
  8
0
  6
Continuous
 62
     7
370
    15
100
AcDbLine
 10
804.704321483091
 20
357.5757198920093
 30
0.0
 11
794.7043214830911
 21
357.5757198920093
 31
0.0
  0
LINE
  5
2E2
330
1F
100
AcDbEntity
  8
0
  6
Continuous
 62
     7
370
    15
100
AcDbLine
 10
794.7043214830911
 20
357.5757198920093
 30
0.0
 11
794.7043214830911
 21
337.5757198920093
 31
0.0
  0
LINE
  5
2E3
330
1F
100
AcDbEntity
  8
0
  6
Continuous
 62
     7
370
    15
100
AcDbLine
 10
824.7043214830911
 20
337.575719892009
 30
0.0
 11
834.7043214830913
 21
337.575719892009
 31
0.0
  0
LINE
  5
2E4
330
1F
100
AcDbEntity
  8
0
  6
Continuous
 62
     7
370
    15
100
AcDbLine
 10
834.7043214830913
 20
337.575719892009
 30
0.0
 11
834.7043214830913
 21
357.575719892009
 31
0.0
  0
LINE
  5
2E5
330
1F
100
AcDbEntity
  8
0
  6
Continuous
 62
     7
370
    15
100
AcDbLine
 10
834.7043214830913
 20
357.575719892009
 30
0.0
 11
824.7043214830911
 21
357.575719892009
 31
0.0
  0
LINE
  5
2E6
330
1F
100
AcDbEntity
  8
0
  6
Continuous
 62
     7
370
    15
100
AcDbLine
 10
824.7043214830911
 20
357.575719892009
 30
0.0
 11
824.7043214830911
 21
337.575719892009
 31
0.0
  0
LINE
  5
2E7
330
1F
100
AcDbEntity
  8
0
  6
Continuous
 62
     7
370
    15
100
AcDbLine
 10
854.704321483091
 20
337.5757198920087
 30
0.0
 11
864.7043214830912
 21
337.5757198920087
 31
0.0
  0
LINE
  5
2E8
330
1F
100
AcDbEntity
  8
0
  6
Continuous
 62
     7
370
    15
100
AcDbLine
 10
864.7043214830912
 20
337.5757198920087
 30
0.0
 11
864.7043214830912
 21
357.5757198920087
 31
0.0
  0
LINE
  5
2E9
330
1F
100
AcDbEntity
  8
0
  6
Continuous
 62
     7
370
    15
100
AcDbLine
 10
864.7043214830912
 20
357.5757198920087
 30
0.0
 11
854.704321483091
 21
357.5757198920087
 31
0.0
  0
LINE
  5
2EA
330
1F
100
AcDbEntity
  8
0
  6
Continuous
 62
     7
370
    15
100
AcDbLine
 10
854.704321483091
 20
357.5757198920087
 30
0.0
 11
854.704321483091
 21
337.5757198920087
 31
0.0
  0
LINE
  5
2EB
330
1F
100
AcDbEntity
  8
0
  6
Continuous
 62
     7
370
    15
100
AcDbLine
 10
884.7043214830913
 20
337.5757198920084
 30
0.0
 11
894.7043214830912
 21
337.5757198920084
 31
0.0
  0
LINE
  5
2EC
330
1F
100
AcDbEntity
  8
0
  6
Continuous
 62
     7
370
    15
100
AcDbLine
 10
894.7043214830912
 20
337.5757198920084
 30
0.0
 11
894.7043214830912
 21
357.5757198920084
 31
0.0
  0
LINE
  5
2ED
330
1F
100
AcDbEntity
  8
0
  6
Continuous
 62
     7
370
    15
100
AcDbLine
 10
894.7043214830912
 20
357.5757198920084
 30
0.0
 11
884.7043214830913
 21
357.5757198920084
 31
0.0
  0
LINE
  5
2EE
330
1F
100
AcDbEntity
  8
0
  6
Continuous
 62
     7
370
    15
100
AcDbLine
 10
884.7043214830913
 20
357.5757198920084
 30
0.0
 11
884.7043214830913
 21
337.5757198920084
 31
0.0
  0
LINE
  5
2EF
330
1F
100
AcDbEntity
  8
0
  6
Continuous
 62
     7
370
    15
100
AcDbLine
 10
914.7043214830912
 20
337.575719892008
 30
0.0
 11
924.7043214830911
 21
337.575719892008
 31
0.0
  0
LINE
  5
2F0
330
1F
100
AcDbEntity
  8
0
  6
Continuous
 62
     7
370
    15
100
AcDbLine
 10
924.7043214830911
 20
337.575719892008
 30
0.0
 11
924.7043214830911
 21
357.5757198920081
 31
0.0
  0
LINE
  5
2F1
330
1F
100
AcDbEntity
  8
0
  6
Continuous
 62
     7
370
    15
100
AcDbLine
 10
924.7043214830911
 20
357.5757198920081
 30
0.0
 11
914.7043214830912
 21
357.5757198920081
 31
0.0
  0
LINE
  5
2F2
330
1F
100
AcDbEntity
  8
0
  6
Continuous
 62
     7
370
    15
100
AcDbLine
 10
914.7043214830912
 20
357.5757198920081
 30
0.0
 11
914.7043214830912
 21
337.575719892008
 31
0.0
  0
LINE
  5
2F3
330
1F
100
AcDbEntity
  8
0
  6
Continuous
 62
     7
370
    15
100
AcDbLine
 10
944.7043214830912
 20
337.5757198920078
 30
0.0
 11
954.7043214830912
 21
337.5757198920078
 31
0.0
  0
LINE
  5
2F4
330
1F
100
AcDbEntity
  8
0
  6
Continuous
 62
     7
370
    15
100
AcDbLine
 10
954.7043214830912
 20
337.5757198920078
 30
0.0
 11
954.7043214830912
 21
357.5757198920078
 31
0.0
  0
LINE
  5
2F5
330
1F
100
AcDbEntity
  8
0
  6
Continuous
 62
     7
370
    15
100
AcDbLine
 10
954.7043214830912
 20
357.5757198920078
 30
0.0
 11
944.7043214830912
 21
357.5757198920078
 31
0.0
  0
LINE
  5
2F6
330
1F
100
AcDbEntity
  8
0
  6
Continuous
 62
     7
370
    15
100
AcDbLine
 10
944.7043214830912
 20
357.5757198920078
 30
0.0
 11
944.7043214830912
 21
337.5757198920078
 31
0.0
  0
LINE
  5
2F7
330
1F
100
AcDbEntity
  8
0
  6
Continuous
 62
     7
370
    15
100
AcDbLine
 10
974.7043214830911
 20
337.5757198920074
 30
0.0
 11
984.7043214830913
 21
337.5757198920074
 31
0.0
  0
LINE
  5
2F8
330
1F
100
AcDbEntity
  8
0
  6
Continuous
 62
     7
370
    15
100
AcDbLine
 10
984.7043214830913
 20
337.5757198920074
 30
0.0
 11
984.7043214830913
 21
357.5757198920074
 31
0.0
  0
LINE
  5
2F9
330
1F
100
AcDbEntity
  8
0
  6
Continuous
 62
     7
370
    15
100
AcDbLine
 10
984.7043214830913
 20
357.5757198920074
 30
0.0
 11
974.7043214830911
 21
357.5757198920074
 31
0.0
  0
LINE
  5
2FA
330
1F
100
AcDbEntity
  8
0
  6
Continuous
 62
     7
370
    15
100
AcDbLine
 10
974.7043214830911
 20
357.5757198920074
 30
0.0
 11
974.7043214830911
 21
337.5757198920074
 31
0.0
  0
LINE
  5
2FB
330
1F
100
AcDbEntity
  8
0
  6
Continuous
 62
     7
370
    15
100
AcDbLine
 10
1004.704321483091
 20
337.5757198920071
 30
0.0
 11
1014.704321483091
 21
337.5757198920071
 31
0.0
  0
LINE
  5
2FC
330
1F
100
AcDbEntity
  8
0
  6
Continuous
 62
     7
370
    15
100
AcDbLine
 10
1014.704321483091
 20
337.5757198920071
 30
0.0
 11
1014.704321483091
 21
357.5757198920071
 31
0.0
  0
LINE
  5
2FD
330
1F
100
AcDbEntity
  8
0
  6
Continuous
 62
     7
370
    15
100
AcDbLine
 10
1014.704321483091
 20
357.5757198920071
 30
0.0
 11
1004.704321483091
 21
357.5757198920071
 31
0.0
  0
LINE
  5
2FE
330
1F
100
AcDbEntity
  8
0
  6
Continuous
 62
     7
370
    15
100
AcDbLine
 10
1004.704321483091
 20
357.5757198920071
 30
0.0
 11
1004.704321483091
 21
337.5757198920071
 31
0.0
  0
LINE
  5
2FF
330
1F
100
AcDbEntity
  8
0
  6
Continuous
 62
     7
370
    15
100
AcDbLine
 10
1034.704321483091
 20
337.5757198920068
 30
0.0
 11
1044.704321483091
 21
337.5757198920068
 31
0.0
  0
LINE
  5
300
330
1F
100
AcDbEntity
  8
0
  6
Continuous
 62
     7
370
    15
100
AcDbLine
 10
1044.704321483091
 20
337.5757198920068
 30
0.0
 11
1044.704321483091
 21
357.5757198920068
 31
0.0
  0
LINE
  5
301
330
1F
100
AcDbEntity
  8
0
  6
Continuous
 62
     7
370
    15
100
AcDbLine
 10
1044.704321483091
 20
357.5757198920068
 30
0.0
 11
1034.704321483091
 21
357.5757198920068
 31
0.0
  0
LINE
  5
302
330
1F
100
AcDbEntity
  8
0
  6
Continuous
 62
     7
370
    15
100
AcDbLine
 10
1034.704321483091
 20
357.5757198920068
 30
0.0
 11
1034.704321483091
 21
337.5757198920068
 31
0.0
  0
LINE
  5
303
330
1F
100
AcDbEntity
  8
0
  6
Continuous
 62
     7
370
    15
100
AcDbLine
 10
1064.704321483091
 20
337.5757198920065
 30
0.0
 11
1074.704321483091
 21
337.5757198920065
 31
0.0
  0
LINE
  5
304
330
1F
100
AcDbEntity
  8
0
  6
Continuous
 62
     7
370
    15
100
AcDbLine
 10
1074.704321483091
 20
337.5757198920065
 30
0.0
 11
1074.704321483091
 21
357.5757198920066
 31
0.0
  0
LINE
  5
305
330
1F
100
AcDbEntity
  8
0
  6
Continuous
 62
     7
370
    15
100
AcDbLine
 10
1074.704321483091
 20
357.5757198920066
 30
0.0
 11
1064.704321483091
 21
357.5757198920066
 31
0.0
  0
LINE
  5
306
330
1F
100
AcDbEntity
  8
0
  6
Continuous
 62
     7
370
    15
100
AcDbLine
 10
1064.704321483091
 20
357.5757198920066
 30
0.0
 11
1064.704321483091
 21
337.5757198920065
 31
0.0
  0
LINE
  5
307
330
1F
100
AcDbEntity
  8
0
  6
Continuous
 62
     7
370
    15
100
AcDbLine
 10
1094.704321483091
 20
337.5757198920062
 30
0.0
 11
1104.704321483091
 21
337.5757198920062
 31
0.0
  0
LINE
  5
308
330
1F
100
AcDbEntity
  8
0
  6
Continuous
 62
     7
370
    15
100
AcDbLine
 10
1104.704321483091
 20
337.5757198920062
 30
0.0
 11
1104.704321483091
 21
357.5757198920062
 31
0.0
  0
LINE
  5
309
330
1F
100
AcDbEntity
  8
0
  6
Continuous
 62
     7
370
    15
100
AcDbLine
 10
1104.704321483091
 20
357.5757198920062
 30
0.0
 11
1094.704321483091
 21
357.5757198920062
 31
0.0
  0
LINE
  5
30A
330
1F
100
AcDbEntity
  8
0
  6
Continuous
 62
     7
370
    15
100
AcDbLine
 10
1094.704321483091
 20
357.5757198920062
 30
0.0
 11
1094.704321483091
 21
337.5757198920062
 31
0.0
  0
ENDSEC
  0
SECTION
  2
OBJECTS
  0
DICTIONARY
  5
C
330
0
100
AcDbDictionary
281
     1
  3
ACAD_COLOR
350
336
  3
ACAD_GROUP
350
D
  3
ACAD_LAYOUT
350
1A
  3
ACAD_MATERIAL
350
30C
  3
ACAD_MLEADERSTYLE
350
34B
  3
ACAD_MLINESTYLE
350
17
  3
ACAD_PLOTSETTINGS
350
19
  3
ACAD_PLOTSTYLENAME
350
E
  3
ACAD_SCALELIST
350
339
  3
ACAD_TABLESTYLE
350
337
  3
ACAD_VISUALSTYLE
350
325
  3
ACDB_RECOMPOSE_DATA
350
373
  3
AcDbVariableDictionary
350
369
  0
DICTIONARY
  5
367
330
10
100
AcDbDictionary
280
     1
281
     1
  3
ADSK_XREC_LAYER_RECONCILED
360
368
  0
DICTIONARY
  5
336
102
{ACAD_REACTORS
330
C
102
}
330
C
100
AcDbDictionary
281
     1
  0
DICTIONARY
  5
D
102
{ACAD_REACTORS
330
C
102
}
330
C
100
AcDbDictionary
281
     1
  0
DICTIONARY
  5
1A
102
{ACAD_REACTORS
330
C
102
}
330
C
100
AcDbDictionary
281
     1
  3
Layout1
350
1E
  3
Layout2
350
26
  3
Model
350
22
  0
DICTIONARY
  5
30C
102
{ACAD_REACTORS
330
C
102
}
330
C
100
AcDbDictionary
281
     1
  3
ByBlock
350
315
  3
ByLayer
350
30D
  3
Global
350
31D
  0
DICTIONARY
  5
34B
102
{ACAD_REACTORS
330
C
102
}
330
C
100
AcDbDictionary
281
     1
  3
Standard
350
34C
  0
DICTIONARY
  5
17
102
{ACAD_REACTORS
330
C
102
}
330
C
100
AcDbDictionary
281
     1
  3
Standard
350
18
  0
DICTIONARY
  5
19
102
{ACAD_REACTORS
330
C
102
}
330
C
100
AcDbDictionary
281
     1
  0
ACDBDICTIONARYWDFLT
  5
E
102
{ACAD_REACTORS
330
C
102
}
330
C
100
AcDbDictionary
281
     1
  3
Normal
350
F
100
AcDbDictionaryWithDefault
340
F
  0
DICTIONARY
  5
339
102
{ACAD_REACTORS
330
C
102
}
330
C
100
AcDbDictionary
281
     1
  3
A0
350
33A
  3
A1
350
33B
  3
A2
350
33C
  3
A3
350
33D
  3
A4
350
33E
  3
A5
350
33F
  3
A6
350
340
  3
A7
350
341
  3
A8
350
342
  3
A9
350
343
  3
B0
350
344
  3
B1
350
345
  3
B2
350
346
  3
B3
350
347
  3
B4
350
348
  3
B5
350
349
  3
B6
350
34A
  0
DICTIONARY
  5
337
102
{ACAD_REACTORS
330
C
102
}
330
C
100
AcDbDictionary
281
     1
  3
Standard
350
338
  0
DICTIONARY
  5
325
102
{ACAD_REACTORS
330
C
102
}
330
C
100
AcDbDictionary
281
     1
  3
2dWireframe
350
32B
  3
3D Hidden
350
32D
  3
3dWireframe
350
32C
  3
Basic
350
32A
  3
Brighten
350
331
  3
ColorChange
350
335
  3
Conceptual
350
32E
  3
Dim
350
330
  3
Facepattern
350
334
  3
Flat
350
326
  3
FlatWithEdges
350
327
  3
Gouraud
350
328
  3
GouraudWithEdges
350
329
  3
Linepattern
350
333
  3
Realistic
350
32F
  3
Thicken
350
332
  0
XRECORD
  5
373
102
{ACAD_REACTORS
330
C
102
}
330
C
100
AcDbXrecord
280
     1
 90
        1
330
338
  0
DICTIONARY
  5
369
102
{ACAD_REACTORS
330
C
102
}
330
C
100
AcDbDictionary
281
     1
  3
CANNOSCALE
350
36D
  3
CMLEADERSTYLE
350
36B
  3
CTABLESTYLE
350
36A
  3
LAYEREVAL
350
36F
  3
LAYERNOTIFY
350
370
  3
LIGHTINGUNITS
350
36E
  3
MSLTSCALE
350
36C
  0
XRECORD
  5
368
102
{ACAD_REACTORS
330
367
102
}
330
367
100
AcDbXrecord
280
     1
290
     1
  0
LAYOUT
  5
1E
102
{ACAD_REACTORS
330
1A
102
}
330
1A
100
AcDbPlotSettings
  1

  2
none_device
  4

  6

 40
0.0
 41
0.0
 42
0.0
 43
0.0
 44
0.0
 45
0.0
 46
0.0
 47
0.0
 48
0.0
 49
0.0
140
0.0
141
0.0
142
1.0
143
1.0
 70
   688
 72
     0
 73
     0
 74
     5
  7

 75
    16
147
1.0
 76
     0
 77
     2
 78
   300
148
0.0
149
0.0
100
AcDbLayout
  1
Layout1
 70
     1
 71
     1
 10
0.0
 20
0.0
 11
420.0
 21
297.0
 12
0.0
 22
0.0
 32
0.0
 14
1.000000000000000E+20
 24
1.000000000000000E+20
 34
1.000000000000000E+20
 15
-1.000000000000000E+20
 25
-1.000000000000000E+20
 35
-1.000000000000000E+20
146
0.0
 13
0.0
 23
0.0
 33
0.0
 16
1.0
 26
0.0
 36
0.0
 17
0.0
 27
1.0
 37
0.0
 76
     0
330
1B
  0
LAYOUT
  5
26
102
{ACAD_REACTORS
330
1A
102
}
330
1A
100
AcDbPlotSettings
  1

  2
none_device
  4

  6

 40
0.0
 41
0.0
 42
0.0
 43
0.0
 44
0.0
 45
0.0
 46
0.0
 47
0.0
 48
0.0
 49
0.0
140
0.0
141
0.0
142
1.0
143
1.0
 70
   688
 72
     0
 73
     0
 74
     5
  7

 75
    16
147
1.0
 76
     0
 77
     2
 78
   300
148
0.0
149
0.0
100
AcDbLayout
  1
Layout2
 70
     1
 71
     2
 10
0.0
 20
0.0
 11
0.0
 21
0.0
 12
0.0
 22
0.0
 32
0.0
 14
0.0
 24
0.0
 34
0.0
 15
0.0
 25
0.0
 35
0.0
146
0.0
 13
0.0
 23
0.0
 33
0.0
 16
1.0
 26
0.0
 36
0.0
 17
0.0
 27
1.0
 37
0.0
 76
     0
330
23
  0
LAYOUT
  5
22
102
{ACAD_REACTORS
330
1A
102
}
330
1A
100
AcDbPlotSettings
  1

  2
none_device
  4

  6

 40
0.0
 41
0.0
 42
0.0
 43
0.0
 44
0.0
 45
0.0
 46
0.0
 47
0.0
 48
0.0
 49
0.0
140
0.0
141
0.0
142
1.0
143
1.0
 70
  1712
 72
     0
 73
     0
 74
     0
  7

 75
     0
147
1.0
 76
     0
 77
     2
 78
   300
148
0.0
149
0.0
100
AcDbLayout
  1
Model
 70
     1
 71
     0
 10
0.0
 20
0.0
 11
1397.0
 21
1079.5
 12
0.0
 22
0.0
 32
0.0
 14
0.0
 24
0.0
 34
0.0
 15
1397.0
 25
1079.5
 35
0.0
146
0.0
 13
0.0
 23
0.0
 33
0.0
 16
1.0
 26
0.0
 36
0.0
 17
0.0
 27
1.0
 37
0.0
 76
     0
330
1F
331
29
  0
MATERIAL
  5
315
102
{ACAD_XDICTIONARY
360
316
102
}
102
{ACAD_REACTORS
330
30C
102
}
330
30C
100
AcDbMaterial
  1
ByBlock
 72
     0
 43
0.0008202099737533
 43
0.0
 43
0.0
 43
0.0
 43
0.0
 43
0.0008202099737533
 43
0.0
 43
0.0
 43
0.0
 43
0.0
 43
1.0
 43
0.0
 43
0.0
 43
0.0
 43
0.0
 43
1.0
 77
     0
 47
0.0008202099737533
 47
0.0
 47
0.0
 47
0.0
 47
0.0
 47
0.0008202099737533
 47
0.0
 47
0.0
 47
0.0
 47
0.0
 47
1.0
 47
0.0
 47
0.0
 47
0.0
 47
0.0
 47
1.0
171
     0
 49
0.0008202099737533
 49
0.0
 49
0.0
 49
0.0
 49
0.0
 49
0.0008202099737533
 49
0.0
 49
0.0
 49
0.0
 49
0.0
 49
1.0
 49
0.0
 49
0.0
 49
0.0
 49
0.0
 49
1.0
175
     0
142
0.0008202099737533
142
0.0
142
0.0
142
0.0
142
0.0
142
0.0008202099737533
142
0.0
142
0.0
142
0.0
142
0.0
142
1.0
142
0.0
142
0.0
142
0.0
142
0.0
142
1.0
179
     0
144
0.0008202099737533
144
0.0
144
0.0
144
0.0
144
0.0
144
0.0008202099737533
144
0.0
144
0.0
144
0.0
144
0.0
144
1.0
144
0.0
144
0.0
144
0.0
144
0.0
144
1.0
147
0.0008202099737533
147
0.0
147
0.0
147
0.0
147
0.0
147
0.0008202099737533
147
0.0
147
0.0
147
0.0
147
0.0
147
1.0
147
0.0
147
0.0
147
0.0
147
0.0
147
1.0
  0
MATERIAL
  5
30D
102
{ACAD_XDICTIONARY
360
30E
102
}
102
{ACAD_REACTORS
330
30C
102
}
330
30C
100
AcDbMaterial
  1
ByLayer
 72
     0
 43
0.0008202099737533
 43
0.0
 43
0.0
 43
0.0
 43
0.0
 43
0.0008202099737533
 43
0.0
 43
0.0
 43
0.0
 43
0.0
 43
1.0
 43
0.0
 43
0.0
 43
0.0
 43
0.0
 43
1.0
 77
     0
 47
0.0008202099737533
 47
0.0
 47
0.0
 47
0.0
 47
0.0
 47
0.0008202099737533
 47
0.0
 47
0.0
 47
0.0
 47
0.0
 47
1.0
 47
0.0
 47
0.0
 47
0.0
 47
0.0
 47
1.0
171
     0
 49
0.0008202099737533
 49
0.0
 49
0.0
 49
0.0
 49
0.0
 49
0.0008202099737533
 49
0.0
 49
0.0
 49
0.0
 49
0.0
 49
1.0
 49
0.0
 49
0.0
 49
0.0
 49
0.0
 49
1.0
175
     0
142
0.0008202099737533
142
0.0
142
0.0
142
0.0
142
0.0
142
0.0008202099737533
142
0.0
142
0.0
142
0.0
142
0.0
142
1.0
142
0.0
142
0.0
142
0.0
142
0.0
142
1.0
179
     0
144
0.0008202099737533
144
0.0
144
0.0
144
0.0
144
0.0
144
0.0008202099737533
144
0.0
144
0.0
144
0.0
144
0.0
144
1.0
144
0.0
144
0.0
144
0.0
144
0.0
144
1.0
147
0.0008202099737533
147
0.0
147
0.0
147
0.0
147
0.0
147
0.0008202099737533
147
0.0
147
0.0
147
0.0
147
0.0
147
1.0
147
0.0
147
0.0
147
0.0
147
0.0
147
1.0
  0
MATERIAL
  5
31D
102
{ACAD_XDICTIONARY
360
31E
102
}
102
{ACAD_REACTORS
330
30C
102
}
330
30C
100
AcDbMaterial
  1
Global
 72
     0
 43
0.0008202099737533
 43
0.0
 43
0.0
 43
0.0
 43
0.0
 43
0.0008202099737533
 43
0.0
 43
0.0
 43
0.0
 43
0.0
 43
1.0
 43
0.0
 43
0.0
 43
0.0
 43
0.0
 43
1.0
 77
     0
 47
0.0008202099737533
 47
0.0
 47
0.0
 47
0.0
 47
0.0
 47
0.0008202099737533
 47
0.0
 47
0.0
 47
0.0
 47
0.0
 47
1.0
 47
0.0
 47
0.0
 47
0.0
 47
0.0
 47
1.0
171
     0
 49
0.0008202099737533
 49
0.0
 49
0.0
 49
0.0
 49
0.0
 49
0.0008202099737533
 49
0.0
 49
0.0
 49
0.0
 49
0.0
 49
1.0
 49
0.0
 49
0.0
 49
0.0
 49
0.0
 49
1.0
175
     0
142
0.0008202099737533
142
0.0
142
0.0
142
0.0
142
0.0
142
0.0008202099737533
142
0.0
142
0.0
142
0.0
142
0.0
142
1.0
142
0.0
142
0.0
142
0.0
142
0.0
142
1.0
179
     0
144
0.0008202099737533
144
0.0
144
0.0
144
0.0
144
0.0
144
0.0008202099737533
144
0.0
144
0.0
144
0.0
144
0.0
144
1.0
144
0.0
144
0.0
144
0.0
144
0.0
144
1.0
147
0.0008202099737533
147
0.0
147
0.0
147
0.0
147
0.0
147
0.0008202099737533
147
0.0
147
0.0
147
0.0
147
0.0
147
1.0
147
0.0
147
0.0
147
0.0
147
0.0
147
1.0
  0
MLEADERSTYLE
  5
34C
102
{ACAD_REACTORS
330
34B
102
}
330
34B
100
AcDbMLeaderStyle
170
     2
171
     1
172
     0
 90
        2
 40
0.0
 41
0.0
173
     1
 91
-1056964608
340
14
 92
       -2
290
     1
 42
2.0
291
     1
 43
0.36
  3
Standard
 44
4.0
300

342
11
174
     1
178
     6
175
     1
176
     0
 93
-1056964608
 45
4.0
292
     0
297
     0
 46
4.0
 94
-1056964608
 47
1.0
 49
1.0
140
1.0
293
     1
141
0.0
294
     1
177
     0
142
1.0
295
     1
296
     0
143
0.125
1001
ACAD_MLEADERVER
1070
     2
  0
MLINESTYLE
  5
18
102
{ACAD_REACTORS
330
17
102
}
330
17
100
AcDbMlineStyle
  2
STANDARD
 70
     0
  3

 62
   256
 51
90.0
 52
90.0
 71
     2
 49
0.5
 62
   256
  6
BYLAYER
 49
-0.5
 62
   256
  6
BYLAYER
  0
ACDBPLACEHOLDER
  5
F
102
{ACAD_REACTORS
330
E
102
}
330
E
  0
SCALE
  5
33A
102
{ACAD_REACTORS
330
339
102
}
330
339
100
AcDbScale
 70
     0
300
1:1
140
1.0
141
1.0
290
     1
  0
SCALE
  5
33B
102
{ACAD_REACTORS
330
339
102
}
330
339
100
AcDbScale
 70
     0
300
1:2
140
1.0
141
2.0
290
     0
  0
SCALE
  5
33C
102
{ACAD_REACTORS
330
339
102
}
330
339
100
AcDbScale
 70
     0
300
1:4
140
1.0
141
4.0
290
     0
  0
SCALE
  5
33D
102
{ACAD_REACTORS
330
339
102
}
330
339
100
AcDbScale
 70
     0
300
1:5
140
1.0
141
5.0
290
     0
  0
SCALE
  5
33E
102
{ACAD_REACTORS
330
339
102
}
330
339
100
AcDbScale
 70
     0
300
1:8
140
1.0
141
8.0
290
     0
  0
SCALE
  5
33F
102
{ACAD_REACTORS
330
339
102
}
330
339
100
AcDbScale
 70
     0
300
1:10
140
1.0
141
10.0
290
     0
  0
SCALE
  5
340
102
{ACAD_REACTORS
330
339
102
}
330
339
100
AcDbScale
 70
     0
300
1:16
140
1.0
141
16.0
290
     0
  0
SCALE
  5
341
102
{ACAD_REACTORS
330
339
102
}
330
339
100
AcDbScale
 70
     0
300
1:20
140
1.0
141
20.0
290
     0
  0
SCALE
  5
342
102
{ACAD_REACTORS
330
339
102
}
330
339
100
AcDbScale
 70
     0
300
1:30
140
1.0
141
30.0
290
     0
  0
SCALE
  5
343
102
{ACAD_REACTORS
330
339
102
}
330
339
100
AcDbScale
 70
     0
300
1:40
140
1.0
141
40.0
290
     0
  0
SCALE
  5
344
102
{ACAD_REACTORS
330
339
102
}
330
339
100
AcDbScale
 70
     0
300
1:50
140
1.0
141
50.0
290
     0
  0
SCALE
  5
345
102
{ACAD_REACTORS
330
339
102
}
330
339
100
AcDbScale
 70
     0
300
1:100
140
1.0
141
100.0
290
     0
  0
SCALE
  5
346
102
{ACAD_REACTORS
330
339
102
}
330
339
100
AcDbScale
 70
     0
300
2:1
140
2.0
141
1.0
290
     0
  0
SCALE
  5
347
102
{ACAD_REACTORS
330
339
102
}
330
339
100
AcDbScale
 70
     0
300
4:1
140
4.0
141
1.0
290
     0
  0
SCALE
  5
348
102
{ACAD_REACTORS
330
339
102
}
330
339
100
AcDbScale
 70
     0
300
8:1
140
8.0
141
1.0
290
     0
  0
SCALE
  5
349
102
{ACAD_REACTORS
330
339
102
}
330
339
100
AcDbScale
 70
     0
300
10:1
140
10.0
141
1.0
290
     0
  0
SCALE
  5
34A
102
{ACAD_REACTORS
330
339
102
}
330
339
100
AcDbScale
 70
     0
300
100:1
140
100.0
141
1.0
290
     0
  0
TABLESTYLE
  5
338
102
{ACAD_XDICTIONARY
360
371
102
}
102
{ACAD_REACTORS
330
337
102
}
330
337
100
AcDbTableStyle
  3
Standard
 70
     0
 71
     0
 40
1.5
 41
1.5
280
     0
281
     0
  7
Standard
140
4.5
170
     2
 62
     0
 63
     7
283
     0
 90
      512
 91
        0
  1

274
    -2
284
     1
 64
     0
275
    -2
285
     1
 65
     0
276
    -2
286
     1
 66
     0
277
    -2
287
     1
 67
     0
278
    -2
288
     1
 68
     0
279
    -2
289
     1
 69
     0
  7
Standard
140
6.0
170
     5
 62
     0
 63
     7
283
     0
 90
      512
 91
        0
  1

274
    -2
284
     1
 64
     0
275
    -2
285
     1
 65
     0
276
    -2
286
     1
 66
     0
277
    -2
287
     1
 67
     0
278
    -2
288
     1
 68
     0
279
    -2
289
     1
 69
     0
  7
Standard
140
4.5
170
     5
 62
     0
 63
     7
283
     0
 90
      512
 91
        0
  1

274
    -2
284
     1
 64
     0
275
    -2
285
     1
 65
     0
276
    -2
286
     1
 66
     0
277
    -2
287
     1
 67
     0
278
    -2
288
     1
 68
     0
279
    -2
289
     1
 69
     0
  0
VISUALSTYLE
  5
32B
102
{ACAD_REACTORS
330
325
102
}
330
325
100
AcDbVisualStyle
  2
2dWireframe
 70
     4
 71
     0
 72
     2
 73
     0
 90
        0
 40
-0.6
 41
-30.0
 62
     5
 63
     7
421
 16777215
 74
     1
 91
        4
 64
     7
 65
   257
 75
     1
175
     1
 42
1.0
 92
        0
 66
   257
 43
1.0
 76
     1
 77
     6
 78
     2
 67
     7
 79
     5
170
     0
171
     0
290
     0
174
     0
 93
        1
 44
0.0
173
     0
291
     0
 45
0.0
  0
VISUALSTYLE
  5
32D
102
{ACAD_REACTORS
330
325
102
}
330
325
100
AcDbVisualStyle
  2
3D Hidden
 70
     6
 71
     1
 72
     2
 73
     2
 90
        0
 40
-0.6
 41
-30.0
 62
     5
 63
     7
421
 16777215
 74
     2
 91
        2
 64
     7
 65
   257
 75
     2
175
     1
 42
40.0
 92
        0
 66
   257
 43
1.0
 76
     1
 77
     6
 78
     2
 67
     7
 79
     3
170
     0
171
     0
290
     0
174
     0
 93
        1
 44
0.0
173
     0
291
     0
 45
0.0
  0
VISUALSTYLE
  5
32C
102
{ACAD_REACTORS
330
325
102
}
330
325
100
AcDbVisualStyle
  2
3dWireframe
 70
     5
 71
     0
 72
     2
 73
     0
 90
        0
 40
-0.6
 41
-30.0
 62
     5
 63
     7
421
 16777215
 74
     1
 91
        4
 64
     7
 65
   257
 75
     1
175
     1
 42
1.0
 92
        0
 66
   257
 43
1.0
 76
     1
 77
     6
 78
     2
 67
     7
 79
     5
170
     0
171
     0
290
     0
174
     0
 93
        1
 44
0.0
173
     0
291
     0
 45
0.0
  0
VISUALSTYLE
  5
32A
102
{ACAD_REACTORS
330
325
102
}
330
325
100
AcDbVisualStyle
  2
Basic
 70
     7
 71
     1
 72
     0
 73
     1
 90
        0
 40
-0.6
 41
-30.0
 62
     5
 63
     7
421
 16777215
 74
     0
 91
        4
 64
     7
 65
   257
 75
     1
175
     1
 42
1.0
 92
        8
 66
     7
 43
1.0
 76
     1
 77
     6
 78
     2
 67
     7
 79
     5
170
     0
171
     0
290
     0
174
     0
 93
        1
 44
0.0
173
     0
291
     1
 45
0.0
  0
VISUALSTYLE
  5
331
102
{ACAD_REACTORS
330
325
102
}
330
325
100
AcDbVisualStyle
  2
Brighten
 70
    12
 71
     2
 72
     2
 73
     0
 90
        0
 40
-0.6
 41
-30.0
 62
     5
 63
     7
421
 16777215
 74
     1
 91
        4
 64
     7
 65
   257
 75
     1
175
     1
 42
1.0
 92
        8
 66
     7
 43
1.0
 76
     1
 77
     6
 78
     2
 67
     7
 79
     5
170
     0
171
     0
290
     0
174
     0
 93
        1
 44
50.0
173
     0
291
     1
 45
0.0
  0
VISUALSTYLE
  5
335
102
{ACAD_REACTORS
330
325
102
}
330
325
100
AcDbVisualStyle
  2
ColorChange
 70
    16
 71
     2
 72
     2
 73
     3
 90
        0
 40
-0.6
 41
-30.0
 62
     5
 63
     8
421
  8421504
 74
     1
 91
        4
 64
     7
 65
   257
 75
     1
175
     1
 42
1.0
 92
        8
 66
     8
424
  8421504
 43
1.0
 76
     1
 77
     6
 78
     2
 67
     7
 79
     5
170
     0
171
     0
290
     0
174
     0
 93
        1
 44
0.0
173
     0
291
     1
 45
0.0
  0
VISUALSTYLE
  5
32E
102
{ACAD_REACTORS
330
325
102
}
330
325
100
AcDbVisualStyle
  2
Conceptual
 70
     9
 71
     3
 72
     2
 73
     0
 90
        0
 40
-0.6
 41
-30.0
 62
     5
 63
     7
421
 16777215
 74
     2
 91
        2
 64
     7
 65
   257
 75
     1
175
     1
 42
40.0
 92
        8
 66
     7
 43
1.0
 76
     1
 77
     6
 78
     2
 67
     7
 79
     3
170
     0
171
     0
290
     0
174
     0
 93
        1
 44
0.0
173
     0
291
     0
 45
0.0
  0
VISUALSTYLE
  5
330
102
{ACAD_REACTORS
330
325
102
}
330
325
100
AcDbVisualStyle
  2
Dim
 70
    11
 71
     2
 72
     2
 73
     0
 90
        0
 40
-0.6
 41
-30.0
 62
     5
 63
     7
421
 16777215
 74
     1
 91
        4
 64
     7
 65
   257
 75
     1
175
     1
 42
1.0
 92
        8
 66
     7
 43
1.0
 76
     1
 77
     6
 78
     2
 67
     7
 79
     5
170
     0
171
     0
290
     0
174
     0
 93
        1
 44
-50.0
173
     0
291
     1
 45
0.0
  0
VISUALSTYLE
  5
334
102
{ACAD_REACTORS
330
325
102
}
330
325
100
AcDbVisualStyle
  2
Facepattern
 70
    15
 71
     2
 72
     2
 73
     0
 90
        0
 40
-0.6
 41
-30.0
 62
     5
 63
     7
421
 16777215
 74
     1
 91
        4
 64
     7
 65
   257
 75
     1
175
     1
 42
1.0
 92
        8
 66
     7
 43
1.0
 76
     1
 77
     6
 78
     2
 67
     7
 79
     5
170
     0
171
     0
290
     0
174
     0
 93
        1
 44
0.0
173
     0
291
     1
 45
0.0
  0
VISUALSTYLE
  5
326
102
{ACAD_REACTORS
330
325
102
}
330
325
100
AcDbVisualStyle
  2
Flat
 70
     0
 71
     2
 72
     1
 73
     1
 90
        2
 40
-0.6
 41
30.0
 62
     5
 63
     7
421
 16777215
 74
     0
 91
        4
 64
     7
 65
   257
 75
     1
175
     1
 42
1.0
 92
        8
 66
     7
 43
1.0
 76
     1
 77
     6
 78
     2
 67
     7
 79
     5
170
     0
171
     0
290
     0
174
     0
 93
       13
 44
0.0
173
     0
291
     1
 45
0.0
  0
VISUALSTYLE
  5
327
102
{ACAD_REACTORS
330
325
102
}
330
325
100
AcDbVisualStyle
  2
FlatWithEdges
 70
     1
 71
     2
 72
     1
 73
     1
 90
        2
 40
-0.6
 41
30.0
 62
     5
 63
     7
421
 16777215
 74
     1
 91
        4
 64
     7
 65
   257
 75
     1
175
     1
 42
1.0
 92
        0
 66
   257
 43
1.0
 76
     1
 77
     6
 78
     2
 67
     7
 79
     5
170
     0
171
     0
290
     0
174
     0
 93
       13
 44
0.0
173
     0
291
     1
 45
0.0
  0
VISUALSTYLE
  5
328
102
{ACAD_REACTORS
330
325
102
}
330
325
100
AcDbVisualStyle
  2
Gouraud
 70
     2
 71
     2
 72
     2
 73
     1
 90
        2
 40
-0.6
 41
30.0
 62
     5
 63
     7
421
 16777215
 74
     0
 91
        4
 64
     7
 65
   257
 75
     1
175
     1
 42
1.0
 92
        0
 66
     7
 43
1.0
 76
     1
 77
     6
 78
     2
 67
     7
 79
     5
170
     0
171
     0
290
     0
174
     0
 93
       13
 44
0.0
173
     0
291
     1
 45
0.0
  0
VISUALSTYLE
  5
329
102
{ACAD_REACTORS
330
325
102
}
330
325
100
AcDbVisualStyle
  2
GouraudWithEdges
 70
     3
 71
     2
 72
     2
 73
     1
 90
        2
 40
-0.6
 41
30.0
 62
     5
 63
     7
421
 16777215
 74
     1
 91
        4
 64
     7
 65
   257
 75
     1
175
     1
 42
1.0
 92
        0
 66
   257
 43
1.0
 76
     1
 77
     6
 78
     2
 67
     7
 79
     5
170
     0
171
     0
290
     0
174
     0
 93
       13
 44
0.0
173
     0
291
     1
 45
0.0
  0
VISUALSTYLE
  5
333
102
{ACAD_REACTORS
330
325
102
}
330
325
100
AcDbVisualStyle
  2
Linepattern
 70
    14
 71
     2
 72
     2
 73
     0
 90
        0
 40
-0.6
 41
-30.0
 62
     5
 63
     7
421
 16777215
 74
     1
 91
        4
 64
     7
 65
   257
 75
     7
175
     7
 42
1.0
 92
        8
 66
     7
 43
1.0
 76
     1
 77
     6
 78
     2
 67
     7
 79
     5
170
     0
171
     0
290
     0
174
     0
 93
        1
 44
0.0
173
     0
291
     1
 45
0.0
  0
VISUALSTYLE
  5
32F
102
{ACAD_REACTORS
330
325
102
}
330
325
100
AcDbVisualStyle
  2
Realistic
 70
     8
 71
     2
 72
     2
 73
     0
 90
        0
 40
-0.6
 41
-30.0
 62
     5
 63
     7
421
 16777215
 74
     1
 91
        0
 64
     7
 65
   257
 75
     1
175
     1
 42
1.0
 92
        8
 66
     8
424
  7895160
 43
1.0
 76
     1
 77
     6
 78
     2
 67
     7
 79
     5
170
     0
171
     0
290
     0
174
     0
 93
       13
 44
0.0
173
     0
291
     0
 45
0.0
  0
VISUALSTYLE
  5
332
102
{ACAD_REACTORS
330
325
102
}
330
325
100
AcDbVisualStyle
  2
Thicken
 70
    13
 71
     2
 72
     2
 73
     0
 90
        0
 40
-0.6
 41
-30.0
 62
     5
 63
     7
421
 16777215
 74
     1
 91
        4
 64
     7
 65
   257
 75
     1
175
     1
 42
1.0
 92
       12
 66
     7
 43
1.0
 76
     1
 77
     6
 78
     2
 67
     7
 79
     5
170
     0
171
     0
290
     0
174
     0
 93
        1
 44
0.0
173
     0
291
     1
 45
0.0
  0
DICTIONARYVAR
  5
36D
102
{ACAD_REACTORS
330
369
102
}
330
369
100
DictionaryVariables
280
     0
  1
1:1
  0
DICTIONARYVAR
  5
36B
102
{ACAD_REACTORS
330
369
102
}
330
369
100
DictionaryVariables
280
     0
  1
STANDARD
  0
DICTIONARYVAR
  5
36A
102
{ACAD_REACTORS
330
369
102
}
330
369
100
DictionaryVariables
280
     0
  1
STANDARD
  0
DICTIONARYVAR
  5
36F
102
{ACAD_REACTORS
330
369
102
}
330
369
100
DictionaryVariables
280
     0
  1
1
  0
DICTIONARYVAR
  5
370
102
{ACAD_REACTORS
330
369
102
}
330
369
100
DictionaryVariables
280
     0
  1
15
  0
DICTIONARYVAR
  5
36E
102
{ACAD_REACTORS
330
369
102
}
330
369
100
DictionaryVariables
280
     0
  1
0
  0
DICTIONARYVAR
  5
36C
102
{ACAD_REACTORS
330
369
102
}
330
369
100
DictionaryVariables
280
     0
  1
0
  0
DICTIONARY
  5
316
330
315
100
AcDbDictionary
280
     1
281
     1
  3
BUMPTILE
360
318
  3
DIFFUSETILE
360
317
  3
OPACITYTILE
360
31B
  3
REFLECTIONTILE
360
31A
  3
REFRACTIONTILE
360
31C
  3
SPECULARTILE
360
319
  0
DICTIONARY
  5
30E
330
30D
100
AcDbDictionary
280
     1
281
     1
  3
BUMPTILE
360
310
  3
DIFFUSETILE
360
30F
  3
OPACITYTILE
360
313
  3
REFLECTIONTILE
360
312
  3
REFRACTIONTILE
360
314
  3
SPECULARTILE
360
311
  0
DICTIONARY
  5
31E
330
31D
100
AcDbDictionary
280
     1
281
     1
  3
BUMPTILE
360
320
  3
DIFFUSETILE
360
31F
  3
OPACITYTILE
360
323
  3
REFLECTIONTILE
360
322
  3
REFRACTIONTILE
360
324
  3
SPECULARTILE
360
321
  0
DICTIONARY
  5
371
330
338
100
AcDbDictionary
280
     1
281
     1
  3
ACAD_ROUNDTRIP_2008_TABLESTYLE_CELLSTYLEMAP
360
372
  0
XRECORD
  5
318
102
{ACAD_REACTORS
330
316
102
}
330
316
100
AcDbXrecord
280
     1
270
     1
271
     1
  0
XRECORD
  5
317
102
{ACAD_REACTORS
330
316
102
}
330
316
100
AcDbXrecord
280
     1
270
     1
271
     1
  0
XRECORD
  5
31B
102
{ACAD_REACTORS
330
316
102
}
330
316
100
AcDbXrecord
280
     1
270
     1
271
     1
  0
XRECORD
  5
31A
102
{ACAD_REACTORS
330
316
102
}
330
316
100
AcDbXrecord
280
     1
270
     1
271
     1
  0
XRECORD
  5
31C
102
{ACAD_REACTORS
330
316
102
}
330
316
100
AcDbXrecord
280
     1
270
     1
271
     1
  0
XRECORD
  5
319
102
{ACAD_REACTORS
330
316
102
}
330
316
100
AcDbXrecord
280
     1
270
     1
271
     1
  0
XRECORD
  5
310
102
{ACAD_REACTORS
330
30E
102
}
330
30E
100
AcDbXrecord
280
     1
270
     1
271
     1
  0
XRECORD
  5
30F
102
{ACAD_REACTORS
330
30E
102
}
330
30E
100
AcDbXrecord
280
     1
270
     1
271
     1
  0
XRECORD
  5
313
102
{ACAD_REACTORS
330
30E
102
}
330
30E
100
AcDbXrecord
280
     1
270
     1
271
     1
  0
XRECORD
  5
312
102
{ACAD_REACTORS
330
30E
102
}
330
30E
100
AcDbXrecord
280
     1
270
     1
271
     1
  0
XRECORD
  5
314
102
{ACAD_REACTORS
330
30E
102
}
330
30E
100
AcDbXrecord
280
     1
270
     1
271
     1
  0
XRECORD
  5
311
102
{ACAD_REACTORS
330
30E
102
}
330
30E
100
AcDbXrecord
280
     1
270
     1
271
     1
  0
XRECORD
  5
320
102
{ACAD_REACTORS
330
31E
102
}
330
31E
100
AcDbXrecord
280
     1
270
     1
271
     1
  0
XRECORD
  5
31F
102
{ACAD_REACTORS
330
31E
102
}
330
31E
100
AcDbXrecord
280
     1
270
     1
271
     1
  0
XRECORD
  5
323
102
{ACAD_REACTORS
330
31E
102
}
330
31E
100
AcDbXrecord
280
     1
270
     1
271
     1
  0
XRECORD
  5
322
102
{ACAD_REACTORS
330
31E
102
}
330
31E
100
AcDbXrecord
280
     1
270
     1
271
     1
  0
XRECORD
  5
324
102
{ACAD_REACTORS
330
31E
102
}
330
31E
100
AcDbXrecord
280
     1
270
     1
271
     1
  0
XRECORD
  5
321
102
{ACAD_REACTORS
330
31E
102
}
330
31E
100
AcDbXrecord
280
     1
270
     1
271
     1
  0
CELLSTYLEMAP
  5
372
102
{ACAD_REACTORS
330
371
102
}
330
371
100
AcDbCellStyleMap
 90
        3
300
CELLSTYLE
  1
TABLEFORMAT_BEGIN
 90
        5
170
     1
 91
        0
 92
    32768
 62
   257
 93
        1
300
CONTENTFORMAT
  1
CONTENTFORMAT_BEGIN
 90
        0
 91
        0
 92
      512
 93
        0
300

 40
0.0
140
1.0
 94
        5
 62
     0
340
11
144
6.0
309
CONTENTFORMAT_END
171
     1
301
MARGIN
  1
CELLMARGIN_BEGIN
 40
1.5
 40
1.5
 40
1.5
 40
1.5
 40
4.5
 40
4.5
309
CELLMARGIN_END
 94
        6
 95
        1
302
GRIDFORMAT
  1
GRIDFORMAT_BEGIN
 90
        0
 91
        1
 62
     0
 92
       -2
340
0
 93
        0
 40
1.125
309
GRIDFORMAT_END
 95
        2
302
GRIDFORMAT
  1
GRIDFORMAT_BEGIN
 90
        0
 91
        1
 62
     0
 92
       -2
340
0
 93
        0
 40
1.125
309
GRIDFORMAT_END
 95
        4
302
GRIDFORMAT
  1
GRIDFORMAT_BEGIN
 90
        0
 91
        1
 62
     0
 92
       -2
340
0
 93
        0
 40
1.125
309
GRIDFORMAT_END
 95
        8
302
GRIDFORMAT
  1
GRIDFORMAT_BEGIN
 90
        0
 91
        1
 62
     0
 92
       -2
340
0
 93
        0
 40
1.125
309
GRIDFORMAT_END
 95
       16
302
GRIDFORMAT
  1
GRIDFORMAT_BEGIN
 90
        0
 91
        1
 62
     0
 92
       -2
340
0
 93
        0
 40
1.125
309
GRIDFORMAT_END
 95
       32
302
GRIDFORMAT
  1
GRIDFORMAT_BEGIN
 90
        0
 91
        1
 62
     0
 92
       -2
340
0
 93
        0
 40
1.125
309
GRIDFORMAT_END
309
TABLEFORMAT_END
  1
CELLSTYLE_BEGIN
 90
        1
 91
        1
300
_TITLE
309
CELLSTYLE_END
300
CELLSTYLE
  1
TABLEFORMAT_BEGIN
 90
        5
170
     1
 91
        0
 92
        0
 62
   257
 93
        1
300
CONTENTFORMAT
  1
CONTENTFORMAT_BEGIN
 90
        0
 91
        0
 92
      512
 93
        0
300

 40
0.0
140
1.0
 94
        5
 62
     0
340
11
144
4.5
309
CONTENTFORMAT_END
171
     1
301
MARGIN
  1
CELLMARGIN_BEGIN
 40
1.5
 40
1.5
 40
1.5
 40
1.5
 40
4.5
 40
4.5
309
CELLMARGIN_END
 94
        6
 95
        1
302
GRIDFORMAT
  1
GRIDFORMAT_BEGIN
 90
        0
 91
        1
 62
     0
 92
       -2
340
0
 93
        0
 40
1.125
309
GRIDFORMAT_END
 95
        2
302
GRIDFORMAT
  1
GRIDFORMAT_BEGIN
 90
        0
 91
        1
 62
     0
 92
       -2
340
0
 93
        0
 40
1.125
309
GRIDFORMAT_END
 95
        4
302
GRIDFORMAT
  1
GRIDFORMAT_BEGIN
 90
        0
 91
        1
 62
     0
 92
       -2
340
0
 93
        0
 40
1.125
309
GRIDFORMAT_END
 95
        8
302
GRIDFORMAT
  1
GRIDFORMAT_BEGIN
 90
        0
 91
        1
 62
     0
 92
       -2
340
0
 93
        0
 40
1.125
309
GRIDFORMAT_END
 95
       16
302
GRIDFORMAT
  1
GRIDFORMAT_BEGIN
 90
        0
 91
        1
 62
     0
 92
       -2
340
0
 93
        0
 40
1.125
309
GRIDFORMAT_END
 95
       32
302
GRIDFORMAT
  1
GRIDFORMAT_BEGIN
 90
        0
 91
        1
 62
     0
 92
       -2
340
0
 93
        0
 40
1.125
309
GRIDFORMAT_END
309
TABLEFORMAT_END
  1
CELLSTYLE_BEGIN
 90
        2
 91
        1
300
_HEADER
309
CELLSTYLE_END
300
CELLSTYLE
  1
TABLEFORMAT_BEGIN
 90
        5
170
     1
 91
        0
 92
        0
 62
   257
 93
        1
300
CONTENTFORMAT
  1
CONTENTFORMAT_BEGIN
 90
        0
 91
        0
 92
      512
 93
        0
300

 40
0.0
140
1.0
 94
        2
 62
     0
340
11
144
4.5
309
CONTENTFORMAT_END
171
     1
301
MARGIN
  1
CELLMARGIN_BEGIN
 40
1.5
 40
1.5
 40
1.5
 40
1.5
 40
4.5
 40
4.5
309
CELLMARGIN_END
 94
        6
 95
        1
302
GRIDFORMAT
  1
GRIDFORMAT_BEGIN
 90
        0
 91
        1
 62
     0
 92
       -2
340
0
 93
        0
 40
1.125
309
GRIDFORMAT_END
 95
        2
302
GRIDFORMAT
  1
GRIDFORMAT_BEGIN
 90
        0
 91
        1
 62
     0
 92
       -2
340
0
 93
        0
 40
1.125
309
GRIDFORMAT_END
 95
        4
302
GRIDFORMAT
  1
GRIDFORMAT_BEGIN
 90
        0
 91
        1
 62
     0
 92
       -2
340
0
 93
        0
 40
1.125
309
GRIDFORMAT_END
 95
        8
302
GRIDFORMAT
  1
GRIDFORMAT_BEGIN
 90
        0
 91
        1
 62
     0
 92
       -2
340
0
 93
        0
 40
1.125
309
GRIDFORMAT_END
 95
       16
302
GRIDFORMAT
  1
GRIDFORMAT_BEGIN
 90
        0
 91
        1
 62
     0
 92
       -2
340
0
 93
        0
 40
1.125
309
GRIDFORMAT_END
 95
       32
302
GRIDFORMAT
  1
GRIDFORMAT_BEGIN
 90
        0
 91
        1
 62
     0
 92
       -2
340
0
 93
        0
 40
1.125
309
GRIDFORMAT_END
309
TABLEFORMAT_END
  1
CELLSTYLE_BEGIN
 90
        3
 91
        2
300
_DATA
309
CELLSTYLE_END
  0
ENDSEC
  0
EOF
