  0
SECTION
  2
HEADER
  9
$ACADVER
  1
AC1015
  9
$ACADMAINTVER
 70
     6
  9
$DWGCODEPAGE
  3
ANSI_1251
  9
$INSBASE
 10
0.0
 20
0.0
 30
0.0
  9
$EXTMIN
 10
0.0
 20
0.0
 30
0.0
  9
$EXTMAX
 10
1397.0
 20
1079.5
 30
0.0
  9
$LIMMIN
 10
0.0
 20
0.0
  9
$LIMMAX
 10
1397.0
 20
1079.5
  9
$ORTHOMODE
 70
     0
  9
$REGENMODE
 70
     1
  9
$FILLMODE
 70
     1
  9
$QTEXTMODE
 70
     0
  9
$MIRRTEXT
 70
     1
  9
$LTSCALE
 40
5.0
  9
$ATTMODE
 70
     1
  9
$TEXTSIZE
 40
17.5
  9
$TRACEWID
 40
1.0
  9
$TEXTSTYLE
  7
Standard
  9
$CLAYER
  8
0
  9
$CELTYPE
  6
ByLayer
  9
$CECOLOR
 62
   256
  9
$CELTSCALE
 40
1.0
  9
$DISPSILH
 70
     0
  9
$DIMSCALE
 40
1.0
  9
$DIMASZ
 40
17.5
  9
$DIMEXO
 40
0.05
  9
$DIMDLI
 40
3.75
  9
$DIMRND
 40
0.0
  9
$DIMDLE
 40
0.0
  9
$DIMEXE
 40
5.0
  9
$DIMTP
 40
0.0
  9
$DIMTM
 40
0.0
  9
$DIMTXT
 40
17.5
  9
$DIMCEN
 40
2.5
  9
$DIMTSZ
 40
0.0
  9
$DIMTOL
 70
     0
  9
$DIMLIM
 70
     0
  9
$DIMTIH
 70
     1
  9
$DIMTOH
 70
     1
  9
$DIMSE1
 70
     0
  9
$DIMSE2
 70
     0
  9
$DIMTAD
 70
     1
  9
$DIMZIN
 70
     0
  9
$DIMBLK
  1

  9
$DIMASO
 70
     1
  9
$DIMSHO
 70
     1
  9
$DIMPOST
  1

  9
$DIMAPOST
  1

  9
$DIMALT
 70
     0
  9
$DIMALTD
 70
     3
  9
$DIMALTF
 40
0.0393700787
  9
$DIMLFAC
 40
1.0
  9
$DIMTOFL
 70
     1
  9
$DIMTVP
 40
0.0
  9
$DIMTIX
 70
     0
  9
$DIMSOXD
 70
     0
  9
$DIMSAH
 70
     0
  9
$DIMBLK1
  1

  9
$DIMBLK2
  1

  9
$DIMSTYLE
  2
ISO-25
  9
$DIMCLRD
 70
     0
  9
$DIMCLRE
 70
     0
  9
$DIMCLRT
 70
     0
  9
$DIMTFAC
 40
1.0
  9
$DIMGAP
 40
15.0
  9
$DIMJUST
 70
     0
  9
$DIMSD1
 70
     0
  9
$DIMSD2
 70
     0
  9
$DIMTOLJ
 70
     0
  9
$DIMTZIN
 70
     0
  9
$DIMALTZ
 70
     0
  9
$DIMALTTZ
 70
     0
  9
$DIMUPT
 70
     0
  9
$DIMDEC
 70
     2
  9
$DIMTDEC
 70
     3
  9
$DIMALTU
 70
     2
  9
$DIMALTTD
 70
     3
  9
$DIMTXSTY
  7
Standard
  9
$DIMAUNIT
 70
     0
  9
$DIMADEC
 70
     2
  9
$DIMALTRND
 40
0.0
  9
$DIMAZIN
 70
     0
  9
$DIMDSEP
 70
    44
  9
$DIMATFIT
 70
     3
  9
$DIMFRAC
 70
     0
  9
$DIMLDRBLK
  1

  9
$DIMLUNIT
 70
     2
  9
$DIMLWD
 70
    -2
  9
$DIMLWE
 70
    -2
  9
$DIMTMOVE
 70
     0
  9
$LUNITS
 70
     2
  9
$LUPREC
 70
     2
  9
$SKETCHINC
 40
1.0
  9
$FILLETRAD
 40
10.0
  9
$AUNITS
 70
     0
  9
$AUPREC
 70
     2
  9
$MENU
  1
.
  9
$ELEVATION
 40
0.0
  9
$PELEVATION
 40
0.0
  9
$THICKNESS
 40
0.0
  9
$LIMCHECK
 70
     0
  9
$CHAMFERA
 40
10.0
  9
$CHAMFERB
 40
10.0
  9
$CHAMFERC
 40
20.0
  9
$CHAMFERD
 40
0.0
  9
$SKPOLY
 70
     0
  9
$TDCREATE
 40
2458095.656485787
  9
$TDUCREATE
 40
2458095.573152454
  9
$TDUPDATE
 40
2458095.656490324
  9
$TDUUPDATE
 40
2458095.573156991
  9
$TDINDWG
 40
0.0000000116
  9
$TDUSRTIMER
 40
0.0000000116
  9
$USRTIMER
 70
     1
  9
$ANGBASE
 50
0.0
  9
$ANGDIR
 70
     0
  9
$PDMODE
 70
     0
  9
$PDSIZE
 40
-1.0
  9
$PLINEWID
 40
0.0
  9
$SPLFRAME
 70
     0
  9
$SPLINETYPE
 70
     6
  9
$SPLINESEGS
 70
     8
  9
$HANDSEED
  5
EB
  9
$SURFTAB1
 70
     6
  9
$SURFTAB2
 70
     6
  9
$SURFTYPE
 70
     6
  9
$SURFU
 70
     6
  9
$SURFV
 70
     6
  9
$UCSBASE
  2

  9
$UCSNAME
  2

  9
$UCSORG
 10
0.0
 20
0.0
 30
0.0
  9
$UCSXDIR
 10
1.0
 20
0.0
 30
0.0
  9
$UCSYDIR
 10
0.0
 20
1.0
 30
0.0
  9
$UCSORTHOREF
  2

  9
$UCSORTHOVIEW
 70
     0
  9
$UCSORGTOP
 10
0.0
 20
0.0
 30
0.0
  9
$UCSORGBOTTOM
 10
0.0
 20
0.0
 30
0.0
  9
$UCSORGLEFT
 10
0.0
 20
0.0
 30
0.0
  9
$UCSORGRIGHT
 10
0.0
 20
0.0
 30
0.0
  9
$UCSORGFRONT
 10
0.0
 20
0.0
 30
0.0
  9
$UCSORGBACK
 10
0.0
 20
0.0
 30
0.0
  9
$PUCSBASE
  2

  9
$PUCSNAME
  2

  9
$PUCSORG
 10
0.0
 20
0.0
 30
0.0
  9
$PUCSXDIR
 10
1.0
 20
0.0
 30
0.0
  9
$PUCSYDIR
 10
0.0
 20
1.0
 30
0.0
  9
$PUCSORTHOREF
  2

  9
$PUCSORTHOVIEW
 70
     0
  9
$PUCSORGTOP
 10
0.0
 20
0.0
 30
0.0
  9
$PUCSORGBOTTOM
 10
0.0
 20
0.0
 30
0.0
  9
$PUCSORGLEFT
 10
0.0
 20
0.0
 30
0.0
  9
$PUCSORGRIGHT
 10
0.0
 20
0.0
 30
0.0
  9
$PUCSORGFRONT
 10
0.0
 20
0.0
 30
0.0
  9
$PUCSORGBACK
 10
0.0
 20
0.0
 30
0.0
  9
$USERI1
 70
     0
  9
$USERI2
 70
     0
  9
$USERI3
 70
     0
  9
$USERI4
 70
     0
  9
$USERI5
 70
     0
  9
$USERR1
 40
0.0
  9
$USERR2
 40
0.0
  9
$USERR3
 40
0.0
  9
$USERR4
 40
0.0
  9
$USERR5
 40
0.0
  9
$WORLDVIEW
 70
     1
  9
$SHADEDGE
 70
     3
  9
$SHADEDIF
 70
    70
  9
$TILEMODE
 70
     1
  9
$MAXACTVP
 70
    64
  9
$PINSBASE
 10
0.0
 20
0.0
 30
0.0
  9
$PLIMCHECK
 70
     0
  9
$PEXTMIN
 10
1.0000000000E+20
 20
1.0000000000E+20
 30
1.0000000000E+20
  9
$PEXTMAX
 10
-1.0000000000E+20
 20
-1.0000000000E+20
 30
-1.0000000000E+20
  9
$PLIMMIN
 10
0.0
 20
0.0
  9
$PLIMMAX
 10
420.0
 20
297.0
  9
$UNITMODE
 70
     0
  9
$VISRETAIN
 70
     1
  9
$PLINEGEN
 70
     0
  9
$PSLTSCALE
 70
     1
  9
$TREEDEPTH
 70
  3020
  9
$CMLSTYLE
  2
Standard
  9
$CMLJUST
 70
     0
  9
$CMLSCALE
 40
20.0
  9
$PROXYGRAPHICS
 70
     1
  9
$MEASUREMENT
 70
     1
  9
$CELWEIGHT
370
    -1
  9
$ENDCAPS
280
     0
  9
$JOINSTYLE
280
     0
  9
$LWDISPLAY
290
     1
  9
$INSUNITS
 70
     4
  9
$HYPERLINKBASE
  1

  9
$STYLESHEET
  1

  9
$XEDIT
290
     1
  9
$CEPSNTYPE
380
     0
  9
$PSTYLEMODE
290
     1
  9
$FINGERPRINTGUID
  2
{3BA9CD5D-CE7B-4F70-BF7E-092DD17B6829}
  9
$VERSIONGUID
  2
{FAEB1C32-E019-11D5-929B-00C0DF256EC4}
  9
$EXTNAMES
290
     1
  9
$PSVPSCALE
 40
0.0
  9
$OLESTARTUP
290
     0
  0
ENDSEC
  0
SECTION
  2
CLASSES
  0
CLASS
  1
ACDBDICTIONARYWDFLT
  2
AcDbDictionaryWithDefault
  3
ObjectDBX Classes
 90
        0
280
     0
281
     0
  0
CLASS
  1
VISUALSTYLE
  2
AcDbVisualStyle
  3
ObjectDBX Classes
 90
     4095
280
     0
281
     0
  0
CLASS
  1
MATERIAL
  2
AcDbMaterial
  3
ObjectDBX Classes
 90
     1153
280
     0
281
     0
  0
CLASS
  1
ACDBPLACEHOLDER
  2
AcDbPlaceHolder
  3
ObjectDBX Classes
 90
        0
280
     0
281
     0
  0
CLASS
  1
LAYOUT
  2
AcDbLayout
  3
ObjectDBX Classes
 90
        0
280
     0
281
     0
  0
ENDSEC
  0
SECTION
  2
TABLES
  0
TABLE
  2
VPORT
  5
8
330
0
100
AcDbSymbolTable
 70
     1
  0
VPORT
  5
29
330
8
100
AcDbSymbolTableRecord
100
AcDbViewportTableRecord
  2
*Active
 70
     0
 10
0.0
 20
0.0
 11
1.0
 21
1.0
 12
698.5
 22
539.75
 13
0.0
 23
0.0
 14
10.0
 24
10.0
 15
10.0
 25
10.0
 16
0.0
 26
0.0
 36
1.0
 17
0.0
 27
0.0
 37
0.0
 40
1079.5
 41
1.2941176471
 42
50.0
 43
0.0
 44
0.0
 50
0.0
 51
0.0
 71
     0
 72
  2000
 73
     1
 74
     3
 75
     0
 76
     0
 77
     0
 78
     0
281
     0
 65
     1
110
0.0
120
0.0
130
0.0
111
1.0
121
0.0
131
0.0
112
0.0
122
1.0
132
0.0
 79
     0
146
0.0
  0
ENDTAB
  0
TABLE
  2
LTYPE
  5
5
330
0
100
AcDbSymbolTable
 70
     6
  0
LTYPE
  5
14
330
5
100
AcDbSymbolTableRecord
100
AcDbLinetypeTableRecord
  2
ByBlock
 70
     0
  3

 72
    65
 73
     0
 40
0.0
  0
LTYPE
  5
15
330
5
100
AcDbSymbolTableRecord
100
AcDbLinetypeTableRecord
  2
ByLayer
 70
     0
  3

 72
    65
 73
     0
 40
0.0
  0
LTYPE
  5
16
330
5
100
AcDbSymbolTableRecord
100
AcDbLinetypeTableRecord
  2
Continuous
 70
     0
  3
Solid line
 72
    65
 73
     0
 40
0.0
  0
LTYPE
  5
3F
330
5
100
AcDbSymbolTableRecord
100
AcDbLinetypeTableRecord
  2
HIDDEN
 70
     0
  3
Hidden __ __ __ __ __ __ __ __ __ __ __ __ __ __
 72
    65
 73
     2
 40
1.905
 49
1.27
 74
     0
 49
-0.635
 74
     0
  0
LTYPE
  5
40
330
5
100
AcDbSymbolTableRecord
100
AcDbLinetypeTableRecord
  2
PHANTOM
 70
     0
  3
Phantom ______  __  __  ______  __  __  ______
 72
    65
 73
     6
 40
12.7
 49
6.35
 74
     0
 49
-1.27
 74
     0
 49
1.27
 74
     0
 49
-1.27
 74
     0
 49
1.27
 74
     0
 49
-1.27
 74
     0
  0
LTYPE
  5
41
330
5
100
AcDbSymbolTableRecord
100
AcDbLinetypeTableRecord
  2
CENTER
 70
     0
  3
Center ____ _ ____ _ ____ _ ____ _ ____ _ ____
 72
    65
 73
     4
 40
10.16
 49
6.35
 74
     0
 49
-1.27
 74
     0
 49
1.27
 74
     0
 49
-1.27
 74
     0
  0
LTYPE
  5
42
330
5
100
AcDbSymbolTableRecord
100
AcDbLinetypeTableRecord
  2
CENTERX2
 70
     0
  3
Center (2x) ________  __  ________  __  _____
 72
    65
 73
     4
 40
20.32
 49
12.7
 74
     0
 49
-2.54
 74
     0
 49
2.54
 74
     0
 49
-2.54
 74
     0
  0
LTYPE
  5
43
330
5
100
AcDbSymbolTableRecord
100
AcDbLinetypeTableRecord
  2
DOT2
 70
     0
  3
Dot (.5x) ........................................
 72
    65
 73
     2
 40
0.635
 49
0.0
 74
     0
 49
-0.635
 74
     0
  0
ENDTAB
  0
TABLE
  2
LAYER
  5
2
330
0
100
AcDbSymbolTable
 70
     1
  0
LAYER
  5
10
330
2
100
AcDbSymbolTableRecord
100
AcDbLayerTableRecord
  2
0
 70
     0
 62
     7
  6
Continuous
370
    -3
390
F
  0
ENDTAB
  0
TABLE
  2
STYLE
  5
3
330
0
100
AcDbSymbolTable
 70
     1
  0
STYLE
  5
11
330
3
100
AcDbSymbolTableRecord
100
AcDbTextStyleTableRecord
  2
Standard
 70
     0
 40
0.0
 41
1.0
 50
0.0
 71
     0
 42
17.5
  3
txt
  4

  0
ENDTAB
  0
TABLE
  2
VIEW
  5
6
330
0
100
AcDbSymbolTable
 70
     0
  0
ENDTAB
  0
TABLE
  2
UCS
  5
7
330
0
100
AcDbSymbolTable
 70
     0
  0
ENDTAB
  0
TABLE
  2
APPID
  5
9
330
0
100
AcDbSymbolTable
 70
     1
  0
APPID
  5
12
330
9
100
AcDbSymbolTableRecord
100
AcDbRegAppTableRecord
  2
ACAD
 70
     0
  0
ENDTAB
  0
TABLE
  2
DIMSTYLE
  5
A
330
0
100
AcDbSymbolTable
 70
     1
100
AcDbDimStyleTable
  0
DIMSTYLE
105
27
330
A
100
AcDbSymbolTableRecord
100
AcDbDimStyleTableRecord
  2
ISO-25
 70
     0
 41
2.5
 42
0.625
 43
3.75
 44
1.25
 73
     0
 74
     0
 77
     1
 78
     8
140
2.5
141
2.5
143
0.0393700787
147
0.625
171
     3
172
     1
178
     0
271
     2
272
     2
274
     3
278
    44
283
     0
284
     8
340
11
  0
ENDTAB
  0
TABLE
  2
BLOCK_RECORD
  5
1
330
0
100
AcDbSymbolTable
 70
     1
  0
BLOCK_RECORD
  5
1F
330
1
100
AcDbSymbolTableRecord
100
AcDbBlockTableRecord
  2
*Model_Space
340
22
  0
BLOCK_RECORD
  5
1B
330
1
100
AcDbSymbolTableRecord
100
AcDbBlockTableRecord
  2
*Paper_Space
340
1E
  0
BLOCK_RECORD
  5
23
330
1
100
AcDbSymbolTableRecord
100
AcDbBlockTableRecord
  2
*Paper_Space0
340
26
  0
ENDTAB
  0
ENDSEC
  0
SECTION
  2
BLOCKS
  0
BLOCK
  5
20
330
1F
100
AcDbEntity
  8
0
100
AcDbBlockBegin
  2
*Model_Space
 70
     0
 10
0.0
 20
0.0
 30
0.0
  3
*Model_Space
  1

  0
ENDBLK
  5
21
330
1F
100
AcDbEntity
  8
0
100
AcDbBlockEnd
  0
BLOCK
  5
1C
330
1B
100
AcDbEntity
 67
     1
  8
0
100
AcDbBlockBegin
  2
*Paper_Space
 70
     0
 10
0.0
 20
0.0
 30
0.0
  3
*Paper_Space
  1

  0
ENDBLK
  5
1D
330
1B
100
AcDbEntity
 67
     1
  8
0
100
AcDbBlockEnd
  0
BLOCK
  5
24
330
23
100
AcDbEntity
  8
0
100
AcDbBlockBegin
  2
*Paper_Space0
 70
     0
 10
0.0
 20
0.0
 30
0.0
  3
*Paper_Space0
  1

  0
ENDBLK
  5
25
330
23
100
AcDbEntity
  8
0
100
AcDbBlockEnd
  0
ENDSEC
  0
SECTION
  2
ENTITIES
  0
LWPOLYLINE
  5
44
330
1F
100
AcDbEntity
  8
0
  6
Continuous
 62
     7
100
AcDbPolyline
 90
       76
 70
   128
 43
0.0
 10
347.3960229503
 20
797.7677465044
 10
348.1193785641
 20
797.7982022165
 10
348.7946838256
 20
797.8202522782
 10
349.4228816268
 20
797.8351596918
 10
350.0049015081
 20
797.8441874597
 10
350.5416730099
 20
797.8485985844
 10
351.0341256726
 20
797.8496560683
 10
351.4831890367
 20
797.8486229139
 10
351.8897926426
 20
797.8467621234
 10
352.2712040139
 20
797.845270212
 10
352.6073342228
 20
797.8448042006
 10
352.8977232511
 20
797.8450219022
 10
353.1418711789
 20
797.8455342962
 10
353.3392830713
 20
797.8459568537
 10
353.4896834755
 20
797.8461027761
 10
353.6081465768
 20
797.8460331523
 10
353.6590314714
 20
797.8458661622
 10
353.642416849
 20
797.8457658682
 10
353.5583550919
 20
797.8457586987
 10
353.4068848326
 20
797.845799148
 10
353.1925442431
 20
797.8458408721
 10
352.9133351156
 20
797.8458586233
 10
352.5694956966
 20
797.8458546293
 10
352.1612750063
 20
797.8458335706
 10
351.6797603072
 20
797.84580173
 10
351.1321724188
 20
797.8457804951
 10
350.5189472537
 20
797.8457962275
 10
349.8405219495
 20
797.8458731033
 10
349.0973661784
 20
797.8459732695
 10
348.3049636746
 20
797.8459907346
 10
347.4510910978
 20
797.8458224932
 10
346.5363144935
 20
797.8454514956
 10
345.561522058
 20
797.8451940586
 10
344.641242769
 20
797.8453823482
 10
343.6745678435
 20
797.8462459341
 10
342.6618651365
 20
797.8475223043
 10
341.6030717371
 20
797.8482138164
 10
340.4980932009
 20
797.8472690139
 10
339.3469031001
 20
797.8437361783
 10
338.1510872716
 20
797.8390277797
 10
336.9138708795
 20
797.8369601603
 10
335.7027810619
 20
797.8410185844
 10
334.4599644303
 20
797.8541443502
 10
333.1852238146
 20
797.8750465861
 10
331.8757543355
 20
797.898422584
 10
330.5286569208
 20
797.918824725
 10
329.1411277912
 20
797.9309519203
 10
327.795802064
 20
797.9338379893
 10
326.4172088965
 20
797.931772432
 10
325.008176137
 20
797.9282739801
 10
323.5715298037
 20
797.9268581096
 10
322.1091210343
 20
797.9293059911
 10
320.620224141
 20
797.9328146429
 10
319.1036925859
 20
797.9338323945
 10
317.5583798315
 20
797.9288075754
 10
315.9834974204
 20
797.9149041689
 10
314.3808752553
 20
797.8945191698
 10
312.7827657068
 20
797.872756736
 10
311.1636249718
 20
797.8537779141
 10
309.5262486593
 20
797.8419681076
 10
307.8719055914
 20
797.8383883083
 10
305.9706009728
 20
797.8404647329
 10
304.0455487448
 20
797.8444719595
 10
302.0957223123
 20
797.8456880259
 10
300.1215143935
 20
797.8429774508
 10
298.1253238686
 20
797.8402741491
 10
296.1097013751
 20
797.8418955127
 10
294.0771483915
 20
797.8519974068
 10
292.0289519721
 20
797.8707453167
 10
290.1764463239
 20
797.8916738966
 10
288.3113212879
 20
797.9133368308
 10
286.4335517604
 20
797.9327094164
 10
284.5431126374
 20
797.9467669505
 10
282.6399788153
 20
797.9524847301
 10
280.7241251901
 20
797.9468380523
 10
278.7955266582
 20
797.9268022142
  0
LWPOLYLINE
  5
45
330
1F
100
AcDbEntity
  8
0
  6
Continuous
 62
     7
100
AcDbPolyline
 90
       74
 70
   128
 43
0.0
 10
347.3960229503
 20
797.7677465044
 10
348.1869860811
 20
797.7677456068
 10
348.9252522883
 20
797.7677450317
 10
349.6104941372
 20
797.767744711
 10
350.2423708418
 20
797.7677445768
 10
350.820541616
 20
797.7677445613
 10
351.3446656737
 20
797.7677445967
 10
351.8144022289
 20
797.7677446149
 10
352.2678940408
 20
797.7677445414
 10
352.6548293871
 20
797.7677444181
 10
352.9749597003
 20
797.7677444032
 10
353.2280395802
 20
797.7677446582
 10
353.4138638526
 20
797.7677451642
 10
353.5323310308
 20
797.7677454382
 10
353.5833561082
 20
797.7677449229
 10
353.5668657193
 20
797.7677432414
 10
353.4828898005
 20
797.7677416165
 10
353.3315123283
 20
797.7677421071
 10
353.1173137423
 20
797.7677465935
 10
352.8383194156
 20
797.7677535705
 10
352.4947565924
 20
797.7677562044
 10
352.086860385
 20
797.7677471922
 10
351.6057131326
 20
797.7677224097
 10
351.0585312646
 20
797.7677017724
 10
350.445756871
 20
797.7677140335
 10
349.7678330627
 20
797.7677857746
 10
349.0252294252
 20
797.7678818235
 10
348.2334118407
 20
797.7678991699
 10
347.380159556
 20
797.7677376124
 10
346.4660368159
 20
797.7673801697
 10
345.4919487029
 20
797.76713206
 10
344.5723581932
 20
797.7673138179
 10
343.606443557
 20
797.7681469528
 10
342.5945564346
 20
797.7693776743
 10
341.5365763542
 20
797.7700436268
 10
340.4323483815
 20
797.769130732
 10
339.2817917491
 20
797.7657216642
 10
338.0865757254
 20
797.7611820624
 10
336.8501445281
 20
797.7591930304
 10
335.6401775278
 20
797.7631152623
 10
334.3990328544
 20
797.7757840127
 10
333.126434777
 20
797.7959467437
 10
331.8192760494
 20
797.8184889195
 10
330.4743477943
 20
797.838157386
 10
329.0885454927
 20
797.8498415209
 10
327.7443887681
 20
797.8526183205
 10
326.3667000755
 20
797.8506236897
 10
324.9584968961
 20
797.8472492298
 10
323.5227946611
 20
797.8458833125
 10
322.0615448327
 20
797.8482380911
 10
320.573897694
 20
797.8516126288
 10
319.0585479883
 20
797.8525883145
 10
317.5141904592
 20
797.8477465365
 10
315.9399102125
 20
797.8343596398
 10
314.337634556
 20
797.8147307723
 10
312.7398023157
 20
797.7937584214
 10
311.1210598188
 20
797.7754331043
 10
309.4843807934
 20
797.7639615686
 10
307.8310831604
 20
797.7603839698
 10
305.9312598579
 20
797.7622939626
 10
304.007846047
 20
797.7662394791
 10
302.0596556755
 20
797.7677880535
 10
300.0869993911
 20
797.7657403243
 10
298.0922949522
 20
797.7634486176
 10
296.0781186006
 20
797.7646076094
 10
294.0470012863
 20
797.7727971716
 10
292.0003643733
 20
797.7887846687
 10
290.14956904
 20
797.8080246705
 10
288.2866386798
 20
797.8301735269
 10
286.411732298
 20
797.8535812832
 10
284.5250088998
 20
797.8765979848
 10
282.6266274903
 20
797.897573677
 10
280.7167470747
 20
797.914858405
 10
278.7955266582
 20
797.9268022142
  0
LINE
  5
46
330
1F
100
AcDbEntity
  8
0
  6
Continuous
 62
     7
370
    15
100
AcDbLine
 10
350.926445744
 20
829.5241151414
 30
0.0
 11
345.9265523104
 21
944.5216436998
 31
0.0
  0
LINE
  5
47
330
1F
100
AcDbEntity
  8
0
  6
Continuous
 62
     7
370
    15
100
AcDbLine
 10
177.9296864613
 20
944.5230191286
 30
0.0
 11
172.9278468231
 21
829.5241197911
 31
0.0
  0
LINE
  5
48
330
1F
100
AcDbEntity
  8
0
  6
Continuous
 62
     7
370
    15
100
AcDbLine
 10
345.9265523104
 20
944.5216436998
 30
0.0
 11
345.6612605662
 21
946.6420508269
 31
0.0
  0
LINE
  5
49
330
1F
100
AcDbEntity
  8
0
  6
Continuous
 62
     7
370
    15
100
AcDbLine
 10
178.1950129261
 20
946.6434219114
 30
0.0
 11
177.9296864613
 21
944.5230191286
 31
0.0
  0
LINE
  5
4A
330
1F
100
AcDbEntity
  8
0
  6
Continuous
 62
     7
370
    15
100
AcDbLine
 10
345.6612605662
 20
946.6420508269
 30
0.0
 11
345.1510429128
 21
948.5175696691
 31
0.0
  0
LINE
  5
4B
330
1F
100
AcDbEntity
  8
0
  6
Continuous
 62
     7
370
    15
100
AcDbLine
 10
178.70526129
 20
948.5189323989
 30
0.0
 11
178.1950129261
 21
946.6434219114
 31
0.0
  0
LINE
  5
4C
330
1F
100
AcDbEntity
  8
0
  6
Continuous
 62
     7
370
    15
100
AcDbLine
 10
345.1510429128
 20
948.5175696691
 30
0.0
 11
344.3959451514
 21
950.148169709
 31
0.0
  0
LINE
  5
4D
330
1F
100
AcDbEntity
  8
0
  6
Continuous
 62
     7
370
    15
100
AcDbLine
 10
179.4603857515
 20
950.1495200742
 30
0.0
 11
178.70526129
 21
948.5189323989
 31
0.0
  0
LINE
  5
4E
330
1F
100
AcDbEntity
  8
0
  6
Continuous
 62
     7
370
    15
100
AcDbLine
 10
344.3959451514
 20
950.148169709
 30
0.0
 11
343.3959518683
 21
951.533881464
 31
0.0
  0
LINE
  5
4F
330
1F
100
AcDbEntity
  8
0
  6
Continuous
 62
     7
370
    15
100
AcDbLine
 10
180.4604017247
 20
951.5352154546
 30
0.0
 11
179.4603857515
 21
950.1495200742
 31
0.0
  0
LINE
  5
50
330
1F
100
AcDbEntity
  8
0
  6
Continuous
 62
     7
370
    15
100
AcDbLine
 10
343.3959518683
 20
951.533881464
 30
0.0
 11
342.1510480018
 21
952.6747049342
 31
0.0
  0
LINE
  5
51
330
1F
100
AcDbEntity
  8
0
  6
Continuous
 62
     7
370
    15
100
AcDbLine
 10
181.7053242714
 20
952.6760185401
 30
0.0
 11
180.4604017247
 21
951.5352154547
 31
0.0
  0
LINE
  5
52
330
1F
100
AcDbEntity
  8
0
  6
Continuous
 62
     7
370
    15
100
AcDbLine
 10
342.1510480018
 20
952.6747049342
 30
0.0
 11
340.6612486576
 21
953.5706248607
 31
0.0
  0
LINE
  5
53
330
1F
100
AcDbEntity
  8
0
  6
Continuous
 62
     7
370
    15
100
AcDbLine
 10
183.1951382857
 20
953.5719140719
 30
0.0
 11
181.7053242714
 21
952.6760185401
 31
0.0
  0
LINE
  5
54
330
1F
100
AcDbEntity
  8
0
  6
Continuous
 62
     7
370
    15
100
AcDbLine
 10
340.6612486575
 20
953.5706248608
 30
0.0
 11
338.9265538796
 21
954.2216412437
 31
0.0
  0
LINE
  5
55
330
1F
100
AcDbEntity
  8
0
  6
Continuous
 62
     7
370
    15
100
AcDbLine
 10
184.9298437234
 20
954.22290205
 30
0.0
 11
183.1951382857
 21
953.5719140719
 31
0.0
  0
LINE
  5
56
330
1F
100
AcDbEntity
  8
0
  6
Continuous
 62
     7
370
    15
100
AcDbLine
 10
377.9287256217
 20
800.3239417635
 30
0.0
 11
377.9287256217
 21
801.8239493928
 31
0.0
  0
LINE
  5
57
330
1F
100
AcDbEntity
  8
0
  6
Continuous
 62
     7
370
    15
100
AcDbLine
 10
145.9262217467
 20
801.8239493928
 30
0.0
 11
145.9262217467
 21
800.3239417635
 31
0.0
  0
LINE
  5
58
330
1F
100
AcDbEntity
  8
0
  6
Continuous
 62
     7
370
    15
100
AcDbLine
 10
145.9262217467
 20
800.3239417635
 30
0.0
 11
148.0141249142
 21
799.904006537
 31
0.0
  0
LINE
  5
59
330
1F
100
AcDbEntity
  8
0
  6
Continuous
 62
     7
370
    15
100
AcDbLine
 10
375.8408224542
 20
799.904006537
 30
0.0
 11
377.9287256217
 21
800.3239417635
 31
0.0
  0
LINE
  5
5A
330
1F
100
AcDbEntity
  8
0
  6
Continuous
 62
     7
370
    15
100
AcDbLine
 10
148.0141249142
 20
799.904006537
 30
0.0
 11
150.103782547
 21
799.5015626512
 31
0.0
  0
LINE
  5
5B
330
1F
100
AcDbEntity
  8
0
  6
Continuous
 62
     7
370
    15
100
AcDbLine
 10
373.7511648214
 20
799.5015626512
 30
0.0
 11
375.8408224542
 21
799.904006537
 31
0.0
  0
LINE
  5
5C
330
1F
100
AcDbEntity
  8
0
  6
Continuous
 62
     7
370
    15
100
AcDbLine
 10
150.103782547
 20
799.5015626512
 30
0.0
 11
152.2030644366
 21
799.1218610368
 31
0.0
  0
LINE
  5
5D
330
1F
100
AcDbEntity
  8
0
  6
Continuous
 62
     7
370
    15
100
AcDbLine
 10
371.6518829318
 20
799.1218610368
 30
0.0
 11
373.7511648214
 21
799.5015626512
 31
0.0
  0
LINE
  5
5E
330
1F
100
AcDbEntity
  8
0
  6
Continuous
 62
     7
370
    15
100
AcDbLine
 10
152.2030644366
 20
799.1218610368
 30
0.0
 11
154.3198407252
 21
798.7701478563
 31
0.0
  0
LINE
  5
5F
330
1F
100
AcDbEntity
  8
0
  6
Continuous
 62
     7
370
    15
100
AcDbLine
 10
369.5351066433
 20
798.7701478563
 30
0.0
 11
371.6518829318
 21
799.1218610368
 31
0.0
  0
LINE
  5
60
330
1F
100
AcDbEntity
  8
0
  6
Continuous
 62
     7
370
    15
100
AcDbLine
 10
154.3198407252
 20
798.7701478563
 30
0.0
 11
156.4619740551
 21
798.4516702257
 31
0.0
  0
LINE
  5
61
330
1F
100
AcDbEntity
  8
0
  6
Continuous
 62
     7
370
    15
100
AcDbLine
 10
367.3929733133
 20
798.4516702257
 30
0.0
 11
369.5351066433
 21
798.7701478563
 31
0.0
  0
LINE
  5
62
330
1F
100
AcDbEntity
  8
0
  6
Continuous
 62
     7
370
    15
100
AcDbLine
 10
156.4619740551
 20
798.4516702257
 30
0.0
 11
158.6373424185
 21
798.1716771684
 31
0.0
  0
LINE
  5
63
330
1F
100
AcDbEntity
  8
0
  6
Continuous
 62
     7
370
    15
100
AcDbLine
 10
365.2176049499
 20
798.1716771684
 30
0.0
 11
367.3929733133
 21
798.4516702257
 31
0.0
  0
LINE
  5
64
330
1F
100
AcDbEntity
  8
0
  6
Continuous
 62
     7
370
    15
100
AcDbLine
 10
365.9286879622
 20
801.8239493928
 30
0.0
 11
365.9286879622
 21
829.5241113267
 31
0.0
  0
LINE
  5
65
330
1F
100
AcDbEntity
  8
0
  6
Continuous
 62
     7
370
    15
100
AcDbLine
 10
157.9262594062
 20
829.5241113267
 30
0.0
 11
157.9262594062
 21
801.8239493928
 31
0.0
  0
LINE
  5
66
330
1F
100
AcDbEntity
  8
0
  6
Continuous
 62
     7
370
    15
100
AcDbLine
 10
158.6373424185
 20
798.1716771684
 30
0.0
 11
160.8538238073
 21
797.935417708
 31
0.0
  0
LINE
  5
67
330
1F
100
AcDbEntity
  8
0
  6
Continuous
 62
     7
370
    15
100
AcDbLine
 10
363.0011235611
 20
797.935417708
 30
0.0
 11
365.2176049499
 21
798.1716771684
 31
0.0
  0
LINE
  5
68
330
1F
100
AcDbEntity
  8
0
  6
Continuous
 62
     7
370
    15
100
AcDbLine
 10
160.8538238073
 20
797.935417708
 30
0.0
 11
170.1222707377
 21
797.9268022142
 31
0.0
  0
LINE
  5
69
330
1F
100
AcDbEntity
  8
0
  6
Continuous
 62
     7
370
    15
100
AcDbLine
 10
353.7326766307
 20
797.9268022142
 30
0.0
 11
363.0011235611
 21
797.935417708
 31
0.0
  0
LINE
  5
6A
330
1F
100
AcDbEntity
  8
0
  6
Continuous
 62
     7
370
    15
100
AcDbLine
 10
170.2675141503
 20
797.7677555635
 30
0.0
 11
170.3552219876
 21
797.6954422443
 31
0.0
  0
LINE
  5
6B
330
1F
100
AcDbEntity
  8
0
  6
Continuous
 62
     7
370
    15
100
AcDbLine
 10
353.4956768659
 20
797.6954203321
 30
0.0
 11
353.5833847204
 21
797.7677336304
 31
0.0
  0
LINE
  5
6C
330
1F
100
AcDbEntity
  8
0
  6
Continuous
 62
     7
370
    15
100
AcDbLine
 10
170.3552219877
 20
797.6954422443
 30
0.0
 11
170.4610277485
 21
797.631790193
 31
0.0
  0
LINE
  5
6D
330
1F
100
AcDbEntity
  8
0
  6
Continuous
 62
     7
370
    15
100
AcDbLine
 10
353.3898710898
 20
797.6317683062
 30
0.0
 11
353.4956768658
 21
797.6954203321
 31
0.0
  0
LINE
  5
6E
330
1F
100
AcDbEntity
  8
0
  6
Continuous
 62
     7
370
    15
100
AcDbLine
 10
170.4610277487
 20
797.6317901929
 30
0.0
 11
170.5909842444
 21
797.5796814127
 31
0.0
  0
LINE
  5
6F
330
1F
100
AcDbEntity
  8
0
  6
Continuous
 62
     7
370
    15
100
AcDbLine
 10
353.2599145813
 20
797.5796595569
 30
0.0
 11
353.3898710895
 21
797.631768306
 31
0.0
  0
LINE
  5
70
330
1F
100
AcDbEntity
  8
0
  6
Continuous
 62
     7
370
    15
100
AcDbLine
 10
170.5909842453
 20
797.5796814124
 30
0.0
 11
170.7511139881
 21
797.5420036284
 31
0.0
  0
LINE
  5
71
330
1F
100
AcDbEntity
  8
0
  6
Continuous
 62
     7
370
    15
100
AcDbLine
 10
353.0997848287
 20
797.5419818109
 30
0.0
 11
353.2599145804
 21
797.5796595567
 31
0.0
  0
LINE
  5
72
330
1F
100
AcDbEntity
  8
0
  6
Continuous
 62
     7
370
    15
100
AcDbLine
 10
170.7511139938
 20
797.5420036276
 30
0.0
 11
170.9474547772
 21
797.5216464721
 31
0.0
  0
LINE
  5
73
330
1F
100
AcDbEntity
  8
0
  6
Continuous
 62
     7
370
    15
100
AcDbLine
 10
352.9034440347
 20
797.5216247017
 30
0.0
 11
353.099784823
 21
797.5419818101
 31
0.0
  0
LINE
  5
74
330
1F
100
AcDbEntity
  8
0
  6
Continuous
 62
     7
370
    15
100
AcDbLine
 10
349.7618073819
 20
797.7677679051
 30
0.0
 11
347.7320147781
 21
797.9267995511
 31
0.0
  0
LINE
  5
75
330
1F
100
AcDbEntity
  8
0
  6
Continuous
 62
     7
370
    15
100
AcDbLine
 10
176.118656049
 20
797.9268022142
 30
0.0
 11
174.0890914889
 21
797.7677889238
 31
0.0
  0
LINE
  5
76
330
1F
100
AcDbEntity
  8
0
  6
Continuous
 62
     7
370
    15
100
AcDbLine
 10
170.1918736898
 20
797.8458295629
 30
0.0
 11
170.2675115604
 21
797.767744559
 31
0.0
  0
LINE
  5
77
330
1F
100
AcDbEntity
  8
0
  6
Continuous
 62
     7
370
    15
100
AcDbLine
 10
353.661203601
 20
797.845829614
 30
0.0
 11
353.7308141169
 21
797.9268021936
 31
0.0
  0
LWPOLYLINE
  5
78
330
1F
100
AcDbEntity
  8
0
  6
Continuous
 62
     7
370
    15
100
AcDbPolyline
 90
       50
 70
   128
 43
0.0
 10
177.9296864613
 20
944.5230191286
 10
177.9737378397
 20
944.5230202467
 10
178.3258716921
 20
944.5230203148
 10
179.0286624252
 20
944.5230174935
 10
180.0791622904
 20
944.5230117945
 10
181.4729651262
 20
944.5230032418
 10
183.2042248391
 20
944.5229918712
 10
185.2656799242
 20
944.5229777304
 10
187.6486839225
 20
944.5229608787
 10
190.343241687
 20
944.5229413869
 10
193.3380513062
 20
944.5229193366
 10
196.6205515075
 20
944.5228948203
 10
200.1769743446
 20
944.522867941
 10
203.992402944
 20
944.5228388112
 10
208.0508340722
 20
944.5228075533
 10
212.3352452588
 20
944.5227742982
 10
216.8276661941
 20
944.5227391856
 10
221.5092541037
 20
944.5227023626
 10
226.3603727808
 20
944.5226639837
 10
231.3606749478
 20
944.5226242099
 10
236.4891875997
 20
944.5225832081
 10
241.7243999722
 20
944.5225411501
 10
247.0443537653
 20
944.5224982124
 10
252.4267352438
 20
944.5224545751
 10
257.8489688293
 20
944.5224104212
 10
263.2883117899
 20
944.522365936
 10
268.7219496309
 20
944.5223213059
 10
274.1270917868
 20
944.5222767182
 10
279.4810672129
 20
944.52223236
 10
284.7614194759
 20
944.5221884172
 10
289.9460009431
 20
944.5221450742
 10
295.0130656781
 20
944.5221025128
 10
299.9413606506
 20
944.5220609115
 10
304.7102148787
 20
944.5220204447
 10
309.2996261305
 20
944.5219812823
 10
313.6903448202
 20
944.5219435885
 10
317.8639547478
 20
944.5219075213
 10
321.8029503428
 20
944.521873232
 10
325.4908100887
 20
944.5218408646
 10
328.9120658203
 20
944.5218105547
 10
332.052367602
 20
944.5217824294
 10
334.8985439168
 20
944.5217566068
 10
337.438656912
 20
944.5217331951
 10
339.6620524711
 20
944.5217122926
 10
341.5594049004
 20
944.5216939869
 10
343.1227560444
 20
944.5216783547
 10
344.3455486652
 20
944.5216654618
 10
345.2226539454
 20
944.521655362
 10
345.7503930009
 20
944.5216480979
 10
345.9265523104
 20
944.5216436998
  0
LWPOLYLINE
  5
79
330
1F
100
AcDbEntity
  8
0
  6
Continuous
 62
     7
370
    15
100
AcDbPolyline
 90
       50
 70
   128
 43
0.0
 10
178.1950129261
 20
946.6434219114
 10
178.2389251681
 20
946.6434230259
 10
178.5899468056
 20
946.6434230939
 10
179.2905177737
 20
946.6434202814
 10
180.3376996344
 20
946.6434146005
 10
181.727100143
 20
946.6434060748
 10
183.452891671
 20
946.6433947401
 10
185.5078356489
 20
946.6433806439
 10
187.8833129275
 20
946.6433638455
 10
190.5693599296
 20
946.6433444152
 10
193.5547104406
 20
946.6433224345
 10
196.826842863
 20
946.6432979957
 10
200.3720327362
 20
946.6432712013
 10
204.1754103019
 20
946.6432421635
 10
208.2210228728
 20
946.6432110043
 10
212.4919017439
 20
946.6431778543
 10
216.9701333648
 20
946.6431428525
 10
221.6369344759
 20
946.6431061459
 10
226.4727308916
 20
946.6430678882
 10
231.457239601
 20
946.64302824
 10
236.5695538424
 20
946.6429873677
 10
241.7882307933
 20
946.6429454425
 10
247.0913815088
 20
946.6429026405
 10
252.4567627319
 20
946.642859141
 10
257.8618701892
 20
946.6428151266
 10
263.2840329816
 20
946.6427707818
 10
268.7005086739
 20
946.6427262927
 10
274.0885786848
 20
946.6426818459
 10
279.4256435762
 20
946.6426376278
 10
284.6893178431
 20
946.6425938238
 10
289.8575238064
 20
946.6425506177
 10
294.9085842142
 20
946.6425081907
 10
299.8213131638
 20
946.6424667208
 10
304.5751049628
 20
946.6424263819
 10
309.1500205561
 20
946.6423873431
 10
313.526871158
 20
946.6423497683
 10
317.687298736
 20
946.6423138151
 10
321.6138530108
 20
946.6422796341
 10
325.2900646495
 20
946.6422473689
 10
328.7005143426
 20
946.6422171547
 10
331.8308974791
 20
946.6421891183
 10
334.6680841441
 20
946.6421633773
 10
337.2001741908
 20
946.6421400395
 10
339.4165471536
 20
946.642119203
 10
341.3079067941
 20
946.6421009551
 10
342.8663200925
 20
946.6420853724
 10
344.085250522
 20
946.6420725201
 10
344.9595854646
 20
946.6420624523
 10
345.4856576559
 20
946.6420552111
 10
345.6612605662
 20
946.6420508269
  0
LWPOLYLINE
  5
7A
330
1F
100
AcDbEntity
  8
0
  6
Continuous
 62
     7
370
    15
100
AcDbPolyline
 90
       49
 70
   128
 43
0.0
 10
178.70526129
 20
948.5189323989
 10
178.8834478875
 20
948.518933899
 10
179.4172446578
 20
948.518932475
 10
180.304365801
 20
948.518928133
 10
181.5410125283
 20
948.5189208915
 10
183.1218893285
 20
948.5189107816
 10
185.0402266444
 20
948.5188978465
 10
187.2878098612
 20
948.5188821417
 10
189.8550144825
 20
948.5188637344
 10
192.7308473439
 20
948.5188427035
 10
195.9029936877
 20
948.5188191389
 10
199.3578698961
 20
948.5187931416
 10
203.080681659
 20
948.5187648229
 10
207.0554873246
 20
948.518734304
 10
211.2652661651
 20
948.5187017158
 10
215.691991261
 20
948.5186671976
 10
220.316706696
 20
948.5186308974
 10
225.1196087285
 20
948.5185929706
 10
230.0801305947
 20
948.5185535795
 10
235.1770305783
 20
948.5185128929
 10
240.3884829713
 20
948.5184710849
 10
245.6921715342
 20
948.5184283347
 10
251.0653850586
 20
948.5183848252
 10
256.4851146191
 20
948.5183407428
 10
261.9281521018
 20
948.5182962763
 10
267.3711895844
 20
948.518251616
 10
272.7909191449
 20
948.5182069533
 10
278.1641326693
 20
948.5181624793
 10
283.4678212322
 20
948.5181183845
 10
288.6792736252
 20
948.5180748577
 10
293.7761736088
 20
948.5180320854
 10
298.736695475
 20
948.5179902506
 10
303.5395975074
 20
948.5179495325
 10
308.1643129424
 20
948.5179101056
 10
312.5910380383
 20
948.5178721385
 10
316.8008168787
 20
948.5178357939
 10
320.7756225444
 20
948.5178012274
 10
324.4984343071
 20
948.5177685871
 10
327.9533105156
 20
948.5177380127
 10
331.1254568593
 20
948.5177096351
 10
334.0012897206
 20
948.5176835759
 10
336.5684943419
 20
948.5176599466
 10
338.8160775586
 20
948.5176388484
 10
340.7344148745
 20
948.5176203717
 10
342.3152916747
 20
948.5176045956
 10
343.5519384019
 20
948.5175915877
 10
344.4390595451
 20
948.5175814036
 10
344.9728563153
 20
948.517574087
 10
345.1510429128
 20
948.5175696691
  0
LWPOLYLINE
  5
7B
330
1F
100
AcDbEntity
  8
0
  6
Continuous
 62
     7
370
    15
100
AcDbPolyline
 90
       49
 70
   128
 43
0.0
 10
179.4603857515
 20
950.1495200742
 10
179.6369555982
 20
950.1495215607
 10
180.165909039
 20
950.1495201496
 10
181.0449810142
 20
950.149515847
 10
182.2704072026
 20
950.1495086712
 10
183.8369401411
 20
950.149498653
 10
185.7378716951
 20
950.1494858353
 10
187.965061784
 20
950.149470273
 10
190.5089732377
 20
950.1494520327
 10
193.3587126371
 20
950.1494311926
 10
196.5020769603
 20
950.1494078418
 10
199.9256058388
 20
950.1493820804
 10
203.6146391964
 20
950.1493540186
 10
207.5533800259
 20
950.1493237767
 10
211.7249620344
 20
950.1492914842
 10
216.1115218672
 20
950.1492572792
 10
220.6942756018
 20
950.1492213083
 10
225.453599183
 20
950.1491837256
 10
230.3691124567
 20
950.1491446919
 10
235.4197664403
 20
950.1491043745
 10
240.5839334581
 20
950.1490629459
 10
245.8394997542
 20
950.1490205835
 10
251.1639601867
 20
950.1489774688
 10
256.5345145988
 20
950.1489337864
 10
261.9281654518
 20
950.1488897234
 10
267.3218163049
 20
950.1488454683
 10
272.6923707169
 20
950.1488012108
 10
278.0168311494
 20
950.1487571403
 10
283.2723974455
 20
950.1487134456
 10
288.4365644633
 20
950.1486703138
 10
293.4872184469
 20
950.1486279296
 10
298.4027317205
 20
950.1485864744
 10
303.1620553018
 20
950.1485461257
 10
307.7448090363
 20
950.1485070565
 10
312.1313688691
 20
950.1484694339
 10
316.3029508775
 20
950.1484334191
 10
320.241691707
 20
950.1483991662
 10
323.9307250645
 20
950.1483668221
 10
327.354253943
 20
950.1483365251
 10
330.4976182662
 20
950.148308405
 10
333.3473576655
 20
950.1482825822
 10
335.8912691192
 20
950.1482591673
 10
338.118459208
 20
950.1482382606
 10
340.019390762
 20
950.1482199515
 10
341.5859237005
 20
950.1482043186
 10
342.8113498888
 20
950.1481914286
 10
343.6904218639
 20
950.148181337
 10
344.2193753048
 20
950.1481740867
 10
344.3959451514
 20
950.148169709
  0
LWPOLYLINE
  5
7C
330
1F
100
AcDbEntity
  8
0
  6
Continuous
 62
     7
370
    15
100
AcDbPolyline
 90
       49
 70
   128
 43
0.0
 10
180.4604017247
 20
951.5352154546
 10
180.5049436327
 20
951.5352165543
 10
180.8609867142
 20
951.5352165615
 10
181.5715159914
 20
951.5352136473
 10
182.6334245006
 20
951.5352078244
 10
184.042068786
 20
951.5351991182
 10
185.7912892045
 20
951.5351875669
 10
187.8734368605
 20
951.5351732209
 10
190.2794070518
 20
951.535156143
 10
192.9986790831
 20
951.5351364079
 10
196.0193622697
 20
951.5351141018
 10
199.3282479325
 20
951.5350893223
 10
202.9108671565
 20
951.5350621777
 10
206.7515540593
 20
951.5350327868
 10
210.8335142943
 20
951.5350012781
 10
215.1388984881
 20
951.5349677892
 10
219.6488802909
 20
951.5349324668
 10
224.3437386999
 20
951.5348954652
 10
229.2029442938
 20
951.5348569462
 10
234.205249003
 20
951.5348170783
 10
239.3287790216
 20
951.5347760358
 10
244.5511304565
 20
951.5347339981
 10
249.8494672938
 20
951.5346911492
 10
255.2006212544
 20
951.5346476762
 10
260.5811931036
 20
951.5346037695
 10
265.9676549698
 20
951.5345596209
 10
271.3364532258
 20
951.5345154234
 10
276.6641114827
 20
951.5344713705
 10
281.9273332466
 20
951.5344276546
 10
287.103103788
 20
951.534384467
 10
292.168790779
 20
951.5343419964
 10
297.1022432594
 20
951.5343004287
 10
301.8818884968
 20
951.5342599456
 10
306.4868263187
 20
951.534220724
 10
310.8969205036
 20
951.5341829356
 10
315.0928868317
 20
951.5341467454
 10
319.05637741
 20
951.5341123119
 10
322.7700609025
 20
951.5340797856
 10
326.2176983163
 20
951.5340493086
 10
329.3842140102
 20
951.5340210143
 10
332.2557616166
 20
951.5339950264
 10
334.8197845887
 20
951.5339714585
 10
337.0650711062
 20
951.5339504137
 10
338.9818031025
 20
951.533931984
 10
340.5615991964
 20
951.5339162499
 10
341.7975513414
 20
951.5339032804
 10
342.6842550333
 20
951.533893132
 10
343.2178329424
 20
951.5338858493
 10
343.3959518683
 20
951.533881464
  0
LWPOLYLINE
  5
7D
330
1F
100
AcDbEntity
  8
0
  6
Continuous
 62
     7
370
    15
100
AcDbPolyline
 90
       49
 70
   128
 43
0.0
 10
181.7053242714
 20
952.6760185401
 10
181.7491855322
 20
952.6760196229
 10
182.0997879014
 20
952.67601963
 10
182.7994595446
 20
952.6760167603
 10
183.8451409759
 20
952.6760110264
 10
185.2322596965
 20
952.6760024532
 10
186.954750189
 20
952.6759910784
 10
189.0050804409
 20
952.6759769517
 10
191.3742848797
 20
952.6759601348
 10
194.052003577
 20
952.6759407012
 10
197.0265275505
 20
952.675918736
 10
200.2848499635
 20
952.6758943351
 10
203.8127230012
 20
952.6758676054
 10
207.5947201725
 20
952.6758386636
 10
211.6143037659
 20
952.6758076363
 10
215.8538971653
 20
952.6757746592
 10
220.2949617072
 20
952.6757398765
 10
224.9180777466
 20
952.6757034404
 10
229.7030295731
 20
952.67566551
 10
234.62889381
 20
952.6756262513
 10
239.6741309064
 20
952.675585836
 10
244.8166793239
 20
952.6755444407
 10
250.0340520069
 20
952.6755022465
 10
255.3034347122
 20
952.6754594379
 10
260.6017857699
 20
952.6754162021
 10
265.9059368389
 20
952.6753727281
 10
271.1926942161
 20
952.6753292061
 10
276.4389402568
 20
952.6752858263
 10
281.6217344618
 20
952.6752427784
 10
286.7184137907
 20
952.6752002507
 10
291.7066917617
 20
952.6751584292
 10
296.5647559043
 20
952.6751174967
 10
301.2713631402
 20
952.6750776321
 10
305.8059326734
 20
952.6750390099
 10
310.1486359852
 20
952.6750017989
 10
314.2804835388
 20
952.6749661618
 10
318.1834078164
 20
952.6749322545
 10
321.8403423229
 20
952.6749002252
 10
325.2352962144
 20
952.674870214
 10
328.3534242212
 20
952.674842352
 10
331.1810915629
 20
952.6748167612
 10
333.7059335697
 20
952.6747935535
 10
335.91690975
 20
952.6747728302
 10
337.8043520674
 20
952.6747546821
 10
339.360007217
 20
952.6747391885
 10
340.5770727145
 20
952.6747264172
 10
341.4502266422
 20
952.6747164239
 10
341.9756509202
 20
952.6747092525
 10
342.1510480018
 20
952.6747049341
  0
LWPOLYLINE
  5
7E
330
1F
100
AcDbEntity
  8
0
  6
Continuous
 62
     7
370
    15
100
AcDbPolyline
 90
       48
 70
   128
 43
0.0
 10
183.1951382857
 20
953.5719140719
 10
183.3709587543
 20
953.5719154912
 10
183.8976349032
 20
953.5719140252
 10
184.7728144689
 20
953.5719096805
 10
185.992588687
 20
953.5719024764
 10
187.5515097497
 20
953.5718924452
 10
189.4426151371
 20
953.5718796315
 10
191.6574587135
 20
953.5718640928
 10
194.1861484498
 20
953.5718458983
 10
197.0173906038
 20
953.5718251293
 10
200.1385401608
 20
953.5718018785
 10
203.5356573091
 20
953.5717762499
 10
207.1935696989
 20
953.5717483579
 10
211.0959402055
 20
953.571718327
 10
215.2253398949
 20
953.5716862914
 10
219.5633258657
 20
953.5716523942
 10
224.0905236194
 20
953.5716167867
 10
228.786713592
 20
953.571579628
 10
233.6309214589
 20
953.571541084
 10
238.6015118118
 20
953.571501327
 10
243.6762847877
 20
953.5714605344
 10
248.8325752185
 20
953.5714188884
 10
254.0473538594
 20
953.5713765751
 10
259.2973302432
 20
953.5713337833
 10
264.5590567008
 20
953.5712907044
 10
269.8090330845
 20
953.5712475306
 10
275.0238117254
 20
953.5712044547
 10
280.1801021562
 20
953.5711616692
 10
285.2548751321
 20
953.5711193652
 10
290.225465485
 20
953.5710777316
 10
295.0696733519
 20
953.5710369542
 10
299.7658633244
 20
953.5709972154
 10
304.2930610781
 20
953.5709586924
 10
308.6310470489
 20
953.5709215575
 10
312.7604467383
 20
953.5708859764
 10
316.6628172449
 20
953.5708521081
 10
320.3207296346
 20
953.5708201038
 10
323.7178467829
 20
953.5707901064
 10
326.8389963398
 20
953.57076225
 10
329.6702384938
 20
953.570736659
 10
332.1989282301
 20
953.5707134476
 10
334.4137718064
 20
953.5706927195
 10
336.3048771938
 20
953.5706745673
 10
337.8637982564
 20
953.570659072
 10
339.0835724745
 20
953.570646303
 10
339.9587520401
 20
953.5706363171
 10
340.485428189
 20
953.570629159
 10
340.6612486576
 20
953.5706248607
  0
LWPOLYLINE
  5
7F
330
1F
100
AcDbEntity
  8
0
  6
Continuous
 62
     7
370
    15
100
AcDbPolyline
 90
       48
 70
   128
 43
0.0
 10
184.9298437234
 20
954.22290205
 10
184.9737719833
 20
954.2229031041
 10
185.3248973827
 20
954.2229030503
 10
186.0255460766
 20
954.2229001157
 10
187.0725211659
 20
954.2228943134
 10
188.4610455433
 20
954.2228856701
 10
190.1847836906
 20
954.2228742251
 10
192.235870586
 20
954.2228600308
 10
194.6049475904
 20
954.2228431517
 10
197.2812051488
 20
954.222823665
 10
200.2524321118
 20
954.2228016596
 10
203.5050714522
 20
954.2227772358
 10
207.0242821228
 20
954.2227505052
 10
210.7940067724
 20
954.2227215896
 10
214.7970450121
 20
954.222690621
 10
219.0151318966
 20
954.2226577408
 10
223.4290212627
 20
954.2226230989
 10
228.0185735459
 20
954.2225868534
 10
232.7628476715
 20
954.2225491697
 10
237.640196605
 20
954.2225102197
 10
242.6283661218
 20
954.2224701812
 10
247.7045963485
 20
954.2224292368
 10
252.8457256108
 20
954.2223875734
 10
258.0282961152
 20
954.222345381
 10
263.2286609811
 20
954.2223028521
 10
268.4230921363
 20
954.2222601809
 10
273.5878885829
 20
954.222217562
 10
278.6994845392
 20
954.2221751899
 10
283.7345569655
 20
954.2221332579
 10
288.6701319809
 20
954.2220919574
 10
293.4836896888
 20
954.2220514767
 10
298.1532669293
 20
954.2220120006
 10
302.6575574925
 20
954.2219737092
 10
306.9760093338
 20
954.2219367772
 10
311.0889183477
 20
954.2219013732
 10
314.9775182739
 20
954.2218676586
 10
318.6240663227
 20
954.2218357874
 10
322.0119241318
 20
954.2218059048
 10
325.125633683
 20
954.2217781474
 10
327.9509878338
 20
954.2217526416
 10
330.4750951412
 20
954.221729504
 10
332.6864386826
 20
954.22170884
 10
334.5749286046
 20
954.221690744
 10
336.1319481607
 20
954.2216752986
 10
337.3503930278
 20
954.2216625741
 10
338.2247037216
 20
954.2216526287
 10
338.7508909628
 20
954.2216455077
 10
338.9265538797
 20
954.2216412436
  0
LINE
  5
80
330
1F
100
AcDbEntity
  8
0
  6
Continuous
 62
     7
370
    15
100
AcDbLine
 10
377.9287256217
 20
800.3239417635
 30
0.0
 11
145.9262217467
 21
800.3239417635
 31
0.0
  0
LINE
  5
81
330
1F
100
AcDbEntity
  8
0
  6
Continuous
 62
     7
370
    15
100
AcDbLine
 10
377.9287256217
 20
801.8239493928
 30
0.0
 11
145.9262217467
 21
801.8239493928
 31
0.0
  0
LINE
  5
82
330
1F
100
AcDbEntity
  8
0
  6
Continuous
 62
     7
370
    15
100
AcDbLine
 10
367.3929733133
 20
798.4516702257
 30
0.0
 11
156.4619740551
 21
798.4516702257
 31
0.0
  0
LINE
  5
83
330
1F
100
AcDbEntity
  8
0
  6
Continuous
 62
     7
370
    15
100
AcDbLine
 10
365.2176049499
 20
798.1716771684
 30
0.0
 11
158.6373424185
 21
798.1716771684
 31
0.0
  0
LINE
  5
84
330
1F
100
AcDbEntity
  8
0
  6
Continuous
 62
     7
370
    15
100
AcDbLine
 10
365.9286888384
 20
829.5241113267
 30
0.0
 11
157.92625853
 21
829.5241113267
 31
0.0
  0
LINE
  5
85
330
1F
100
AcDbEntity
  8
0
  6
Continuous
 62
     7
370
    15
100
AcDbLine
 10
363.0011235611
 20
797.935417708
 30
0.0
 11
160.8538238073
 21
797.935417708
 31
0.0
  0
LINE
  5
86
330
1F
100
AcDbEntity
  8
0
  6
Continuous
 62
     7
370
    15
100
AcDbLine
 10
353.7326766307
 20
797.9268022142
 30
0.0
 11
170.1222707377
 21
797.9268022142
 31
0.0
  0
LWPOLYLINE
  5
87
330
1F
100
AcDbEntity
  8
0
  6
Continuous
 62
     7
370
    15
100
AcDbPolyline
 90
       27
 70
   128
 43
0.0
 10
261.9254494354
 20
797.7678629457
 10
267.6237900398
 20
797.767862035
 10
273.3000848714
 20
797.7678606699
 10
278.9323734482
 20
797.7678588558
 10
284.4988655399
 20
797.7678565996
 10
289.97802547
 20
797.7678539101
 10
295.348655433
 20
797.7678507977
 10
300.5899775052
 20
797.7678472744
 10
305.6817140294
 20
797.7678433539
 10
310.6041660664
 20
797.7678390514
 10
315.3382896053
 20
797.7678343833
 10
319.8657692421
 20
797.767829368
 10
324.1690890374
 20
797.7678240246
 10
328.2316002829
 20
797.767818374
 10
332.037585912
 20
797.767812438
 10
335.5723213055
 20
797.7678062395
 10
338.8221312589
 20
797.7677998025
 10
341.7744428889
 20
797.7677931519
 10
344.4178342752
 20
797.7677863135
 10
346.7420786501
 20
797.7677793137
 10
348.7381839637
 20
797.7677721795
 10
350.3984276722
 20
797.7677649387
 10
351.7163866154
 20
797.7677576192
 10
352.6869618661
 20
797.7677502492
 10
353.3063984571
 20
797.7677428575
 10
353.5722999087
 20
797.7677354724
 10
353.5833847204
 20
797.7677336304
  0
LWPOLYLINE
  5
88
330
1F
100
AcDbEntity
  8
0
  6
Continuous
 62
     7
370
    15
100
AcDbPolyline
 90
       27
 70
   128
 43
0.0
 10
170.2675141503
 20
797.7677555635
 10
170.2785989621
 20
797.7677574029
 10
170.5445004137
 20
797.7677647244
 10
171.1639370047
 20
797.7677719679
 10
172.1345122554
 20
797.7677791056
 10
173.4524711985
 20
797.7677861097
 10
175.1127149071
 20
797.7677929533
 10
177.1088202207
 20
797.7677996097
 10
179.4330645956
 20
797.7678060534
 10
182.0764559819
 20
797.7678122593
 10
185.0287676119
 20
797.7678182034
 10
188.2785775653
 20
797.7678238627
 10
191.8133129588
 20
797.7678292154
 10
195.6192985879
 20
797.7678342407
 10
199.6818098334
 20
797.7678389192
 10
203.9851296287
 20
797.7678432327
 10
208.5126092655
 20
797.7678471647
 10
213.2467328044
 20
797.7678506999
 10
218.1691848414
 20
797.7678538245
 10
223.2609213656
 20
797.7678565266
 10
228.5022434377
 20
797.7678587957
 10
233.8728734008
 20
797.7678606229
 10
239.3520333309
 20
797.7678620013
 10
244.9185254226
 20
797.7678629254
 10
250.5508139994
 20
797.7678633918
 10
256.227108831
 20
797.7678633985
 10
261.9254494354
 20
797.7678629457
  0
LWPOLYLINE
  5
89
330
1F
100
AcDbEntity
  8
0
  6
Continuous
 62
     7
370
    15
100
AcDbPolyline
 90
       27
 70
   128
 43
0.0
 10
261.9254494267
 20
797.6955495237
 10
267.6183372662
 20
797.6955486139
 10
273.2892004285
 20
797.6955472501
 10
278.9160994457
 20
797.6955454377
 10
284.4772649388
 20
797.6955431837
 10
289.9511818388
 20
797.6955404968
 10
295.3166726245
 20
797.6955373874
 10
300.5529792545
 20
797.6955338675
 10
305.6398434757
 20
797.6955299507
 10
310.5575851985
 20
797.6955256523
 10
315.2871786357
 20
797.6955209887
 10
319.810325909
 20
797.6955159781
 10
324.1095278403
 20
797.6955106399
 10
328.1681516526
 20
797.6955049947
 10
331.9704953187
 20
797.6954990643
 10
335.5018483098
 20
797.6954928718
 10
338.748548507
 20
797.6954864409
 10
341.6980350581
 20
797.6954797967
 10
344.3388969726
 20
797.6954729648
 10
346.6609172688
 20
797.6954659717
 10
348.6551125012
 20
797.6954588444
 10
350.3137675159
 20
797.6954516105
 10
351.6304652988
 20
797.695444298
 10
352.6001118021
 20
797.6954369351
 10
353.2189556518
 20
797.6954295504
 10
353.4846026612
 20
797.6954221724
 10
353.4956768659
 20
797.6954203321
  0
LWPOLYLINE
  5
8A
330
1F
100
AcDbEntity
  8
0
  6
Continuous
 62
     7
370
    15
100
AcDbPolyline
 90
       27
 70
   128
 43
0.0
 10
170.3552219876
 20
797.6954422443
 10
170.3662961923
 20
797.695444082
 10
170.6319432017
 20
797.6954513964
 10
171.2507870514
 20
797.695458633
 10
172.2204335546
 20
797.6954657638
 10
173.5371313376
 20
797.6954727613
 10
175.1957863523
 20
797.6954795983
 10
177.1899815847
 20
797.6954862484
 10
179.5120018809
 20
797.6954926859
 10
182.1528637954
 20
797.6954988858
 10
185.1023503465
 20
797.6955048242
 10
188.3490505437
 20
797.6955104781
 10
191.8804035348
 20
797.6955158257
 10
195.6827472009
 20
797.6955208462
 10
199.7413710132
 20
797.6955255202
 10
204.0405729445
 20
797.6955298296
 10
208.5637202178
 20
797.6955337578
 10
213.293313655
 20
797.6955372896
 10
218.2110553778
 20
797.6955404113
 10
223.297919599
 20
797.6955431108
 10
228.534226229
 20
797.6955453777
 10
233.8997170147
 20
797.6955472032
 10
239.3736339146
 20
797.6955485802
 10
244.9347994077
 20
797.6955495035
 10
250.561698425
 20
797.6955499694
 10
256.2325615873
 20
797.6955499761
 10
261.9254494267
 20
797.6955495237
  0
LWPOLYLINE
  5
8B
330
1F
100
AcDbEntity
  8
0
  6
Continuous
 62
     7
370
    15
100
AcDbPolyline
 90
       27
 70
   128
 43
0.0
 10
261.9254494191
 20
797.6318973485
 10
267.6117593523
 20
797.6318964397
 10
273.276070057
 20
797.6318950776
 10
278.8964674155
 20
797.6318932673
 10
284.4512072022
 20
797.6318910158
 10
289.9187992082
 20
797.631888332
 10
295.278090382
 20
797.6318852262
 10
300.5083466672
 20
797.6318817104
 10
305.5893332184
 20
797.6318777981
 10
310.5013926856
 20
797.6318735046
 10
315.225521265
 20
797.6318688465
 10
319.7434422209
 20
797.6318638417
 10
324.0376765948
 20
797.6318585097
 10
328.0916108281
 20
797.631852871
 10
331.8895610368
 20
797.6318469475
 10
335.4168336895
 20
797.631840762
 10
338.6597824533
 20
797.6318343386
 10
341.6058609896
 20
797.6318277021
 10
344.2436714928
 20
797.6318208781
 10
346.5630087866
 20
797.6318138931
 10
348.5548998054
 20
797.631806774
 10
350.21163831
 20
797.6317995485
 10
351.5268147009
 20
797.6317922444
 10
352.4953408161
 20
797.63178489
 10
353.1134696162
 20
797.6317775138
 10
353.378809681
 20
797.6317701444
 10
353.3898710898
 20
797.6317683062
  0
LWPOLYLINE
  5
8C
330
1F
100
AcDbEntity
  8
0
  6
Continuous
 62
     7
370
    15
100
AcDbPolyline
 90
       27
 70
   128
 43
0.0
 10
170.4610277485
 20
797.631790193
 10
170.4720891572
 20
797.6317920286
 10
170.737429222
 20
797.6317993346
 10
171.3555580222
 20
797.6318065628
 10
172.3240841374
 20
797.6318136854
 10
173.6392605282
 20
797.6318206748
 10
175.2959990328
 20
797.6318275039
 10
177.2878900517
 20
797.6318341463
 10
179.6072273454
 20
797.6318405763
 10
182.2450378486
 20
797.6318467691
 10
185.1911163849
 20
797.6318527007
 10
188.4340651488
 20
797.6318583481
 10
191.9613378014
 20
797.6318636894
 10
195.7592880101
 20
797.6318687041
 10
199.8132222435
 20
797.6318733727
 10
204.1074566174
 20
797.6318776772
 10
208.6253775733
 20
797.6318816009
 10
213.3495061527
 20
797.6318851286
 10
218.2615656199
 20
797.6318882466
 10
223.3425521711
 20
797.631890943
 10
228.5728084563
 20
797.6318932073
 10
233.9320996301
 20
797.6318950307
 10
239.399691636
 20
797.6318964061
 10
244.9544314228
 20
797.6318973283
 10
250.5748287813
 20
797.6318977937
 10
256.239139486
 20
797.6318978004
 10
261.9254494191
 20
797.6318973485
  0
LWPOLYLINE
  5
8D
330
1F
100
AcDbEntity
  8
0
  6
Continuous
 62
     7
370
    15
100
AcDbPolyline
 90
       27
 70
   128
 43
0.0
 10
261.9254494129
 20
797.5797884161
 10
267.6036799974
 20
797.5797875086
 10
273.259942611
 20
797.5797861483
 10
278.8723542722
 20
797.5797843406
 10
284.4192016508
 20
797.5797820924
 10
289.8790250717
 20
797.5797794124
 10
295.2307015389
 20
797.579776311
 10
300.4535264558
 20
797.5797728001
 10
305.5272937273
 20
797.5797688935
 10
310.4323739336
 20
797.5797646061
 10
315.1497902722
 20
797.5797599545
 10
319.6612919757
 20
797.5797549569
 10
323.9494249206
 20
797.5797496324
 10
327.9975991534
 20
797.5797440017
 10
331.7901530746
 20
797.5797380866
 10
335.3124140297
 20
797.57973191
 10
338.5507550753
 20
797.5797254957
 10
341.4926476992
 20
797.5797188686
 10
344.1267102902
 20
797.5797120543
 10
346.4427521718
 20
797.5797050792
 10
348.431813028
 20
797.5796979703
 10
350.0861975688
 20
797.579690755
 10
351.3995053016
 20
797.5796834613
 10
352.3666552942
 20
797.5796761174
 10
352.9839058309
 20
797.5796687517
 10
353.2488688894
 20
797.5796613927
 10
353.2599145813
 20
797.5796595569
  0
LWPOLYLINE
  5
8E
330
1F
100
AcDbEntity
  8
0
  6
Continuous
 62
     7
370
    15
100
AcDbPolyline
 90
       27
 70
   128
 43
0.0
 10
170.5909842444
 20
797.5796814127
 10
170.6020299364
 20
797.5796832458
 10
170.8669929949
 20
797.5796905414
 10
171.4842435316
 20
797.5796977594
 10
172.4513935241
 20
797.5797048718
 10
173.764701257
 20
797.5797118513
 10
175.4190857977
 20
797.5797186707
 10
177.4081466539
 20
797.5797253037
 10
179.7241885356
 20
797.5797317246
 10
182.3582511266
 20
797.5797379085
 10
185.3001437504
 20
797.5797438317
 10
188.5384847961
 20
797.579749471
 10
192.0607457512
 20
797.5797548048
 10
195.8532996724
 20
797.5797598124
 10
199.9014739052
 20
797.5797644743
 10
204.1896068501
 20
797.5797687727
 10
208.7011085536
 20
797.5797726908
 10
213.4185248922
 20
797.5797762135
 10
218.3236050985
 20
797.5797793271
 10
223.39737237
 20
797.5797820197
 10
228.6201972868
 20
797.5797842807
 10
233.971873754
 20
797.5797861015
 10
239.431697175
 20
797.579787475
 10
244.9785445536
 20
797.5797883959
 10
250.5909562148
 20
797.5797888606
 10
256.2472188283
 20
797.5797888673
 10
261.9254494129
 20
797.5797884161
  0
LWPOLYLINE
  5
8F
330
1F
100
AcDbEntity
  8
0
  6
Continuous
 62
     7
370
    15
100
AcDbPolyline
 90
       27
 70
   128
 43
0.0
 10
261.9254494084
 20
797.5421104444
 10
267.5937247846
 20
797.5421095385
 10
273.2400707046
 20
797.5421081807
 10
278.8426425528
 20
797.5421063761
 10
284.3797650672
 20
797.5421041318
 10
289.8300161964
 20
797.5421014565
 10
295.1723099777
 20
797.5420983605
 10
300.3859781142
 20
797.5420948559
 10
305.4508499368
 20
797.542090956
 10
310.3473304403
 20
797.5420866762
 10
315.0564760929
 20
797.5420820328
 10
319.5600681248
 20
797.5420770439
 10
323.8406830134
 20
797.5420717287
 10
327.8817598913
 20
797.5420661079
 10
331.6676646171
 20
797.5420602032
 10
335.1837502609
 20
797.5420540374
 10
338.4164137704
 20
797.5420476344
 10
341.3531485984
 20
797.5420410189
 10
343.9825930885
 20
797.5420342165
 10
346.2945744307
 20
797.5420272537
 10
348.2801480183
 20
797.5420201572
 10
349.9316320529
 20
797.5420129545
 10
351.2426372635
 20
797.5420056736
 10
352.2080916258
 20
797.5419983426
 10
352.8242599842
 20
797.5419909898
 10
353.0887585032
 20
797.5419836437
 10
353.0997848287
 20
797.5419818109
  0
LWPOLYLINE
  5
90
330
1F
100
AcDbEntity
  8
0
  6
Continuous
 62
     7
370
    15
100
AcDbPolyline
 90
       27
 70
   128
 43
0.0
 10
170.7511139881
 20
797.5420036284
 10
170.7621403136
 20
797.5420054585
 10
171.0266388326
 20
797.5420127413
 10
171.642807191
 20
797.5420199467
 10
172.6082615532
 20
797.5420270467
 10
173.9192667639
 20
797.5420340139
 10
175.5707507985
 20
797.5420408213
 10
177.5563243861
 20
797.5420474427
 10
179.8683057283
 20
797.5420538523
 10
182.4977502183
 20
797.5420600254
 10
185.4344850464
 20
797.5420659382
 10
188.6671485558
 20
797.5420715676
 10
192.1832341996
 20
797.5420768921
 10
195.9691389254
 20
797.5420818909
 10
200.0102158033
 20
797.5420865447
 10
204.290830692
 20
797.5420908355
 10
208.7944227239
 20
797.5420947467
 10
213.5035683765
 20
797.5420982632
 10
218.40004888
 20
797.5421013714
 10
223.4649207025
 20
797.5421040592
 10
228.6785888391
 20
797.5421063163
 10
234.0208826203
 20
797.5421081339
 10
239.4711337496
 20
797.542109505
 10
245.008256264
 20
797.5421104243
 10
250.6108281122
 20
797.5421108882
 10
256.2571740322
 20
797.5421108949
 10
261.9254494084
 20
797.5421104444
  0
LWPOLYLINE
  5
91
330
1F
100
AcDbEntity
  8
0
  6
Continuous
 62
     7
370
    15
100
AcDbPolyline
 90
       27
 70
   128
 43
0.0
 10
261.9254494059
 20
797.521753059
 10
267.5815183467
 20
797.521752155
 10
273.2157050555
 20
797.5217508001
 10
278.8062119585
 20
797.5217489994
 10
284.3314104706
 20
797.5217467599
 10
289.7699246721
 20
797.5217440904
 10
295.100714008
 20
797.5217410011
 10
300.3031546901
 20
797.521737504
 10
305.3571194859
 20
797.5217336125
 10
310.2430555876
 20
797.5217293419
 10
314.9420602574
 20
797.5217247085
 10
319.4359539593
 20
797.5217197303
 10
323.7073506914
 20
797.5217144266
 10
327.7397252497
 20
797.5217088179
 10
331.5174771603
 20
797.5217029259
 10
335.025991035
 20
797.5216967734
 10
338.2516931151
 20
797.5216903842
 10
341.182103786
 20
797.5216837829
 10
343.8058858581
 20
797.5216769952
 10
346.1128884282
 20
797.5216700473
 10
348.0941861516
 20
797.5216629661
 10
349.7421137723
 20
797.521655779
 10
351.0502957784
 20
797.5216485138
 10
352.013671068
 20
797.5216411985
 10
352.6285125291
 20
797.5216338616
 10
352.8924414597
 20
797.5216265313
 10
352.9034440347
 20
797.5216247017
  0
LWPOLYLINE
  5
92
330
1F
100
AcDbEntity
  8
0
  6
Continuous
 62
     7
370
    15
100
AcDbPolyline
 90
       27
 70
   128
 43
0.0
 10
170.9474547772
 20
797.5216464721
 10
170.9584573522
 20
797.5216482991
 10
171.2223862828
 20
797.5216555663
 10
171.8372277439
 20
797.5216627561
 10
172.8006030335
 20
797.5216698408
 10
174.1087850396
 20
797.521676793
 10
175.7567126603
 20
797.5216835858
 10
177.7380103837
 20
797.5216901929
 10
180.0450129538
 20
797.5216965887
 10
182.6687950259
 20
797.5217027485
 10
185.5992056968
 20
797.5217086485
 10
188.8249077769
 20
797.5217142659
 10
192.3334216516
 20
797.5217195789
 10
196.1111735622
 20
797.5217245669
 10
200.1435481204
 20
797.5217292107
 10
204.4149448526
 20
797.5217334922
 10
208.9088385545
 20
797.521737395
 10
213.6078432243
 20
797.521740904
 10
218.493779326
 20
797.5217440055
 10
223.5477441218
 20
797.5217466875
 10
228.7501848039
 20
797.5217489397
 10
234.0809741398
 20
797.5217507534
 10
239.5194883413
 20
797.5217521216
 10
245.0446868534
 20
797.5217530388
 10
250.6351937564
 20
797.5217535017
 10
256.2693804652
 20
797.5217535085
 10
261.9254494059
 20
797.521753059
  0
SPLINE
  5
93
330
1F
100
AcDbEntity
  8
0
  6
Continuous
 62
     7
370
    15
100
AcDbSpline
210
0.0
220
0.0
230
1.0
 70
     8
 71
     3
 72
    15
 73
    11
 74
     0
 42
0.00000001
 43
0.00000001
 12
1.0
 22
0.0
 32
0.0
 13
1.0
 23
0.0
 33
0.0
 40
0.0
 40
0.0
 40
0.0
 40
0.0
 40
0.1425032647326113
 40
0.2849671566258086
 40
0.4274605292848945
 40
0.5699668666594666
 40
0.7124357663910778
 40
0.8523747374475232
 40
0.9923514660335001
 40
1.0
 40
1.0
 40
1.0
 40
1.0
 10
213.6742803202998
 20
797.7677445970111
 30
0.0
 10
210.8701536462888
 20
797.7657361569828
 30
0.0
 10
205.2626750624761
 20
797.761719831847
 30
0.0
 10
197.6092769367189
 20
797.8863865646643
 30
0.0
 10
190.8216070272827
 20
797.8144966281599
 30
0.0
 10
184.7924622639244
 20
797.9038917550765
 30
0.0
 10
179.9320259679901
 20
797.7036716436282
 30
0.0
 10
175.8645994804236
 20
797.8896004408145
 30
0.0
 10
173.6169137134778
 20
797.8603350677924
 30
0.0
 10
172.9613016927456
 20
797.8468317601311
 30
0.0
 10
172.9273341270138
 20
797.8461321474392
 30
0.0
  0
SPLINE
  5
94
330
1F
100
AcDbEntity
  8
0
  6
Continuous
 62
     7
370
    15
100
AcDbSpline
210
0.0
220
0.0
230
1.0
 70
     8
 71
     3
 72
     9
 73
     5
 74
     0
 42
0.00000001
 43
0.00000001
 12
1.0
 22
0.0
 32
0.0
 13
1.0
 23
0.0
 33
0.0
 40
0.0
 40
0.0
 40
0.0
 40
0.0
 40
0.5934957821854546
 40
1.0
 40
1.0
 40
1.0
 40
1.0
 10
170.7725282183806
 20
797.7890537495932
 30
0.0
 10
170.5657913080982
 20
797.7782069868268
 30
0.0
 10
170.2174536846677
 20
797.7599309297898
 30
0.0
 10
170.350380974108
 20
797.7623380662335
 30
0.0
 10
170.4044164779282
 20
797.7633165773509
 30
0.0
  0
LINE
  5
95
330
1F
100
AcDbEntity
  8
0
  6
Continuous
 62
     7
370
    15
100
AcDbLine
 10
170.7181401222
 20
797.7741509231
 30
0.0
 11
171.2007666116
 21
797.8067777793
 31
0.0
  0
LINE
  5
96
330
1F
100
AcDbEntity
  8
0
  6
Continuous
 62
     7
370
    15
100
AcDbLine
 10
171.7998020198
 20
797.8472741932
 30
0.0
 11
172.9079211482
 21
797.8457367208
 31
0.0
  0
SPLINE
  5
97
330
1F
100
AcDbEntity
  8
0
  6
Continuous
 62
     7
370
    15
100
AcDbSpline
210
0.0
220
0.0
230
1.0
 70
     8
 71
     3
 72
    14
 73
    10
 74
     0
 42
0.00000001
 43
0.00000001
 12
1.0
 22
0.0
 32
0.0
 13
1.0
 23
0.0
 33
0.0
 40
0.0
 40
0.0
 40
0.0
 40
0.0
 40
0.1633019904901598
 40
0.3266039270994252
 40
0.4899059801381737
 40
0.6532079566852395
 40
0.8165102844359654
 40
0.9798114786285463
 40
1.0
 40
1.0
 40
1.0
 40
1.0
 10
329.7707158671748
 20
797.9268041215473
 30
0.0
 10
332.1640459806048
 20
797.9268037663949
 30
0.0
 10
336.9507054177943
 20
797.9268030560902
 30
0.0
 10
342.7761187702181
 20
797.9268005910773
 30
0.0
 10
347.4883001202205
 20
797.9268159455141
 30
0.0
 10
350.9633678023797
 20
797.9267352462646
 30
0.0
 10
353.0458665561969
 20
797.9270249568624
 30
0.0
 10
353.8492613834604
 20
797.9264701169307
 30
0.0
 10
353.6932272217965
 20
797.9267343178949
 30
0.0
 10
353.6760595075312
 20
797.9267633867001
 30
0.0
  0
SPLINE
  5
98
330
1F
100
AcDbEntity
  8
0
  6
Continuous
 62
     7
370
    15
100
AcDbSpline
210
0.0
220
0.0
230
1.0
 70
     8
 71
     3
 72
    14
 73
    10
 74
     0
 42
0.00000001
 43
0.00000001
 12
1.0
 22
0.0
 32
0.0
 13
1.0
 23
0.0
 33
0.0
 40
0.0
 40
0.0
 40
0.0
 40
0.0
 40
0.0668170488717652
 40
0.2301131366332632
 40
0.3840894008507567
 40
0.5380647543394618
 40
0.6920443900499391
 40
0.8460139671748399
 40
1.0
 40
1.0
 40
1.0
 40
1.0
 10
353.4997651672371
 20
797.845954469108
 30
0.0
 10
353.5393112883397
 20
797.845850695762
 30
0.0
 10
353.6755053005306
 20
797.8454933077818
 30
0.0
 10
352.5321369617537
 20
797.8457574516498
 30
0.0
 10
350.1905933248269
 20
797.8465430133243
 30
0.0
 10
346.6796222272594
 20
797.8430970334774
 30
0.0
 10
342.085723594895
 20
797.8549838373795
 30
0.0
 10
336.4784316882656
 20
797.8181252746488
 30
0.0
 10
332.0067007902984
 20
797.8905765487626
 30
0.0
 10
329.7707158671748
 20
797.9268041215473
 30
0.0
  0
SPLINE
  5
99
330
1F
100
AcDbEntity
  8
0
  6
Continuous
 62
     7
370
    15
100
AcDbSpline
210
0.0
220
0.0
230
1.0
 70
     8
 71
     3
 72
    26
 73
    22
 74
     0
 42
0.00000001
 43
0.00000001
 12
1.0
 22
0.0
 32
0.0
 13
1.0
 23
0.0
 33
0.0
 40
0.0
 40
0.0
 40
0.0
 40
0.0
 40
0.166599626098959
 40
0.1666121184687959
 40
0.2499572312252525
 40
0.2499662929613364
 40
0.3333149663966424
 40
0.3333205458099746
 40
0.4166727015680323
 40
0.4166747986586128
 40
0.5000289359845411
 40
0.5000303066943258
 40
0.5833832092529327
 40
0.5833880113595326
 40
0.6667098922832868
 40
0.6667206791991579
 40
0.7499953780968833
 40
0.7500151859142372
 40
0.8332808715523278
 40
0.8333096544315681
 40
1.0
 40
1.0
 40
1.0
 40
1.0
 10
295.0375920878779
 20
797.7677445970111
 30
0.0
 10
289.7545063330903
 20
797.6919241847802
 30
0.0
 10
284.3280705139906
 20
797.8175835431026
 30
0.0
 10
276.0093983435631
 20
797.8599559870735
 30
0.0
 10
273.2052645958534
 20
797.849695924242
 30
0.0
 10
267.5770312800933
 20
797.8419642566905
 30
0.0
 10
264.7520176851948
 20
797.8444947566318
 30
0.0
 10
259.1015088658978
 20
797.8471641165004
 30
0.0
 10
256.2754469628302
 20
797.847302736211
 30
0.0
 10
250.6493547031466
 20
797.844356425338
 30
0.0
 10
247.8490193197873
 20
797.8412713291457
 30
0.0
 10
242.2915672872234
 20
797.8503879135808
 30
0.0
 10
239.5341753967975
 20
797.8625894660781
 30
0.0
 10
234.1106717305386
 20
797.8290729605585
 30
0.0
 10
231.4439792570942
 20
797.7833731759478
 30
0.0
 10
226.1874434092992
 20
797.7521187974353
 30
0.0
 10
223.5964510842958
 20
797.7665233406683
 30
0.0
 10
218.5432055888472
 20
797.7689665943064
 30
0.0
 10
216.0791493608401
 20
797.7570147122999
 30
0.0
 10
208.8566227918083
 20
797.7892396926704
 30
0.0
 10
204.2679350965079
 20
797.9015876102277
 30
0.0
 10
200.0784055339228
 20
797.9268022141986
 30
0.0
  0
SPLINE
  5
9A
330
1F
100
AcDbEntity
  8
0
  6
Continuous
 62
     7
370
    15
100
AcDbSpline
210
0.0
220
0.0
230
1.0
 70
     8
 71
     3
 72
     9
 73
     5
 74
     0
 42
0.00000001
 43
0.00000001
 12
1.0
 22
0.0
 32
0.0
 13
1.0
 23
0.0
 33
0.0
 40
0.0
 40
0.0
 40
0.0
 40
0.0
 40
0.5602638997351905
 40
1.0
 40
1.0
 40
1.0
 40
1.0
 10
295.0375920878779
 20
797.7677445970111
 30
0.0
 10
292.0660791642939
 20
797.7993547723263
 30
0.0
 10
286.7623054873024
 20
797.8557749259896
 30
0.0
 10
281.2157704118687
 20
797.897965978022
 30
0.0
 10
278.7767587078155
 20
797.9165189067086
 30
0.0
  0
SPLINE
  5
9B
330
1F
100
AcDbEntity
  8
0
  6
Continuous
 62
     7
370
    15
100
AcDbSpline
210
0.0
220
0.0
230
1.0
 70
     8
 71
     3
 72
     9
 73
     5
 74
     0
 42
0.00000001
 43
0.00000001
 12
1.0
 22
0.0
 32
0.0
 13
1.0
 23
0.0
 33
0.0
 40
0.0
 40
0.0
 40
0.0
 40
0.0
 40
0.3604510904168705
 40
1.0
 40
1.0
 40
1.0
 40
1.0
 10
270.3854065768496
 20
797.9273921283827
 30
0.0
 10
269.3742325923357
 20
797.9263796923034
 30
0.0
 10
266.5689310926386
 20
797.9235708893717
 30
0.0
 10
263.7380617784049
 20
797.9254144985027
 30
0.0
 10
261.9275823953143
 20
797.9265935767121
 30
0.0
  0
SPLINE
  5
9C
330
1F
100
AcDbEntity
  8
0
  6
Continuous
 62
     7
370
    15
100
AcDbSpline
210
0.0
220
0.0
230
1.0
 70
     8
 71
     3
 72
    12
 73
     8
 74
     0
 42
0.00000001
 43
0.00000001
 12
1.0
 22
0.0
 32
0.0
 13
1.0
 23
0.0
 33
0.0
 40
0.0
 40
0.0
 40
0.0
 40
0.0
 40
0.1069012827702297
 40
0.3994894515893956
 40
0.6920041987001241
 40
0.9845687957459661
 40
1.0
 40
1.0
 40
1.0
 40
1.0
 10
233.6853291870141
 20
797.8879362758124
 30
0.0
 10
232.6425172738386
 20
797.8777163726289
 30
0.0
 10
228.7455354181503
 20
797.8395246558196
 30
0.0
 10
222.2517057191574
 20
797.8565597452841
 30
0.0
 10
214.4208538666429
 20
797.8055383381909
 30
0.0
 10
209.1571987218181
 20
797.9217217056513
 30
0.0
 10
206.7390298576354
 20
797.9223681427155
 30
0.0
 10
206.6178747720581
 20
797.9224005305025
 30
0.0
  0
SPLINE
  5
9D
330
1F
100
AcDbEntity
  8
0
  6
Continuous
 62
     7
370
    15
100
AcDbSpline
210
0.0
220
0.0
230
1.0
 70
     8
 71
     3
 72
    16
 73
    12
 74
     0
 42
0.00000001
 43
0.00000001
 12
1.0
 22
0.0
 32
0.0
 13
1.0
 23
0.0
 33
0.0
 40
0.0
 40
0.0
 40
0.0
 40
0.0
 40
0.2856941236061989
 40
0.2857143110054546
 40
0.42856459748085
 40
0.4285713753552777
 40
0.5714285355377478
 40
0.5714352693634807
 40
0.714285824318936
 40
0.7143059412461114
 40
1.0
 40
1.0
 40
1.0
 40
1.0
 10
228.8154775248896
 20
797.7677445970111
 30
0.0
 10
234.052005272122
 20
797.8677561727687
 30
0.0
 10
239.5157781195624
 20
797.8499399481923
 30
0.0
 10
247.8486668301939
 20
797.8437735672744
 30
0.0
 10
250.6496293710391
 20
797.84514431476
 30
0.0
 10
256.2755625838563
 20
797.8465149011378
 30
0.0
 10
259.1011962405195
 20
797.8465149002741
 30
0.0
 10
264.7513508848616
 20
797.8451443137018
 30
0.0
 10
267.5765362980202
 20
797.8437735660611
 30
0.0
 10
276.0170549277003
 20
797.8499399470315
 30
0.0
 10
281.5992129924827
 20
797.8677561205526
 30
0.0
 10
287.0102254496943
 20
797.7677445970111
 30
0.0
  0
SPLINE
  5
9E
330
1F
100
AcDbEntity
  8
0
  6
Continuous
 62
     7
370
    15
100
AcDbSpline
210
0.0
220
0.0
230
1.0
 70
     8
 71
     3
 72
    12
 73
     8
 74
     0
 42
0.00000001
 43
0.00000001
 12
1.0
 22
0.0
 32
0.0
 13
1.0
 23
0.0
 33
0.0
 40
0.0
 40
0.0
 40
0.0
 40
0.0
 40
0.3999868587124599
 40
0.4000000019308388
 40
0.5999998121275122
 40
0.6000130776288064
 40
1.0
 40
1.0
 40
1.0
 40
1.0
 10
179.876733933581
 20
797.7677445970111
 30
0.0
 10
182.3101221811198
 20
797.8666654663216
 30
0.0
 10
185.3118704866202
 20
797.8510368490983
 30
0.0
 10
190.4254455093924
 20
797.8432253786128
 30
0.0
 10
192.2320397077077
 20
797.8432269651759
 30
0.0
 10
197.9365655034665
 20
797.8510393907609
 30
0.0
 10
202.1201630427265
 20
797.866657227468
 30
0.0
 10
206.6896306620966
 20
797.7677445970111
 30
0.0
  0
SPLINE
  5
9F
330
1F
100
AcDbEntity
  8
0
  6
Continuous
 62
     7
370
    15
100
AcDbSpline
210
0.0
220
0.0
230
1.0
 70
     8
 71
     3
 72
    12
 73
     8
 74
     0
 42
0.00000001
 43
0.00000001
 12
1.0
 22
0.0
 32
0.0
 13
1.0
 23
0.0
 33
0.0
 40
0.0
 40
0.0
 40
0.0
 40
0.0
 40
0.3999868587124599
 40
0.4000000019308388
 40
0.5999998121275122
 40
0.6000130776288064
 40
1.0
 40
1.0
 40
1.0
 40
1.0
 10
179.876733933581
 20
797.7677445970111
 30
0.0
 10
182.3926928919083
 20
797.7677499374108
 30
0.0
 10
185.3784334700989
 20
797.7677443428807
 30
0.0
 10
190.4821944870254
 20
797.7677447240636
 30
0.0
 10
192.2878836513621
 20
797.7677463137287
 30
0.0
 10
197.9936916363234
 20
797.7677468856604
 30
0.0
 10
202.1834723441263
 20
797.7677416725132
 30
0.0
 10
206.6896306620966
 20
797.7677445970111
 30
0.0
  0
SPLINE
  5
A0
330
1F
100
AcDbEntity
  8
0
  6
Continuous
 62
     7
370
    15
100
AcDbSpline
210
0.0
220
0.0
230
1.0
 70
     8
 71
     3
 72
    10
 73
     6
 74
     0
 42
0.00000001
 43
0.00000001
 12
1.0
 22
0.0
 32
0.0
 13
1.0
 23
0.0
 33
0.0
 40
0.0
 40
0.0
 40
0.0
 40
0.0
 40
0.1198118370225409
 40
0.559934084716544
 40
1.0
 40
1.0
 40
1.0
 40
1.0
 10
170.2754501742109
 20
797.8447317188713
 30
0.0
 10
170.2494381808932
 20
797.8449675864323
 30
0.0
 10
170.1278725490495
 20
797.8460699006122
 30
0.0
 10
170.6052091518773
 20
797.828711914623
 30
0.0
 10
171.3253594852139
 20
797.8941068427744
 30
0.0
 10
171.6854116069208
 20
797.9268022141986
 30
0.0
  0
SPLINE
  5
A1
330
1F
100
AcDbEntity
  8
0
  6
Continuous
 62
     7
370
    15
100
AcDbSpline
210
0.0
220
0.0
230
1.0
 70
     8
 71
     3
 72
    10
 73
     6
 74
     0
 42
0.00000001
 43
0.00000001
 12
1.0
 22
0.0
 32
0.0
 13
1.0
 23
0.0
 33
0.0
 40
0.0
 40
0.0
 40
0.0
 40
0.0
 40
0.500000079684071
 40
0.5000001077475786
 40
1.0
 40
1.0
 40
1.0
 40
1.0
 10
179.876733933581
 20
797.7677445970111
 30
0.0
 10
177.2655362173196
 20
797.8718622200338
 30
0.0
 10
175.2402892884989
 20
797.8458286894821
 30
0.0
 10
172.1472731362709
 20
797.8458303958975
 30
0.0
 10
171.0795034765717
 20
797.8718656045793
 30
0.0
 10
170.6585179911982
 20
797.7677445970111
 30
0.0
  0
SPLINE
  5
A2
330
1F
100
AcDbEntity
  8
0
  6
Continuous
 62
     7
370
    15
100
AcDbSpline
210
0.0
220
0.0
230
1.0
 70
     8
 71
     3
 72
    10
 73
     6
 74
     0
 42
0.00000001
 43
0.00000001
 12
1.0
 22
0.0
 32
0.0
 13
1.0
 23
0.0
 33
0.0
 40
0.0
 40
0.0
 40
0.0
 40
0.0
 40
0.4999999829647485
 40
0.5000000141043458
 40
1.0
 40
1.0
 40
1.0
 40
1.0
 10
206.6021062480341
 20
797.9268022141986
 30
0.0
 10
211.1629586295641
 20
797.8188510304823
 30
0.0
 10
215.9781971709123
 20
797.8458295472672
 30
0.0
 10
226.0955612828711
 20
797.8458295381124
 30
0.0
 10
231.397687162658
 20
797.81885102194
 30
0.0
 10
236.8031064616572
 20
797.9268022141986
 30
0.0
  0
SPLINE
  5
A3
330
1F
100
AcDbEntity
  8
0
  6
Continuous
 62
     7
370
    15
100
AcDbSpline
210
0.0
220
0.0
230
1.0
 70
     8
 71
     3
 72
    10
 73
     6
 74
     0
 42
0.00000001
 43
0.00000001
 12
1.0
 22
0.0
 32
0.0
 13
1.0
 23
0.0
 33
0.0
 40
0.0
 40
0.0
 40
0.0
 40
0.0
 40
0.5000001901526333
 40
0.500000234778132
 40
1.0
 40
1.0
 40
1.0
 40
1.0
 10
287.0499745952021
 20
797.9268022141986
 30
0.0
 10
292.4554011335866
 20
797.818850974761
 30
0.0
 10
297.7575270294126
 20
797.8458295170527
 30
0.0
 10
307.8748872104623
 20
797.8458295683268
 30
0.0
 10
312.6901223484566
 20
797.8188511087146
 30
0.0
 10
317.2509709941279
 20
797.9268022141986
 30
0.0
  0
SPLINE
  5
A4
330
1F
100
AcDbEntity
  8
0
  6
Continuous
 62
     7
370
    15
100
AcDbSpline
210
0.0
220
0.0
230
1.0
 70
     8
 71
     3
 72
    10
 73
     6
 74
     0
 42
0.00000001
 43
0.00000001
 12
1.0
 22
0.0
 32
0.0
 13
1.0
 23
0.0
 33
0.0
 40
0.0
 40
0.0
 40
0.0
 40
0.0
 40
0.5000006121778203
 40
0.5000006957890609
 40
1.0
 40
1.0
 40
1.0
 40
1.0
 10
310.1787892924677
 20
797.7677445970111
 30
0.0
 10
315.0399736670685
 20
797.8718673413749
 30
0.0
 10
319.5515511336538
 20
797.8458286622807
 30
0.0
 10
327.9040258237521
 20
797.8458304230971
 30
0.0
 10
331.7449254702005
 20
797.8718707006517
 30
0.0
 10
335.0720159160029
 20
797.7677445970111
 30
0.0
  0
SPLINE
  5
A5
330
1F
100
AcDbEntity
  8
0
  6
Continuous
 62
     7
370
    15
100
AcDbSpline
210
0.0
220
0.0
230
1.0
 70
     8
 71
     3
 72
    10
 73
     6
 74
     0
 42
0.00000001
 43
0.00000001
 12
1.0
 22
0.0
 32
0.0
 13
1.0
 23
0.0
 33
0.0
 40
0.0
 40
0.0
 40
0.0
 40
0.0
 40
0.5000006121778203
 40
0.5000006957890609
 40
1.0
 40
1.0
 40
1.0
 40
1.0
 10
310.1787892924677
 20
797.7677445970111
 30
0.0
 10
314.9797069603381
 20
797.7677454447245
 30
0.0
 10
319.5042690001979
 20
797.767743749298
 30
0.0
 10
327.8494055851227
 20
797.7677454447214
 30
0.0
 10
331.669982656837
 20
797.7677488355589
 30
0.0
 10
335.0720159160029
 20
797.7677445970111
 30
0.0
  0
LINE
  5
A6
330
1F
100
AcDbEntity
  8
0
  6
Continuous
 62
     7
370
    15
100
AcDbLine
 10
176.3216039287
 20
797.9268003069
 30
0.0
 11
179.8090306865
 21
797.8458295427
 31
0.0
  0
SPLINE
  5
A7
330
1F
100
AcDbEntity
  8
0
  6
Continuous
 62
     7
370
    15
100
AcDbSpline
210
0.0
220
0.0
230
1.0
 70
     8
 71
     3
 72
     8
 73
     4
 74
     0
 42
0.00000001
 43
0.00000001
 12
1.0
 22
0.0
 32
0.0
 13
1.0
 23
0.0
 33
0.0
 40
0.0
 40
0.0
 40
0.0
 40
0.0
 40
1.0
 40
1.0
 40
1.0
 40
1.0
 10
176.3216039286982
 20
797.92680030685
 30
0.0
 10
178.3713024600742
 20
797.9268015784161
 30
0.0
 10
180.8884279076653
 20
797.9268028499819
 30
0.0
 10
183.8729802714716
 20
797.9268041215473
 30
0.0
  0
LINE
  5
A8
330
1F
100
AcDbEntity
  8
0
  6
Continuous
 62
     7
370
    15
100
AcDbLine
 10
179.8090306865
 20
797.8458295427
 30
0.0
 11
183.8728845455
 21
797.9268022142
 31
0.0
  0
LINE
  5
A9
330
1F
100
AcDbEntity
  8
0
  6
Continuous
 62
     7
370
    15
100
AcDbLine
 10
158.3699056255
 20
829.5241151414
 30
0.0
 11
158.3699210117
 21
829.5241151414
 31
0.0
  0
LINE
  5
AA
330
1F
100
AcDbEntity
  8
0
  6
Continuous
 62
     7
370
    15
100
AcDbLine
 10
159.6970590712
 20
829.5241113268
 30
0.0
 11
159.6970616924
 21
829.5241113267
 31
0.0
  0
SPLINE
  5
AB
330
1F
100
AcDbEntity
  8
0
  6
Continuous
 62
     7
370
    15
100
AcDbSpline
210
0.0
220
0.0
230
1.0
 70
     8
 71
     3
 72
     9
 73
     5
 74
     0
 42
0.00000001
 43
0.00000001
 12
1.0
 22
0.0
 32
0.0
 13
1.0
 23
0.0
 33
0.0
 40
0.0
 40
0.0
 40
0.0
 40
0.0
 40
0.2882300252442528
 40
1.0
 40
1.0
 40
1.0
 40
1.0
 10
172.927846887462
 20
829.5241212713842
 30
0.0
 10
171.5340637030156
 20
829.5241207970494
 30
0.0
 10
166.6984009948529
 20
829.5241191513679
 30
0.0
 10
162.608284094957
 20
829.5241145802978
 30
0.0
 10
159.6970616923701
 20
829.5241113267475
 30
0.0
  0
LINE
  5
AC
330
1F
100
AcDbEntity
  8
0
  6
Continuous
 62
     7
370
    15
100
AcDbLine
 10
158.3699056255
 20
829.5241151414
 30
0.0
 11
166.8907540229
 21
829.5241178629
 31
0.0
  0
LINE
  5
AD
330
1F
100
AcDbEntity
  8
0
  6
Continuous
 62
     8
370
    15
100
AcDbLine
 10
375.8408224542
 20
799.904006537
 30
0.0
 11
148.0141249142
 21
799.904006537
 31
0.0
  0
LINE
  5
AE
330
1F
100
AcDbEntity
  8
0
  6
Continuous
 62
     8
370
    15
100
AcDbLine
 10
373.7511648214
 20
799.5015626512
 30
0.0
 11
150.103782547
 21
799.5015626512
 31
0.0
  0
LINE
  5
AF
330
1F
100
AcDbEntity
  8
0
  6
Continuous
 62
     8
370
    15
100
AcDbLine
 10
371.6518829318
 20
799.1218610368
 30
0.0
 11
152.2030644366
 21
799.1218610368
 31
0.0
  0
LINE
  5
B0
330
1F
100
AcDbEntity
  8
0
  6
Continuous
 62
     8
370
    15
100
AcDbLine
 10
369.5351066433
 20
798.7701478563
 30
0.0
 11
154.3198407252
 21
798.7701478563
 31
0.0
  0
ARC
  5
B1
330
1F
100
AcDbEntity
  8
0
  6
Continuous
 62
     7
100
AcDbCircle
 10
261.9036615122
 20
611.6166473891
 30
0.0
 40
91.71480897465452
100
AcDbArc
 50
338.773174036
 51
79.3867786407
  0
ARC
  5
B2
330
1F
100
AcDbEntity
  8
0
  6
Continuous
 62
     7
100
AcDbCircle
 10
261.6674643273
 20
611.4852898197
 30
0.0
 40
91.8876570927798
100
AcDbArc
 50
338.9028479432
 51
79.2571047335
  0
CIRCLE
  5
B3
330
1F
100
AcDbEntity
  8
0
  6
Continuous
 62
     7
370
    15
100
AcDbCircle
 10
261.9274736842
 20
611.5212688596
 30
0.0
 40
101.0736498768995
  0
CIRCLE
  5
B4
330
1F
100
AcDbEntity
  8
0
  6
Continuous
 62
     7
370
    15
100
AcDbCircle
 10
261.9274736842
 20
611.5212688596
 30
0.0
 40
91.80520294646686
  0
CIRCLE
  5
B5
330
1F
100
AcDbEntity
  8
0
  6
Continuous
 62
     7
370
    15
100
AcDbCircle
 10
261.9274736842
 20
611.5212688596
 30
0.0
 40
103.2901312657157
  0
CIRCLE
  5
B6
330
1F
100
AcDbEntity
  8
0
  6
Continuous
 62
     7
370
    15
100
AcDbCircle
 10
261.9274736842
 20
611.5212688596
 30
0.0
 40
105.4654996291033
  0
CIRCLE
  5
B7
330
1F
100
AcDbEntity
  8
0
  6
Continuous
 62
     7
370
    15
100
AcDbCircle
 10
261.9274736842
 20
611.5212688596
 30
0.0
 40
107.6076329590604
  0
CIRCLE
  5
B8
330
1F
100
AcDbEntity
  8
0
  6
Continuous
 62
     7
370
    15
100
AcDbCircle
 10
261.9274736842
 20
611.5212688596
 30
0.0
 40
109.7244092475851
  0
CIRCLE
  5
B9
330
1F
100
AcDbEntity
  8
0
  6
Continuous
 62
     7
370
    15
100
AcDbCircle
 10
261.9274736842
 20
611.5212688596
 30
0.0
 40
111.8236911372209
  0
CIRCLE
  5
BA
330
1F
100
AcDbEntity
  8
0
  6
Continuous
 62
     7
370
    15
100
AcDbCircle
 10
261.9274736842
 20
611.5212688596
 30
0.0
 40
113.9133487700024
  0
CIRCLE
  5
BB
330
1F
100
AcDbEntity
  8
0
  6
Continuous
 62
     7
370
    15
100
AcDbCircle
 10
261.9274736842
 20
611.5212688596
 30
0.0
 40
116.0012519374917
  0
CIRCLE
  5
BC
330
1F
100
AcDbEntity
  8
0
  6
Continuous
 62
     7
370
    15
100
AcDbCircle
 10
261.9254494084
 20
611.5213174243
 30
0.0
 40
91.17433542351831
  0
CIRCLE
  5
BD
330
1F
100
AcDbEntity
  8
0
  6
Continuous
 62
     7
370
    15
100
AcDbCircle
 10
261.9254494059
 20
611.5213174506
 30
0.0
 40
90.9779946376325
  0
CIRCLE
  5
BE
330
1F
100
AcDbEntity
  8
0
  6
Continuous
 62
     7
370
    15
100
AcDbCircle
 10
261.9254494791
 20
611.5213166616
 30
0.0
 40
83.17871001559041
  0
CIRCLE
  5
BF
330
1F
100
AcDbEntity
  8
0
  6
Continuous
 62
     7
370
    15
100
AcDbCircle
 10
261.9254494129
 20
611.5213173756
 30
0.0
 40
91.33446517074827
  0
CIRCLE
  5
C0
330
1F
100
AcDbEntity
  8
0
  6
Continuous
 62
     7
370
    15
100
AcDbCircle
 10
261.9254494191
 20
611.5213173083
 30
0.0
 40
91.46442167270848
  0
CIRCLE
  5
C1
330
1F
100
AcDbEntity
  8
0
  6
Continuous
 62
     7
370
    15
100
AcDbCircle
 10
261.9254494267
 20
611.5213172262
 30
0.0
 40
91.57022744109324
  0
CIRCLE
  5
C2
330
1F
100
AcDbEntity
  8
0
  6
Continuous
 62
     7
370
    15
100
AcDbCircle
 10
261.9254494354
 20
611.5213171328
 30
0.0
 40
91.65793528699916
  0
CIRCLE
  5
C3
330
1F
100
AcDbEntity
  8
0
  6
Continuous
 62
     7
370
    15
100
AcDbCircle
 10
261.9254496976
 20
611.5213143028
 30
0.0
 40
75.31820533875266
  0
CIRCLE
  5
C4
330
1F
100
AcDbEntity
  8
0
  6
Continuous
 62
     7
370
    15
100
AcDbCircle
 10
261.925450046
 20
611.5213105436
 30
0.0
 40
67.5801408155029
  0
CIRCLE
  5
C5
330
1F
100
AcDbEntity
  8
0
  6
Continuous
 62
     7
370
    15
100
AcDbCircle
 10
261.9254505084
 20
611.5213055535
 30
0.0
 40
60.14820690962981
  0
CIRCLE
  5
C6
330
1F
100
AcDbEntity
  8
0
  6
Continuous
 62
     7
370
    15
100
AcDbCircle
 10
261.9254510691
 20
611.5212995019
 30
0.0
 40
53.20606387351394
  0
CIRCLE
  5
C7
330
1F
100
AcDbEntity
  8
0
  6
Continuous
 62
     7
370
    15
100
AcDbCircle
 10
261.9254517126
 20
611.521292558
 30
0.0
 40
46.93739461809174
  0
CIRCLE
  5
C8
330
1F
100
AcDbEntity
  8
0
  6
Continuous
 62
     7
370
    15
100
AcDbCircle
 10
261.925452423
 20
611.5212848914
 30
0.0
 40
41.52586686060182
  0
CIRCLE
  5
C9
330
1F
100
AcDbEntity
  8
0
  6
Continuous
 62
     7
370
    15
100
AcDbCircle
 10
261.9254524828
 20
611.5212842458
 30
0.0
 40
41.52443404069877
  0
LINE
  5
CA
330
1F
100
AcDbEntity
  8
0
  6
Continuous
 62
     7
370
    15
100
AcDbLine
 10
172.1487697998
 20
592.6988148039
 30
0.0
 11
172.0153140622
 21
592.9740631359
 31
0.0
  0
LINE
  5
CB
330
1F
100
AcDbEntity
  8
0
  6
Continuous
 62
     7
370
    15
100
AcDbLine
 10
170.6875623445
 20
601.3490583443
 30
0.0
 11
170.7296186393
 21
601.2370065655
 31
0.0
  0
SPLINE
  5
CC
330
1F
100
AcDbEntity
  8
0
  6
Continuous
 62
     7
370
    15
100
AcDbSpline
210
0.0
220
0.0
230
1.0
 70
     8
 71
     3
 72
    40
 73
    36
 74
     0
 42
0.00000001
 43
0.00000001
 12
1.0
 22
0.0
 32
0.0
 13
1.0
 23
0.0
 33
0.0
 40
0.0
 40
0.0
 40
0.0
 40
0.0
 40
0.1052128369414324
 40
0.1052226890985948
 40
0.1578558683726283
 40
0.1578644945616473
 40
0.210498772760405
 40
0.2105061851462535
 40
0.2631417495982652
 40
0.2631479593485606
 40
0.3157689159606573
 40
0.3157723075992096
 40
0.3683960843333509
 40
0.3683966776097125
 40
0.4210384272731247
 40
0.4210390541883916
 40
0.4736801681384537
 40
0.4736819997453156
 40
0.5263045133949132
 40
0.5263091499397536
 40
0.5789028531986882
 40
0.578912197725012
 40
0.6315012556996027
 40
0.6315153023750169
 40
0.6841255307116134
 40
0.6841423821293966
 40
0.7367671684446537
 40
0.7367852463180042
 40
0.7894090416985526
 40
0.7894283246207583
 40
0.8420507081184732
 40
0.8420712035864363
 40
0.8946926051143603
 40
0.894714308609442
 40
1.0
 40
1.0
 40
1.0
 40
1.0
 10
213.6742803202998
 20
689.4514292523619
 30
0.0
 10
208.8569839353505
 20
686.5054947652354
 30
0.0
 10
204.2686603154695
 20
683.1557770867834
 30
0.0
 10
197.9812312168579
 20
677.4685547923027
 30
0.0
 10
195.9835619629161
 20
675.4611676792986
 30
0.0
 10
192.1801861489834
 20
671.2767238932805
 30
0.0
 10
190.3735441082947
 20
669.0986400968911
 30
0.0
 10
186.9560033929528
 20
664.5919153355437
 30
0.0
 10
185.344388712737
 20
662.2623206387804
 30
0.0
 10
182.4014593959459
 20
657.4376252762497
 30
0.0
 10
181.0695728521776
 20
654.9418031928204
 30
0.0
 10
178.548177202294
 20
649.879589213699
 30
0.0
 10
177.3584291703895
 20
647.3127053113436
 30
0.0
 10
175.2843895018768
 20
642.0560628629922
 30
0.0
 10
174.4001029043068
 20
639.366035779312
 30
0.0
 10
172.8536002911927
 20
633.9236524843926
 30
0.0
 10
172.1913388790204
 20
631.1711388942961
 30
0.0
 10
171.1797158935741
 20
625.6108114232032
 30
0.0
 10
170.8301891523905
 20
622.8026406628483
 30
0.0
 10
170.3364125377778
 20
617.1707626891897
 30
0.0
 10
170.1919861136948
 20
614.3462191641137
 30
0.0
 10
170.1917613551983
 20
608.6982365564706
 30
0.0
 10
170.3359707233103
 20
605.8732941480013
 30
0.0
 10
170.8303319495442
 20
600.2420953031035
 30
0.0
 10
171.1807594580982
 20
597.4336960078164
 30
0.0
 10
172.1897186587734
 20
591.8729350063398
 30
0.0
 10
172.8488333436633
 20
589.1180087240914
 30
0.0
 10
174.4040322365802
 20
583.6807228884398
 30
0.0
 10
175.3009062098731
 20
580.9955660753373
 30
0.0
 10
177.3411530291125
 20
575.72304294416
 30
0.0
 10
178.4856480925321
 20
573.1327829599347
 30
0.0
 10
181.0063141015282
 20
568.0715791252876
 30
0.0
 10
182.3839554838542
 20
565.5976838555968
 30
0.0
 10
186.8491970952564
 20
558.3854927123891
 30
0.0
 10
190.2720582970863
 20
553.8519539988998
 30
0.0
 10
194.0823537455927
 20
549.6732310101745
 30
0.0
  0
SPLINE
  5
CD
330
1F
100
AcDbEntity
  8
0
  6
Continuous
 62
     7
370
    15
100
AcDbSpline
210
0.0
220
0.0
230
1.0
 70
     8
 71
     3
 72
    40
 73
    36
 74
     0
 42
0.00000001
 43
0.00000001
 12
1.0
 22
0.0
 32
0.0
 13
1.0
 23
0.0
 33
0.0
 40
0.0
 40
0.0
 40
0.0
 40
0.0
 40
0.1052128369414324
 40
0.1052226890985948
 40
0.1578558683726283
 40
0.1578644945616473
 40
0.210498772760405
 40
0.2105061851462535
 40
0.2631417495982652
 40
0.2631479593485606
 40
0.3157689159606573
 40
0.3157723075992096
 40
0.3683960843333509
 40
0.3683966776097125
 40
0.4210384272731247
 40
0.4210390541883916
 40
0.4736801681384537
 40
0.4736819997453156
 40
0.5263045133949132
 40
0.5263091499397536
 40
0.5789028531986882
 40
0.578912197725012
 40
0.6315012556996027
 40
0.6315153023750169
 40
0.6841255307116134
 40
0.6841423821293966
 40
0.7367671684446537
 40
0.7367852463180042
 40
0.7894090416985526
 40
0.7894283246207583
 40
0.8420507081184732
 40
0.8420712035864363
 40
0.8946926051143603
 40
0.894714308609442
 40
1.0
 40
1.0
 40
1.0
 40
1.0
 10
213.6742803202998
 20
689.4514292523619
 30
0.0
 10
208.9181956679251
 20
686.4227672602448
 30
0.0
 10
204.3173558360295
 20
683.0975635842578
 30
0.0
 10
198.0289846622678
 20
677.4221032910003
 30
0.0
 10
196.0339840009581
 20
675.4144566786001
 30
0.0
 10
192.2345078117501
 20
671.2317111847597
 30
0.0
 10
190.4290961805609
 20
669.0555889975172
 30
0.0
 10
187.0129787599219
 20
664.5529842853753
 30
0.0
 10
185.4015516381932
 20
662.2255512051469
 30
0.0
 10
182.4636837112701
 20
657.4028214904585
 30
0.0
 10
181.1366837315892
 20
654.9067977763717
 30
0.0
 10
178.6169602146039
 20
649.8481522054843
 30
0.0
 10
177.423987810441
 20
647.2850436293495
 30
0.0
 10
175.3487073248172
 20
642.0336177656748
 30
0.0
 10
174.4664073404412
 20
639.3450307708295
 30
0.0
 10
172.9211364913333
 20
633.906369528503
 30
0.0
 10
172.2581213495308
 20
631.1561376792176
 30
0.0
 10
171.2496529790936
 20
625.5996541202079
 30
0.0
 10
170.9040297125022
 20
622.7930466122351
 30
0.0
 10
170.4130757943367
 20
617.1649092244413
 30
0.0
 10
170.2675801219294
 20
614.3425423281741
 30
0.0
 10
170.2674428813223
 20
608.6989039755383
 30
0.0
 10
170.4127936301025
 20
605.8761303769337
 30
0.0
 10
170.9045382371659
 20
600.2487066021356
 30
0.0
 10
171.2512303460488
 20
597.4419173132724
 30
0.0
 10
172.2570558924884
 20
591.8849517386441
 30
0.0
 10
172.9167435784994
 20
589.1322093248554
 30
0.0
 10
174.4716049303695
 20
583.6990153203925
 30
0.0
 10
175.3675823848634
 20
581.0157703393762
 30
0.0
 10
177.4065251138379
 20
575.7473311656049
 30
0.0
 10
178.5506070524945
 20
573.1592446312494
 30
0.0
 10
181.0689017659693
 20
568.1012488882575
 30
0.0
 10
182.4445855955924
 20
565.628391071161
 30
0.0
 10
186.9109813259784
 20
558.4250743543703
 30
0.0
 10
190.3439598250569
 20
553.9051238661029
 30
0.0
 10
194.0823537455927
 20
549.6732310101745
 30
0.0
  0
SPLINE
  5
CE
330
1F
100
AcDbEntity
  8
0
  6
Continuous
 62
     7
370
    15
100
AcDbSpline
210
0.0
220
0.0
230
1.0
 70
     8
 71
     3
 72
    34
 73
    30
 74
     0
 42
0.00000001
 43
0.00000001
 12
1.0
 22
0.0
 32
0.0
 13
1.0
 23
0.0
 33
0.0
 40
0.0
 40
0.0
 40
0.0
 40
0.0
 40
0.1250402883527002
 40
0.1250661964041593
 40
0.1875606001208492
 40
0.187585053258857
 40
0.2500808464326503
 40
0.2501039201260375
 40
0.3126012806884983
 40
0.3126229355209036
 40
0.3751213475005665
 40
0.3751415324553513
 40
0.4376415094499475
 40
0.4376603729068318
 40
0.5001619342524856
 40
0.5001793174212796
 40
0.5626820045619628
 40
0.5626980465295774
 40
0.6251833616104693
 40
0.6251961002098134
 40
0.6876564037653297
 40
0.6876635803105063
 40
0.7501291486792303
 40
0.7501307564631602
 40
0.8125982163780534
 40
0.8126021771466031
 40
0.8750653820615392
 40
0.8750748772596992
 40
1.0
 40
1.0
 40
1.0
 40
1.0
 10
344.1063329326045
 20
570.6006602093933
 30
0.0
 10
341.5863206433457
 20
565.5379750478795
 30
0.0
 10
338.5952359037235
 20
560.7088417864667
 30
0.0
 10
333.4832237161636
 20
553.9395566016206
 30
0.0
 10
331.6741486056399
 20
551.761080422882
 30
0.0
 10
327.8650055920749
 20
547.5828451693953
 30
0.0
 10
325.8627035852214
 20
545.580635004583
 30
0.0
 10
321.6842662515536
 20
541.771574221546
 30
0.0
 10
319.5058215975578
 20
539.9626191669263
 30
0.0
 10
314.993676719677
 20
536.5554903366685
 30
0.0
 10
312.6576381174077
 20
534.955548303212
 30
0.0
 10
307.8504754578505
 20
531.9785457936987
 30
0.0
 10
305.37702013521
 20
530.6000430494693
 30
0.0
 10
300.3150713112678
 20
528.0818713344956
 30
0.0
 10
297.7242965142498
 20
526.9410653371775
 30
0.0
 10
292.4535458254084
 20
524.8908816658941
 30
0.0
 10
289.771367143167
 20
523.9806553115754
 30
0.0
 10
284.3272274114779
 20
522.4622806683661
 30
0.0
 10
281.5632877920493
 20
521.8534647499505
 30
0.0
 10
276.0016346165066
 20
520.8437206408744
 30
0.0
 10
273.2023390465272
 20
520.4424110333542
 30
0.0
 10
267.5779224276857
 20
519.9134895473018
 30
0.0
 10
264.7518341497944
 20
519.785784295064
 30
0.0
 10
259.1009393720939
 20
519.7875912743833
 30
0.0
 10
256.2755567107595
 20
519.9171049298359
 30
0.0
 10
250.649780393442
 20
520.4388569575777
 30
0.0
 10
247.8487090537583
 20
520.8311571047185
 30
0.0
 10
239.5157396853112
 20
522.3832200648733
 30
0.0
 10
234.0520427766525
 20
523.9184012732151
 30
0.0
 10
228.8154622661005
 20
526.0518626019714
 30
0.0
  0
SPLINE
  5
CF
330
1F
100
AcDbEntity
  8
0
  6
Continuous
 62
     7
370
    15
100
AcDbSpline
210
0.0
220
0.0
230
1.0
 70
     8
 71
     3
 72
    34
 73
    30
 74
     0
 42
0.00000001
 43
0.00000001
 12
1.0
 22
0.0
 32
0.0
 13
1.0
 23
0.0
 33
0.0
 40
0.0
 40
0.0
 40
0.0
 40
0.0
 40
0.1250402883527002
 40
0.1250661964041593
 40
0.1875606001208492
 40
0.187585053258857
 40
0.2500808464326503
 40
0.2501039201260375
 40
0.3126012806884983
 40
0.3126229355209036
 40
0.3751213475005665
 40
0.3751415324553513
 40
0.4376415094499475
 40
0.4376603729068318
 40
0.5001619342524856
 40
0.5001793174212796
 40
0.5626820045619628
 40
0.5626980465295774
 40
0.6251833616104693
 40
0.6251961002098134
 40
0.6876564037653297
 40
0.6876635803105063
 40
0.7501291486792303
 40
0.7501307564631602
 40
0.8125982163780534
 40
0.8126021771466031
 40
0.8750653820615392
 40
0.8750748772596992
 40
1.0
 40
1.0
 40
1.0
 40
1.0
 10
344.1063329326045
 20
570.6006602093933
 30
0.0
 10
341.5107936432278
 20
565.5857916830078
 30
0.0
 10
338.5359929393212
 20
560.7521819938172
 30
0.0
 10
333.4326833116522
 20
553.9850129750171
 30
0.0
 10
331.6238841863155
 20
551.8087176611864
 30
0.0
 10
327.8168644929708
 20
547.633890118552
 30
0.0
 10
325.8164120991174
 20
545.632908340334
 30
0.0
 10
321.6414025395765
 20
541.8263771431791
 30
0.0
 10
319.4645373374197
 20
540.0187251085612
 30
0.0
 10
314.9557558518258
 20
536.6140081313134
 30
0.0
 10
312.6215027277981
 20
535.0151767091962
 30
0.0
 10
307.8179932799641
 20
532.0401627993821
 30
0.0
 10
305.3464074613017
 20
530.662538385831
 30
0.0
 10
300.2882074137055
 20
528.1462581336588
 30
0.0
 10
297.6993126950703
 20
527.0064697075583
 30
0.0
 10
292.4326473790952
 20
524.9569938863632
 30
0.0
 10
289.7526781296305
 20
524.0464470871535
 30
0.0
 10
284.312005342837
 20
522.5315368251137
 30
0.0
 10
281.5493198893402
 20
521.9265275130806
 30
0.0
 10
275.9912010386995
 20
520.9199707811562
 30
0.0
 10
273.1941900294624
 20
520.5180277527327
 30
0.0
 10
267.5740476008374
 20
519.988689945167
 30
0.0
 10
264.7499485846647
 20
519.8612067776041
 30
0.0
 10
259.1032611667067
 20
519.8634442769817
 30
0.0
 10
256.2800970902373
 20
519.9931661188759
 30
0.0
 10
250.6581319238667
 20
520.5135296951825
 30
0.0
 10
247.8586536250567
 20
520.9042327280121
 30
0.0
 10
239.5337429628399
 20
522.4608228223062
 30
0.0
 10
234.0797928062138
 20
524.011446987913
 30
0.0
 10
228.8154622661005
 20
526.0518626019714
 30
0.0
  0
SPLINE
  5
D0
330
1F
100
AcDbEntity
  8
0
  6
Continuous
 62
     7
370
    15
100
AcDbSpline
210
0.0
220
0.0
230
1.0
 70
     8
 71
     3
 72
    30
 73
    26
 74
     0
 42
0.00000001
 43
0.00000001
 12
1.0
 22
0.0
 32
0.0
 13
1.0
 23
0.0
 33
0.0
 40
0.0
 40
0.0
 40
0.0
 40
0.0
 40
0.1427472741026259
 40
0.142754912918971
 40
0.2141653778926778
 40
0.2141677285278684
 40
0.285603890627062
 40
0.2856047480065806
 40
0.3570403005441803
 40
0.3570443251619878
 40
0.42847666504154
 40
0.4284838917706919
 40
0.4999130386320634
 40
0.4999234597182713
 40
0.5713494007703426
 40
0.5713629970863754
 40
0.6427857645095618
 40
0.6428025843387045
 40
0.7142219103365481
 40
0.714241914567154
 40
0.7856582854081852
 40
0.7856814820909667
 40
0.8570947486274789
 40
0.8571210658062303
 40
1.0
 40
1.0
 40
1.0
 40
1.0
 10
339.8566075908076
 20
563.2690829083677
 30
0.0
 10
342.945524234895
 20
568.0141925543699
 30
0.0
 10
345.399299670598
 20
573.1232488638065
 30
0.0
 10
348.5010266450901
 20
581.014886630078
 30
0.0
 10
349.438711071845
 20
583.6844626979234
 30
0.0
 10
351.0141230957595
 20
589.1126303607563
 30
0.0
 10
351.6518775117017
 20
591.8716610943142
 30
0.0
 10
352.6834155281952
 20
597.4329099594587
 30
0.0
 10
353.0772509096091
 20
600.2354094841199
 30
0.0
 10
353.6010571542296
 20
605.8654168920764
 30
0.0
 10
353.7310719545098
 20
608.6934014126286
 30
0.0
 10
353.7305564054651
 20
614.3483106413961
 30
0.0
 10
353.6000261263902
 20
617.176091870091
 30
0.0
 10
353.0784638235467
 20
622.8065143727025
 30
0.0
 10
352.6873178101577
 20
625.6103852762977
 30
0.0
 10
351.6483179390722
 20
631.1685933252969
 30
0.0
 10
351.0001673373683
 20
633.924516981602
 30
0.0
 10
349.4528589552125
 20
639.3630121382428
 30
0.0
 10
348.5531565519843
 20
642.0475005664006
 30
0.0
 10
346.5106903710558
 20
647.3199147725574
 30
0.0
 10
345.3670687302513
 20
649.9100522346693
 30
0.0
 10
342.8469101249818
 20
654.9714318405247
 30
0.0
 10
341.4691481688415
 20
657.4451333936719
 30
0.0
 10
337.0036444999253
 20
664.6572867872453
 30
0.0
 10
333.581189091283
 20
669.1907764965213
 30
0.0
 10
329.7707158671748
 20
673.3694781110046
 30
0.0
  0
SPLINE
  5
D1
330
1F
100
AcDbEntity
  8
0
  6
Continuous
 62
     7
370
    15
100
AcDbSpline
210
0.0
220
0.0
230
1.0
 70
     8
 71
     3
 72
    30
 73
    26
 74
     0
 42
0.00000001
 43
0.00000001
 12
1.0
 22
0.0
 32
0.0
 13
1.0
 23
0.0
 33
0.0
 40
0.0
 40
0.0
 40
0.0
 40
0.0
 40
0.1427472741026259
 40
0.142754912918971
 40
0.2141653778926778
 40
0.2141677285278684
 40
0.285603890627062
 40
0.2856047480065806
 40
0.3570403005441803
 40
0.3570443251619878
 40
0.42847666504154
 40
0.4284838917706919
 40
0.4999130386320634
 40
0.4999234597182713
 40
0.5713494007703426
 40
0.5713629970863754
 40
0.6427857645095618
 40
0.6428025843387045
 40
0.7142219103365481
 40
0.714241914567154
 40
0.7856582854081852
 40
0.7856814820909667
 40
0.8570947486274789
 40
0.8571210658062303
 40
1.0
 40
1.0
 40
1.0
 40
1.0
 10
339.8566075908076
 20
563.2690829083677
 30
0.0
 10
342.8618503277321
 20
568.0577731278469
 30
0.0
 10
345.323854261731
 20
573.1563134530963
 30
0.0
 10
348.4324401234067
 20
581.0380679841301
 30
0.0
 10
349.3715044084535
 20
583.7053285941477
 30
0.0
 10
350.9472936490693
 20
589.1293215509337
 30
0.0
 10
351.5840420151731
 20
591.8864937972644
 30
0.0
 10
352.6144473304621
 20
597.4438549868813
 30
0.0
 10
353.0081555431852
 20
600.2443252906742
 30
0.0
 10
353.5316607115962
 20
605.8702964848504
 30
0.0
 10
353.6615022409276
 20
608.6962734547016
 30
0.0
 10
353.6609047605684
 20
614.3471543649923
 30
0.0
 10
353.5304656326362
 20
617.1729143170049
 30
0.0
 10
353.0092157894442
 20
622.7993131678924
 30
0.0
 10
352.6182914247261
 20
625.6011807917496
 30
0.0
 10
351.5799103725911
 20
631.1553930863571
 30
0.0
 10
350.9321573001929
 20
633.9093231896854
 30
0.0
 10
349.3858956657638
 20
639.343949159005
 30
0.0
 10
348.4868430563294
 20
642.0265606111982
 30
0.0
 10
346.4454970025178
 20
647.2949976093701
 30
0.0
 10
345.3023466916369
 20
649.8830334761757
 30
0.0
 10
342.7845746372084
 20
654.9413305503776
 30
0.0
 10
341.4087283732624
 20
657.4140490067709
 30
0.0
 10
336.9419815874057
 20
664.6174991854419
 30
0.0
 10
333.5093946692545
 20
669.1375245321398
 30
0.0
 10
329.7707158671748
 20
673.3694781110046
 30
0.0
  0
SPLINE
  5
D2
330
1F
100
AcDbEntity
  8
0
  6
Continuous
 62
     7
370
    15
100
AcDbSpline
210
0.0
220
0.0
230
1.0
 70
     8
 71
     3
 72
    28
 73
    24
 74
     0
 42
0.00000001
 43
0.00000001
 12
1.0
 22
0.0
 32
0.0
 13
1.0
 23
0.0
 33
0.0
 40
0.0
 40
0.0
 40
0.0
 40
0.0
 40
0.1539076107931775
 40
0.1539385920659005
 40
0.2308611828589693
 40
0.2308900833780421
 40
0.307815103939748
 40
0.3078419239602947
 40
0.3847687323524915
 40
0.3847933600885522
 40
0.4617223006008941
 40
0.4617447968738534
 40
0.538653203668911
 40
0.5386712553285847
 40
0.61554842917717
 40
0.6155592518200538
 40
0.6924440813738127
 40
0.6924476522477183
 40
0.7693356071416999
 40
0.7693393240363439
 40
0.8462236186749096
 40
0.8462345469793807
 40
1.0
 40
1.0
 40
1.0
 40
1.0
 10
287.0499669658076
 20
523.2216547772643
 30
0.0
 10
281.6109141400507
 20
521.6734298328181
 30
0.0
 10
276.026971409458
 20
520.6301849559502
 30
0.0
 10
267.5805478762923
 20
519.8478031759947
 30
0.0
 10
264.7519904958122
 20
519.7172953555583
 30
0.0
 10
259.0978116236781
 20
519.7168739034579
 30
0.0
 10
256.2690090947512
 20
519.8469618358649
 30
0.0
 10
250.6397598811443
 20
520.3707365300777
 30
0.0
 10
247.8363769331344
 20
520.7646921566993
 30
0.0
 10
242.2759545505157
 20
521.7962686846887
 30
0.0
 10
239.516250296795
 20
522.4343940810408
 30
0.0
 10
234.0883290086944
 20
524.0093961085832
 30
0.0
 10
231.4177838616189
 20
524.9468319949236
 30
0.0
 10
226.1577073809135
 20
527.016134090566
 30
0.0
 10
223.5663867892241
 20
528.1486032105078
 30
0.0
 10
218.5060503039489
 20
530.6597414481872
 30
0.0
 10
216.0359684163383
 20
532.038939734062
 30
0.0
 10
211.232463312899
 20
535.0152791330651
 30
0.0
 10
208.8984741650751
 20
536.6127693768954
 30
0.0
 10
204.3900501231689
 20
540.0179410897058
 30
0.0
 10
202.215081765502
 20
541.8260257904733
 30
0.0
 10
195.9473052901336
 20
547.5323573998024
 30
0.0
 10
192.1101700130673
 20
551.7138448227155
 30
0.0
 10
188.7810536967646
 20
556.2844446942565
 30
0.0
  0
SPLINE
  5
D3
330
1F
100
AcDbEntity
  8
0
  6
Continuous
 62
     7
370
    15
100
AcDbSpline
210
0.0
220
0.0
230
1.0
 70
     8
 71
     3
 72
    28
 73
    24
 74
     0
 42
0.00000001
 43
0.00000001
 12
1.0
 22
0.0
 32
0.0
 13
1.0
 23
0.0
 33
0.0
 40
0.0
 40
0.0
 40
0.0
 40
0.0
 40
0.1539076107931775
 40
0.1539385920659005
 40
0.2308611828589693
 40
0.2308900833780421
 40
0.307815103939748
 40
0.3078419239602947
 40
0.3847687323524915
 40
0.3847933600885522
 40
0.4617223006008941
 40
0.4617447968738534
 40
0.538653203668911
 40
0.5386712553285847
 40
0.61554842917717
 40
0.6155592518200538
 40
0.6924440813738127
 40
0.6924476522477183
 40
0.7693356071416999
 40
0.7693393240363439
 40
0.8462236186749096
 40
0.8462345469793807
 40
1.0
 40
1.0
 40
1.0
 40
1.0
 10
287.0499669658076
 20
523.2216547772643
 30
0.0
 10
281.5953439023685
 20
521.7614788952347
 30
0.0
 10
276.0190273968586
 20
520.7031261941388
 30
0.0
 10
267.5799931652877
 20
519.9157651715338
 30
0.0
 10
264.7532237996634
 20
519.7865504331551
 30
0.0
 10
259.1029478644653
 20
519.7868248525788
 30
0.0
 10
256.2762624206659
 20
519.9163138440298
 30
0.0
 10
250.6512238872681
 20
520.4394479466175
 30
0.0
 10
247.8499379564036
 20
520.8333660186139
 30
0.0
 10
242.2933126128896
 20
521.8634457511274
 30
0.0
 10
239.5353059253486
 20
522.5000988325654
 30
0.0
 10
234.1121260226309
 20
524.0761896366664
 30
0.0
 10
231.4446345808972
 20
525.0162099162324
 30
0.0
 10
226.1892076285527
 20
527.086365978366
 30
0.0
 10
223.5994784826228
 20
528.2170878571216
 30
0.0
 10
218.5425235546616
 20
530.7256185608587
 30
0.0
 10
216.0742346046778
 20
532.103961992979
 30
0.0
 10
211.2745018179181
 20
535.0784586127645
 30
0.0
 10
208.9424923016802
 20
536.6749602127237
 30
0.0
 10
204.4365495376378
 20
540.0769562146769
 30
0.0
 10
202.2620830005276
 20
541.8828532616774
 30
0.0
 10
196.0035020079613
 20
547.5888144303404
 30
0.0
 10
192.1827515365515
 20
551.7783109493198
 30
0.0
 10
188.7810536967646
 20
556.2844446942565
 30
0.0
  0
SPLINE
  5
D4
330
1F
100
AcDbEntity
  8
0
  6
Continuous
 62
     7
370
    15
100
AcDbSpline
210
0.0
220
0.0
230
1.0
 70
     8
 71
     3
 72
    28
 73
    24
 74
     0
 42
0.00000001
 43
0.00000001
 12
1.0
 22
0.0
 32
0.0
 13
1.0
 23
0.0
 33
0.0
 40
0.0
 40
0.0
 40
0.0
 40
0.0
 40
0.1539075305807249
 40
0.1539385756457537
 40
0.2308615162564147
 40
0.2308904386488772
 40
0.3078150738162982
 40
0.3078418918185193
 40
0.3847686826920844
 40
0.3847933252542523
 40
0.4617226529427421
 40
0.4617451466740447
 40
0.5386531121696769
 40
0.5386711809904514
 40
0.6155483742546831
 40
0.6155591825708951
 40
0.6924439976381602
 40
0.6924475865487271
 40
0.7693356111271946
 40
0.7693392842122951
 40
0.8462239937855056
 40
0.8462348729151264
 40
1.0
 40
1.0
 40
1.0
 40
1.0
 10
236.803117905749
 20
523.2216547772643
 30
0.0
 10
231.3637052248664
 20
524.7686093386652
 30
0.0
 10
226.0669503170149
 20
526.8212030408617
 30
0.0
 10
218.473772373556
 20
530.6024794148433
 30
0.0
 10
216.0001647362398
 20
531.9805667083009
 30
0.0
 10
211.1926627500384
 20
534.9567480970563
 30
0.0
 10
208.8560606750285
 20
536.5565175243086
 30
0.0
 10
204.3457227920702
 20
539.9652516261059
 30
0.0
 10
202.169631804558
 20
541.7759924053573
 30
0.0
 10
197.9851075543003
 20
545.5802487534479
 30
0.0
 10
195.9746747979513
 20
547.5755973265944
 30
0.0
 10
192.18889789829
 20
551.772122571577
 30
0.0
 10
190.4118655335538
 20
553.9749988861475
 30
0.0
 10
187.0290141421729
 20
558.5034168326574
 30
0.0
 10
185.4219922562726
 20
560.8304137495717
 30
0.0
 10
182.4415545193008
 20
565.6293509631336
 30
0.0
 10
181.0675104057727
 20
568.102302930944
 30
0.0
 10
178.5503221876397
 20
573.1615576902187
 30
0.0
 10
177.4068815783678
 20
575.748454025138
 30
0.0
 10
175.3663230075927
 20
581.0169810008279
 30
0.0
 10
174.4689657484058
 20
583.6992331321642
 30
0.0
 10
172.1440032013271
 20
591.8504188547549
 30
0.0
 10
171.0828665248341
 20
597.4255644614041
 30
0.0
 10
170.6585179911982
 20
603.0641115948913
 30
0.0
  0
SPLINE
  5
D5
330
1F
100
AcDbEntity
  8
0
  6
Continuous
 62
     7
370
    15
100
AcDbSpline
210
0.0
220
0.0
230
1.0
 70
     8
 71
     3
 72
    28
 73
    24
 74
     0
 42
0.00000001
 43
0.00000001
 12
1.0
 22
0.0
 32
0.0
 13
1.0
 23
0.0
 33
0.0
 40
0.0
 40
0.0
 40
0.0
 40
0.0
 40
0.1539075305807249
 40
0.1539385756457537
 40
0.2308615162564147
 40
0.2308904386488772
 40
0.3078150738162982
 40
0.3078418918185193
 40
0.3847686826920844
 40
0.3847933252542523
 40
0.4617226529427421
 40
0.4617451466740447
 40
0.5386531121696769
 40
0.5386711809904514
 40
0.6155483742546831
 40
0.6155591825708951
 40
0.6924439976381602
 40
0.6924475865487271
 40
0.7693356111271946
 40
0.7693392842122951
 40
0.8462239937855056
 40
0.8462348729151264
 40
1.0
 40
1.0
 40
1.0
 40
1.0
 10
236.803117905749
 20
523.2216547772643
 30
0.0
 10
231.3968179934311
 20
524.8516653167
 30
0.0
 10
226.0985945942465
 20
526.8873996713139
 30
0.0
 10
218.5090753506164
 20
530.6605486341925
 30
0.0
 10
216.0376671612713
 20
532.0387920181596
 30
0.0
 10
211.2338526560629
 20
535.0135143709124
 30
0.0
 10
208.8987395547322
 20
536.6116660844962
 30
0.0
 10
204.3916438435103
 20
540.0176392552651
 30
0.0
 10
202.2173111200596
 20
541.8272384970048
 30
0.0
 10
198.0352282979401
 20
545.6282236393236
 30
0.0
 10
196.025469723281
 20
547.6214327110773
 30
0.0
 10
192.244295870012
 20
551.8163875125239
 30
0.0
 10
190.4712130104415
 20
554.0198474651079
 30
0.0
 10
187.0927610216248
 20
558.5465408476092
 30
0.0
 10
185.4861764160477
 20
560.871217535467
 30
0.0
 10
182.5072433760106
 20
565.6661596081988
 30
0.0
 10
181.1342719414513
 20
568.1374397962452
 30
0.0
 10
178.6193195205484
 20
573.1931411360325
 30
0.0
 10
177.4770418617249
 20
575.7781550858057
 30
0.0
 10
175.4369225490947
 20
581.0426765235932
 30
0.0
 10
174.5388414300172
 20
583.7228049132472
 30
0.0
 10
172.2215050520592
 20
591.86883584158
 30
0.0
 10
171.1785166215261
 20
597.4421656554188
 30
0.0
 10
170.6585179911982
 20
603.0641115948913
 30
0.0
  0
SPLINE
  5
D6
330
1F
100
AcDbEntity
  8
0
  6
Continuous
 62
     7
370
    15
100
AcDbSpline
210
0.0
220
0.0
230
1.0
 70
     8
 71
     3
 72
    26
 73
    22
 74
     0
 42
0.00000001
 43
0.00000001
 12
1.0
 22
0.0
 32
0.0
 13
1.0
 23
0.0
 33
0.0
 40
0.0
 40
0.0
 40
0.0
 40
0.0
 40
0.166599626098959
 40
0.1666121184687959
 40
0.2499572312252525
 40
0.2499662929613364
 40
0.3333149663966424
 40
0.3333205458099746
 40
0.4166727015680323
 40
0.4166747986586128
 40
0.5000289359845411
 40
0.5000303066943258
 40
0.5833832092529327
 40
0.5833880113595326
 40
0.6667098922832868
 40
0.6667206791991579
 40
0.7499953780968833
 40
0.7500151859142372
 40
0.8332808715523278
 40
0.8333096544315681
 40
1.0
 40
1.0
 40
1.0
 40
1.0
 10
295.0375920878779
 20
696.9908579632995
 30
0.0
 10
289.7545063330903
 20
698.9603546578094
 30
0.0
 10
284.3280705139906
 20
700.6295967132705
 30
0.0
 10
276.0093983435631
 20
702.2264317592337
 30
0.0
 10
273.2052645958534
 20
702.6075918527847
 30
0.0
 10
267.5770312800933
 20
703.121716622102
 30
0.0
 10
264.7520176851948
 20
703.2547676444209
 30
0.0
 10
259.1015088658978
 20
703.257282556038
 30
0.0
 10
256.2754469628302
 20
703.1267461786512
 30
0.0
 10
250.6493547031466
 20
702.6026487022255
 30
0.0
 10
247.8490193197873
 20
702.2090595544217
 30
0.0
 10
242.2915672872234
 20
701.1790564412242
 30
0.0
 10
239.5341753967975
 20
700.5425905329978
 30
0.0
 10
234.1106717305386
 20
698.9657870935442
 30
0.0
 10
231.4439792570942
 20
698.0253884625162
 30
0.0
 10
226.1874434092992
 20
695.9565115131392
 30
0.0
 10
223.5964510842958
 20
694.8276791675802
 30
0.0
 10
218.5432055888472
 20
692.3138747141872
 30
0.0
 10
216.0791493608401
 20
690.9280151498072
 30
0.0
 10
208.8566227918083
 20
686.4933949744823
 30
0.0
 10
204.2679350965079
 20
683.1669689362066
 30
0.0
 10
200.0784055339228
 20
679.3655298993347
 30
0.0
  0
SPLINE
  5
D7
330
1F
100
AcDbEntity
  8
0
  6
Continuous
 62
     7
370
    15
100
AcDbSpline
210
0.0
220
0.0
230
1.0
 70
     8
 71
     3
 72
    26
 73
    22
 74
     0
 42
0.00000001
 43
0.00000001
 12
1.0
 22
0.0
 32
0.0
 13
1.0
 23
0.0
 33
0.0
 40
0.0
 40
0.0
 40
0.0
 40
0.0
 40
0.166599626098959
 40
0.1666121184687959
 40
0.2499572312252525
 40
0.2499662929613364
 40
0.3333149663966424
 40
0.3333205458099746
 40
0.4166727015680323
 40
0.4166747986586128
 40
0.5000289359845411
 40
0.5000303066943258
 40
0.5833832092529327
 40
0.5833880113595326
 40
0.6667098922832868
 40
0.6667206791991579
 40
0.7499953780968833
 40
0.7500151859142372
 40
0.8332808715523278
 40
0.8333096544315681
 40
1.0
 40
1.0
 40
1.0
 40
1.0
 10
295.0375920878779
 20
696.9908579632995
 30
0.0
 10
289.7837286821373
 20
699.0591016597638
 30
0.0
 10
284.3453906514092
 20
700.7034102262505
 30
0.0
 10
276.018045038275
 20
702.2925009326066
 30
0.0
 10
273.212552876204
 20
702.6760364712775
 30
0.0
 10
267.5807545847974
 20
703.1920508746674
 30
0.0
 10
264.7535329015335
 20
703.3246127538862
 30
0.0
 10
259.0988584599858
 20
703.3266285648826
 30
0.0
 10
256.2708388257474
 20
703.1960826971433
 30
0.0
 10
250.6406901015395
 20
702.6718834615544
 30
0.0
 10
247.8382556527244
 20
702.2782022726485
 30
0.0
 10
242.2770238825226
 20
701.2467901430585
 30
0.0
 10
239.5179508934999
 20
700.6090078490124
 30
0.0
 10
234.0897414695528
 20
699.0335378582005
 30
0.0
 10
231.4200260253859
 20
698.0957830107318
 30
0.0
 10
226.1587991486721
 20
696.0279723928033
 30
0.0
 10
223.5661329091928
 20
694.8975761604995
 30
0.0
 10
218.5097021628085
 20
692.3811789738435
 30
0.0
 10
216.0441411557892
 20
690.9942734501724
 30
0.0
 10
208.8146696722276
 20
686.5583981574921
 30
0.0
 10
204.2180669064661
 20
683.2337183245488
 30
0.0
 10
200.0784055339228
 20
679.3655298993347
 30
0.0
  0
SPLINE
  5
D8
330
1F
100
AcDbEntity
  8
0
  6
Continuous
 62
     7
370
    15
100
AcDbSpline
210
0.0
220
0.0
230
1.0
 70
     8
 71
     3
 72
    26
 73
    22
 74
     0
 42
0.00000001
 43
0.00000001
 12
1.0
 22
0.0
 32
0.0
 13
1.0
 23
0.0
 33
0.0
 40
0.0
 40
0.0
 40
0.0
 40
0.0
 40
0.1667704323237727
 40
0.1668064187159337
 40
0.2501304834187996
 40
0.2501628945258008
 40
0.3334522985826563
 40
0.3334779787711443
 40
0.416774251568559
 40
0.4167932968214251
 40
0.5000962178985895
 40
0.5001085573952696
 40
0.5834183821787658
 40
0.5834241446587545
 40
0.6667391474531623
 40
0.6667399887561776
 40
0.7500543728158671
 40
0.7500619198807065
 40
0.8333698631655071
 40
0.833383989695066
 40
1.0
 40
1.0
 40
1.0
 40
1.0
 10
350.2262364970576
 20
586.3979243085143
 30
0.0
 10
348.6520201569159
 20
580.9739740585178
 30
0.0
 10
346.6539516198246
 20
575.6461953206693
 30
0.0
 10
342.8320833560107
 20
568.0770206807265
 30
0.0
 10
341.4203356499902
 20
565.6234546972586
 30
0.0
 10
338.4203847202497
 20
560.8332768525147
 30
0.0
 10
336.8305653020923
 20
558.4939168030766
 30
0.0
 10
333.4324827374589
 20
553.9815516626667
 30
0.0
 10
331.6226505218542
 20
551.8064594082366
 30
0.0
 10
327.8144486279899
 20
547.6321469822701
 30
0.0
 10
325.8147762318673
 20
545.631499311264
 30
0.0
 10
321.6396784901652
 20
541.8247227923792
 30
0.0
 10
319.4633232454838
 20
540.017746984128
 30
0.0
 10
314.9540569383018
 20
536.6127866116836
 30
0.0
 10
312.6206350032789
 20
535.0144139857803
 30
0.0
 10
307.8166850630054
 20
532.0395778947958
 30
0.0
 10
305.3457487371431
 20
530.6628625902262
 30
0.0
 10
300.2875234535684
 20
528.1452662421403
 30
0.0
 10
297.699551685781
 20
527.0040462224562
 30
0.0
 10
289.7978417093581
 20
523.9367136285481
 30
0.0
 10
284.3440747008769
 20
522.3659173249202
 30
0.0
 10
278.7688542949091
 20
521.422994498944
 30
0.0
  0
SPLINE
  5
D9
330
1F
100
AcDbEntity
  8
0
  6
Continuous
 62
     7
370
    15
100
AcDbSpline
210
0.0
220
0.0
230
1.0
 70
     8
 71
     3
 72
    26
 73
    22
 74
     0
 42
0.00000001
 43
0.00000001
 12
1.0
 22
0.0
 32
0.0
 13
1.0
 23
0.0
 33
0.0
 40
0.0
 40
0.0
 40
0.0
 40
0.0
 40
0.1667704323237727
 40
0.1668064187159337
 40
0.2501304834187996
 40
0.2501628945258008
 40
0.3334522985826563
 40
0.3334779787711443
 40
0.416774251568559
 40
0.4167932968214251
 40
0.5000962178985895
 40
0.5001085573952696
 40
0.5834183821787658
 40
0.5834241446587545
 40
0.6667391474531623
 40
0.6667399887561776
 40
0.7500543728158671
 40
0.7500619198807065
 40
0.8333698631655071
 40
0.833383989695066
 40
1.0
 40
1.0
 40
1.0
 40
1.0
 10
350.2262364970576
 20
586.3979243085143
 30
0.0
 10
348.566587795099
 20
581.00850772523
 30
0.0
 10
346.5901781196554
 20
575.6766661651242
 30
0.0
 10
342.7729895062396
 20
568.1132200218954
 30
0.0
 10
341.3581360596067
 20
565.6635515588584
 30
0.0
 10
338.3574540755246
 20
560.8784015081154
 30
0.0
 10
336.770035920052
 20
558.5401593721298
 30
0.0
 10
333.3754561481645
 20
554.0306369089495
 30
0.0
 10
331.5667150073361
 20
551.8572775863051
 30
0.0
 10
327.7612092097966
 20
547.6861041671405
 30
0.0
 10
325.7631449115292
 20
545.6868625016101
 30
0.0
 10
321.5912661679652
 20
541.8828517250581
 30
0.0
 10
319.4165220249124
 20
540.0772366092858
 30
0.0
 10
314.9106375538239
 20
536.6747155990337
 30
0.0
 10
312.5789867366105
 20
535.0774219742751
 30
0.0
 10
307.7785522211407
 20
532.1050808907553
 30
0.0
 10
305.3093605079346
 20
530.7297817974846
 30
0.0
 10
300.2551088856437
 20
528.2130847075608
 30
0.0
 10
297.6693667647833
 20
527.0713476702223
 30
0.0
 10
289.7722076587391
 20
524.0121306466916
 30
0.0
 10
284.31862555436
 20
522.4596344978955
 30
0.0
 10
278.7688542949091
 20
521.422994498944
 30
0.0
  0
SPLINE
  5
DA
330
1F
100
AcDbEntity
  8
0
  6
Continuous
 62
     7
370
    15
100
AcDbSpline
210
0.0
220
0.0
230
1.0
 70
     8
 71
     3
 72
    16
 73
    12
 74
     0
 42
0.00000001
 43
0.00000001
 12
1.0
 22
0.0
 32
0.0
 13
1.0
 23
0.0
 33
0.0
 40
0.0
 40
0.0
 40
0.0
 40
0.0
 40
0.2856941236061989
 40
0.2857143110054546
 40
0.42856459748085
 40
0.4285713753552777
 40
0.5714285355377478
 40
0.5714352693634807
 40
0.714285824318936
 40
0.7143059412461114
 40
1.0
 40
1.0
 40
1.0
 40
1.0
 10
228.8154775248896
 20
696.9908579632995
 30
0.0
 10
234.052005272122
 20
699.1240681051763
 30
0.0
 10
239.5157781195624
 20
700.659725420112
 30
0.0
 10
247.8486668301939
 20
702.2114320308656
 30
0.0
 10
250.6496293710391
 20
702.6034261405197
 30
0.0
 10
256.2755625838563
 20
703.1260049548621
 30
0.0
 10
259.1011962405195
 20
703.2566509981147
 30
0.0
 10
264.7513508848616
 20
703.2553995191417
 30
0.0
 10
267.5765362980202
 20
703.1235017035755
 30
0.0
 10
276.0170549277003
 20
702.347263553605
 30
0.0
 10
281.5992129924827
 20
701.3223305509622
 30
0.0
 10
287.0102254496943
 20
699.6813563153503
 30
0.0
  0
SPLINE
  5
DB
330
1F
100
AcDbEntity
  8
0
  6
Continuous
 62
     7
370
    15
100
AcDbSpline
210
0.0
220
0.0
230
1.0
 70
     8
 71
     3
 72
    16
 73
    12
 74
     0
 42
0.00000001
 43
0.00000001
 12
1.0
 22
0.0
 32
0.0
 13
1.0
 23
0.0
 33
0.0
 40
0.0
 40
0.0
 40
0.0
 40
0.0
 40
0.2856941236061989
 40
0.2857143110054546
 40
0.42856459748085
 40
0.4285713753552777
 40
0.5714285355377478
 40
0.5714352693634807
 40
0.714285824318936
 40
0.7143059412461114
 40
1.0
 40
1.0
 40
1.0
 40
1.0
 10
228.8154775248896
 20
696.9908579632995
 30
0.0
 10
234.0797938494971
 20
699.0311204740004
 30
0.0
 10
239.5338232012476
 20
700.5820731600436
 30
0.0
 10
247.8587240636098
 20
702.1384061684794
 30
0.0
 10
250.6581282076727
 20
702.5288895091029
 30
0.0
 10
256.280224950534
 20
703.0498477743222
 30
0.0
 10
259.1035801154301
 20
703.1803838003285
 30
0.0
 10
264.7497658109149
 20
703.180390965082
 30
0.0
 10
267.5732603299566
 20
703.0498620116457
 30
0.0
 10
276.0062515735688
 20
702.2682848316014
 30
0.0
 10
281.5801170252535
 20
701.2271987233314
 30
0.0
 10
287.0102254496943
 20
699.6813563153503
 30
0.0
  0
SPLINE
  5
DC
330
1F
100
AcDbEntity
  8
0
  6
Continuous
 62
     7
370
    15
100
AcDbSpline
210
0.0
220
0.0
230
1.0
 70
     8
 71
     3
 72
    12
 73
     8
 74
     0
 42
0.00000001
 43
0.00000001
 12
1.0
 22
0.0
 32
0.0
 13
1.0
 23
0.0
 33
0.0
 40
0.0
 40
0.0
 40
0.0
 40
0.0
 40
0.3999868587124599
 40
0.4000000019308388
 40
0.5999998121275122
 40
0.6000130776288064
 40
1.0
 40
1.0
 40
1.0
 40
1.0
 10
179.876733933581
 20
652.3772982403991
 30
0.0
 10
182.3101221811198
 20
657.480786943296
 30
0.0
 10
185.3118704866202
 20
662.297977886959
 30
0.0
 10
190.4254455093924
 20
669.0572110211968
 30
0.0
 10
192.2320397077077
 20
671.2328105239105
 30
0.0
 10
197.9365655034665
 20
677.5013283324911
 30
0.0
 10
202.1201630427265
 20
681.3371286117742
 30
0.0
 10
206.6896306620966
 20
684.6668375775573
 30
0.0
  0
SPLINE
  5
DD
330
1F
100
AcDbEntity
  8
0
  6
Continuous
 62
     7
370
    15
100
AcDbSpline
210
0.0
220
0.0
230
1.0
 70
     8
 71
     3
 72
    12
 73
     8
 74
     0
 42
0.00000001
 43
0.00000001
 12
1.0
 22
0.0
 32
0.0
 13
1.0
 23
0.0
 33
0.0
 40
0.0
 40
0.0
 40
0.0
 40
0.0
 40
0.3999868587124599
 40
0.4000000019308388
 40
0.5999998121275122
 40
0.6000130776288064
 40
1.0
 40
1.0
 40
1.0
 40
1.0
 10
179.876733933581
 20
652.3772982403991
 30
0.0
 10
182.3926928919083
 20
657.4318114945271
 30
0.0
 10
185.3784334700989
 20
662.2523049834197
 30
0.0
 10
190.4821944870254
 20
669.0110084783161
 30
0.0
 10
192.2878836513621
 20
671.1855171901435
 30
0.0
 10
197.9936916363234
 20
677.4442914918237
 30
0.0
 10
202.1834723441263
 20
681.264967818311
 30
0.0
 10
206.6896306620966
 20
684.6668375775573
 30
0.0
  0
SPLINE
  5
DE
330
1F
100
AcDbEntity
  8
0
  6
Continuous
 62
     7
370
    15
100
AcDbSpline
210
0.0
220
0.0
230
1.0
 70
     8
 71
     3
 72
     9
 73
     5
 74
     0
 42
0.00000001
 43
0.00000001
 12
1.0
 22
0.0
 32
0.0
 13
1.0
 23
0.0
 33
0.0
 40
0.0
 40
0.0
 40
0.0
 40
0.0
 40
0.5000000317490343
 40
1.0
 40
1.0
 40
1.0
 40
1.0
 10
171.6854116069209
 20
628.3903387830015
 30
0.0
 10
170.7380328920478
 20
622.8236058231024
 30
0.0
 10
169.6457153620153
 20
611.5213513677995
 30
0.0
 10
170.7380312002772
 20
600.219096606503
 30
0.0
 10
171.6854116069209
 20
594.6523646161315
 30
0.0
  0
SPLINE
  5
DF
330
1F
100
AcDbEntity
  8
0
  6
Continuous
 62
     7
370
    15
100
AcDbSpline
210
0.0
220
0.0
230
1.0
 70
     8
 71
     3
 72
     9
 73
     5
 74
     0
 42
0.00000001
 43
0.00000001
 12
1.0
 22
0.0
 32
0.0
 13
1.0
 23
0.0
 33
0.0
 40
0.0
 40
0.0
 40
0.0
 40
0.0
 40
0.5000000317490343
 40
1.0
 40
1.0
 40
1.0
 40
1.0
 10
171.6854116069209
 20
628.3903387830015
 30
0.0
 10
170.6455547696229
 20
622.8315805690017
 30
0.0
 10
169.5989875693727
 20
611.5213513744484
 30
0.0
 10
170.6455530427529
 20
600.2111218456613
 30
0.0
 10
171.6854116069208
 20
594.6523646161315
 30
0.0
  0
SPLINE
  5
E0
330
1F
100
AcDbEntity
  8
0
  6
Continuous
 62
     7
370
    15
100
AcDbSpline
210
0.0
220
0.0
230
1.0
 70
     8
 71
     3
 72
    10
 73
     6
 74
     0
 42
0.00000001
 43
0.00000001
 12
1.0
 22
0.0
 32
0.0
 13
1.0
 23
0.0
 33
0.0
 40
0.0
 40
0.0
 40
0.0
 40
0.0
 40
0.500000079684071
 40
0.5000001077475786
 40
1.0
 40
1.0
 40
1.0
 40
1.0
 10
179.876733933581
 20
652.3772982403991
 30
0.0
 10
177.3593308994599
 20
647.3233211330197
 30
0.0
 10
175.3116727067656
 20
642.0356660919601
 30
0.0
 10
172.2213827917798
 20
631.1744043778159
 30
0.0
 10
171.178750607856
 20
625.6007975122105
 30
0.0
 10
170.6585179911982
 20
619.9785794064758
 30
0.0
  0
SPLINE
  5
E1
330
1F
100
AcDbEntity
  8
0
  6
Continuous
 62
     7
370
    15
100
AcDbSpline
210
0.0
220
0.0
230
1.0
 70
     8
 71
     3
 72
    10
 73
     6
 74
     0
 42
0.00000001
 43
0.00000001
 12
1.0
 22
0.0
 32
0.0
 13
1.0
 23
0.0
 33
0.0
 40
0.0
 40
0.0
 40
0.0
 40
0.0
 40
0.500000079684071
 40
0.5000001077475786
 40
1.0
 40
1.0
 40
1.0
 40
1.0
 10
179.876733933581
 20
652.3772982403991
 30
0.0
 10
177.2655362173196
 20
647.3603336240728
 30
0.0
 10
175.2402892884989
 20
642.0611393469452
 30
0.0
 10
172.1472731362709
 20
631.1903263897128
 30
0.0
 10
171.0795034765717
 20
625.6187075104576
 30
0.0
 10
170.6585179911982
 20
619.9785794064758
 30
0.0
  0
SPLINE
  5
E2
330
1F
100
AcDbEntity
  8
0
  6
Continuous
 62
     7
370
    15
100
AcDbSpline
210
0.0
220
0.0
230
1.0
 70
     8
 71
     3
 72
    10
 73
     6
 74
     0
 42
0.00000001
 43
0.00000001
 12
1.0
 22
0.0
 32
0.0
 13
1.0
 23
0.0
 33
0.0
 40
0.0
 40
0.0
 40
0.0
 40
0.0
 40
0.4999999829647485
 40
0.5000000141043458
 40
1.0
 40
1.0
 40
1.0
 40
1.0
 10
206.6021062480341
 20
684.782743339276
 30
0.0
 10
211.1146045958903
 20
688.1913274770807
 30
0.0
 10
215.9436029021629
 20
691.180464880083
 30
0.0
 10
226.0681037949481
 20
696.2218743696263
 30
0.0
 10
231.3636066942836
 20
698.2741466046122
 30
0.0
 10
236.8031064616572
 20
699.821058158612
 30
0.0
  0
SPLINE
  5
E3
330
1F
100
AcDbEntity
  8
0
  6
Continuous
 62
     7
370
    15
100
AcDbSpline
210
0.0
220
0.0
230
1.0
 70
     8
 71
     3
 72
    10
 73
     6
 74
     0
 42
0.00000001
 43
0.00000001
 12
1.0
 22
0.0
 32
0.0
 13
1.0
 23
0.0
 33
0.0
 40
0.0
 40
0.0
 40
0.0
 40
0.0
 40
0.4999999829647485
 40
0.5000000141043458
 40
1.0
 40
1.0
 40
1.0
 40
1.0
 10
206.6021062480341
 20
684.782743339276
 30
0.0
 10
211.1629586295641
 20
688.1121086877654
 30
0.0
 10
215.9781971709123
 20
691.1199349599918
 30
0.0
 10
226.0955612828711
 20
696.1577867010261
 30
0.0
 10
231.397687162658
 20
698.1878123267163
 30
0.0
 10
236.8031064616572
 20
699.821058158612
 30
0.0
  0
SPLINE
  5
E4
330
1F
100
AcDbEntity
  8
0
  6
Continuous
 62
     7
370
    15
100
AcDbSpline
210
0.0
220
0.0
230
1.0
 70
     8
 71
     3
 72
    10
 73
     6
 74
     0
 42
0.00000001
 43
0.00000001
 12
1.0
 22
0.0
 32
0.0
 13
1.0
 23
0.0
 33
0.0
 40
0.0
 40
0.0
 40
0.0
 40
0.0
 40
0.5000001901526333
 40
0.500000234778132
 40
1.0
 40
1.0
 40
1.0
 40
1.0
 10
287.0499745952021
 20
699.8210505292174
 30
0.0
 10
292.4894799052519
 20
698.2741488985192
 30
0.0
 10
297.7849791111598
 20
696.2218659229036
 30
0.0
 10
307.9094800719183
 20
691.1804599915258
 30
0.0
 10
312.7384826676019
 20
688.1913376113428
 30
0.0
 10
317.2509709941279
 20
684.7827433392762
 30
0.0
  0
SPLINE
  5
E5
330
1F
100
AcDbEntity
  8
0
  6
Continuous
 62
     7
370
    15
100
AcDbSpline
210
0.0
220
0.0
230
1.0
 70
     8
 71
     3
 72
    10
 73
     6
 74
     0
 42
0.00000001
 43
0.00000001
 12
1.0
 22
0.0
 32
0.0
 13
1.0
 23
0.0
 33
0.0
 40
0.0
 40
0.0
 40
0.0
 40
0.0
 40
0.5000001901526333
 40
0.500000234778132
 40
1.0
 40
1.0
 40
1.0
 40
1.0
 10
287.0499745952021
 20
699.8210505292174
 30
0.0
 10
292.4554011335866
 20
698.1878210500253
 30
0.0
 10
297.7575270294126
 20
696.157790243937
 30
0.0
 10
307.8748872104623
 20
691.1199337468762
 30
0.0
 10
312.6901223484566
 20
688.1121086538589
 30
0.0
 10
317.2509709941279
 20
684.782743339276
 30
0.0
  0
SPLINE
  5
E6
330
1F
100
AcDbEntity
  8
0
  6
Continuous
 62
     7
370
    15
100
AcDbSpline
210
0.0
220
0.0
230
1.0
 70
     8
 71
     3
 72
    10
 73
     6
 74
     0
 42
0.00000001
 43
0.00000001
 12
1.0
 22
0.0
 32
0.0
 13
1.0
 23
0.0
 33
0.0
 40
0.0
 40
0.0
 40
0.0
 40
0.0
 40
0.5000006121778203
 40
0.5000006957890609
 40
1.0
 40
1.0
 40
1.0
 40
1.0
 10
310.1787892924677
 20
689.4514368817565
 30
0.0
 10
315.0399736670685
 20
686.5605473585478
 30
0.0
 10
319.5515511336538
 20
683.1212371953283
 30
0.0
 10
327.9040258237521
 20
675.506940638018
 30
0.0
 10
331.7449254702005
 20
671.3319555266281
 30
0.0
 10
335.0720159160029
 20
666.7582644269226
 30
0.0
  0
SPLINE
  5
E7
330
1F
100
AcDbEntity
  8
0
  6
Continuous
 62
     7
370
    15
100
AcDbSpline
210
0.0
220
0.0
230
1.0
 70
     8
 71
     3
 72
    10
 73
     6
 74
     0
 42
0.00000001
 43
0.00000001
 12
1.0
 22
0.0
 32
0.0
 13
1.0
 23
0.0
 33
0.0
 40
0.0
 40
0.0
 40
0.0
 40
0.0
 40
0.5000006121778203
 40
0.5000006957890609
 40
1.0
 40
1.0
 40
1.0
 40
1.0
 10
310.1787892924677
 20
689.4514368817565
 30
0.0
 10
314.9797069603381
 20
686.4796940984753
 30
0.0
 10
319.5042690001979
 20
683.0619993269672
 30
0.0
 10
327.8494055851227
 20
675.4543964271177
 30
0.0
 10
331.669982656837
 20
671.2644896927827
 30
0.0
 10
335.0720159160029
 20
666.7582644269226
 30
0.0
  0
LINE
  5
E8
330
1F
100
AcDbEntity
  8
0
  6
Continuous
 62
     7
370
    15
100
AcDbLine
 10
176.3216039287
 20
644.6848772809
 30
0.0
 11
179.8090306865
 21
652.4110087201
 31
0.0
  0
SPLINE
  5
E9
330
1F
100
AcDbEntity
  8
0
  6
Continuous
 62
     7
370
    15
100
AcDbSpline
210
0.0
220
0.0
230
1.0
 70
     8
 71
     3
 72
     8
 73
     4
 74
     0
 42
0.00000001
 43
0.00000001
 12
1.0
 22
0.0
 32
0.0
 13
1.0
 23
0.0
 33
0.0
 40
0.0
 40
0.0
 40
0.0
 40
0.0
 40
1.0
 40
1.0
 40
1.0
 40
1.0
 10
176.3216039286982
 20
644.6848772809265
 30
0.0
 10
178.3713024600742
 20
649.9726911480068
 30
0.0
 10
180.8884279076653
 20
655.0277537599046
 30
0.0
 10
183.8729802714716
 20
659.8500651166197
 30
0.0
  0
LINE
  5
EA
330
1F
100
AcDbEntity
  8
0
  6
Continuous
 62
     7
370
    15
100
AcDbLine
 10
179.8090306865
 20
652.4110087201
 30
0.0
 11
183.8729802715
 21
659.8500651166
 31
0.0
  0
ENDSEC
  0
SECTION
  2
OBJECTS
  0
DICTIONARY
  5
C
330
0
100
AcDbDictionary
281
     1
  3
ACAD_GROUP
350
D
  3
ACAD_LAYOUT
350
1A
  3
ACAD_MLINESTYLE
350
17
  3
ACAD_PLOTSETTINGS
350
19
  3
ACAD_PLOTSTYLENAME
350
E
  0
DICTIONARY
  5
D
102
{ACAD_REACTORS
330
C
102
}
330
C
100
AcDbDictionary
281
     1
  0
DICTIONARY
  5
1A
102
{ACAD_REACTORS
330
C
102
}
330
C
100
AcDbDictionary
281
     1
  3
Layout1
350
1E
  3
Layout2
350
26
  3
Model
350
22
  0
DICTIONARY
  5
17
102
{ACAD_REACTORS
330
C
102
}
330
C
100
AcDbDictionary
281
     1
  3
Standard
350
18
  0
DICTIONARY
  5
19
102
{ACAD_REACTORS
330
C
102
}
330
C
100
AcDbDictionary
281
     1
  0
ACDBDICTIONARYWDFLT
  5
E
102
{ACAD_REACTORS
330
C
102
}
330
C
100
AcDbDictionary
281
     1
  3
Normal
350
F
100
AcDbDictionaryWithDefault
340
F
  0
LAYOUT
  5
1E
102
{ACAD_REACTORS
330
1A
102
}
330
1A
100
AcDbPlotSettings
  1

  2
none_device
  4

  6

 40
0.0
 41
0.0
 42
0.0
 43
0.0
 44
0.0
 45
0.0
 46
0.0
 47
0.0
 48
0.0
 49
0.0
140
0.0
141
0.0
142
1.0
143
1.0
 70
   688
 72
     0
 73
     0
 74
     5
  7

 75
    16
147
1.0
148
0.0
149
0.0
100
AcDbLayout
  1
Layout1
 70
     1
 71
     1
 10
0.0
 20
0.0
 11
420.0
 21
297.0
 12
0.0
 22
0.0
 32
0.0
 14
1.0000000000E+20
 24
1.0000000000E+20
 34
1.0000000000E+20
 15
-1.0000000000E+20
 25
-1.0000000000E+20
 35
-1.0000000000E+20
146
0.0
 13
0.0
 23
0.0
 33
0.0
 16
1.0
 26
0.0
 36
0.0
 17
0.0
 27
1.0
 37
0.0
 76
     0
330
1B
  0
LAYOUT
  5
26
102
{ACAD_REACTORS
330
1A
102
}
330
1A
100
AcDbPlotSettings
  1

  2
none_device
  4

  6

 40
0.0
 41
0.0
 42
0.0
 43
0.0
 44
0.0
 45
0.0
 46
0.0
 47
0.0
 48
0.0
 49
0.0
140
0.0
141
0.0
142
1.0
143
1.0
 70
   688
 72
     0
 73
     0
 74
     5
  7

 75
    16
147
1.0
148
0.0
149
0.0
100
AcDbLayout
  1
Layout2
 70
     1
 71
     2
 10
0.0
 20
0.0
 11
0.0
 21
0.0
 12
0.0
 22
0.0
 32
0.0
 14
0.0
 24
0.0
 34
0.0
 15
0.0
 25
0.0
 35
0.0
146
0.0
 13
0.0
 23
0.0
 33
0.0
 16
1.0
 26
0.0
 36
0.0
 17
0.0
 27
1.0
 37
0.0
 76
     0
330
23
  0
LAYOUT
  5
22
102
{ACAD_REACTORS
330
1A
102
}
330
1A
100
AcDbPlotSettings
  1

  2
none_device
  4

  6

 40
0.0
 41
0.0
 42
0.0
 43
0.0
 44
0.0
 45
0.0
 46
0.0
 47
0.0
 48
0.0
 49
0.0
140
0.0
141
0.0
142
1.0
143
1.0
 70
  1712
 72
     0
 73
     0
 74
     0
  7

 75
     0
147
1.0
148
0.0
149
0.0
100
AcDbLayout
  1
Model
 70
     1
 71
     0
 10
0.0
 20
0.0
 11
1397.0
 21
1079.5
 12
0.0
 22
0.0
 32
0.0
 14
0.0
 24
0.0
 34
0.0
 15
1397.0
 25
1079.5
 35
0.0
146
0.0
 13
0.0
 23
0.0
 33
0.0
 16
1.0
 26
0.0
 36
0.0
 17
0.0
 27
1.0
 37
0.0
 76
     0
330
1F
331
29
  0
MLINESTYLE
  5
18
102
{ACAD_REACTORS
330
17
102
}
330
17
100
AcDbMlineStyle
  2
Standard
 70
     0
  3

 62
   256
 51
90.0
 52
90.0
 71
     2
 49
0.5
 62
   256
  6
BYLAYER
 49
-0.5
 62
   256
  6
BYLAYER
  0
ACDBPLACEHOLDER
  5
F
102
{ACAD_REACTORS
330
E
102
}
330
E
  0
ENDSEC
  0
EOF
