  0
SECTION
  2
HEADER
  9
$ACADVER
  1
AC1021
  9
$ACADMAINTVER
 70
    50
  9
$DWGCODEPAGE
  3
ANSI_1251
  9
$LASTSAVEDBY
  1
Игорь
  9
$INSBASE
 10
0.0
 20
0.0
 30
0.0
  9
$EXTMIN
 10
-671.0960438486804
 20
76.91553801443851
 30
0.0
  9
$EXTMAX
 10
554.8596768799306
 20
407.0105440745136
 30
0.0
  9
$LIMMIN
 10
0.0
 20
0.0
  9
$LIMMAX
 10
279.4
 20
215.9
  9
$ORTHOMODE
 70
     0
  9
$REGENMODE
 70
     1
  9
$FILLMODE
 70
     1
  9
$QTEXTMODE
 70
     0
  9
$MIRRTEXT
 70
     1
  9
$LTSCALE
 40
1.0
  9
$ATTMODE
 70
     1
  9
$TEXTSIZE
 40
3.5
  9
$TRACEWID
 40
1.0
  9
$TEXTSTYLE
  7
Standard
  9
$CLAYER
  8
0
  9
$CELTYPE
  6
ByLayer
  9
$CECOLOR
 62
   256
  9
$CELTSCALE
 40
1.0
  9
$DISPSILH
 70
     0
  9
$DIMSCALE
 40
1.0
  9
$DIMASZ
 40
3.5
  9
$DIMEXO
 40
0.01
  9
$DIMDLI
 40
3.75
  9
$DIMRND
 40
0.0
  9
$DIMDLE
 40
0.0
  9
$DIMEXE
 40
1.0
  9
$DIMTP
 40
0.0
  9
$DIMTM
 40
0.0
  9
$DIMTXT
 40
3.5
  9
$DIMCEN
 40
2.5
  9
$DIMTSZ
 40
0.0
  9
$DIMTOL
 70
     0
  9
$DIMLIM
 70
     0
  9
$DIMTIH
 70
     1
  9
$DIMTOH
 70
     1
  9
$DIMSE1
 70
     0
  9
$DIMSE2
 70
     0
  9
$DIMTAD
 70
     1
  9
$DIMZIN
 70
     0
  9
$DIMBLK
  1

  9
$DIMASO
 70
     1
  9
$DIMSHO
 70
     1
  9
$DIMPOST
  1

  9
$DIMAPOST
  1

  9
$DIMALT
 70
     0
  9
$DIMALTD
 70
     3
  9
$DIMALTF
 40
0.0393700787401575
  9
$DIMLFAC
 40
1.0
  9
$DIMTOFL
 70
     1
  9
$DIMTVP
 40
0.0
  9
$DIMTIX
 70
     0
  9
$DIMSOXD
 70
     0
  9
$DIMSAH
 70
     0
  9
$DIMBLK1
  1

  9
$DIMBLK2
  1

  9
$DIMSTYLE
  2
ISO-25
  9
$DIMCLRD
 70
     0
  9
$DIMCLRE
 70
     0
  9
$DIMCLRT
 70
     0
  9
$DIMTFAC
 40
1.0
  9
$DIMGAP
 40
3.0
  9
$DIMJUST
 70
     0
  9
$DIMSD1
 70
     0
  9
$DIMSD2
 70
     0
  9
$DIMTOLJ
 70
     0
  9
$DIMTZIN
 70
     0
  9
$DIMALTZ
 70
     0
  9
$DIMALTTZ
 70
     0
  9
$DIMUPT
 70
     0
  9
$DIMDEC
 70
     2
  9
$DIMTDEC
 70
     3
  9
$DIMALTU
 70
     2
  9
$DIMALTTD
 70
     3
  9
$DIMTXSTY
  7
Standard
  9
$DIMAUNIT
 70
     0
  9
$DIMADEC
 70
     2
  9
$DIMALTRND
 40
0.0
  9
$DIMAZIN
 70
     0
  9
$DIMDSEP
 70
    44
  9
$DIMATFIT
 70
     3
  9
$DIMFRAC
 70
     0
  9
$DIMLDRBLK
  1

  9
$DIMLUNIT
 70
     2
  9
$DIMLWD
 70
    -2
  9
$DIMLWE
 70
    -2
  9
$DIMTMOVE
 70
     0
  9
$DIMFXL
 40
1.0
  9
$DIMFXLON
 70
     0
  9
$DIMJOGANG
 40
0.7853981633974483
  9
$DIMTFILL
 70
     0
  9
$DIMTFILLCLR
 70
     0
  9
$DIMARCSYM
 70
     0
  9
$DIMLTYPE
  6

  9
$DIMLTEX1
  6

  9
$DIMLTEX2
  6

  9
$LUNITS
 70
     2
  9
$LUPREC
 70
     2
  9
$SKETCHINC
 40
1.0
  9
$FILLETRAD
 40
10.0
  9
$AUNITS
 70
     0
  9
$AUPREC
 70
     2
  9
$MENU
  1
.
  9
$ELEVATION
 40
0.0
  9
$PELEVATION
 40
0.0
  9
$THICKNESS
 40
0.0
  9
$LIMCHECK
 70
     0
  9
$CHAMFERA
 40
10.0
  9
$CHAMFERB
 40
10.0
  9
$CHAMFERC
 40
20.0
  9
$CHAMFERD
 40
0.0
  9
$SKPOLY
 70
     0
  9
$TDCREATE
 40
2458072.814231667
  9
$TDUCREATE
 40
2458072.730898333
  9
$TDUPDATE
 40
2458072.816092581
  9
$TDUUPDATE
 40
2458072.732759247
  9
$TDINDWG
 40
0.0014487153
  9
$TDUSRTIMER
 40
0.0014487153
  9
$USRTIMER
 70
     1
  9
$ANGBASE
 50
0.0
  9
$ANGDIR
 70
     0
  9
$PDMODE
 70
     0
  9
$PDSIZE
 40
-1.0
  9
$PLINEWID
 40
0.0
  9
$SPLFRAME
 70
     0
  9
$SPLINETYPE
 70
     6
  9
$SPLINESEGS
 70
     8
  9
$HANDSEED
  5
33C
  9
$SURFTAB1
 70
     6
  9
$SURFTAB2
 70
     6
  9
$SURFTYPE
 70
     6
  9
$SURFU
 70
     6
  9
$SURFV
 70
     6
  9
$UCSBASE
  2

  9
$UCSNAME
  2

  9
$UCSORG
 10
0.0
 20
0.0
 30
0.0
  9
$UCSXDIR
 10
1.0
 20
0.0
 30
0.0
  9
$UCSYDIR
 10
0.0
 20
1.0
 30
0.0
  9
$UCSORTHOREF
  2

  9
$UCSORTHOVIEW
 70
     0
  9
$UCSORGTOP
 10
0.0
 20
0.0
 30
0.0
  9
$UCSORGBOTTOM
 10
0.0
 20
0.0
 30
0.0
  9
$UCSORGLEFT
 10
0.0
 20
0.0
 30
0.0
  9
$UCSORGRIGHT
 10
0.0
 20
0.0
 30
0.0
  9
$UCSORGFRONT
 10
0.0
 20
0.0
 30
0.0
  9
$UCSORGBACK
 10
0.0
 20
0.0
 30
0.0
  9
$PUCSBASE
  2

  9
$PUCSNAME
  2

  9
$PUCSORG
 10
0.0
 20
0.0
 30
0.0
  9
$PUCSXDIR
 10
1.0
 20
0.0
 30
0.0
  9
$PUCSYDIR
 10
0.0
 20
1.0
 30
0.0
  9
$PUCSORTHOREF
  2

  9
$PUCSORTHOVIEW
 70
     0
  9
$PUCSORGTOP
 10
0.0
 20
0.0
 30
0.0
  9
$PUCSORGBOTTOM
 10
0.0
 20
0.0
 30
0.0
  9
$PUCSORGLEFT
 10
0.0
 20
0.0
 30
0.0
  9
$PUCSORGRIGHT
 10
0.0
 20
0.0
 30
0.0
  9
$PUCSORGFRONT
 10
0.0
 20
0.0
 30
0.0
  9
$PUCSORGBACK
 10
0.0
 20
0.0
 30
0.0
  9
$USERI1
 70
     0
  9
$USERI2
 70
     0
  9
$USERI3
 70
     0
  9
$USERI4
 70
     0
  9
$USERI5
 70
     0
  9
$USERR1
 40
0.0
  9
$USERR2
 40
0.0
  9
$USERR3
 40
0.0
  9
$USERR4
 40
0.0
  9
$USERR5
 40
0.0
  9
$WORLDVIEW
 70
     1
  9
$SHADEDGE
 70
     3
  9
$SHADEDIF
 70
    70
  9
$TILEMODE
 70
     1
  9
$MAXACTVP
 70
    64
  9
$PINSBASE
 10
0.0
 20
0.0
 30
0.0
  9
$PLIMCHECK
 70
     0
  9
$PEXTMIN
 10
1.000000000000000E+20
 20
1.000000000000000E+20
 30
1.000000000000000E+20
  9
$PEXTMAX
 10
-1.000000000000000E+20
 20
-1.000000000000000E+20
 30
-1.000000000000000E+20
  9
$PLIMMIN
 10
0.0
 20
0.0
  9
$PLIMMAX
 10
420.0
 20
297.0
  9
$UNITMODE
 70
     0
  9
$VISRETAIN
 70
     1
  9
$PLINEGEN
 70
     0
  9
$PSLTSCALE
 70
     1
  9
$TREEDEPTH
 70
  3020
  9
$CMLSTYLE
  2
Standard
  9
$CMLJUST
 70
     0
  9
$CMLSCALE
 40
20.0
  9
$PROXYGRAPHICS
 70
     1
  9
$MEASUREMENT
 70
     1
  9
$CELWEIGHT
370
    -1
  9
$ENDCAPS
280
     0
  9
$JOINSTYLE
280
     0
  9
$LWDISPLAY
290
     1
  9
$INSUNITS
 70
     4
  9
$HYPERLINKBASE
  1

  9
$STYLESHEET
  1

  9
$XEDIT
290
     1
  9
$CEPSNTYPE
380
     0
  9
$PSTYLEMODE
290
     1
  9
$FINGERPRINTGUID
  2
{6735978B-3D6C-4BED-81CE-8565CECCF1CB}
  9
$VERSIONGUID
  2
{CE194A06-D89B-47DD-989F-FEFE16AB92F4}
  9
$EXTNAMES
290
     1
  9
$PSVPSCALE
 40
0.0
  9
$OLESTARTUP
290
     0
  9
$SORTENTS
280
   127
  9
$INDEXCTL
280
     0
  9
$HIDETEXT
280
     0
  9
$XCLIPFRAME
290
     0
  9
$HALOGAP
280
     0
  9
$OBSCOLOR
 70
   257
  9
$OBSLTYPE
280
     0
  9
$INTERSECTIONDISPLAY
280
     0
  9
$INTERSECTIONCOLOR
 70
   257
  9
$DIMASSOC
280
     1
  9
$PROJECTNAME
  1

  9
$CAMERADISPLAY
290
     0
  9
$LENSLENGTH
 40
50.0
  9
$CAMERAHEIGHT
 40
0.0
  9
$STEPSPERSEC
 40
2.0
  9
$STEPSIZE
 40
6.0
  9
$3DDWFPREC
 40
2.0
  9
$PSOLWIDTH
 40
0.25
  9
$PSOLHEIGHT
 40
4.0
  9
$LOFTANG1
 40
1.570796326794896
  9
$LOFTANG2
 40
1.570796326794896
  9
$LOFTMAG1
 40
0.0
  9
$LOFTMAG2
 40
0.0
  9
$LOFTPARAM
 70
     7
  9
$LOFTNORMALS
280
     1
  9
$LATITUDE
 40
37.795
  9
$LONGITUDE
 40
-122.394
  9
$NORTHDIRECTION
 40
0.0
  9
$TIMEZONE
 70
 -8000
  9
$LIGHTGLYPHDISPLAY
280
     1
  9
$TILEMODELIGHTSYNCH
280
     1
  9
$CMATERIAL
347
2D5
  9
$SOLIDHIST
280
     1
  9
$SHOWHIST
280
     1
  9
$DWFFRAME
280
     2
  9
$DGNFRAME
280
     0
  9
$REALWORLDSCALE
290
     1
  9
$INTERFERECOLOR
 62
     1
  9
$INTERFEREOBJVS
345
2F7
  9
$INTERFEREVPVS
346
2F4
  9
$CSHADOW
280
     0
  9
$SHADOWPLANELOCATION
 40
0.0
  0
ENDSEC
  0
SECTION
  2
CLASSES
  0
CLASS
  1
ACDBDICTIONARYWDFLT
  2
AcDbDictionaryWithDefault
  3
ObjectDBX Classes
 90
        0
 91
        1
280
     0
281
     0
  0
CLASS
  1
VISUALSTYLE
  2
AcDbVisualStyle
  3
ObjectDBX Classes
 90
     4095
 91
       16
280
     0
281
     0
  0
CLASS
  1
MATERIAL
  2
AcDbMaterial
  3
ObjectDBX Classes
 90
     1153
 91
        3
280
     0
281
     0
  0
CLASS
  1
TABLESTYLE
  2
AcDbTableStyle
  3
ObjectDBX Classes
 90
     4095
 91
        1
280
     0
281
     0
  0
CLASS
  1
SCALE
  2
AcDbScale
  3
ObjectDBX Classes
 90
     1153
 91
       17
280
     0
281
     0
  0
CLASS
  1
MLEADERSTYLE
  2
AcDbMLeaderStyle
  3
ACDB_MLEADERSTYLE_CLASS
 90
     4095
 91
        1
280
     0
281
     0
  0
CLASS
  1
DICTIONARYVAR
  2
AcDbDictionaryVar
  3
ObjectDBX Classes
 90
        0
 91
        7
280
     0
281
     0
  0
CLASS
  1
CELLSTYLEMAP
  2
AcDbCellStyleMap
  3
ObjectDBX Classes
 90
     1152
 91
        1
280
     0
281
     0
  0
ENDSEC
  0
SECTION
  2
TABLES
  0
TABLE
  2
VPORT
  5
8
330
0
100
AcDbSymbolTable
 70
     1
  0
VPORT
  5
29
330
8
100
AcDbSymbolTableRecord
100
AcDbViewportTableRecord
  2
*Active
 70
     0
 10
0.0
 20
0.0
 11
1.0
 21
1.0
 12
-58.11818348437487
 22
241.9630410444761
 13
0.0
 23
0.0
 14
10.0
 24
10.0
 15
10.0
 25
10.0
 16
0.0
 26
0.0
 36
1.0
 17
0.0
 27
0.0
 37
0.0
 40
473.0066200253177
 41
2.604123711340206
 42
50.0
 43
0.0
 44
0.0
 50
0.0
 51
0.0
 71
     0
 72
  2000
 73
     1
 74
     3
 75
     0
 76
     0
 77
     0
 78
     0
281
     0
 65
     1
110
0.0
120
0.0
130
0.0
111
1.0
121
0.0
131
0.0
112
0.0
122
1.0
132
0.0
 79
     0
146
0.0
348
2F3
 60
     3
 61
     5
292
     1
282
     1
141
0.0
142
0.0
 63
   250
421
  3355443
  0
ENDTAB
  0
TABLE
  2
LTYPE
  5
5
330
0
100
AcDbSymbolTable
 70
     6
  0
LTYPE
  5
14
330
5
100
AcDbSymbolTableRecord
100
AcDbLinetypeTableRecord
  2
ByBlock
 70
     0
  3

 72
    65
 73
     0
 40
0.0
  0
LTYPE
  5
15
330
5
100
AcDbSymbolTableRecord
100
AcDbLinetypeTableRecord
  2
ByLayer
 70
     0
  3

 72
    65
 73
     0
 40
0.0
  0
LTYPE
  5
16
330
5
100
AcDbSymbolTableRecord
100
AcDbLinetypeTableRecord
  2
Continuous
 70
     0
  3
Solid line
 72
    65
 73
     0
 40
0.0
  0
LTYPE
  5
3F
330
5
100
AcDbSymbolTableRecord
100
AcDbLinetypeTableRecord
  2
HIDDEN
 70
     0
  3
Hidden __ __ __ __ __ __ __ __ __ __ __ __ __ __
 72
    65
 73
     2
 40
1.905
 49
1.27
 74
     0
 49
-0.635
 74
     0
  0
LTYPE
  5
40
330
5
100
AcDbSymbolTableRecord
100
AcDbLinetypeTableRecord
  2
PHANTOM
 70
     0
  3
Phantom ______  __  __  ______  __  __  ______
 72
    65
 73
     6
 40
12.7
 49
6.349999999999999
 74
     0
 49
-1.27
 74
     0
 49
1.27
 74
     0
 49
-1.27
 74
     0
 49
1.27
 74
     0
 49
-1.27
 74
     0
  0
LTYPE
  5
41
330
5
100
AcDbSymbolTableRecord
100
AcDbLinetypeTableRecord
  2
CENTER
 70
     0
  3
Center ____ _ ____ _ ____ _ ____ _ ____ _ ____
 72
    65
 73
     4
 40
10.16
 49
6.349999999999999
 74
     0
 49
-1.27
 74
     0
 49
1.27
 74
     0
 49
-1.27
 74
     0
  0
LTYPE
  5
42
330
5
100
AcDbSymbolTableRecord
100
AcDbLinetypeTableRecord
  2
CENTERX2
 70
     0
  3
Center (2x) ________  __  ________  __  _____
 72
    65
 73
     4
 40
20.32
 49
12.7
 74
     0
 49
-2.54
 74
     0
 49
2.54
 74
     0
 49
-2.54
 74
     0
  0
LTYPE
  5
43
330
5
100
AcDbSymbolTableRecord
100
AcDbLinetypeTableRecord
  2
DOT2
 70
     0
  3
Dot (.5x) ........................................
 72
    65
 73
     2
 40
0.635
 49
0.0
 74
     0
 49
-0.635
 74
     0
  0
ENDTAB
  0
TABLE
  2
LAYER
  5
2
330
0
100
AcDbSymbolTable
 70
     2
  0
LAYER
  5
10
102
{ACAD_XDICTIONARY
360
32F
102
}
330
2
100
AcDbSymbolTableRecord
100
AcDbLayerTableRecord
  2
0
 70
     0
 62
     7
  6
Continuous
370
    -3
390
F
347
2E5
  0
LAYER
  5
319
330
2
100
AcDbSymbolTableRecord
100
AcDbLayerTableRecord
  2
Defpoints
 70
     0
 62
     7
  6
Continuous
290
     0
370
    -3
390
F
347
2E5
  0
ENDTAB
  0
TABLE
  2
STYLE
  5
3
330
0
100
AcDbSymbolTable
 70
     1
  0
STYLE
  5
11
330
3
100
AcDbSymbolTableRecord
100
AcDbTextStyleTableRecord
  2
Standard
 70
     0
 40
0.0
 41
1.0
 50
0.0
 71
     0
 42
3.5
  3
txt
  4

  0
ENDTAB
  0
TABLE
  2
VIEW
  5
6
330
0
100
AcDbSymbolTable
 70
     0
  0
ENDTAB
  0
TABLE
  2
UCS
  5
7
330
0
100
AcDbSymbolTable
 70
     0
  0
ENDTAB
  0
TABLE
  2
APPID
  5
9
330
0
100
AcDbSymbolTable
 70
     2
  0
APPID
  5
12
330
9
100
AcDbSymbolTableRecord
100
AcDbRegAppTableRecord
  2
ACAD
 70
     0
  0
APPID
  5
315
330
9
100
AcDbSymbolTableRecord
100
AcDbRegAppTableRecord
  2
ACAD_MLEADERVER
 70
     0
  0
ENDTAB
  0
TABLE
  2
DIMSTYLE
  5
A
330
0
100
AcDbSymbolTable
 70
     1
100
AcDbDimStyleTable
 71
     1
340
27
  0
DIMSTYLE
105
27
330
A
100
AcDbSymbolTableRecord
100
AcDbDimStyleTableRecord
  2
ISO-25
 70
     0
 41
2.5
 42
0.625
 43
3.75
 44
1.25
 73
     0
 74
     0
 77
     1
 78
     8
140
2.5
141
2.5
143
0.03937007874016
147
0.625
171
     3
172
     1
271
     2
272
     2
274
     3
278
    44
283
     0
284
     8
340
11
  0
ENDTAB
  0
TABLE
  2
BLOCK_RECORD
  5
1
330
0
100
AcDbSymbolTable
 70
     2
  0
BLOCK_RECORD
  5
1F
330
1
100
AcDbSymbolTableRecord
100
AcDbBlockTableRecord
  2
*Model_Space
340
22
 70
     0
280
     1
281
     0
  0
BLOCK_RECORD
  5
1B
330
1
100
AcDbSymbolTableRecord
100
AcDbBlockTableRecord
  2
*Paper_Space
340
1E
 70
     0
280
     1
281
     0
  0
BLOCK_RECORD
  5
23
330
1
100
AcDbSymbolTableRecord
100
AcDbBlockTableRecord
  2
*Paper_Space0
340
26
 70
     0
280
     1
281
     0
  0
BLOCK_RECORD
  5
31A
330
1
100
AcDbSymbolTableRecord
100
AcDbBlockTableRecord
  2
*D1
340
0
 70
     0
280
     1
281
     0
  0
ENDTAB
  0
ENDSEC
  0
SECTION
  2
BLOCKS
  0
BLOCK
  5
20
330
1F
100
AcDbEntity
  8
0
100
AcDbBlockBegin
  2
*Model_Space
 70
     0
 10
0.0
 20
0.0
 30
0.0
  3
*Model_Space
  1

  0
ENDBLK
  5
21
330
1F
100
AcDbEntity
  8
0
100
AcDbBlockEnd
  0
BLOCK
  5
1C
330
1B
100
AcDbEntity
 67
     1
  8
0
100
AcDbBlockBegin
  2
*Paper_Space
 70
     0
 10
0.0
 20
0.0
 30
0.0
  3
*Paper_Space
  1

  0
ENDBLK
  5
1D
330
1B
100
AcDbEntity
 67
     1
  8
0
100
AcDbBlockEnd
  0
BLOCK
  5
24
330
23
100
AcDbEntity
 67
     1
  8
0
100
AcDbBlockBegin
  2
*Paper_Space0
 70
     0
 10
0.0
 20
0.0
 30
0.0
  3
*Paper_Space0
  1

  0
ENDBLK
  5
25
330
23
100
AcDbEntity
 67
     1
  8
0
100
AcDbBlockEnd
  0
BLOCK
  5
31B
330
31A
100
AcDbEntity
  8
0
100
AcDbBlockBegin
  2
*D1
 70
     1
 10
0.0
 20
0.0
 30
0.0
  3
*D1
  1

  0
LINE
  5
326
330
31A
100
AcDbEntity
  8
0
 62
     0
370
    -2
100
AcDbLine
 10
-671.0960438486804
 20
86.90553801443853
 30
0.0
 11
-671.0960438486804
 21
-5.541574731298453
 31
0.0
  0
LINE
  5
327
330
31A
100
AcDbEntity
  8
0
 62
     0
370
    -2
100
AcDbLine
 10
281.9039561513196
 20
86.90553801443853
 30
0.0
 11
281.9039561513196
 21
-5.541574731298453
 31
0.0
  0
LINE
  5
328
330
31A
100
AcDbEntity
  8
0
 62
     0
370
    -2
100
AcDbLine
 10
-667.5960438486804
 20
-4.541574731298453
 30
0.0
 11
278.4039561513196
 21
-4.541574731298453
 31
0.0
  0
SOLID
  5
329
330
31A
100
AcDbEntity
  8
0
 62
     0
100
AcDbTrace
 10
-667.5960438486804
 20
-3.95824139796512
 30
0.0
 11
-667.5960438486804
 21
-5.124908064631786
 31
0.0
 12
-671.0960438486804
 22
-4.541574731298453
 32
0.0
 13
-671.0960438486804
 23
-4.541574731298453
 33
0.0
  0
SOLID
  5
32A
330
31A
100
AcDbEntity
  8
0
 62
     0
100
AcDbTrace
 10
278.4039561513196
 20
-3.95824139796512
 30
0.0
 11
278.4039561513196
 21
-5.124908064631786
 31
0.0
 12
281.9039561513196
 22
-4.541574731298453
 32
0.0
 13
281.9039561513196
 23
-4.541574731298453
 33
0.0
  0
MTEXT
  5
32B
330
31A
100
AcDbEntity
  8
0
 62
     0
100
AcDbMText
 10
-194.5960438486804
 20
0.5000919353682125
 30
0.0
 40
3.5
 41
0.0
 46
0.0
 71
     5
 72
     1
  1
953,00
 73
     1
 44
1.0
  0
POINT
  5
32C
330
31A
100
AcDbEntity
  8
Defpoints
 62
     0
100
AcDbPoint
 10
-671.0960438486804
 20
86.91553801443854
 30
0.0
  0
POINT
  5
32D
330
31A
100
AcDbEntity
  8
Defpoints
 62
     0
100
AcDbPoint
 10
281.9039561513196
 20
86.91553801443854
 30
0.0
  0
POINT
  5
32E
330
31A
100
AcDbEntity
  8
Defpoints
 62
     0
100
AcDbPoint
 10
281.9039561513196
 20
-4.541574731298453
 30
0.0
  0
ENDBLK
  5
31C
330
31A
100
AcDbEntity
  8
0
100
AcDbBlockEnd
  0
ENDSEC
  0
SECTION
  2
ENTITIES
  0
LINE
  5
44
330
1F
100
AcDbEntity
  8
0
  6
Continuous
 62
     7
370
    15
100
AcDbLine
 10
-322.704344462683
 20
397.0105440745136
 30
0.0
 11
-322.704344462683
 21
407.0105440745136
 31
0.0
  0
LINE
  5
45
330
1F
100
AcDbEntity
  8
0
  6
Continuous
 62
     7
370
    15
100
AcDbLine
 10
-356.4877432346782
 20
407.0105440745136
 30
0.0
 11
-356.4877432346782
 21
397.0105440745136
 31
0.0
  0
LINE
  5
46
330
1F
100
AcDbEntity
  8
0
  6
Continuous
 62
     7
370
    15
100
AcDbLine
 10
-22.70434446268314
 20
397.0105440745136
 30
0.0
 11
-22.70434446268314
 21
407.0105440745136
 31
0.0
  0
LINE
  5
47
330
1F
100
AcDbEntity
  8
0
  6
Continuous
 62
     7
370
    15
100
AcDbLine
 10
-56.48774323467808
 20
407.0105440745136
 30
0.0
 11
-56.48774323467808
 21
397.0105440745136
 31
0.0
  0
LINE
  5
48
330
1F
100
AcDbEntity
  8
0
  6
Continuous
 62
     7
370
    15
100
AcDbLine
 10
-489.3098696331054
 20
402.0087970943583
 30
0.0
 11
-498.3729475034718
 21
406.2349797117652
 31
0.0
  0
LINE
  5
49
330
1F
100
AcDbEntity
  8
0
  6
Continuous
 62
     7
370
    15
100
AcDbLine
 10
-512.1135541469396
 20
376.7681536728495
 30
0.0
 11
-503.050476276573
 21
372.5419710554426
 31
0.0
  0
LINE
  5
4A
330
1F
100
AcDbEntity
  8
0
  6
Continuous
 62
     7
370
    15
100
AcDbLine
 10
-481.0920282862203
 20
395.9699989028779
 30
0.0
 11
-490.1551061565867
 21
400.1961815202851
 31
0.0
  0
LINE
  5
4B
330
1F
100
AcDbEntity
  8
0
  6
Continuous
 62
     7
370
    15
100
AcDbLine
 10
-502.2052397530916
 20
374.3545866295158
 30
0.0
 11
-493.1421618827251
 21
370.1284040121087
 31
0.0
  0
LINE
  5
4C
330
1F
100
AcDbEntity
  8
0
  6
Continuous
 62
     7
370
    15
100
AcDbLine
 10
-504.7846764167655
 20
392.484982684776
 30
0.0
 11
-513.8477542871319
 21
396.7111653021831
 31
0.0
  0
LINE
  5
4D
330
1F
100
AcDbEntity
  8
0
  6
Continuous
 62
     7
370
    15
100
AcDbLine
 10
-514.4687303031133
 20
395.3794779384407
 30
0.0
 11
-505.4056524327468
 21
391.1532953210338
 31
0.0
  0
LINE
  5
4E
330
1F
100
AcDbEntity
  8
0
  6
Continuous
 62
     7
370
    15
100
AcDbLine
 10
-506.4740283942291
 20
388.8621556779289
 30
0.0
 11
-515.5371062645956
 21
393.0883382953358
 31
0.0
  0
LINE
  5
4F
330
1F
100
AcDbEntity
  8
0
  6
Continuous
 62
     7
370
    15
100
AcDbLine
 10
-516.158082280577
 20
391.7566509315933
 30
0.0
 11
-507.0950044102104
 21
387.5304683141863
 31
0.0
  0
LINE
  5
50
330
1F
100
AcDbEntity
  8
0
  6
Continuous
 62
     7
370
    15
100
AcDbLine
 10
-503.9633248361432
 20
394.2463768335922
 30
0.0
 11
-513.0264027065096
 21
398.4725594509992
 31
0.0
  0
LINE
  5
51
330
1F
100
AcDbEntity
  8
0
  6
Continuous
 62
     7
370
    15
100
AcDbLine
 10
-513.6473787224911
 20
397.1408720872565
 30
0.0
 11
-504.5843008521245
 21
392.9146894698496
 31
0.0
  0
LINE
  5
52
330
1F
100
AcDbEntity
  8
0
  6
Continuous
 62
     7
370
    15
100
AcDbLine
 10
-505.6526768136068
 20
390.6235498267449
 30
0.0
 11
-514.7157546839732
 21
394.8497324441519
 31
0.0
  0
LINE
  5
53
330
1F
100
AcDbEntity
  8
0
  6
Continuous
 62
     7
370
    15
100
AcDbLine
 10
-515.3367306999546
 20
393.5180450804094
 30
0.0
 11
-506.273652829588
 21
389.2918624630024
 31
0.0
  0
ARC
  5
54
330
1F
100
AcDbEntity
  8
0
  6
Continuous
 62
     7
370
    15
100
AcDbCircle
 10
-478.0381920891253
 20
392.0108047024338
 30
0.0
 40
4.999739370153219
100
AcDbArc
 50
89.98830761898638
 51
129.1110287929734
  0
LINE
  5
55
330
1F
100
AcDbEntity
  8
0
  6
Continuous
 62
     7
370
    15
100
AcDbLine
 10
-503.1749605800111
 20
395.9370294367496
 30
0.0
 11
-512.2380384503776
 21
400.1632120541565
 31
0.0
  0
LINE
  5
56
330
1F
100
AcDbEntity
  8
0
  6
Continuous
 62
     7
370
    15
100
AcDbLine
 10
-512.8590144663589
 20
398.8315246904142
 30
0.0
 11
-503.7959365959925
 21
394.6053420730073
 31
0.0
  0
LINE
  5
57
330
1F
100
AcDbEntity
  8
0
  6
Continuous
 62
     7
370
    15
100
AcDbLine
 10
-507.262392650361
 20
387.1715030747714
 30
0.0
 11
-516.3254705207276
 21
391.3976856921784
 31
0.0
  0
LINE
  5
58
330
1F
100
AcDbEntity
  8
0
  6
Continuous
 62
     7
370
    15
100
AcDbLine
 10
-516.946446536709
 20
390.0659983284358
 30
0.0
 11
-507.8833686663425
 21
385.8398157110289
 31
0.0
  0
LINE
  5
59
330
1F
100
AcDbEntity
  8
0
  6
Continuous
 62
     7
370
    15
100
AcDbLine
 10
-508.0837442309834
 20
385.4101089259552
 30
0.0
 11
-517.14682210135
 21
389.6362915433623
 31
0.0
  0
LINE
  5
5A
330
1F
100
AcDbEntity
  8
0
  6
Continuous
 62
     7
370
    15
100
AcDbLine
 10
-517.7677981173314
 20
388.3046041796198
 30
0.0
 11
-508.7047202469648
 21
384.0784215622127
 31
0.0
  0
LINE
  5
5B
330
1F
100
AcDbEntity
  8
0
  6
Continuous
 62
     7
370
    15
100
AcDbLine
 10
-502.3536089993887
 20
397.6984235855657
 30
0.0
 11
-511.4166868697552
 21
401.9246062029727
 31
0.0
  0
LINE
  5
5C
330
1F
100
AcDbEntity
  8
0
  6
Continuous
 62
     7
370
    15
100
AcDbLine
 10
-512.0376628857366
 20
400.5929188392301
 30
0.0
 11
-502.9745850153701
 21
396.3667362218231
 31
0.0
  0
LINE
  5
5D
330
1F
100
AcDbEntity
  8
0
  6
Continuous
 62
     7
370
    15
100
AcDbLine
 10
-661.0960438486804
 20
367.0105440745136
 30
0.0
 11
-661.0960438486804
 21
354.0105440745136
 31
0.0
  0
LINE
  5
5E
330
1F
100
AcDbEntity
  8
0
  6
Continuous
 62
     7
370
    15
100
AcDbLine
 10
-661.0960438486804
 20
354.0105440745136
 30
0.0
 11
-671.0960438486804
 21
354.0105440745136
 31
0.0
  0
LINE
  5
5F
330
1F
100
AcDbEntity
  8
0
  6
Continuous
 62
     7
370
    15
100
AcDbLine
 10
-671.0960438486804
 20
354.0105440745136
 30
0.0
 11
-671.0960438486804
 21
367.0105440745136
 31
0.0
  0
LINE
  5
60
330
1F
100
AcDbEntity
  8
0
  6
Continuous
 62
     7
370
    15
100
AcDbLine
 10
-671.0960438486804
 20
367.0105440745136
 30
0.0
 11
-661.0960438486804
 21
367.0105440745136
 31
0.0
  0
LINE
  5
61
330
1F
100
AcDbEntity
  8
0
  6
Continuous
 62
     7
370
    15
100
AcDbLine
 10
271.9039561513195
 20
354.0105440745136
 30
0.0
 11
271.9039561513195
 21
367.0105440745136
 31
0.0
  0
LINE
  5
62
330
1F
100
AcDbEntity
  8
0
  6
Continuous
 62
     7
370
    15
100
AcDbLine
 10
-45.5632245393266
 20
354.0105440745136
 30
0.0
 11
228.2101451302299
 21
354.0105440745136
 31
0.0
  0
LINE
  5
63
330
1F
100
AcDbEntity
  8
0
  6
Continuous
 62
     7
370
    15
100
AcDbLine
 10
-325.5632245393266
 20
349.0105440745136
 30
0.0
 11
-325.5632245393266
 21
354.0105440745136
 31
0.0
  0
LINE
  5
64
330
1F
100
AcDbEntity
  8
0
  6
Continuous
 62
     7
370
    15
100
AcDbLine
 10
-611.7898548697703
 20
349.0105440745136
 30
0.0
 11
-611.7898548697703
 21
354.0105440745136
 31
0.0
  0
LINE
  5
65
330
1F
100
AcDbEntity
  8
0
  6
Continuous
 62
     7
370
    15
100
AcDbLine
 10
-325.5632245393266
 20
349.0105440745136
 30
0.0
 11
-331.7898548697702
 21
349.0105440745136
 31
0.0
  0
LINE
  5
66
330
1F
100
AcDbEntity
  8
0
  6
Continuous
 62
     7
370
    15
100
AcDbLine
 10
-331.7898548697702
 20
349.0105440745136
 30
0.0
 11
-331.7898548697702
 21
354.0105440745136
 31
0.0
  0
LINE
  5
67
330
1F
100
AcDbEntity
  8
0
  6
Continuous
 62
     7
370
    15
100
AcDbLine
 10
234.4367754606735
 20
349.0105440745136
 30
0.0
 11
228.2101451302299
 21
349.0105440745136
 31
0.0
  0
LINE
  5
68
330
1F
100
AcDbEntity
  8
0
  6
Continuous
 62
     7
370
    15
100
AcDbLine
 10
228.2101451302299
 20
349.0105440745136
 30
0.0
 11
228.2101451302299
 21
354.0105440745136
 31
0.0
  0
LINE
  5
69
330
1F
100
AcDbEntity
  8
0
  6
Continuous
 62
     7
370
    15
100
AcDbLine
 10
234.4367754606735
 20
349.0105440745136
 30
0.0
 11
234.4367754606735
 21
354.0105440745136
 31
0.0
  0
LINE
  5
6A
330
1F
100
AcDbEntity
  8
0
  6
Continuous
 62
     7
370
    15
100
AcDbLine
 10
-45.5632245393266
 20
349.0105440745136
 30
0.0
 11
-51.78985486977035
 21
349.0105440745136
 31
0.0
  0
LINE
  5
6B
330
1F
100
AcDbEntity
  8
0
  6
Continuous
 62
     7
370
    15
100
AcDbLine
 10
-51.78985486977035
 20
349.0105440745136
 30
0.0
 11
-51.78985486977035
 21
354.0105440745136
 31
0.0
  0
LINE
  5
6C
330
1F
100
AcDbEntity
  8
0
  6
Continuous
 62
     7
370
    15
100
AcDbLine
 10
-45.5632245393266
 20
349.0105440745136
 30
0.0
 11
-45.5632245393266
 21
354.0105440745136
 31
0.0
  0
LINE
  5
6D
330
1F
100
AcDbEntity
  8
0
  6
Continuous
 62
     7
370
    15
100
AcDbLine
 10
-605.5632245393267
 20
354.0105440745136
 30
0.0
 11
-331.7898548697702
 21
354.0105440745136
 31
0.0
  0
LINE
  5
6E
330
1F
100
AcDbEntity
  8
0
  6
Continuous
 62
     7
370
    15
100
AcDbLine
 10
-325.5632245393266
 20
354.0105440745136
 30
0.0
 11
-51.78985486977035
 21
354.0105440745136
 31
0.0
  0
LINE
  5
6F
330
1F
100
AcDbEntity
  8
0
  6
Continuous
 62
     7
370
    15
100
AcDbLine
 10
234.4367754606735
 20
354.0105440745136
 30
0.0
 11
271.9039561513195
 21
354.0105440745136
 31
0.0
  0
LINE
  5
70
330
1F
100
AcDbEntity
  8
0
  6
Continuous
 62
     7
370
    15
100
AcDbLine
 10
-661.0960438486804
 20
354.0105440745136
 30
0.0
 11
-611.7898548697703
 21
354.0105440745136
 31
0.0
  0
LINE
  5
71
330
1F
100
AcDbEntity
  8
0
  6
Continuous
 62
     7
370
    15
100
AcDbLine
 10
-605.5632245393267
 20
349.0105440745136
 30
0.0
 11
-611.7898548697703
 21
349.0105440745136
 31
0.0
  0
LINE
  5
72
330
1F
100
AcDbEntity
  8
0
  6
Continuous
 62
     7
370
    15
100
AcDbLine
 10
-605.5632245393267
 20
349.0105440745136
 30
0.0
 11
-605.5632245393267
 21
354.0105440745136
 31
0.0
  0
LINE
  5
73
330
1F
100
AcDbEntity
  8
0
  6
Continuous
 62
     7
370
    15
100
AcDbLine
 10
-661.0960438486804
 20
367.0105440745136
 30
0.0
 11
271.9039561513195
 21
367.0105440745136
 31
0.0
  0
LINE
  5
74
330
1F
100
AcDbEntity
  8
0
  6
Continuous
 62
     7
370
    15
100
AcDbLine
 10
281.9039561513196
 20
367.0105440745136
 30
0.0
 11
281.9039561513196
 21
354.0105440745136
 31
0.0
  0
LINE
  5
75
330
1F
100
AcDbEntity
  8
0
  6
Continuous
 62
     7
370
    15
100
AcDbLine
 10
281.9039561513196
 20
354.0105440745136
 30
0.0
 11
271.9039561513195
 21
354.0105440745136
 31
0.0
  0
LINE
  5
76
330
1F
100
AcDbEntity
  8
0
  6
Continuous
 62
     7
370
    15
100
AcDbLine
 10
271.9039561513195
 20
367.0105440745136
 30
0.0
 11
281.9039561513196
 21
367.0105440745136
 31
0.0
  0
LINE
  5
77
330
1F
100
AcDbEntity
  8
0
  6
Continuous
 62
     7
370
    15
100
AcDbLine
 10
-299.184446173708
 20
390.5630320303404
 30
0.0
 11
-299.184446173708
 21
397.0105440745136
 31
0.0
  0
LINE
  5
78
330
1F
100
AcDbEntity
  8
0
  6
Continuous
 62
     7
370
    15
100
AcDbLine
 10
-297.2358332487835
 20
390.5630320303404
 30
0.0
 11
-299.184446173708
 21
390.5630320303404
 31
0.0
  0
LINE
  5
79
330
1F
100
AcDbEntity
  8
0
  6
Continuous
 62
     7
370
    15
100
AcDbLine
 10
-297.2358332487835
 20
397.0105440745136
 30
0.0
 11
-297.2358332487835
 21
390.5630320303404
 31
0.0
  0
LINE
  5
7A
330
1F
100
AcDbEntity
  8
0
  6
Continuous
 62
     7
370
    15
100
AcDbLine
 10
-297.2358332487835
 20
397.0105440745136
 30
0.0
 11
-274.184446173708
 21
397.0105440745136
 31
0.0
  0
LINE
  5
7B
330
1F
100
AcDbEntity
  8
0
  6
Continuous
 62
     7
370
    15
100
AcDbLine
 10
-274.184446173708
 20
390.5630320303404
 30
0.0
 11
-274.184446173708
 21
397.0105440745136
 31
0.0
  0
LINE
  5
7C
330
1F
100
AcDbEntity
  8
0
  6
Continuous
 62
     7
370
    15
100
AcDbLine
 10
-272.2358332487835
 20
390.5630320303404
 30
0.0
 11
-274.184446173708
 21
390.5630320303404
 31
0.0
  0
LINE
  5
7D
330
1F
100
AcDbEntity
  8
0
  6
Continuous
 62
     7
370
    15
100
AcDbLine
 10
-272.2358332487835
 20
397.0105440745136
 30
0.0
 11
-272.2358332487835
 21
390.5630320303404
 31
0.0
  0
LINE
  5
7E
330
1F
100
AcDbEntity
  8
0
  6
Continuous
 62
     7
370
    15
100
AcDbLine
 10
-272.2358332487835
 20
397.0105440745136
 30
0.0
 11
-249.184446173708
 21
397.0105440745136
 31
0.0
  0
LINE
  5
7F
330
1F
100
AcDbEntity
  8
0
  6
Continuous
 62
     7
370
    15
100
AcDbLine
 10
-249.184446173708
 20
390.5630320303404
 30
0.0
 11
-249.184446173708
 21
397.0105440745136
 31
0.0
  0
LINE
  5
80
330
1F
100
AcDbEntity
  8
0
  6
Continuous
 62
     7
370
    15
100
AcDbLine
 10
-247.2358332487835
 20
390.5630320303404
 30
0.0
 11
-249.184446173708
 21
390.5630320303404
 31
0.0
  0
LINE
  5
81
330
1F
100
AcDbEntity
  8
0
  6
Continuous
 62
     7
370
    15
100
AcDbLine
 10
-247.2358332487835
 20
397.0105440745136
 30
0.0
 11
-247.2358332487835
 21
390.5630320303404
 31
0.0
  0
LINE
  5
82
330
1F
100
AcDbEntity
  8
0
  6
Continuous
 62
     7
370
    15
100
AcDbLine
 10
-247.2358332487835
 20
397.0105440745136
 30
0.0
 11
-224.184446173708
 21
397.0105440745136
 31
0.0
  0
LINE
  5
83
330
1F
100
AcDbEntity
  8
0
  6
Continuous
 62
     7
370
    15
100
AcDbLine
 10
-224.184446173708
 20
390.5630320303404
 30
0.0
 11
-224.184446173708
 21
397.0105440745136
 31
0.0
  0
LINE
  5
84
330
1F
100
AcDbEntity
  8
0
  6
Continuous
 62
     7
370
    15
100
AcDbLine
 10
-222.2358332487835
 20
390.5630320303404
 30
0.0
 11
-224.184446173708
 21
390.5630320303404
 31
0.0
  0
LINE
  5
85
330
1F
100
AcDbEntity
  8
0
  6
Continuous
 62
     7
370
    15
100
AcDbLine
 10
-222.2358332487835
 20
397.0105440745136
 30
0.0
 11
-222.2358332487835
 21
390.5630320303404
 31
0.0
  0
LINE
  5
86
330
1F
100
AcDbEntity
  8
0
  6
Continuous
 62
     7
370
    15
100
AcDbLine
 10
-222.2358332487835
 20
397.0105440745136
 30
0.0
 11
-199.1844461737079
 21
397.0105440745136
 31
0.0
  0
LINE
  5
87
330
1F
100
AcDbEntity
  8
0
  6
Continuous
 62
     7
370
    15
100
AcDbLine
 10
-199.1844461737079
 20
390.5630320303404
 30
0.0
 11
-199.1844461737079
 21
397.0105440745136
 31
0.0
  0
LINE
  5
88
330
1F
100
AcDbEntity
  8
0
  6
Continuous
 62
     7
370
    15
100
AcDbLine
 10
-197.2358332487835
 20
390.5630320303404
 30
0.0
 11
-199.1844461737079
 21
390.5630320303404
 31
0.0
  0
LINE
  5
89
330
1F
100
AcDbEntity
  8
0
  6
Continuous
 62
     7
370
    15
100
AcDbLine
 10
-197.2358332487835
 20
397.0105440745136
 30
0.0
 11
-197.2358332487835
 21
390.5630320303404
 31
0.0
  0
LINE
  5
8A
330
1F
100
AcDbEntity
  8
0
  6
Continuous
 62
     7
370
    15
100
AcDbLine
 10
-197.2358332487835
 20
397.0105440745136
 30
0.0
 11
-174.184446173708
 21
397.0105440745136
 31
0.0
  0
LINE
  5
8B
330
1F
100
AcDbEntity
  8
0
  6
Continuous
 62
     7
370
    15
100
AcDbLine
 10
-174.184446173708
 20
390.5630320303404
 30
0.0
 11
-174.184446173708
 21
397.0105440745136
 31
0.0
  0
LINE
  5
8C
330
1F
100
AcDbEntity
  8
0
  6
Continuous
 62
     7
370
    15
100
AcDbLine
 10
-172.2358332487835
 20
390.5630320303404
 30
0.0
 11
-174.184446173708
 21
390.5630320303404
 31
0.0
  0
LINE
  5
8D
330
1F
100
AcDbEntity
  8
0
  6
Continuous
 62
     7
370
    15
100
AcDbLine
 10
-172.2358332487835
 20
397.0105440745136
 30
0.0
 11
-172.2358332487835
 21
390.5630320303404
 31
0.0
  0
LINE
  5
8E
330
1F
100
AcDbEntity
  8
0
  6
Continuous
 62
     7
370
    15
100
AcDbLine
 10
-172.2358332487835
 20
397.0105440745136
 30
0.0
 11
-149.184446173708
 21
397.0105440745136
 31
0.0
  0
LINE
  5
8F
330
1F
100
AcDbEntity
  8
0
  6
Continuous
 62
     7
370
    15
100
AcDbLine
 10
-149.184446173708
 20
390.5630320303404
 30
0.0
 11
-149.184446173708
 21
397.0105440745136
 31
0.0
  0
LINE
  5
90
330
1F
100
AcDbEntity
  8
0
  6
Continuous
 62
     7
370
    15
100
AcDbLine
 10
-147.2358332487835
 20
390.5630320303404
 30
0.0
 11
-149.184446173708
 21
390.5630320303404
 31
0.0
  0
LINE
  5
91
330
1F
100
AcDbEntity
  8
0
  6
Continuous
 62
     7
370
    15
100
AcDbLine
 10
-147.2358332487835
 20
397.0105440745136
 30
0.0
 11
-147.2358332487835
 21
390.5630320303404
 31
0.0
  0
LINE
  5
92
330
1F
100
AcDbEntity
  8
0
  6
Continuous
 62
     7
370
    15
100
AcDbLine
 10
-147.2358332487835
 20
397.0105440745136
 30
0.0
 11
-124.184446173708
 21
397.0105440745136
 31
0.0
  0
LINE
  5
93
330
1F
100
AcDbEntity
  8
0
  6
Continuous
 62
     7
370
    15
100
AcDbLine
 10
-124.184446173708
 20
390.5630320303404
 30
0.0
 11
-124.184446173708
 21
397.0105440745136
 31
0.0
  0
LINE
  5
94
330
1F
100
AcDbEntity
  8
0
  6
Continuous
 62
     7
370
    15
100
AcDbLine
 10
-122.2358332487836
 20
390.5630320303404
 30
0.0
 11
-124.184446173708
 21
390.5630320303404
 31
0.0
  0
LINE
  5
95
330
1F
100
AcDbEntity
  8
0
  6
Continuous
 62
     7
370
    15
100
AcDbLine
 10
-122.2358332487836
 20
397.0105440745136
 30
0.0
 11
-122.2358332487836
 21
390.5630320303404
 31
0.0
  0
LINE
  5
96
330
1F
100
AcDbEntity
  8
0
  6
Continuous
 62
     7
370
    15
100
AcDbLine
 10
-122.2358332487836
 20
397.0105440745136
 30
0.0
 11
-99.18444617370802
 21
397.0105440745136
 31
0.0
  0
LINE
  5
97
330
1F
100
AcDbEntity
  8
0
  6
Continuous
 62
     7
370
    15
100
AcDbLine
 10
-99.18444617370802
 20
390.5630320303404
 30
0.0
 11
-99.18444617370802
 21
397.0105440745136
 31
0.0
  0
LINE
  5
98
330
1F
100
AcDbEntity
  8
0
  6
Continuous
 62
     7
370
    15
100
AcDbLine
 10
-97.23583324878337
 20
390.5630320303404
 30
0.0
 11
-99.18444617370802
 21
390.5630320303404
 31
0.0
  0
LINE
  5
99
330
1F
100
AcDbEntity
  8
0
  6
Continuous
 62
     7
370
    15
100
AcDbLine
 10
-97.23583324878337
 20
397.0105440745136
 30
0.0
 11
-97.23583324878337
 21
390.5630320303404
 31
0.0
  0
LINE
  5
9A
330
1F
100
AcDbEntity
  8
0
  6
Continuous
 62
     7
370
    15
100
AcDbLine
 10
-97.23583324878337
 20
397.0105440745136
 30
0.0
 11
-74.18444617370778
 21
397.0105440745136
 31
0.0
  0
LINE
  5
9B
330
1F
100
AcDbEntity
  8
0
  6
Continuous
 62
     7
370
    15
100
AcDbLine
 10
-74.18444617370778
 20
390.5630320303404
 30
0.0
 11
-74.18444617370778
 21
397.0105440745136
 31
0.0
  0
LINE
  5
9C
330
1F
100
AcDbEntity
  8
0
  6
Continuous
 62
     7
370
    15
100
AcDbLine
 10
-72.23583324878337
 20
390.5630320303404
 30
0.0
 11
-74.18444617370778
 21
390.5630320303404
 31
0.0
  0
LINE
  5
9D
330
1F
100
AcDbEntity
  8
0
  6
Continuous
 62
     7
370
    15
100
AcDbLine
 10
-72.23583324878337
 20
397.0105440745136
 30
0.0
 11
-72.23583324878337
 21
390.5630320303404
 31
0.0
  0
LINE
  5
9E
330
1F
100
AcDbEntity
  8
0
  6
Continuous
 62
     7
370
    15
100
AcDbLine
 10
-72.23583324878337
 20
397.0105440745136
 30
0.0
 11
86.8831874714864
 21
397.0105440745136
 31
0.0
  0
LINE
  5
9F
330
1F
100
AcDbEntity
  8
0
  6
Continuous
 62
     7
370
    15
100
AcDbLine
 10
100.8724172161364
 20
367.0105440745136
 30
0.0
 11
86.8831874714864
 21
397.0105440745136
 31
0.0
  0
LINE
  5
A0
330
1F
100
AcDbEntity
  8
0
  6
Continuous
 62
     7
370
    15
100
AcDbLine
 10
-476.0752751688472
 20
397.0105440745136
 30
0.0
 11
-490.0645049134972
 21
367.0105440745136
 31
0.0
  0
LINE
  5
A1
330
1F
100
AcDbEntity
  8
0
  6
Continuous
 62
     7
370
    15
100
AcDbLine
 10
-476.0752751688472
 20
397.0105440745136
 30
0.0
 11
-299.184446173708
 21
397.0105440745136
 31
0.0
  0
LINE
  5
A2
330
1F
100
AcDbEntity
  8
0
  6
Continuous
 62
     7
370
    15
100
AcDbLine
 10
-494.5960438486804
 20
367.0105440745136
 30
0.0
 11
-481.9530017351762
 21
394.1236353832171
 31
0.0
  0
ARC
  5
A3
330
1F
100
AcDbEntity
  8
0
  6
Continuous
 62
     7
370
    15
100
AcDbCircle
 10
-477.421462799993
 20
392.0105440745136
 30
0.0
 40
5.0
100
AcDbArc
 50
89.9999999999987
 51
155.0000000000001
  0
LINE
  5
A4
330
1F
100
AcDbEntity
  8
0
  6
Continuous
 62
     7
370
    15
100
AcDbLine
 10
-477.4214627999929
 20
397.0105440745136
 30
0.0
 11
-476.0752751688472
 21
397.0105440745136
 31
0.0
  0
LINE
  5
A5
330
1F
100
AcDbEntity
  8
0
  6
Continuous
 62
     7
370
    15
100
AcDbLine
 10
86.8831874714864
 20
397.0105440745136
 30
0.0
 11
88.22937510263205
 21
397.0105440745136
 31
0.0
  0
ARC
  5
A6
330
1F
100
AcDbEntity
  8
0
  6
Continuous
 62
     7
370
    15
100
AcDbCircle
 10
88.22937510263205
 20
392.0105440745136
 30
0.0
 40
5.0
100
AcDbArc
 50
24.9999999999999
 51
90.0
  0
LINE
  5
A7
330
1F
100
AcDbEntity
  8
0
  6
Continuous
 62
     7
370
    15
100
AcDbLine
 10
92.76091403781526
 20
394.1236353832171
 30
0.0
 11
105.4039561513195
 21
367.0105440745136
 31
0.0
  0
ARC
  5
A8
330
1F
100
AcDbEntity
  8
0
  6
Continuous
 62
     7
370
    15
100
AcDbCircle
 10
235.0829088186665
 20
364.0105440745136
 30
0.0
 40
43.00000000000007
100
AcDbArc
 50
270.0000000000013
 51
346.5522729554918
  0
LINE
  5
A9
330
1F
100
AcDbEntity
  8
0
  6
Continuous
 62
     7
370
    15
100
AcDbLine
 10
235.0829088186665
 20
321.0105440745136
 30
0.0
 11
235.0829088186665
 21
331.0105440745136
 31
0.0
  0
ARC
  5
AA
330
1F
100
AcDbEntity
  8
0
  6
Continuous
 62
     7
370
    15
100
AcDbCircle
 10
235.0829088186665
 20
364.0105440745136
 30
0.0
 40
32.99999999999997
100
AcDbArc
 50
270.0000000000013
 51
342.3602986057649
  0
ARC
  5
AB
330
1F
100
AcDbEntity
  8
0
  6
Continuous
 62
     7
370
    15
100
AcDbCircle
 10
-624.2749965160275
 20
364.0105440745136
 30
0.0
 40
32.99999999999997
100
AcDbArc
 50
197.6397013942367
 51
270.0000000000013
  0
LINE
  5
AC
330
1F
100
AcDbEntity
  8
0
  6
Continuous
 62
     7
370
    15
100
AcDbLine
 10
-624.2749965160275
 20
321.0105440745136
 30
0.0
 11
-624.2749965160275
 21
331.0105440745136
 31
0.0
  0
ARC
  5
AD
330
1F
100
AcDbEntity
  8
0
  6
Continuous
 62
     7
370
    15
100
AcDbCircle
 10
-624.2749965160275
 20
364.0105440745136
 30
0.0
 40
42.99999999999998
100
AcDbArc
 50
193.4477270445101
 51
270.0000000000013
  0
LINE
  5
AE
330
1F
100
AcDbEntity
  8
0
  6
Continuous
 62
     7
370
    15
100
AcDbLine
 10
235.0829088186665
 20
321.0105440745136
 30
0.0
 11
-624.2749965160275
 21
321.0105440745136
 31
0.0
  0
LINE
  5
AF
330
1F
100
AcDbEntity
  8
0
  6
Continuous
 62
     7
370
    15
100
AcDbLine
 10
-624.2749965160275
 20
331.0105440745136
 30
0.0
 11
235.0829088186665
 21
331.0105440745136
 31
0.0
  0
LINE
  5
B0
330
1F
100
AcDbEntity
  8
0
  6
Continuous
 62
     7
370
    15
100
AcDbLine
 10
-339.5960438486806
 20
407.0105440745136
 30
0.0
 11
-322.704344462683
 21
407.0105440745136
 31
0.0
  0
LINE
  5
B1
330
1F
100
AcDbEntity
  8
0
  6
Continuous
 62
     7
370
    15
100
AcDbLine
 10
-356.4877432346782
 20
407.0105440745136
 30
0.0
 11
-339.5960438486806
 21
407.0105440745136
 31
0.0
  0
LINE
  5
B2
330
1F
100
AcDbEntity
  8
0
  6
Continuous
 62
     7
370
    15
100
AcDbLine
 10
-39.59604384868067
 20
407.0105440745136
 30
0.0
 11
-56.48774323467808
 21
407.0105440745136
 31
0.0
  0
LINE
  5
B3
330
1F
100
AcDbEntity
  8
0
  6
Continuous
 62
     7
370
    15
100
AcDbLine
 10
-22.70434446268314
 20
407.0105440745136
 30
0.0
 11
-39.59604384868067
 21
407.0105440745136
 31
0.0
  0
LINE
  5
B4
330
1F
100
AcDbEntity
  8
0
  6
Continuous
 62
     7
370
    15
100
AcDbLine
 10
-512.1135541469396
 20
376.7681536728495
 30
0.0
 11
-498.3729475034718
 21
406.2349797117652
 31
0.0
  0
LINE
  5
B5
330
1F
100
AcDbEntity
  8
0
  6
Continuous
 62
     7
370
    15
100
AcDbLine
 10
-503.050476276573
 20
372.5419710554426
 30
0.0
 11
-489.3098696331054
 21
402.0087970943583
 31
0.0
  0
LINE
  5
B6
330
1F
100
AcDbEntity
  8
0
  6
Continuous
 62
     7
370
    15
100
AcDbLine
 10
-481.9530017351762
 20
394.1236353832171
 30
0.0
 11
-481.0920282862203
 21
395.9699989028779
 31
0.0
  0
LINE
  5
B7
330
1F
100
AcDbEntity
  8
0
  6
Continuous
 62
     7
370
    15
100
AcDbLine
 10
-514.4687303031133
 20
395.3794779384407
 30
0.0
 11
-513.8477542871319
 21
396.7111653021831
 31
0.0
  0
LINE
  5
B8
330
1F
100
AcDbEntity
  8
0
  6
Continuous
 62
     7
370
    15
100
AcDbLine
 10
-516.158082280577
 20
391.7566509315933
 30
0.0
 11
-515.5371062645956
 21
393.0883382953358
 31
0.0
  0
LINE
  5
B9
330
1F
100
AcDbEntity
  8
0
  6
Continuous
 62
     7
370
    15
100
AcDbLine
 10
-513.6473787224911
 20
397.1408720872565
 30
0.0
 11
-513.0264027065096
 21
398.4725594509992
 31
0.0
  0
LINE
  5
BA
330
1F
100
AcDbEntity
  8
0
  6
Continuous
 62
     7
370
    15
100
AcDbLine
 10
-515.3367306999546
 20
393.5180450804094
 30
0.0
 11
-514.7157546839732
 21
394.8497324441519
 31
0.0
  0
LINE
  5
BB
330
1F
100
AcDbEntity
  8
0
  6
Continuous
 62
     7
370
    15
100
AcDbLine
 10
-512.8590144663589
 20
398.8315246904142
 30
0.0
 11
-512.2380384503776
 21
400.1632120541565
 31
0.0
  0
LINE
  5
BC
330
1F
100
AcDbEntity
  8
0
  6
Continuous
 62
     7
370
    15
100
AcDbLine
 10
-516.946446536709
 20
390.0659983284358
 30
0.0
 11
-516.3254705207276
 21
391.3976856921784
 31
0.0
  0
LINE
  5
BD
330
1F
100
AcDbEntity
  8
0
  6
Continuous
 62
     7
370
    15
100
AcDbLine
 10
-517.7677981173314
 20
388.3046041796198
 30
0.0
 11
-517.14682210135
 21
389.6362915433623
 31
0.0
  0
LINE
  5
BE
330
1F
100
AcDbEntity
  8
0
  6
Continuous
 62
     7
370
    15
100
AcDbLine
 10
-512.0376628857366
 20
400.5929188392301
 30
0.0
 11
-511.4166868697552
 21
401.9246062029727
 31
0.0
  0
LINE
  5
BF
330
1F
100
AcDbEntity
  8
0
  6
Continuous
 62
     7
370
    15
100
AcDbLine
 10
-172.2358332487835
 20
397.0105440745136
 30
0.0
 11
-174.184446173708
 21
397.0105440745136
 31
0.0
  0
LINE
  5
C0
330
1F
100
AcDbEntity
  8
0
  6
Continuous
 62
     7
370
    15
100
AcDbLine
 10
-222.2358332487835
 20
397.0105440745136
 30
0.0
 11
-224.184446173708
 21
397.0105440745136
 31
0.0
  0
LINE
  5
C1
330
1F
100
AcDbEntity
  8
0
  6
Continuous
 62
     7
370
    15
100
AcDbLine
 10
-247.2358332487835
 20
397.0105440745136
 30
0.0
 11
-249.184446173708
 21
397.0105440745136
 31
0.0
  0
LINE
  5
C2
330
1F
100
AcDbEntity
  8
0
  6
Continuous
 62
     7
370
    15
100
AcDbLine
 10
-297.2358332487835
 20
397.0105440745136
 30
0.0
 11
-299.184446173708
 21
397.0105440745136
 31
0.0
  0
LINE
  5
C3
330
1F
100
AcDbEntity
  8
0
  6
Continuous
 62
     7
370
    15
100
AcDbLine
 10
-272.2358332487836
 20
397.0105440745136
 30
0.0
 11
-274.184446173708
 21
397.0105440745136
 31
0.0
  0
LINE
  5
C4
330
1F
100
AcDbEntity
  8
0
  6
Continuous
 62
     7
370
    15
100
AcDbLine
 10
-147.2358332487835
 20
397.0105440745136
 30
0.0
 11
-149.184446173708
 21
397.0105440745136
 31
0.0
  0
LINE
  5
C5
330
1F
100
AcDbEntity
  8
0
  6
Continuous
 62
     7
370
    15
100
AcDbLine
 10
-97.23583324878337
 20
397.0105440745136
 30
0.0
 11
-99.18444617370802
 21
397.0105440745136
 31
0.0
  0
LINE
  5
C6
330
1F
100
AcDbEntity
  8
0
  6
Continuous
 62
     7
370
    15
100
AcDbLine
 10
-72.23583324878337
 20
397.0105440745136
 30
0.0
 11
-74.18444617370778
 21
397.0105440745136
 31
0.0
  0
LINE
  5
C7
330
1F
100
AcDbEntity
  8
0
  6
Continuous
 62
     7
370
    15
100
AcDbLine
 10
-122.2358332487836
 20
397.0105440745136
 30
0.0
 11
-124.184446173708
 21
397.0105440745136
 31
0.0
  0
LINE
  5
C8
330
1F
100
AcDbEntity
  8
0
  6
Continuous
 62
     7
370
    15
100
AcDbLine
 10
-197.2358332487835
 20
397.0105440745136
 30
0.0
 11
-199.1844461737079
 21
397.0105440745136
 31
0.0
  0
LINE
  5
C9
330
1F
100
AcDbEntity
  8
0
  6
Continuous
 62
     7
370
    15
100
AcDbLine
 10
-496.1801729548392
 20
146.2581085822951
 30
0.0
 11
-505.2432508252057
 21
146.2581085822951
 31
0.0
  0
LINE
  5
CA
330
1F
100
AcDbEntity
  8
0
  6
Continuous
 62
     7
370
    15
100
AcDbLine
 10
-505.2432508252057
 20
113.7450633890463
 30
0.0
 11
-496.1801729548392
 21
113.7450633890463
 31
0.0
  0
LINE
  5
CB
330
1F
100
AcDbEntity
  8
0
  6
Continuous
 62
     7
370
    15
100
AcDbLine
 10
-502.6640970073795
 20
133.5556167721901
 30
0.0
 11
-511.727174877746
 21
133.5556167721901
 31
0.0
  0
LINE
  5
CC
330
1F
100
AcDbEntity
  8
0
  6
Continuous
 62
     7
370
    15
100
AcDbLine
 10
-511.727174877746
 20
132.0862623400753
 30
0.0
 11
-502.6640970073795
 21
132.0862623400753
 31
0.0
  0
LINE
  5
CD
330
1F
100
AcDbEntity
  8
0
  6
Continuous
 62
     7
370
    15
100
AcDbLine
 10
-502.6640970073795
 20
131.5576021883211
 30
0.0
 11
-511.727174877746
 21
131.5576021883211
 31
0.0
  0
LINE
  5
CE
330
1F
100
AcDbEntity
  8
0
  6
Continuous
 62
     7
370
    15
100
AcDbLine
 10
-511.727174877746
 20
130.0882477562062
 30
0.0
 11
-502.6640970073795
 21
130.0882477562062
 31
0.0
  0
LINE
  5
CF
330
1F
100
AcDbEntity
  8
0
  6
Continuous
 62
     7
370
    15
100
AcDbLine
 10
-502.6640970073795
 20
129.7450549750368
 30
0.0
 11
-511.727174877746
 21
129.7450549750368
 31
0.0
  0
LINE
  5
D0
330
1F
100
AcDbEntity
  8
0
  6
Continuous
 62
     7
370
    15
100
AcDbLine
 10
-511.727174877746
 20
128.2757005429218
 30
0.0
 11
-502.6640970073795
 21
128.2757005429218
 31
0.0
  0
LINE
  5
D1
330
1F
100
AcDbEntity
  8
0
  6
Continuous
 62
     7
370
    15
100
AcDbLine
 10
-502.6640970073795
 20
127.7470403911677
 30
0.0
 11
-511.727174877746
 21
127.7470403911677
 31
0.0
  0
LINE
  5
D2
330
1F
100
AcDbEntity
  8
0
  6
Continuous
 62
     7
370
    15
100
AcDbLine
 10
-511.727174877746
 20
126.2776859590528
 30
0.0
 11
-502.6640970073795
 21
126.2776859590528
 31
0.0
  0
LINE
  5
D3
330
1F
100
AcDbEntity
  8
0
  6
Continuous
 62
     7
370
    15
100
AcDbLine
 10
-487.1170950844727
 20
144.258108582295
 30
0.0
 11
-492.8787130036625
 21
144.258108582295
 31
0.0
  0
LINE
  5
D4
330
1F
100
AcDbEntity
  8
0
  6
Continuous
 62
     7
370
    15
100
AcDbLine
 10
-492.8787130036625
 20
115.7450633890463
 30
0.0
 11
-487.1170950844726
 21
115.7450633890463
 31
0.0
  0
LINE
  5
D5
330
1F
100
AcDbEntity
  8
0
  6
Continuous
 62
     7
370
    15
100
AcDbLine
 10
-503.4854485880018
 20
135.5153480421742
 30
0.0
 11
-512.5485264583683
 21
135.5153480421742
 31
0.0
  0
LINE
  5
D6
330
1F
100
AcDbEntity
  8
0
  6
Continuous
 62
     7
370
    15
100
AcDbLine
 10
-512.5485264583683
 20
134.0459936100593
 30
0.0
 11
-503.4854485880018
 21
134.0459936100593
 31
0.0
  0
LINE
  5
D7
330
1F
100
AcDbEntity
  8
0
  6
Continuous
 62
     7
370
    15
100
AcDbLine
 10
-511.727174877746
 20
133.5556167721901
 30
0.0
 11
-512.5485264583683
 21
133.5556167721901
 31
0.0
  0
LINE
  5
D8
330
1F
100
AcDbEntity
  8
0
  6
Continuous
 62
     7
370
    15
100
AcDbLine
 10
-512.5485264583683
 20
132.0862623400753
 30
0.0
 11
-511.727174877746
 21
132.0862623400753
 31
0.0
  0
LINE
  5
D9
330
1F
100
AcDbEntity
  8
0
  6
Continuous
 62
     7
370
    15
100
AcDbLine
 10
-511.727174877746
 20
129.7450549750368
 30
0.0
 11
-512.5485264583683
 21
129.7450549750368
 31
0.0
  0
LINE
  5
DA
330
1F
100
AcDbEntity
  8
0
  6
Continuous
 62
     7
370
    15
100
AcDbLine
 10
-512.5485264583683
 20
128.2757005429218
 30
0.0
 11
-511.727174877746
 21
128.2757005429218
 31
0.0
  0
LINE
  5
DB
330
1F
100
AcDbEntity
  8
0
  6
Continuous
 62
     7
370
    15
100
AcDbLine
 10
-511.727174877746
 20
131.5576021883211
 30
0.0
 11
-512.5485264583683
 21
131.5576021883211
 31
0.0
  0
LINE
  5
DC
330
1F
100
AcDbEntity
  8
0
  6
Continuous
 62
     7
370
    15
100
AcDbLine
 10
-512.5485264583683
 20
130.0882477562062
 30
0.0
 11
-511.727174877746
 21
130.0882477562062
 31
0.0
  0
LINE
  5
DD
330
1F
100
AcDbEntity
  8
0
  6
Continuous
 62
     7
370
    15
100
AcDbLine
 10
-503.4854485880018
 20
125.7873091211836
 30
0.0
 11
-512.5485264583683
 21
125.7873091211836
 31
0.0
  0
LINE
  5
DE
330
1F
100
AcDbEntity
  8
0
  6
Continuous
 62
     7
370
    15
100
AcDbLine
 10
-512.5485264583683
 20
124.3179546890687
 30
0.0
 11
-503.4854485880018
 21
124.3179546890687
 31
0.0
  0
LINE
  5
DF
330
1F
100
AcDbEntity
  8
0
  6
Continuous
 62
     7
370
    15
100
AcDbLine
 10
-511.727174877746
 20
127.7470403911677
 30
0.0
 11
-512.5485264583683
 21
127.7470403911677
 31
0.0
  0
LINE
  5
E0
330
1F
100
AcDbEntity
  8
0
  6
Continuous
 62
     7
370
    15
100
AcDbLine
 10
-512.5485264583683
 20
126.2776859590528
 30
0.0
 11
-511.727174877746
 21
126.2776859590528
 31
0.0
  0
LINE
  5
E1
330
1F
100
AcDbEntity
  8
0
  6
Continuous
 62
     7
370
    15
100
AcDbLine
 10
-504.2738128441338
 20
137.5133626260432
 30
0.0
 11
-513.3368907145004
 21
137.5133626260432
 31
0.0
  0
LINE
  5
E2
330
1F
100
AcDbEntity
  8
0
  6
Continuous
 62
     7
370
    15
100
AcDbLine
 10
-513.3368907145004
 20
136.0440081939284
 30
0.0
 11
-504.2738128441338
 21
136.0440081939284
 31
0.0
  0
LINE
  5
E3
330
1F
100
AcDbEntity
  8
0
  6
Continuous
 62
     7
370
    15
100
AcDbLine
 10
-512.5485264583683
 20
135.5153480421742
 30
0.0
 11
-513.3368907145004
 21
135.5153480421742
 31
0.0
  0
LINE
  5
E4
330
1F
100
AcDbEntity
  8
0
  6
Continuous
 62
     7
370
    15
100
AcDbLine
 10
-513.3368907145004
 20
134.0459936100593
 30
0.0
 11
-512.5485264583683
 21
134.0459936100593
 31
0.0
  0
LINE
  5
E5
330
1F
100
AcDbEntity
  8
0
  6
Continuous
 62
     7
370
    15
100
AcDbLine
 10
-512.5485264583683
 20
133.5556167721901
 30
0.0
 11
-513.3368907145004
 21
133.5556167721901
 31
0.0
  0
LINE
  5
E6
330
1F
100
AcDbEntity
  8
0
  6
Continuous
 62
     7
370
    15
100
AcDbLine
 10
-513.3368907145004
 20
132.0862623400753
 30
0.0
 11
-512.5485264583683
 21
132.0862623400753
 31
0.0
  0
LINE
  5
E7
330
1F
100
AcDbEntity
  8
0
  6
Continuous
 62
     7
370
    15
100
AcDbLine
 10
-512.5485264583683
 20
129.7450549750368
 30
0.0
 11
-513.3368907145004
 21
129.7450549750368
 31
0.0
  0
LINE
  5
E8
330
1F
100
AcDbEntity
  8
0
  6
Continuous
 62
     7
370
    15
100
AcDbLine
 10
-513.3368907145004
 20
128.2757005429218
 30
0.0
 11
-512.5485264583683
 21
128.2757005429218
 31
0.0
  0
LINE
  5
E9
330
1F
100
AcDbEntity
  8
0
  6
Continuous
 62
     7
370
    15
100
AcDbLine
 10
-512.5485264583683
 20
131.5576021883211
 30
0.0
 11
-513.3368907145004
 21
131.5576021883211
 31
0.0
  0
LINE
  5
EA
330
1F
100
AcDbEntity
  8
0
  6
Continuous
 62
     7
370
    15
100
AcDbLine
 10
-513.3368907145004
 20
130.0882477562062
 30
0.0
 11
-512.5485264583683
 21
130.0882477562062
 31
0.0
  0
LINE
  5
EB
330
1F
100
AcDbEntity
  8
0
  6
Continuous
 62
     7
370
    15
100
AcDbLine
 10
-512.5485264583683
 20
125.7873091211836
 30
0.0
 11
-513.3368907145004
 21
125.7873091211836
 31
0.0
  0
LINE
  5
EC
330
1F
100
AcDbEntity
  8
0
  6
Continuous
 62
     7
370
    15
100
AcDbLine
 10
-513.3368907145004
 20
124.3179546890687
 30
0.0
 11
-512.5485264583683
 21
124.3179546890687
 31
0.0
  0
LINE
  5
ED
330
1F
100
AcDbEntity
  8
0
  6
Continuous
 62
     7
370
    15
100
AcDbLine
 10
-512.5485264583683
 20
127.7470403911677
 30
0.0
 11
-513.3368907145004
 21
127.7470403911677
 31
0.0
  0
LINE
  5
EE
330
1F
100
AcDbEntity
  8
0
  6
Continuous
 62
     7
370
    15
100
AcDbLine
 10
-513.3368907145004
 20
126.2776859590528
 30
0.0
 11
-512.5485264583683
 21
126.2776859590528
 31
0.0
  0
LINE
  5
EF
330
1F
100
AcDbEntity
  8
0
  6
Continuous
 62
     7
370
    15
100
AcDbLine
 10
-504.2738128441338
 20
123.7892945373146
 30
0.0
 11
-513.3368907145004
 21
123.7892945373146
 31
0.0
  0
LINE
  5
F0
330
1F
100
AcDbEntity
  8
0
  6
Continuous
 62
     7
370
    15
100
AcDbLine
 10
-513.3368907145004
 20
122.3199401051997
 30
0.0
 11
-504.2738128441338
 21
122.3199401051997
 31
0.0
  0
LINE
  5
F1
330
1F
100
AcDbEntity
  8
0
  6
Continuous
 62
     7
370
    15
100
AcDbLine
 10
-513.3368907145004
 20
137.5133626260432
 30
0.0
 11
-514.1582422951225
 21
137.5133626260432
 31
0.0
  0
LINE
  5
F2
330
1F
100
AcDbEntity
  8
0
  6
Continuous
 62
     7
370
    15
100
AcDbLine
 10
-514.1582422951225
 20
136.0440081939284
 30
0.0
 11
-513.3368907145004
 21
136.0440081939284
 31
0.0
  0
LINE
  5
F3
330
1F
100
AcDbEntity
  8
0
  6
Continuous
 62
     7
370
    15
100
AcDbLine
 10
-513.3368907145004
 20
133.5556167721901
 30
0.0
 11
-514.1582422951225
 21
133.5556167721901
 31
0.0
  0
LINE
  5
F4
330
1F
100
AcDbEntity
  8
0
  6
Continuous
 62
     7
370
    15
100
AcDbLine
 10
-514.1582422951225
 20
132.0862623400753
 30
0.0
 11
-513.3368907145004
 21
132.0862623400753
 31
0.0
  0
LINE
  5
F5
330
1F
100
AcDbEntity
  8
0
  6
Continuous
 62
     7
370
    15
100
AcDbLine
 10
-513.3368907145004
 20
135.5153480421742
 30
0.0
 11
-514.1582422951225
 21
135.5153480421742
 31
0.0
  0
LINE
  5
F6
330
1F
100
AcDbEntity
  8
0
  6
Continuous
 62
     7
370
    15
100
AcDbLine
 10
-514.1582422951225
 20
134.0459936100593
 30
0.0
 11
-513.3368907145004
 21
134.0459936100593
 31
0.0
  0
LINE
  5
F7
330
1F
100
AcDbEntity
  8
0
  6
Continuous
 62
     7
370
    15
100
AcDbLine
 10
-513.3368907145004
 20
129.7450549750368
 30
0.0
 11
-514.1582422951225
 21
129.7450549750368
 31
0.0
  0
LINE
  5
F8
330
1F
100
AcDbEntity
  8
0
  6
Continuous
 62
     7
370
    15
100
AcDbLine
 10
-514.1582422951225
 20
128.2757005429218
 30
0.0
 11
-513.3368907145004
 21
128.2757005429218
 31
0.0
  0
LINE
  5
F9
330
1F
100
AcDbEntity
  8
0
  6
Continuous
 62
     7
370
    15
100
AcDbLine
 10
-513.3368907145004
 20
131.5576021883211
 30
0.0
 11
-514.1582422951225
 21
131.5576021883211
 31
0.0
  0
LINE
  5
FA
330
1F
100
AcDbEntity
  8
0
  6
Continuous
 62
     7
370
    15
100
AcDbLine
 10
-514.1582422951225
 20
130.0882477562062
 30
0.0
 11
-513.3368907145004
 21
130.0882477562062
 31
0.0
  0
LINE
  5
FB
330
1F
100
AcDbEntity
  8
0
  6
Continuous
 62
     7
370
    15
100
AcDbLine
 10
-513.3368907145004
 20
127.7470403911677
 30
0.0
 11
-514.1582422951225
 21
127.7470403911677
 31
0.0
  0
LINE
  5
FC
330
1F
100
AcDbEntity
  8
0
  6
Continuous
 62
     7
370
    15
100
AcDbLine
 10
-514.1582422951225
 20
126.2776859590528
 30
0.0
 11
-513.3368907145004
 21
126.2776859590528
 31
0.0
  0
LINE
  5
FD
330
1F
100
AcDbEntity
  8
0
  6
Continuous
 62
     7
370
    15
100
AcDbLine
 10
-513.3368907145004
 20
125.7873091211836
 30
0.0
 11
-514.1582422951225
 21
125.7873091211836
 31
0.0
  0
LINE
  5
FE
330
1F
100
AcDbEntity
  8
0
  6
Continuous
 62
     7
370
    15
100
AcDbLine
 10
-514.1582422951225
 20
124.3179546890687
 30
0.0
 11
-513.3368907145004
 21
124.3179546890687
 31
0.0
  0
LINE
  5
FF
330
1F
100
AcDbEntity
  8
0
  6
Continuous
 62
     7
370
    15
100
AcDbLine
 10
-513.3368907145004
 20
123.7892945373146
 30
0.0
 11
-514.1582422951225
 21
123.7892945373146
 31
0.0
  0
LINE
  5
100
330
1F
100
AcDbEntity
  8
0
  6
Continuous
 62
     7
370
    15
100
AcDbLine
 10
-514.1582422951225
 20
122.3199401051997
 30
0.0
 11
-513.3368907145004
 21
122.3199401051997
 31
0.0
  0
LINE
  5
101
330
1F
100
AcDbEntity
  8
0
  6
Continuous
 62
     7
370
    15
100
AcDbLine
 10
-514.1582422951225
 20
137.5133626260432
 30
0.0
 11
-515.0262426919639
 21
137.5133626260432
 31
0.0
  0
LINE
  5
102
330
1F
100
AcDbEntity
  8
0
  6
Continuous
 62
     7
370
    15
100
AcDbLine
 10
-515.0262426919639
 20
136.0440081939284
 30
0.0
 11
-514.1582422951225
 21
136.0440081939284
 31
0.0
  0
LINE
  5
103
330
1F
100
AcDbEntity
  8
0
  6
Continuous
 62
     7
370
    15
100
AcDbLine
 10
-514.1582422951225
 20
133.5556167721901
 30
0.0
 11
-515.0262426919639
 21
133.5556167721901
 31
0.0
  0
LINE
  5
104
330
1F
100
AcDbEntity
  8
0
  6
Continuous
 62
     7
370
    15
100
AcDbLine
 10
-515.0262426919639
 20
132.0862623400753
 30
0.0
 11
-514.1582422951225
 21
132.0862623400753
 31
0.0
  0
LINE
  5
105
330
1F
100
AcDbEntity
  8
0
  6
Continuous
 62
     7
370
    15
100
AcDbLine
 10
-514.1582422951225
 20
135.5153480421742
 30
0.0
 11
-515.0262426919639
 21
135.5153480421742
 31
0.0
  0
LINE
  5
106
330
1F
100
AcDbEntity
  8
0
  6
Continuous
 62
     7
370
    15
100
AcDbLine
 10
-515.0262426919639
 20
134.0459936100593
 30
0.0
 11
-514.1582422951225
 21
134.0459936100593
 31
0.0
  0
LINE
  5
107
330
1F
100
AcDbEntity
  8
0
  6
Continuous
 62
     7
370
    15
100
AcDbLine
 10
-514.1582422951225
 20
131.5576021883211
 30
0.0
 11
-515.0262426919639
 21
131.5576021883211
 31
0.0
  0
LINE
  5
108
330
1F
100
AcDbEntity
  8
0
  6
Continuous
 62
     7
370
    15
100
AcDbLine
 10
-515.0262426919639
 20
130.0882477562062
 30
0.0
 11
-514.1582422951225
 21
130.0882477562062
 31
0.0
  0
LINE
  5
109
330
1F
100
AcDbEntity
  8
0
  6
Continuous
 62
     7
370
    15
100
AcDbLine
 10
-514.1582422951225
 20
129.7450549750368
 30
0.0
 11
-515.0262426919639
 21
129.7450549750368
 31
0.0
  0
LINE
  5
10A
330
1F
100
AcDbEntity
  8
0
  6
Continuous
 62
     7
370
    15
100
AcDbLine
 10
-515.0262426919639
 20
128.2757005429218
 30
0.0
 11
-514.1582422951225
 21
128.275700542922
 31
0.0
  0
LINE
  5
10B
330
1F
100
AcDbEntity
  8
0
  6
Continuous
 62
     7
370
    15
100
AcDbLine
 10
-514.1582422951225
 20
125.7873091211836
 30
0.0
 11
-515.0262426919639
 21
125.7873091211836
 31
0.0
  0
LINE
  5
10C
330
1F
100
AcDbEntity
  8
0
  6
Continuous
 62
     7
370
    15
100
AcDbLine
 10
-515.0262426919639
 20
124.3179546890687
 30
0.0
 11
-514.1582422951225
 21
124.3179546890687
 31
0.0
  0
LINE
  5
10D
330
1F
100
AcDbEntity
  8
0
  6
Continuous
 62
     7
370
    15
100
AcDbLine
 10
-514.1582422951225
 20
127.7470403911677
 30
0.0
 11
-515.0262426919639
 21
127.7470403911677
 31
0.0
  0
LINE
  5
10E
330
1F
100
AcDbEntity
  8
0
  6
Continuous
 62
     7
370
    15
100
AcDbLine
 10
-515.0262426919639
 20
126.2776859590528
 30
0.0
 11
-514.1582422951225
 21
126.2776859590528
 31
0.0
  0
LINE
  5
10F
330
1F
100
AcDbEntity
  8
0
  6
Continuous
 62
     7
370
    15
100
AcDbLine
 10
-514.1582422951225
 20
123.7892945373146
 30
0.0
 11
-515.0262426919639
 21
123.7892945373146
 31
0.0
  0
LINE
  5
110
330
1F
100
AcDbEntity
  8
0
  6
Continuous
 62
     7
370
    15
100
AcDbLine
 10
-515.0262426919639
 20
122.3199401051997
 30
0.0
 11
-514.1582422951225
 21
122.3199401051997
 31
0.0
  0
LINE
  5
111
330
1F
100
AcDbEntity
  8
0
  6
Continuous
 62
     7
370
    15
100
AcDbLine
 10
-515.0262426919639
 20
137.5133626260432
 30
0.0
 11
-515.8475942725863
 21
137.5133626260432
 31
0.0
  0
LINE
  5
112
330
1F
100
AcDbEntity
  8
0
  6
Continuous
 62
     7
370
    15
100
AcDbLine
 10
-515.8475942725863
 20
136.0440081939284
 30
0.0
 11
-515.0262426919639
 21
136.0440081939284
 31
0.0
  0
LINE
  5
113
330
1F
100
AcDbEntity
  8
0
  6
Continuous
 62
     7
370
    15
100
AcDbLine
 10
-515.0262426919639
 20
135.5153480421742
 30
0.0
 11
-515.8475942725863
 21
135.5153480421742
 31
0.0
  0
LINE
  5
114
330
1F
100
AcDbEntity
  8
0
  6
Continuous
 62
     7
370
    15
100
AcDbLine
 10
-515.8475942725863
 20
134.0459936100593
 30
0.0
 11
-515.0262426919639
 21
134.0459936100593
 31
0.0
  0
LINE
  5
115
330
1F
100
AcDbEntity
  8
0
  6
Continuous
 62
     7
370
    15
100
AcDbLine
 10
-515.0262426919639
 20
133.5556167721901
 30
0.0
 11
-515.8475942725863
 21
133.5556167721901
 31
0.0
  0
LINE
  5
116
330
1F
100
AcDbEntity
  8
0
  6
Continuous
 62
     7
370
    15
100
AcDbLine
 10
-515.8475942725863
 20
132.0862623400753
 30
0.0
 11
-515.0262426919639
 21
132.0862623400753
 31
0.0
  0
LINE
  5
117
330
1F
100
AcDbEntity
  8
0
  6
Continuous
 62
     7
370
    15
100
AcDbLine
 10
-515.0262426919639
 20
129.7450549750368
 30
0.0
 11
-515.8475942725863
 21
129.7450549750368
 31
0.0
  0
LINE
  5
118
330
1F
100
AcDbEntity
  8
0
  6
Continuous
 62
     7
370
    15
100
AcDbLine
 10
-515.8475942725863
 20
128.2757005429218
 30
0.0
 11
-515.0262426919639
 21
128.2757005429218
 31
0.0
  0
LINE
  5
119
330
1F
100
AcDbEntity
  8
0
  6
Continuous
 62
     7
370
    15
100
AcDbLine
 10
-515.0262426919639
 20
131.5576021883211
 30
0.0
 11
-515.8475942725863
 21
131.5576021883211
 31
0.0
  0
LINE
  5
11A
330
1F
100
AcDbEntity
  8
0
  6
Continuous
 62
     7
370
    15
100
AcDbLine
 10
-515.8475942725863
 20
130.0882477562062
 30
0.0
 11
-515.0262426919639
 21
130.0882477562062
 31
0.0
  0
LINE
  5
11B
330
1F
100
AcDbEntity
  8
0
  6
Continuous
 62
     7
370
    15
100
AcDbLine
 10
-515.0262426919639
 20
125.7873091211836
 30
0.0
 11
-515.8475942725863
 21
125.7873091211836
 31
0.0
  0
LINE
  5
11C
330
1F
100
AcDbEntity
  8
0
  6
Continuous
 62
     7
370
    15
100
AcDbLine
 10
-515.8475942725863
 20
124.3179546890687
 30
0.0
 11
-515.0262426919639
 21
124.3179546890687
 31
0.0
  0
LINE
  5
11D
330
1F
100
AcDbEntity
  8
0
  6
Continuous
 62
     7
370
    15
100
AcDbLine
 10
-515.0262426919639
 20
127.7470403911677
 30
0.0
 11
-515.8475942725863
 21
127.7470403911677
 31
0.0
  0
LINE
  5
11E
330
1F
100
AcDbEntity
  8
0
  6
Continuous
 62
     7
370
    15
100
AcDbLine
 10
-515.8475942725863
 20
126.2776859590528
 30
0.0
 11
-515.0262426919639
 21
126.2776859590528
 31
0.0
  0
LINE
  5
11F
330
1F
100
AcDbEntity
  8
0
  6
Continuous
 62
     7
370
    15
100
AcDbLine
 10
-515.0262426919639
 20
123.7892945373146
 30
0.0
 11
-515.8475942725863
 21
123.7892945373146
 31
0.0
  0
LINE
  5
120
330
1F
100
AcDbEntity
  8
0
  6
Continuous
 62
     7
370
    15
100
AcDbLine
 10
-515.8475942725863
 20
122.3199401051997
 30
0.0
 11
-515.0262426919639
 21
122.3199401051997
 31
0.0
  0
LINE
  5
121
330
1F
100
AcDbEntity
  8
0
  6
Continuous
 62
     7
370
    15
100
AcDbLine
 10
-515.8475942725863
 20
133.5556167721901
 30
0.0
 11
-516.6359585287183
 21
133.5556167721901
 31
0.0
  0
LINE
  5
122
330
1F
100
AcDbEntity
  8
0
  6
Continuous
 62
     7
370
    15
100
AcDbLine
 10
-516.6359585287183
 20
132.0862623400753
 30
0.0
 11
-515.8475942725863
 21
132.0862623400753
 31
0.0
  0
LINE
  5
123
330
1F
100
AcDbEntity
  8
0
  6
Continuous
 62
     7
370
    15
100
AcDbLine
 10
-515.8475942725863
 20
135.5153480421742
 30
0.0
 11
-516.6359585287183
 21
135.5153480421742
 31
0.0
  0
LINE
  5
124
330
1F
100
AcDbEntity
  8
0
  6
Continuous
 62
     7
370
    15
100
AcDbLine
 10
-516.6359585287183
 20
134.0459936100593
 30
0.0
 11
-515.8475942725863
 21
134.0459936100593
 31
0.0
  0
LINE
  5
125
330
1F
100
AcDbEntity
  8
0
  6
Continuous
 62
     7
370
    15
100
AcDbLine
 10
-515.8475942725863
 20
131.5576021883211
 30
0.0
 11
-516.6359585287183
 21
131.5576021883211
 31
0.0
  0
LINE
  5
126
330
1F
100
AcDbEntity
  8
0
  6
Continuous
 62
     7
370
    15
100
AcDbLine
 10
-516.6359585287183
 20
130.0882477562062
 30
0.0
 11
-515.8475942725863
 21
130.0882477562062
 31
0.0
  0
LINE
  5
127
330
1F
100
AcDbEntity
  8
0
  6
Continuous
 62
     7
370
    15
100
AcDbLine
 10
-515.8475942725863
 20
129.7450549750368
 30
0.0
 11
-516.6359585287183
 21
129.7450549750368
 31
0.0
  0
LINE
  5
128
330
1F
100
AcDbEntity
  8
0
  6
Continuous
 62
     7
370
    15
100
AcDbLine
 10
-516.6359585287183
 20
128.275700542922
 30
0.0
 11
-515.8475942725863
 21
128.275700542922
 31
0.0
  0
LINE
  5
129
330
1F
100
AcDbEntity
  8
0
  6
Continuous
 62
     7
370
    15
100
AcDbLine
 10
-515.8475942725863
 20
125.7873091211836
 30
0.0
 11
-516.6359585287183
 21
125.7873091211836
 31
0.0
  0
LINE
  5
12A
330
1F
100
AcDbEntity
  8
0
  6
Continuous
 62
     7
370
    15
100
AcDbLine
 10
-516.6359585287183
 20
124.3179546890688
 30
0.0
 11
-515.8475942725863
 21
124.3179546890688
 31
0.0
  0
LINE
  5
12B
330
1F
100
AcDbEntity
  8
0
  6
Continuous
 62
     7
370
    15
100
AcDbLine
 10
-515.8475942725863
 20
127.7470403911677
 30
0.0
 11
-516.6359585287183
 21
127.7470403911677
 31
0.0
  0
LINE
  5
12C
330
1F
100
AcDbEntity
  8
0
  6
Continuous
 62
     7
370
    15
100
AcDbLine
 10
-516.6359585287183
 20
126.2776859590528
 30
0.0
 11
-515.8475942725863
 21
126.2776859590528
 31
0.0
  0
LINE
  5
12D
330
1F
100
AcDbEntity
  8
0
  6
Continuous
 62
     7
370
    15
100
AcDbLine
 10
-516.6359585287183
 20
133.5556167721901
 30
0.0
 11
-517.4573101093407
 21
133.5556167721901
 31
0.0
  0
LINE
  5
12E
330
1F
100
AcDbEntity
  8
0
  6
Continuous
 62
     7
370
    15
100
AcDbLine
 10
-517.4573101093407
 20
132.0862623400753
 30
0.0
 11
-516.6359585287183
 21
132.0862623400753
 31
0.0
  0
LINE
  5
12F
330
1F
100
AcDbEntity
  8
0
  6
Continuous
 62
     7
370
    15
100
AcDbLine
 10
-516.6359585287183
 20
129.7450549750368
 30
0.0
 11
-517.4573101093407
 21
129.7450549750368
 31
0.0
  0
LINE
  5
130
330
1F
100
AcDbEntity
  8
0
  6
Continuous
 62
     7
370
    15
100
AcDbLine
 10
-517.4573101093407
 20
128.2757005429218
 30
0.0
 11
-516.6359585287183
 21
128.2757005429218
 31
0.0
  0
LINE
  5
131
330
1F
100
AcDbEntity
  8
0
  6
Continuous
 62
     7
370
    15
100
AcDbLine
 10
-516.6359585287183
 20
131.5576021883211
 30
0.0
 11
-517.4573101093407
 21
131.5576021883211
 31
0.0
  0
LINE
  5
132
330
1F
100
AcDbEntity
  8
0
  6
Continuous
 62
     7
370
    15
100
AcDbLine
 10
-517.4573101093407
 20
130.0882477562062
 30
0.0
 11
-516.6359585287183
 21
130.0882477562062
 31
0.0
  0
LINE
  5
133
330
1F
100
AcDbEntity
  8
0
  6
Continuous
 62
     7
370
    15
100
AcDbLine
 10
-516.6359585287183
 20
127.7470403911677
 30
0.0
 11
-517.4573101093407
 21
127.7470403911677
 31
0.0
  0
LINE
  5
134
330
1F
100
AcDbEntity
  8
0
  6
Continuous
 62
     7
370
    15
100
AcDbLine
 10
-517.4573101093407
 20
126.2776859590528
 30
0.0
 11
-516.6359585287183
 21
126.2776859590528
 31
0.0
  0
CIRCLE
  5
135
330
1F
100
AcDbEntity
  8
0
  6
Continuous
 62
     7
370
    15
100
AcDbCircle
 10
-39.59604384868067
 20
129.7112043946999
 30
0.0
 40
8.947674576447752
  0
CIRCLE
  5
136
330
1F
100
AcDbEntity
  8
0
  6
Continuous
 62
     7
370
    15
100
AcDbCircle
 10
-39.59604384868067
 20
129.7112043946999
 30
0.0
 40
16.89169938599747
  0
CIRCLE
  5
137
330
1F
100
AcDbEntity
  8
0
  6
Continuous
 62
     7
370
    15
100
AcDbCircle
 10
-339.5960438486806
 20
129.7112043946999
 30
0.0
 40
16.89169938599754
  0
CIRCLE
  5
138
330
1F
100
AcDbEntity
  8
0
  6
Continuous
 62
     7
370
    15
100
AcDbCircle
 10
-339.5960438486806
 20
129.7112043946999
 30
0.0
 40
8.947674576447752
  0
LWPOLYLINE
  5
139
330
1F
100
AcDbEntity
  8
0
  6
Continuous
 62
     7
370
    15
100
AcDbPolyline
 90
       10
 70
   128
 43
0.0
 10
-502.6640970073795
 20
130.0882477562062
 10
-502.5452783907734
 20
130.1441717293459
 10
-502.4445488314521
 20
130.3034297308062
 10
-502.3772434917067
 20
130.5417761735424
 10
-502.3536089993887
 20
130.8229249722637
 10
-502.3772434917067
 20
131.104073770985
 10
-502.4445488314521
 20
131.3424202137211
 10
-502.5452783907734
 20
131.5016782151815
 10
-502.6640970073795
 20
131.5576021883211
 10
-502.6640970073795
 20
131.5576021883211
  0
LWPOLYLINE
  5
13A
330
1F
100
AcDbEntity
  8
0
  6
Continuous
 62
     7
370
    15
100
AcDbPolyline
 90
       10
 70
   128
 43
0.0
 10
-502.6640970073795
 20
132.0862623400753
 10
-502.5452783907734
 20
132.1421863132149
 10
-502.4445488314521
 20
132.3014443146752
 10
-502.3772434917067
 20
132.5397907574114
 10
-502.3536089993887
 20
132.8209395561327
 10
-502.3772434917067
 20
133.102088354854
 10
-502.4445488314521
 20
133.3404347975902
 10
-502.5452783907734
 20
133.4996927990504
 10
-502.6640970073795
 20
133.5556167721901
 10
-502.6640970073795
 20
133.5556167721901
  0
LWPOLYLINE
  5
13B
330
1F
100
AcDbEntity
  8
0
  6
Continuous
 62
     7
370
    15
100
AcDbPolyline
 90
       10
 70
   128
 43
0.0
 10
-504.2738128441338
 20
136.0440081939284
 10
-504.1549942275278
 20
136.099932167068
 10
-504.0542646682065
 20
136.2591901685283
 10
-503.9869593284611
 20
136.4975366112645
 10
-503.9633248361432
 20
136.7786854099858
 10
-503.9869593284611
 20
137.0598342087071
 10
-504.0542646682065
 20
137.2981806514433
 10
-504.1549942275278
 20
137.4574386529036
 10
-504.2738128441338
 20
137.5133626260432
 10
-504.2738128441338
 20
137.5133626260432
  0
LWPOLYLINE
  5
13C
330
1F
100
AcDbEntity
  8
0
  6
Continuous
 62
     7
370
    15
100
AcDbPolyline
 90
       10
 70
   128
 43
0.0
 10
-504.2738128441338
 20
122.3199401051997
 10
-504.1549942275278
 20
122.3758640783394
 10
-504.0542646682065
 20
122.5351220797997
 10
-503.9869593284611
 20
122.7734685225359
 10
-503.9633248361432
 20
123.0546173212572
 10
-503.9869593284611
 20
123.3357661199785
 10
-504.0542646682065
 20
123.5741125627146
 10
-504.1549942275278
 20
123.733370564175
 10
-504.2738128441338
 20
123.7892945373146
 10
-504.2738128441338
 20
123.7892945373146
  0
LWPOLYLINE
  5
13D
330
1F
100
AcDbEntity
  8
0
  6
Continuous
 62
     7
370
    15
100
AcDbPolyline
 90
       10
 70
   128
 43
0.0
 10
-502.6640970073795
 20
126.2776859590528
 10
-502.5452783907734
 20
126.3336099321925
 10
-502.4445488314521
 20
126.4928679336528
 10
-502.3772434917067
 20
126.731214376389
 10
-502.3536089993887
 20
127.0123631751103
 10
-502.3772434917067
 20
127.2935119738316
 10
-502.4445488314521
 20
127.5318584165677
 10
-502.5452783907734
 20
127.6911164180281
 10
-502.6640970073795
 20
127.7470403911677
 10
-502.6640970073795
 20
127.7470403911677
  0
LWPOLYLINE
  5
13E
330
1F
100
AcDbEntity
  8
0
  6
Continuous
 62
     7
370
    15
100
AcDbPolyline
 90
       10
 70
   128
 43
0.0
 10
-502.6640970073795
 20
128.275700542922
 10
-502.5452783907734
 20
128.3316245160615
 10
-502.4445488314521
 20
128.4908825175218
 10
-502.3772434917067
 20
128.729228960258
 10
-502.3536089993887
 20
129.0103777589793
 10
-502.3772434917067
 20
129.2915265577006
 10
-502.4445488314521
 20
129.5298730004368
 10
-502.5452783907734
 20
129.6891310018971
 10
-502.6640970073795
 20
129.7450549750368
 10
-502.6640970073795
 20
129.7450549750368
  0
LINE
  5
13F
330
1F
100
AcDbEntity
  8
0
  6
Continuous
 62
     7
370
    15
100
AcDbLine
 10
-512.1135541469396
 20
130.0015859856707
 30
0.0
 11
-512.1126986914947
 21
129.7450549750367
 31
0.0
  0
LINE
  5
140
330
1F
100
AcDbEntity
  8
0
  6
Continuous
 62
     7
370
    15
100
AcDbLine
 10
-512.074726283037
 20
128.2757005429218
 30
0.0
 11
-512.0471626969293
 21
127.7470403911677
 31
0.0
  0
LINE
  5
141
330
1F
100
AcDbEntity
  8
0
  6
Continuous
 62
     7
370
    15
100
AcDbLine
 10
-511.9308706239236
 20
126.2776859590528
 30
0.0
 11
-511.8786858960077
 21
125.7873091211836
 31
0.0
  0
LINE
  5
142
330
1F
100
AcDbEntity
  8
0
  6
Continuous
 62
     7
370
    15
100
AcDbLine
 10
-511.6799761640821
 20
124.3179546890687
 30
0.0
 11
-511.592124467799
 21
123.7892945373145
 31
0.0
  0
LWPOLYLINE
  5
143
330
1F
100
AcDbEntity
  8
0
  6
Continuous
 62
     7
370
    15
100
AcDbPolyline
 90
       37
 70
   128
 43
0.0
 10
-511.2981603959304
 20
122.3199401051997
 10
-510.9197618209342
 20
120.8439607326275
 10
-510.2795395352413
 20
118.9443425044899
 10
-509.5268148819829
 20
117.2917248241768
 10
-508.6784024860726
 20
115.9230244397982
 10
-507.7532544784757
 20
114.8688158562316
 10
-506.772037136921
 20
114.1526483512069
 10
-505.7566692354059
 20
113.7905199233551
 10
-504.7298324150053
 20
113.7905199233551
 10
-503.7144645134902
 20
114.152648351207
 10
-502.7332471719356
 20
114.8688158562318
 10
-501.8080991643387
 20
115.9230244397982
 10
-500.9596867684284
 20
117.2917248241768
 10
-500.20696211517
 20
118.9443425044899
 10
-499.5667398294772
 20
120.8439607326277
 10
-499.0533214192768
 20
122.9481451763982
 10
-498.6781758034546
 20
125.209891832388
 10
-498.4496831151584
 20
127.5786770177257
 10
-498.3729475034718
 20
130.0015859856708
 10
-498.4496831151584
 20
132.4244949536159
 10
-498.6781758034546
 20
134.7932801389536
 10
-499.053321419277
 20
137.0550267949433
 10
-499.5667398294773
 20
139.1592112387138
 10
-500.2069621151701
 20
141.0588294668516
 10
-500.9596867684285
 20
142.7114471471647
 10
-501.8080991643388
 20
144.0801475315432
 10
-502.7332471719357
 20
145.1343561151097
 10
-503.7144645134904
 20
145.8505236201345
 10
-504.7298324150054
 20
146.2126520479862
 10
-505.756669235406
 20
146.2126520479862
 10
-506.7720371369212
 20
145.8505236201343
 10
-507.7532544784759
 20
145.1343561151096
 10
-508.6784024860726
 20
144.0801475315431
 10
-509.5268148819831
 20
142.7114471471645
 10
-510.2795395352414
 20
141.0588294668514
 10
-510.9197618209342
 20
139.1592112387135
 10
-511.3361067869341
 20
137.5133626260432
  0
LINE
  5
144
330
1F
100
AcDbEntity
  8
0
  6
Continuous
 62
     7
370
    15
100
AcDbLine
 10
-511.6213383794006
 20
136.0440081939284
 30
0.0
 11
-511.7063119132748
 21
135.5153480421742
 31
0.0
  0
LINE
  5
145
330
1F
100
AcDbEntity
  8
0
  6
Continuous
 62
     7
370
    15
100
AcDbLine
 10
-511.8975400116966
 20
134.0459936100593
 30
0.0
 11
-511.9473591775413
 21
133.5556167721901
 31
0.0
  0
LINE
  5
146
330
1F
100
AcDbEntity
  8
0
  6
Continuous
 62
     7
370
    15
100
AcDbLine
 10
-512.0568304603519
 20
132.0862623400752
 30
0.0
 11
-512.0820101306547
 21
131.5576021883211
 31
0.0
  0
LWPOLYLINE
  5
147
330
1F
100
AcDbEntity
  8
0
  6
Continuous
 62
     7
370
    15
100
AcDbPolyline
 90
       10
 70
   128
 43
0.0
 10
-503.4854485880018
 20
124.3179546890688
 10
-503.3666299713956
 20
124.3738786622084
 10
-503.2659004120745
 20
124.5331366636687
 10
-503.198595072329
 20
124.7714831064049
 10
-503.1749605800111
 20
125.0526319051262
 10
-503.198595072329
 20
125.3337807038475
 10
-503.2659004120745
 20
125.5721271465837
 10
-503.3666299713956
 20
125.731385148044
 10
-503.4854485880018
 20
125.7873091211836
 10
-503.4854485880018
 20
125.7873091211836
  0
LWPOLYLINE
  5
148
330
1F
100
AcDbEntity
  8
0
  6
Continuous
 62
     7
370
    15
100
AcDbPolyline
 90
       10
 70
   128
 43
0.0
 10
-503.4854485880018
 20
134.0459936100593
 10
-503.3666299713956
 20
134.101917583199
 10
-503.2659004120745
 20
134.2611755846593
 10
-503.198595072329
 20
134.4995220273955
 10
-503.1749605800111
 20
134.7806708261168
 10
-503.198595072329
 20
135.0618196248381
 10
-503.2659004120745
 20
135.3001660675742
 10
-503.3666299713956
 20
135.4594240690346
 10
-503.4854485880018
 20
135.5153480421742
 10
-503.4854485880018
 20
135.5153480421742
  0
LWPOLYLINE
  5
149
330
1F
100
AcDbEntity
  8
0
  6
Continuous
 62
     7
370
    15
100
AcDbPolyline
 90
       23
 70
   128
 43
0.0
 10
-496.1801729548392
 20
113.7450633890463
 10
-495.6667545446388
 20
113.7905199233551
 10
-494.6513866431238
 20
114.152648351207
 10
-493.6701693015691
 20
114.8688158562318
 10
-492.7450212939723
 20
115.9230244397982
 10
-491.8966088980619
 20
117.2917248241768
 10
-491.1438842448035
 20
118.9443425044899
 10
-490.5036619591108
 20
120.8439607326277
 10
-489.9902435489104
 20
122.9481451763982
 10
-489.6150979330881
 20
125.209891832388
 10
-489.3866052447918
 20
127.5786770177257
 10
-489.3098696331054
 20
130.0015859856708
 10
-489.3866052447918
 20
132.4244949536159
 10
-489.6150979330881
 20
134.7932801389536
 10
-489.9902435489105
 20
137.0550267949433
 10
-490.5036619591108
 20
139.1592112387138
 10
-491.1438842448036
 20
141.0588294668516
 10
-491.8966088980621
 20
142.7114471471647
 10
-492.7450212939723
 20
144.0801475315432
 10
-493.6701693015691
 20
145.1343561151097
 10
-494.6513866431239
 20
145.8505236201345
 10
-495.6667545446389
 20
146.2126520479862
 10
-496.1801729548392
 20
146.2581085822951
  0
LWPOLYLINE
  5
14A
330
1F
100
AcDbEntity
  8
0
  6
Continuous
 62
     7
370
    15
100
AcDbPolyline
 90
       17
 70
   128
 43
0.0
 10
-512.0376628857366
 20
132.8209395561327
 10
-512.0140283934188
 20
132.5397907574114
 10
-511.9467230536733
 20
132.3014443146752
 10
-511.845993494352
 20
132.1421863132149
 10
-511.727174877746
 20
132.0862623400753
 10
-511.6083562611399
 20
132.1421863132149
 10
-511.5076267018186
 20
132.3014443146752
 10
-511.4403213620732
 20
132.5397907574114
 10
-511.4166868697552
 20
132.8209395561327
 10
-511.4403213620732
 20
133.102088354854
 10
-511.5076267018186
 20
133.3404347975902
 10
-511.6083562611399
 20
133.4996927990504
 10
-511.727174877746
 20
133.5556167721901
 10
-511.845993494352
 20
133.4996927990504
 10
-511.9467230536733
 20
133.3404347975902
 10
-512.0140283934188
 20
133.102088354854
 10
-512.0376628857366
 20
132.8209395561327
  0
LWPOLYLINE
  5
14B
330
1F
100
AcDbEntity
  8
0
  6
Continuous
 62
     7
370
    15
100
AcDbPolyline
 90
       17
 70
   128
 43
0.0
 10
-512.0376628857366
 20
130.8229249722637
 10
-512.0140283934188
 20
130.5417761735424
 10
-511.9467230536733
 20
130.3034297308062
 10
-511.845993494352
 20
130.1441717293459
 10
-511.727174877746
 20
130.0882477562062
 10
-511.6083562611399
 20
130.1441717293459
 10
-511.5076267018186
 20
130.3034297308062
 10
-511.4403213620732
 20
130.5417761735424
 10
-511.4166868697552
 20
130.8229249722637
 10
-511.4403213620732
 20
131.104073770985
 10
-511.5076267018186
 20
131.3424202137211
 10
-511.6083562611399
 20
131.5016782151815
 10
-511.727174877746
 20
131.5576021883211
 10
-511.845993494352
 20
131.5016782151815
 10
-511.9467230536733
 20
131.3424202137211
 10
-512.0140283934188
 20
131.104073770985
 10
-512.0376628857366
 20
130.8229249722637
  0
LWPOLYLINE
  5
14C
330
1F
100
AcDbEntity
  8
0
  6
Continuous
 62
     7
370
    15
100
AcDbPolyline
 90
       17
 70
   128
 43
0.0
 10
-512.0376628857366
 20
129.0103777589793
 10
-512.0140283934188
 20
128.729228960258
 10
-511.9467230536733
 20
128.4908825175218
 10
-511.845993494352
 20
128.3316245160615
 10
-511.727174877746
 20
128.275700542922
 10
-511.6083562611399
 20
128.3316245160615
 10
-511.5076267018186
 20
128.4908825175218
 10
-511.4403213620732
 20
128.729228960258
 10
-511.4166868697552
 20
129.0103777589793
 10
-511.4403213620732
 20
129.2915265577006
 10
-511.5076267018186
 20
129.5298730004368
 10
-511.6083562611399
 20
129.6891310018971
 10
-511.727174877746
 20
129.7450549750368
 10
-511.845993494352
 20
129.6891310018971
 10
-511.9467230536733
 20
129.5298730004368
 10
-512.0140283934188
 20
129.2915265577006
 10
-512.0376628857366
 20
129.0103777589793
  0
LWPOLYLINE
  5
14D
330
1F
100
AcDbEntity
  8
0
  6
Continuous
 62
     7
370
    15
100
AcDbPolyline
 90
       17
 70
   128
 43
0.0
 10
-512.0376628857366
 20
127.0123631751103
 10
-512.0140283934188
 20
126.731214376389
 10
-511.9467230536733
 20
126.4928679336528
 10
-511.845993494352
 20
126.3336099321925
 10
-511.727174877746
 20
126.2776859590528
 10
-511.6083562611399
 20
126.3336099321925
 10
-511.5076267018186
 20
126.4928679336528
 10
-511.4403213620732
 20
126.731214376389
 10
-511.4166868697552
 20
127.0123631751103
 10
-511.4403213620732
 20
127.2935119738316
 10
-511.5076267018186
 20
127.5318584165677
 10
-511.6083562611399
 20
127.6911164180281
 10
-511.727174877746
 20
127.7470403911677
 10
-511.845993494352
 20
127.6911164180281
 10
-511.9467230536733
 20
127.5318584165677
 10
-512.0140283934188
 20
127.2935119738316
 10
-512.0376628857366
 20
127.0123631751103
  0
LWPOLYLINE
  5
14E
330
1F
100
AcDbEntity
  8
0
  6
Continuous
 62
     7
370
    15
100
AcDbPolyline
 90
        8
 70
   128
 43
0.0
 10
-481.9530017351762
 20
137.3458006919952
 10
-482.5041406824742
 20
139.172588216549
 10
-483.1696192448971
 20
140.7720574600178
 10
-483.932942448493
 20
142.1045629627318
 10
-484.7751900799432
 20
143.1370763977112
 10
-485.6754856549763
 20
143.8440052317381
 10
-486.6115138761539
 20
144.207827078125
 10
-487.1170950844727
 20
144.258108582295
  0
LWPOLYLINE
  5
14F
330
1F
100
AcDbEntity
  8
0
  6
Continuous
 62
     7
370
    15
100
AcDbPolyline
 90
        8
 70
   128
 43
0.0
 10
-487.1170950844726
 20
115.7450633890463
 10
-486.6115138761538
 20
115.7953448932164
 10
-485.6754856549761
 20
116.1591667396033
 10
-484.7751900799432
 20
116.8660955736303
 10
-483.9329424484929
 20
117.8986090086098
 10
-483.1696192448971
 20
119.2311145113237
 10
-482.5041406824742
 20
120.8305837547925
 10
-481.9530017351762
 20
122.6573712793461
  0
ARC
  5
150
330
1F
100
AcDbEntity
  8
0
  6
Continuous
 62
     7
370
    15
100
AcDbCircle
 10
-512.5099890028409
 20
130.0015859856707
 30
0.0
 40
31.42716914596063
100
AcDbArc
 50
346.4855855073693
 51
13.51441449263199
  0
LWPOLYLINE
  5
151
330
1F
100
AcDbEntity
  8
0
  6
Continuous
 62
     7
370
    15
100
AcDbPolyline
 90
       17
 70
   128
 43
0.0
 10
-512.8590144663589
 20
132.8209395561327
 10
-512.835379974041
 20
132.5397907574114
 10
-512.7680746342955
 20
132.3014443146752
 10
-512.6673450749743
 20
132.1421863132149
 10
-512.5485264583683
 20
132.0862623400753
 10
-512.4297078417622
 20
132.1421863132149
 10
-512.3289782824411
 20
132.3014443146752
 10
-512.2616729426954
 20
132.5397907574114
 10
-512.2380384503776
 20
132.8209395561327
 10
-512.2616729426954
 20
133.102088354854
 10
-512.3289782824411
 20
133.3404347975902
 10
-512.4297078417622
 20
133.4996927990504
 10
-512.5485264583683
 20
133.5556167721901
 10
-512.6673450749743
 20
133.4996927990504
 10
-512.7680746342955
 20
133.3404347975902
 10
-512.835379974041
 20
133.102088354854
 10
-512.8590144663589
 20
132.8209395561327
  0
LWPOLYLINE
  5
152
330
1F
100
AcDbEntity
  8
0
  6
Continuous
 62
     7
370
    15
100
AcDbPolyline
 90
       17
 70
   128
 43
0.0
 10
-512.8590144663589
 20
134.7806708261168
 10
-512.835379974041
 20
134.4995220273955
 10
-512.7680746342955
 20
134.2611755846593
 10
-512.6673450749743
 20
134.101917583199
 10
-512.5485264583683
 20
134.0459936100593
 10
-512.4297078417622
 20
134.101917583199
 10
-512.3289782824411
 20
134.2611755846593
 10
-512.2616729426954
 20
134.4995220273955
 10
-512.2380384503776
 20
134.7806708261168
 10
-512.2616729426954
 20
135.0618196248381
 10
-512.3289782824411
 20
135.3001660675742
 10
-512.4297078417622
 20
135.4594240690346
 10
-512.5485264583683
 20
135.5153480421742
 10
-512.6673450749743
 20
135.4594240690346
 10
-512.7680746342955
 20
135.3001660675742
 10
-512.835379974041
 20
135.0618196248381
 10
-512.8590144663589
 20
134.7806708261168
  0
LWPOLYLINE
  5
153
330
1F
100
AcDbEntity
  8
0
  6
Continuous
 62
     7
370
    15
100
AcDbPolyline
 90
       17
 70
   128
 43
0.0
 10
-512.8590144663589
 20
130.8229249722637
 10
-512.835379974041
 20
130.5417761735424
 10
-512.7680746342955
 20
130.3034297308062
 10
-512.6673450749743
 20
130.1441717293459
 10
-512.5485264583683
 20
130.0882477562062
 10
-512.4297078417622
 20
130.1441717293459
 10
-512.3289782824411
 20
130.3034297308062
 10
-512.2616729426954
 20
130.5417761735424
 10
-512.2380384503776
 20
130.8229249722637
 10
-512.2616729426954
 20
131.104073770985
 10
-512.3289782824411
 20
131.3424202137211
 10
-512.4297078417622
 20
131.5016782151815
 10
-512.5485264583683
 20
131.5576021883211
 10
-512.6673450749743
 20
131.5016782151815
 10
-512.7680746342955
 20
131.3424202137211
 10
-512.835379974041
 20
131.104073770985
 10
-512.8590144663589
 20
130.8229249722637
  0
LWPOLYLINE
  5
154
330
1F
100
AcDbEntity
  8
0
  6
Continuous
 62
     7
370
    15
100
AcDbPolyline
 90
       17
 70
   128
 43
0.0
 10
-512.8590144663589
 20
129.0103777589793
 10
-512.835379974041
 20
128.729228960258
 10
-512.7680746342955
 20
128.4908825175218
 10
-512.6673450749743
 20
128.3316245160615
 10
-512.5485264583683
 20
128.275700542922
 10
-512.4297078417622
 20
128.3316245160615
 10
-512.3289782824411
 20
128.4908825175218
 10
-512.2616729426954
 20
128.729228960258
 10
-512.2380384503776
 20
129.0103777589793
 10
-512.2616729426954
 20
129.2915265577006
 10
-512.3289782824411
 20
129.5298730004368
 10
-512.4297078417622
 20
129.6891310018971
 10
-512.5485264583683
 20
129.7450549750368
 10
-512.6673450749743
 20
129.6891310018971
 10
-512.7680746342955
 20
129.5298730004368
 10
-512.835379974041
 20
129.2915265577006
 10
-512.8590144663589
 20
129.0103777589793
  0
LWPOLYLINE
  5
155
330
1F
100
AcDbEntity
  8
0
  6
Continuous
 62
     7
370
    15
100
AcDbPolyline
 90
       17
 70
   128
 43
0.0
 10
-512.8590144663589
 20
127.0123631751103
 10
-512.835379974041
 20
126.731214376389
 10
-512.7680746342955
 20
126.4928679336528
 10
-512.6673450749743
 20
126.3336099321925
 10
-512.5485264583683
 20
126.2776859590528
 10
-512.4297078417622
 20
126.3336099321925
 10
-512.3289782824411
 20
126.4928679336528
 10
-512.2616729426954
 20
126.731214376389
 10
-512.2380384503776
 20
127.0123631751103
 10
-512.2616729426954
 20
127.2935119738316
 10
-512.3289782824411
 20
127.5318584165677
 10
-512.4297078417622
 20
127.6911164180281
 10
-512.5485264583683
 20
127.7470403911677
 10
-512.6673450749743
 20
127.6911164180281
 10
-512.7680746342955
 20
127.5318584165677
 10
-512.835379974041
 20
127.2935119738316
 10
-512.8590144663589
 20
127.0123631751103
  0
LWPOLYLINE
  5
156
330
1F
100
AcDbEntity
  8
0
  6
Continuous
 62
     7
370
    15
100
AcDbPolyline
 90
       17
 70
   128
 43
0.0
 10
-512.8590144663589
 20
125.0526319051262
 10
-512.835379974041
 20
124.7714831064049
 10
-512.7680746342955
 20
124.5331366636687
 10
-512.6673450749743
 20
124.3738786622084
 10
-512.5485264583683
 20
124.3179546890688
 10
-512.4297078417622
 20
124.3738786622084
 10
-512.3289782824411
 20
124.5331366636687
 10
-512.2616729426954
 20
124.7714831064049
 10
-512.2380384503776
 20
125.0526319051262
 10
-512.2616729426954
 20
125.3337807038475
 10
-512.3289782824411
 20
125.5721271465837
 10
-512.4297078417622
 20
125.731385148044
 10
-512.5485264583683
 20
125.7873091211836
 10
-512.6673450749743
 20
125.731385148044
 10
-512.7680746342955
 20
125.5721271465837
 10
-512.835379974041
 20
125.3337807038475
 10
-512.8590144663589
 20
125.0526319051262
  0
LWPOLYLINE
  5
157
330
1F
100
AcDbEntity
  8
0
  6
Continuous
 62
     7
370
    15
100
AcDbPolyline
 90
       17
 70
   128
 43
0.0
 10
-513.6473787224911
 20
136.7786854099858
 10
-513.623744230173
 20
136.4975366112645
 10
-513.5564388904277
 20
136.2591901685283
 10
-513.4557093311063
 20
136.099932167068
 10
-513.3368907145004
 20
136.0440081939284
 10
-513.2180720978943
 20
136.099932167068
 10
-513.1173425385729
 20
136.2591901685283
 10
-513.0500371988275
 20
136.4975366112645
 10
-513.0264027065096
 20
136.7786854099858
 10
-513.0500371988275
 20
137.0598342087071
 10
-513.1173425385729
 20
137.2981806514433
 10
-513.2180720978943
 20
137.4574386529036
 10
-513.3368907145004
 20
137.5133626260432
 10
-513.4557093311063
 20
137.4574386529036
 10
-513.5564388904277
 20
137.2981806514433
 10
-513.623744230173
 20
137.0598342087071
 10
-513.6473787224911
 20
136.7786854099858
  0
LWPOLYLINE
  5
158
330
1F
100
AcDbEntity
  8
0
  6
Continuous
 62
     7
370
    15
100
AcDbPolyline
 90
       17
 70
   128
 43
0.0
 10
-513.6473787224911
 20
134.7806708261168
 10
-513.623744230173
 20
134.4995220273955
 10
-513.5564388904277
 20
134.2611755846593
 10
-513.4557093311063
 20
134.101917583199
 10
-513.3368907145004
 20
134.0459936100593
 10
-513.2180720978943
 20
134.101917583199
 10
-513.1173425385729
 20
134.2611755846593
 10
-513.0500371988275
 20
134.4995220273955
 10
-513.0264027065096
 20
134.7806708261168
 10
-513.0500371988275
 20
135.0618196248381
 10
-513.1173425385729
 20
135.3001660675742
 10
-513.2180720978943
 20
135.4594240690346
 10
-513.3368907145004
 20
135.5153480421742
 10
-513.4557093311063
 20
135.4594240690346
 10
-513.5564388904277
 20
135.3001660675742
 10
-513.623744230173
 20
135.0618196248381
 10
-513.6473787224911
 20
134.7806708261168
  0
LWPOLYLINE
  5
159
330
1F
100
AcDbEntity
  8
0
  6
Continuous
 62
     7
370
    15
100
AcDbPolyline
 90
       17
 70
   128
 43
0.0
 10
-513.6473787224911
 20
132.8209395561327
 10
-513.623744230173
 20
132.5397907574114
 10
-513.5564388904277
 20
132.3014443146752
 10
-513.4557093311063
 20
132.1421863132149
 10
-513.3368907145004
 20
132.0862623400753
 10
-513.2180720978943
 20
132.1421863132149
 10
-513.1173425385729
 20
132.3014443146752
 10
-513.0500371988275
 20
132.5397907574114
 10
-513.0264027065096
 20
132.8209395561327
 10
-513.0500371988275
 20
133.102088354854
 10
-513.1173425385729
 20
133.3404347975902
 10
-513.2180720978943
 20
133.4996927990504
 10
-513.3368907145004
 20
133.5556167721901
 10
-513.4557093311063
 20
133.4996927990504
 10
-513.5564388904277
 20
133.3404347975902
 10
-513.623744230173
 20
133.102088354854
 10
-513.6473787224911
 20
132.8209395561327
  0
LWPOLYLINE
  5
15A
330
1F
100
AcDbEntity
  8
0
  6
Continuous
 62
     7
370
    15
100
AcDbPolyline
 90
       17
 70
   128
 43
0.0
 10
-513.6473787224911
 20
130.8229249722637
 10
-513.623744230173
 20
130.5417761735424
 10
-513.5564388904277
 20
130.3034297308062
 10
-513.4557093311063
 20
130.1441717293459
 10
-513.3368907145004
 20
130.0882477562062
 10
-513.2180720978943
 20
130.1441717293459
 10
-513.1173425385729
 20
130.3034297308062
 10
-513.0500371988275
 20
130.5417761735424
 10
-513.0264027065096
 20
130.8229249722637
 10
-513.0500371988275
 20
131.104073770985
 10
-513.1173425385729
 20
131.3424202137211
 10
-513.2180720978943
 20
131.5016782151815
 10
-513.3368907145004
 20
131.5576021883211
 10
-513.4557093311063
 20
131.5016782151815
 10
-513.5564388904277
 20
131.3424202137211
 10
-513.623744230173
 20
131.104073770985
 10
-513.6473787224911
 20
130.8229249722637
  0
LWPOLYLINE
  5
15B
330
1F
100
AcDbEntity
  8
0
  6
Continuous
 62
     7
370
    15
100
AcDbPolyline
 90
       17
 70
   128
 43
0.0
 10
-513.6473787224911
 20
129.0103777589793
 10
-513.623744230173
 20
128.729228960258
 10
-513.5564388904277
 20
128.4908825175218
 10
-513.4557093311063
 20
128.3316245160615
 10
-513.3368907145004
 20
128.275700542922
 10
-513.2180720978943
 20
128.3316245160615
 10
-513.1173425385729
 20
128.4908825175218
 10
-513.0500371988275
 20
128.729228960258
 10
-513.0264027065096
 20
129.0103777589793
 10
-513.0500371988275
 20
129.2915265577006
 10
-513.1173425385729
 20
129.5298730004368
 10
-513.2180720978943
 20
129.6891310018971
 10
-513.3368907145004
 20
129.7450549750368
 10
-513.4557093311063
 20
129.6891310018971
 10
-513.5564388904277
 20
129.5298730004368
 10
-513.623744230173
 20
129.2915265577006
 10
-513.6473787224911
 20
129.0103777589793
  0
LWPOLYLINE
  5
15C
330
1F
100
AcDbEntity
  8
0
  6
Continuous
 62
     7
370
    15
100
AcDbPolyline
 90
       17
 70
   128
 43
0.0
 10
-513.6473787224911
 20
127.0123631751103
 10
-513.623744230173
 20
126.731214376389
 10
-513.5564388904277
 20
126.4928679336528
 10
-513.4557093311063
 20
126.3336099321925
 10
-513.3368907145004
 20
126.2776859590528
 10
-513.2180720978943
 20
126.3336099321925
 10
-513.1173425385729
 20
126.4928679336528
 10
-513.0500371988275
 20
126.731214376389
 10
-513.0264027065096
 20
127.0123631751103
 10
-513.0500371988275
 20
127.2935119738316
 10
-513.1173425385729
 20
127.5318584165677
 10
-513.2180720978943
 20
127.6911164180281
 10
-513.3368907145004
 20
127.7470403911677
 10
-513.4557093311063
 20
127.6911164180281
 10
-513.5564388904277
 20
127.5318584165677
 10
-513.623744230173
 20
127.2935119738316
 10
-513.6473787224911
 20
127.0123631751103
  0
LWPOLYLINE
  5
15D
330
1F
100
AcDbEntity
  8
0
  6
Continuous
 62
     7
370
    15
100
AcDbPolyline
 90
       17
 70
   128
 43
0.0
 10
-513.6473787224911
 20
125.0526319051262
 10
-513.623744230173
 20
124.7714831064049
 10
-513.5564388904277
 20
124.5331366636687
 10
-513.4557093311063
 20
124.3738786622084
 10
-513.3368907145004
 20
124.3179546890688
 10
-513.2180720978943
 20
124.3738786622084
 10
-513.1173425385729
 20
124.5331366636687
 10
-513.0500371988275
 20
124.7714831064049
 10
-513.0264027065096
 20
125.0526319051262
 10
-513.0500371988275
 20
125.3337807038475
 10
-513.1173425385729
 20
125.5721271465837
 10
-513.2180720978943
 20
125.731385148044
 10
-513.3368907145004
 20
125.7873091211836
 10
-513.4557093311063
 20
125.731385148044
 10
-513.5564388904277
 20
125.5721271465837
 10
-513.623744230173
 20
125.3337807038475
 10
-513.6473787224911
 20
125.0526319051262
  0
LWPOLYLINE
  5
15E
330
1F
100
AcDbEntity
  8
0
  6
Continuous
 62
     7
370
    15
100
AcDbPolyline
 90
       17
 70
   128
 43
0.0
 10
-513.6473787224911
 20
123.0546173212572
 10
-513.623744230173
 20
122.7734685225359
 10
-513.5564388904277
 20
122.5351220797997
 10
-513.4557093311063
 20
122.3758640783394
 10
-513.3368907145004
 20
122.3199401051997
 10
-513.2180720978943
 20
122.3758640783394
 10
-513.1173425385729
 20
122.5351220797997
 10
-513.0500371988275
 20
122.7734685225359
 10
-513.0264027065096
 20
123.0546173212572
 10
-513.0500371988275
 20
123.3357661199785
 10
-513.1173425385729
 20
123.5741125627146
 10
-513.2180720978943
 20
123.733370564175
 10
-513.3368907145004
 20
123.7892945373146
 10
-513.4557093311063
 20
123.733370564175
 10
-513.5564388904277
 20
123.5741125627146
 10
-513.623744230173
 20
123.3357661199785
 10
-513.6473787224911
 20
123.0546173212572
  0
ELLIPSE
  5
15F
330
1F
100
AcDbEntity
  8
0
  6
Continuous
 62
     7
370
    15
100
AcDbEllipse
 10
85.89783681185712
 20
152.1882341095883
 30
0.0
 11
4.235099857305755
 21
4.235099857305614
 31
0.0
210
0.0
220
0.0
230
0.9999999999999998
 40
0.8348171294789539
 41
0.43885069340304
 42
0.695613320393356
  0
LINE
  5
160
330
1F
100
AcDbEntity
  8
0
  6
Continuous
 62
     7
370
    15
100
AcDbLine
 10
86.8831874714864
 20
157.7051237044006
 30
0.0
 11
100.8724172161364
 21
171.6943534490507
 31
0.0
  0
ELLIPSE
  5
161
330
1F
100
AcDbEntity
  8
0
  6
Continuous
 62
     7
370
    15
100
AcDbEllipse
 10
99.8870665565073
 20
166.1774638542383
 30
0.0
 11
4.235099857305613
 21
4.235099857305542
 31
0.0
210
0.0
220
0.0
230
1.0
 40
0.8348171294790002
 41
5.587571986786302
 42
6.978798627572905
  0
LINE
  5
162
330
1F
100
AcDbEntity
  8
0
  6
Continuous
 62
     7
370
    15
100
AcDbLine
 10
105.4039561513195
 20
167.1628145138675
 30
0.0
 11
92.76091403781526
 21
154.5197724003632
 31
0.0
  0
ELLIPSE
  5
163
330
1F
100
AcDbEntity
  8
0
  6
Continuous
 62
     7
370
    15
100
AcDbEllipse
 10
88.22937510263205
 20
154.5197724003632
 30
0.0
 11
4.880113472814429
 21
-2.021409186359406
 31
0.0
210
0.0
220
0.0
230
1.0
 40
0.5384085168399424
 41
0.655757659700091
 42
1.790221673496389
  0
LINE
  5
164
330
1F
100
AcDbEntity
  8
0
  6
Continuous
 62
     7
370
    15
100
AcDbLine
 10
86.8831874714864
 20
157.7051237044006
 30
0.0
 11
-72.23583324878337
 21
157.7051237044006
 31
0.0
  0
LINE
  5
165
330
1F
100
AcDbEntity
  8
0
  6
Continuous
 62
     7
370
    15
100
AcDbLine
 10
-72.23583324878337
 20
157.7051237044006
 30
0.0
 11
-74.18444617370778
 21
157.7051237044006
 31
0.0
  0
LINE
  5
166
330
1F
100
AcDbEntity
  8
0
  6
Continuous
 62
     7
370
    15
100
AcDbLine
 10
-74.18444617370778
 20
157.7051237044006
 30
0.0
 11
-97.23583324878337
 21
157.7051237044006
 31
0.0
  0
LINE
  5
167
330
1F
100
AcDbEntity
  8
0
  6
Continuous
 62
     7
370
    15
100
AcDbLine
 10
-97.23583324878337
 20
157.7051237044006
 30
0.0
 11
-99.18444617370802
 21
157.7051237044006
 31
0.0
  0
LINE
  5
168
330
1F
100
AcDbEntity
  8
0
  6
Continuous
 62
     7
370
    15
100
AcDbLine
 10
-99.18444617370802
 20
157.7051237044006
 30
0.0
 11
-122.2358332487836
 21
157.7051237044006
 31
0.0
  0
LINE
  5
169
330
1F
100
AcDbEntity
  8
0
  6
Continuous
 62
     7
370
    15
100
AcDbLine
 10
-122.2358332487836
 20
157.7051237044006
 30
0.0
 11
-124.184446173708
 21
157.7051237044006
 31
0.0
  0
LINE
  5
16A
330
1F
100
AcDbEntity
  8
0
  6
Continuous
 62
     7
370
    15
100
AcDbLine
 10
-124.184446173708
 20
157.7051237044006
 30
0.0
 11
-147.2358332487835
 21
157.7051237044006
 31
0.0
  0
LINE
  5
16B
330
1F
100
AcDbEntity
  8
0
  6
Continuous
 62
     7
370
    15
100
AcDbLine
 10
-147.2358332487835
 20
157.7051237044006
 30
0.0
 11
-149.184446173708
 21
157.7051237044006
 31
0.0
  0
LINE
  5
16C
330
1F
100
AcDbEntity
  8
0
  6
Continuous
 62
     7
370
    15
100
AcDbLine
 10
-149.184446173708
 20
157.7051237044006
 30
0.0
 11
-172.2358332487835
 21
157.7051237044006
 31
0.0
  0
LINE
  5
16D
330
1F
100
AcDbEntity
  8
0
  6
Continuous
 62
     7
370
    15
100
AcDbLine
 10
-172.2358332487835
 20
157.7051237044006
 30
0.0
 11
-174.184446173708
 21
157.7051237044006
 31
0.0
  0
LINE
  5
16E
330
1F
100
AcDbEntity
  8
0
  6
Continuous
 62
     7
370
    15
100
AcDbLine
 10
-174.184446173708
 20
157.7051237044006
 30
0.0
 11
-197.2358332487835
 21
157.7051237044006
 31
0.0
  0
LINE
  5
16F
330
1F
100
AcDbEntity
  8
0
  6
Continuous
 62
     7
370
    15
100
AcDbLine
 10
-197.2358332487835
 20
157.7051237044006
 30
0.0
 11
-199.1844461737079
 21
157.7051237044006
 31
0.0
  0
LINE
  5
170
330
1F
100
AcDbEntity
  8
0
  6
Continuous
 62
     7
370
    15
100
AcDbLine
 10
-199.1844461737079
 20
157.7051237044006
 30
0.0
 11
-222.2358332487835
 21
157.7051237044006
 31
0.0
  0
LINE
  5
171
330
1F
100
AcDbEntity
  8
0
  6
Continuous
 62
     7
370
    15
100
AcDbLine
 10
-222.2358332487835
 20
157.7051237044006
 30
0.0
 11
-224.184446173708
 21
157.7051237044006
 31
0.0
  0
LINE
  5
172
330
1F
100
AcDbEntity
  8
0
  6
Continuous
 62
     7
370
    15
100
AcDbLine
 10
-224.184446173708
 20
157.7051237044006
 30
0.0
 11
-247.2358332487835
 21
157.7051237044006
 31
0.0
  0
LINE
  5
173
330
1F
100
AcDbEntity
  8
0
  6
Continuous
 62
     7
370
    15
100
AcDbLine
 10
-247.2358332487835
 20
157.7051237044006
 30
0.0
 11
-249.184446173708
 21
157.7051237044006
 31
0.0
  0
LINE
  5
174
330
1F
100
AcDbEntity
  8
0
  6
Continuous
 62
     7
370
    15
100
AcDbLine
 10
-249.184446173708
 20
157.7051237044006
 30
0.0
 11
-272.2358332487836
 21
157.7051237044006
 31
0.0
  0
LINE
  5
175
330
1F
100
AcDbEntity
  8
0
  6
Continuous
 62
     7
370
    15
100
AcDbLine
 10
-272.2358332487836
 20
157.7051237044006
 30
0.0
 11
-274.184446173708
 21
157.7051237044006
 31
0.0
  0
LINE
  5
176
330
1F
100
AcDbEntity
  8
0
  6
Continuous
 62
     7
370
    15
100
AcDbLine
 10
-274.184446173708
 20
157.7051237044006
 30
0.0
 11
-297.2358332487835
 21
157.7051237044006
 31
0.0
  0
LINE
  5
177
330
1F
100
AcDbEntity
  8
0
  6
Continuous
 62
     7
370
    15
100
AcDbLine
 10
-297.2358332487835
 20
157.7051237044006
 30
0.0
 11
-299.184446173708
 21
157.7051237044006
 31
0.0
  0
LINE
  5
178
330
1F
100
AcDbEntity
  8
0
  6
Continuous
 62
     7
370
    15
100
AcDbLine
 10
-299.184446173708
 20
157.7051237044006
 30
0.0
 11
-476.0752751688472
 21
157.7051237044006
 31
0.0
  0
LINE
  5
179
330
1F
100
AcDbEntity
  8
0
  6
Continuous
 62
     7
370
    15
100
AcDbLine
 10
-490.0645049134971
 20
171.6943534490507
 30
0.0
 11
-476.0752751688472
 21
157.7051237044006
 31
0.0
  0
LINE
  5
17A
330
1F
100
AcDbEntity
  8
0
  6
Continuous
 62
     7
370
    15
100
AcDbLine
 10
100.8724172161364
 20
171.6943534490507
 30
0.0
 11
-490.0645049134971
 21
171.6943534490507
 31
0.0
  0
ELLIPSE
  5
17B
330
1F
100
AcDbEntity
  8
0
  6
Continuous
 62
     7
370
    15
100
AcDbEllipse
 10
-477.4214627999929
 20
154.5197724003632
 30
0.0
 11
4.880113472814429
 21
2.021409186359477
 31
0.0
210
0.0
220
0.0
230
0.9999999999999998
 40
0.5384085168399474
 41
1.351370980093393
 42
2.485834993889689
  0
LINE
  5
17C
330
1F
100
AcDbEntity
  8
0
  6
Continuous
 62
     7
370
    15
100
AcDbLine
 10
-481.9530017351762
 20
154.5197724003632
 30
0.0
 11
-494.5960438486804
 21
167.1628145138675
 31
0.0
  0
ELLIPSE
  5
17D
330
1F
100
AcDbEntity
  8
0
  6
Continuous
 62
     7
370
    15
100
AcDbEllipse
 10
-489.0791542538679
 20
166.1774638542382
 30
0.0
 11
-4.235099857305685
 21
4.235099857305614
 31
0.0
210
0.0
220
0.0
230
1.0
 40
0.8348171294789823
 41
5.587571986786268
 42
6.978798627572901
  0
ELLIPSE
  5
17E
330
1F
100
AcDbEntity
  8
0
  6
Continuous
 62
     7
370
    15
100
AcDbEllipse
 10
-475.0899245092179
 20
152.1882341095883
 30
0.0
 11
-4.235099857305648
 21
4.235099857305611
 31
0.0
210
0.0
220
0.0
230
1.0
 40
0.8348171294789898
 41
5.587571986786286
 42
5.844334613776599
  0
LINE
  5
17F
330
1F
100
AcDbEntity
  8
0
  6
Continuous
 62
     7
370
    15
100
AcDbLine
 10
88.22937510263205
 20
94.69888959096801
 30
0.0
 11
88.22937510263205
 21
157.5242644957003
 31
0.0
  0
LINE
  5
180
330
1F
100
AcDbEntity
  8
0
  6
Continuous
 62
     7
370
    15
100
AcDbLine
 10
92.76091403781526
 20
154.5197724003632
 30
0.0
 11
92.76091403781526
 21
97.70338168630502
 31
0.0
  0
ELLIPSE
  5
181
330
1F
100
AcDbEntity
  8
0
  6
Continuous
 62
     7
370
    15
100
AcDbEllipse
 10
88.22937510263205
 20
97.70338168630502
 30
0.0
 11
4.880113472814429
 21
2.021409186359406
 31
0.0
210
0.0
220
0.0
230
1.0
 40
0.5384085168399527
 41
4.492963633683201
 42
5.627427647479524
  0
LINE
  5
182
330
1F
100
AcDbEntity
  8
0
  6
Continuous
 62
     7
370
    15
100
AcDbLine
 10
-147.2358332487835
 20
157.7051237044006
 30
0.0
 11
-147.2358332487835
 21
94.51803038226751
 31
0.0
  0
LINE
  5
183
330
1F
100
AcDbEntity
  8
0
  6
Continuous
 62
     7
370
    15
100
AcDbLine
 10
-124.184446173708
 20
157.7051237044006
 30
0.0
 11
-124.184446173708
 21
94.51803038226751
 31
0.0
  0
LINE
  5
184
330
1F
100
AcDbEntity
  8
0
  6
Continuous
 62
     7
370
    15
100
AcDbLine
 10
-147.2358332487835
 20
94.51803038226751
 30
0.0
 11
-124.184446173708
 21
94.51803038226751
 31
0.0
  0
LINE
  5
185
330
1F
100
AcDbEntity
  8
0
  6
Continuous
 62
     7
370
    15
100
AcDbLine
 10
-122.2358332487836
 20
157.7051237044006
 30
0.0
 11
-122.2358332487836
 21
94.51803038226751
 31
0.0
  0
LINE
  5
186
330
1F
100
AcDbEntity
  8
0
  6
Continuous
 62
     7
370
    15
100
AcDbLine
 10
-99.18444617370802
 20
157.7051237044006
 30
0.0
 11
-99.18444617370802
 21
94.51803038226751
 31
0.0
  0
LINE
  5
187
330
1F
100
AcDbEntity
  8
0
  6
Continuous
 62
     7
370
    15
100
AcDbLine
 10
-122.2358332487836
 20
94.51803038226751
 30
0.0
 11
-99.18444617370802
 21
94.51803038226751
 31
0.0
  0
LINE
  5
188
330
1F
100
AcDbEntity
  8
0
  6
Continuous
 62
     7
370
    15
100
AcDbLine
 10
-74.18444617370778
 20
157.7051237044006
 30
0.0
 11
-74.18444617370778
 21
94.51803038226751
 31
0.0
  0
LINE
  5
189
330
1F
100
AcDbEntity
  8
0
  6
Continuous
 62
     7
370
    15
100
AcDbLine
 10
-97.23583324878337
 20
94.51803038226751
 30
0.0
 11
-74.18444617370778
 21
94.51803038226751
 31
0.0
  0
LINE
  5
18A
330
1F
100
AcDbEntity
  8
0
  6
Continuous
 62
     7
370
    15
100
AcDbLine
 10
-97.23583324878337
 20
157.7051237044006
 30
0.0
 11
-97.23583324878337
 21
94.51803038226751
 31
0.0
  0
LINE
  5
18B
330
1F
100
AcDbEntity
  8
0
  6
Continuous
 62
     7
370
    15
100
AcDbLine
 10
-172.2358332487835
 20
157.7051237044006
 30
0.0
 11
-172.2358332487835
 21
94.51803038226751
 31
0.0
  0
LINE
  5
18C
330
1F
100
AcDbEntity
  8
0
  6
Continuous
 62
     7
370
    15
100
AcDbLine
 10
-149.184446173708
 20
157.7051237044006
 30
0.0
 11
-149.184446173708
 21
94.51803038226751
 31
0.0
  0
LINE
  5
18D
330
1F
100
AcDbEntity
  8
0
  6
Continuous
 62
     7
370
    15
100
AcDbLine
 10
-172.2358332487835
 20
94.51803038226751
 30
0.0
 11
-149.184446173708
 21
94.51803038226751
 31
0.0
  0
LINE
  5
18E
330
1F
100
AcDbEntity
  8
0
  6
Continuous
 62
     7
370
    15
100
AcDbLine
 10
-174.184446173708
 20
157.7051237044006
 30
0.0
 11
-174.184446173708
 21
94.51803038226751
 31
0.0
  0
LINE
  5
18F
330
1F
100
AcDbEntity
  8
0
  6
Continuous
 62
     7
370
    15
100
AcDbLine
 10
-197.2358332487835
 20
94.51803038226751
 30
0.0
 11
-174.184446173708
 21
94.51803038226751
 31
0.0
  0
LINE
  5
190
330
1F
100
AcDbEntity
  8
0
  6
Continuous
 62
     7
370
    15
100
AcDbLine
 10
-197.2358332487835
 20
157.7051237044006
 30
0.0
 11
-197.2358332487835
 21
94.51803038226751
 31
0.0
  0
LINE
  5
191
330
1F
100
AcDbEntity
  8
0
  6
Continuous
 62
     7
370
    15
100
AcDbLine
 10
-247.2358332487835
 20
157.7051237044006
 30
0.0
 11
-247.2358332487835
 21
94.51803038226751
 31
0.0
  0
LINE
  5
192
330
1F
100
AcDbEntity
  8
0
  6
Continuous
 62
     7
370
    15
100
AcDbLine
 10
-224.184446173708
 20
157.7051237044006
 30
0.0
 11
-224.184446173708
 21
94.51803038226751
 31
0.0
  0
LINE
  5
193
330
1F
100
AcDbEntity
  8
0
  6
Continuous
 62
     7
370
    15
100
AcDbLine
 10
-247.2358332487835
 20
94.51803038226751
 30
0.0
 11
-224.184446173708
 21
94.51803038226751
 31
0.0
  0
LINE
  5
194
330
1F
100
AcDbEntity
  8
0
  6
Continuous
 62
     7
370
    15
100
AcDbLine
 10
-297.2358332487835
 20
157.7051237044006
 30
0.0
 11
-297.2358332487835
 21
94.51803038226751
 31
0.0
  0
LINE
  5
195
330
1F
100
AcDbEntity
  8
0
  6
Continuous
 62
     7
370
    15
100
AcDbLine
 10
-297.2358332487835
 20
94.51803038226751
 30
0.0
 11
-274.184446173708
 21
94.51803038226751
 31
0.0
  0
LINE
  5
196
330
1F
100
AcDbEntity
  8
0
  6
Continuous
 62
     7
370
    15
100
AcDbLine
 10
-274.184446173708
 20
157.7051237044006
 30
0.0
 11
-274.184446173708
 21
94.51803038226751
 31
0.0
  0
LINE
  5
197
330
1F
100
AcDbEntity
  8
0
  6
Continuous
 62
     7
370
    15
100
AcDbLine
 10
-222.2358332487835
 20
157.7051237044006
 30
0.0
 11
-222.2358332487835
 21
94.51803038226751
 31
0.0
  0
LINE
  5
198
330
1F
100
AcDbEntity
  8
0
  6
Continuous
 62
     7
370
    15
100
AcDbLine
 10
-222.2358332487835
 20
94.51803038226751
 30
0.0
 11
-199.1844461737079
 21
94.51803038226751
 31
0.0
  0
LINE
  5
199
330
1F
100
AcDbEntity
  8
0
  6
Continuous
 62
     7
370
    15
100
AcDbLine
 10
-199.1844461737079
 20
157.7051237044006
 30
0.0
 11
-199.1844461737079
 21
94.51803038226751
 31
0.0
  0
LINE
  5
19A
330
1F
100
AcDbEntity
  8
0
  6
Continuous
 62
     7
370
    15
100
AcDbLine
 10
-272.2358332487836
 20
157.7051237044006
 30
0.0
 11
-272.2358332487835
 21
94.51803038226751
 31
0.0
  0
LINE
  5
19B
330
1F
100
AcDbEntity
  8
0
  6
Continuous
 62
     7
370
    15
100
AcDbLine
 10
-272.2358332487835
 20
94.51803038226751
 30
0.0
 11
-249.184446173708
 21
94.51803038226751
 31
0.0
  0
LINE
  5
19C
330
1F
100
AcDbEntity
  8
0
  6
Continuous
 62
     7
370
    15
100
AcDbLine
 10
-249.184446173708
 20
157.7051237044006
 30
0.0
 11
-249.184446173708
 21
94.51803038226751
 31
0.0
  0
ELLIPSE
  5
19D
330
1F
100
AcDbEntity
  8
0
  6
Continuous
 62
     7
370
    15
100
AcDbEllipse
 10
85.89783681185702
 20
100.03491997708
 30
0.0
 11
4.235099857305755
 21
-4.235099857305614
 31
0.0
210
0.0
220
0.0
230
0.9999999999999998
 40
0.8348171294789791
 41
5.587571986786283
 42
5.844334613776598
  0
LINE
  5
19E
330
1F
100
AcDbEntity
  8
0
  6
Continuous
 62
     7
370
    15
100
AcDbLine
 10
-72.23583324878337
 20
94.51803038226751
 30
0.0
 11
86.8831874714864
 21
94.51803038226756
 31
0.0
  0
LINE
  5
19F
330
1F
100
AcDbEntity
  8
0
  6
Continuous
 62
     7
370
    15
100
AcDbLine
 10
-72.23583324878337
 20
157.7051237044006
 30
0.0
 11
-72.23583324878337
 21
94.51803038226751
 31
0.0
  0
LINE
  5
1A0
330
1F
100
AcDbEntity
  8
0
  6
Continuous
 62
     7
370
    15
100
AcDbLine
 10
-481.9530017351762
 20
137.3458006919952
 30
0.0
 11
-481.9530017351762
 21
154.5197724003632
 31
0.0
  0
LINE
  5
1A1
330
1F
100
AcDbEntity
  8
0
  6
Continuous
 62
     7
370
    15
100
AcDbLine
 10
-477.4214627999929
 20
157.5242644957003
 30
0.0
 11
-477.4214627999929
 21
137.3458006919952
 31
0.0
  0
LINE
  5
1A2
330
1F
100
AcDbEntity
  8
0
  6
Continuous
 62
     7
370
    15
100
AcDbLine
 10
-481.9530017351762
 20
137.3458006919952
 30
0.0
 11
-477.4214627999929
 21
137.3458006919952
 31
0.0
  0
LINE
  5
1A3
330
1F
100
AcDbEntity
  8
0
  6
Continuous
 62
     7
370
    15
100
AcDbLine
 10
-476.0752751688472
 20
94.51803038226751
 30
0.0
 11
-299.184446173708
 21
94.51803038226751
 31
0.0
  0
ELLIPSE
  5
1A4
330
1F
100
AcDbEntity
  8
0
  6
Continuous
 62
     7
370
    15
100
AcDbEllipse
 10
-475.089924509218
 20
100.03491997708
 30
0.0
 11
-4.235099857305613
 21
-4.235099857305613
 31
0.0
210
0.0
220
0.0
230
0.9999999999999998
 40
0.8348171294789976
 41
0.4388506934030135
 42
0.6956133203933282
  0
LINE
  5
1A5
330
1F
100
AcDbEntity
  8
0
  6
Continuous
 62
     7
370
    15
100
AcDbLine
 10
-477.4214627999929
 20
122.6573712793461
 30
0.0
 11
-477.4214627999929
 21
94.69888959096795
 31
0.0
  0
SPLINE
  5
1A6
330
1F
100
AcDbEntity
  8
0
  6
Continuous
 62
     7
370
    15
100
AcDbSpline
210
0.0
220
0.0
230
1.0
 70
     8
 71
     3
 72
    22
 73
    18
 74
     0
 42
0.0000000001
 43
0.0000000001
 40
0.0
 40
0.0
 40
0.0
 40
0.0
 40
0.1250000000000002
 40
0.1250000000000002
 40
0.2500000000000004
 40
0.2500000000000004
 40
0.3750000000000004
 40
0.3750000000000004
 40
0.5000000000000005
 40
0.5000000000000005
 40
0.6250000000000005
 40
0.6250000000000005
 40
0.7500000000000004
 40
0.7500000000000004
 40
0.8750000000000001
 40
0.8750000000000001
 40
1.0
 40
1.0
 40
1.0
 40
1.0
 10
-477.4214627999929
 20
137.3458006919952
 30
0.0
 10
-477.4214627999929
 20
136.7330118623822
 30
0.0
 10
-477.4546621638417
 20
136.1221789872692
 30
0.0
 10
-477.5627023857834
 20
134.90296656321
 30
0.0
 10
-477.6378134456843
 20
134.2946893157295
 30
0.0
 10
-477.7949459755469
 20
133.0789444505765
 30
0.0
 10
-477.8767283518245
 20
132.4713284373987
 30
0.0
 10
-477.9989734298776
 20
131.2528020082837
 30
0.0
 10
-478.0376852163527
 20
130.6417519925004
 30
0.0
 10
-478.0397033705249
 20
129.413639914065
 30
0.0
 10
-478.0025569492825
 20
128.7960267939038
 30
0.0
 10
-477.8813630498103
 20
127.5687491763873
 30
0.0
 10
-477.7992792590335
 20
126.9570689268757
 30
0.0
 10
-477.6409209382918
 20
125.7331789046219
 30
0.0
 10
-477.5649117628102
 20
125.1209449444026
 30
0.0
 10
-477.4553296266686
 20
123.8926088964541
 30
0.0
 10
-477.4214627999929
 20
123.2765335950731
 30
0.0
 10
-477.4214627999929
 20
122.6573712793461
 30
0.0
  0
LINE
  5
1A7
330
1F
100
AcDbEntity
  8
0
  6
Continuous
 62
     7
370
    15
100
AcDbLine
 10
-299.184446173708
 20
157.7051237044006
 30
0.0
 11
-299.184446173708
 21
94.51803038226751
 31
0.0
  0
LINE
  5
1A8
330
1F
100
AcDbEntity
  8
0
  6
Continuous
 62
     7
370
    15
100
AcDbLine
 10
-481.9530017351762
 20
122.6573712793461
 30
0.0
 11
-477.4214627999929
 21
122.6573712793461
 31
0.0
  0
LINE
  5
1A9
330
1F
100
AcDbEntity
  8
0
  6
Continuous
 62
     7
370
    15
100
AcDbLine
 10
-481.9530017351762
 20
97.70338168630496
 30
0.0
 11
-481.9530017351762
 21
122.6573712793461
 31
0.0
  0
ELLIPSE
  5
1AA
330
1F
100
AcDbEntity
  8
0
  6
Continuous
 62
     7
370
    15
100
AcDbEllipse
 10
-477.421462799993
 20
97.70338168630496
 30
0.0
 11
4.880113472814429
 21
-2.021409186359406
 31
0.0
210
0.0
220
0.0
230
1.0
 40
0.5384085168399477
 41
3.797350313289898
 42
4.931814327086207
  0
ELLIPSE
  5
1AB
330
1F
100
AcDbEntity
  8
0
  6
Continuous
 62
     7
370
    15
100
AcDbEllipse
 10
-489.0791542538679
 20
86.04569023243005
 30
0.0
 11
-4.235099857305647
 21
-4.235099857305685
 31
0.0
210
0.0
220
0.0
230
1.0
 40
0.8348171294789745
 41
5.587571986786283
 42
6.978798627572903
  0
LINE
  5
1AC
330
1F
100
AcDbEntity
  8
0
  6
Continuous
 62
     7
370
    15
100
AcDbLine
 10
-494.5960438486804
 20
85.06033957280079
 30
0.0
 11
-481.9530017351762
 21
97.70338168630496
 31
0.0
  0
LINE
  5
1AD
330
1F
100
AcDbEntity
  8
0
  6
Continuous
 62
     7
370
    15
100
AcDbLine
 10
-476.0752751688472
 20
94.51803038226751
 30
0.0
 11
-490.0645049134972
 21
80.52880063761756
 31
0.0
  0
LINE
  5
1AE
330
1F
100
AcDbEntity
  8
0
  6
Continuous
 62
     7
370
    15
100
AcDbLine
 10
100.8724172161364
 20
80.52880063761756
 30
0.0
 11
86.8831874714864
 21
94.51803038226756
 31
0.0
  0
LINE
  5
1AF
330
1F
100
AcDbEntity
  8
0
  6
Continuous
 62
     7
370
    15
100
AcDbLine
 10
92.76091403781526
 20
97.70338168630502
 30
0.0
 11
105.4039561513195
 21
85.06033957280084
 31
0.0
  0
ELLIPSE
  5
1B0
330
1F
100
AcDbEntity
  8
0
  6
Continuous
 62
     7
370
    15
100
AcDbEllipse
 10
99.88706655650709
 20
86.0456902324301
 30
0.0
 11
4.235099857305614
 21
-4.235099857305685
 31
0.0
210
0.0
220
0.0
230
1.0
 40
0.8348171294789864
 41
5.587571986786311
 42
6.978798627572901
  0
LINE
  5
1B1
330
1F
100
AcDbEntity
  8
0
  6
Continuous
 62
     7
370
    15
100
AcDbLine
 10
-297.2358332487835
 20
91.51150614002302
 30
0.0
 11
-299.184446173708
 21
91.51150614002302
 31
0.0
  0
LINE
  5
1B2
330
1F
100
AcDbEntity
  8
0
  6
Continuous
 62
     7
370
    15
100
AcDbLine
 10
-272.2358332487835
 20
91.51150614002302
 30
0.0
 11
-274.184446173708
 21
91.51150614002302
 31
0.0
  0
LINE
  5
1B3
330
1F
100
AcDbEntity
  8
0
  6
Continuous
 62
     7
370
    15
100
AcDbLine
 10
-247.2358332487835
 20
91.51150614002302
 30
0.0
 11
-249.184446173708
 21
91.51150614002302
 31
0.0
  0
LINE
  5
1B4
330
1F
100
AcDbEntity
  8
0
  6
Continuous
 62
     7
370
    15
100
AcDbLine
 10
-222.2358332487835
 20
91.51150614002302
 30
0.0
 11
-224.184446173708
 21
91.51150614002302
 31
0.0
  0
LINE
  5
1B5
330
1F
100
AcDbEntity
  8
0
  6
Continuous
 62
     7
370
    15
100
AcDbLine
 10
-197.2358332487835
 20
91.51150614002302
 30
0.0
 11
-199.1844461737079
 21
91.51150614002302
 31
0.0
  0
LINE
  5
1B6
330
1F
100
AcDbEntity
  8
0
  6
Continuous
 62
     7
370
    15
100
AcDbLine
 10
-172.2358332487835
 20
91.51150614002302
 30
0.0
 11
-174.184446173708
 21
91.51150614002302
 31
0.0
  0
LINE
  5
1B7
330
1F
100
AcDbEntity
  8
0
  6
Continuous
 62
     7
370
    15
100
AcDbLine
 10
-147.2358332487835
 20
91.51150614002302
 30
0.0
 11
-149.184446173708
 21
91.51150614002302
 31
0.0
  0
LINE
  5
1B8
330
1F
100
AcDbEntity
  8
0
  6
Continuous
 62
     7
370
    15
100
AcDbLine
 10
-122.2358332487836
 20
91.51150614002302
 30
0.0
 11
-124.184446173708
 21
91.51150614002302
 31
0.0
  0
LINE
  5
1B9
330
1F
100
AcDbEntity
  8
0
  6
Continuous
 62
     7
370
    15
100
AcDbLine
 10
-97.23583324878337
 20
91.51150614002302
 30
0.0
 11
-99.18444617370802
 21
91.51150614002302
 31
0.0
  0
LINE
  5
1BA
330
1F
100
AcDbEntity
  8
0
  6
Continuous
 62
     7
370
    15
100
AcDbLine
 10
-72.23583324878337
 20
91.51150614002302
 30
0.0
 11
-74.18444617370778
 21
91.51150614002302
 31
0.0
  0
LINE
  5
1BB
330
1F
100
AcDbEntity
  8
0
  6
Continuous
 62
     7
370
    15
100
AcDbLine
 10
-490.0645049134972
 20
80.52880063761756
 30
0.0
 11
100.8724172161364
 21
80.52880063761756
 31
0.0
  0
LINE
  5
1BC
330
1F
100
AcDbEntity
  8
0
  6
Continuous
 62
     7
370
    15
100
AcDbLine
 10
-247.2358332487835
 20
94.51803038226751
 30
0.0
 11
-247.2358332487835
 21
91.51150614002302
 31
0.0
  0
LINE
  5
1BD
330
1F
100
AcDbEntity
  8
0
  6
Continuous
 62
     7
370
    15
100
AcDbLine
 10
-149.184446173708
 20
91.51150614002302
 30
0.0
 11
-149.184446173708
 21
94.51803038226751
 31
0.0
  0
LINE
  5
1BE
330
1F
100
AcDbEntity
  8
0
  6
Continuous
 62
     7
370
    15
100
AcDbLine
 10
-147.2358332487835
 20
94.51803038226751
 30
0.0
 11
-147.2358332487835
 21
91.51150614002302
 31
0.0
  0
LINE
  5
1BF
330
1F
100
AcDbEntity
  8
0
  6
Continuous
 62
     7
370
    15
100
AcDbLine
 10
-124.184446173708
 20
91.51150614002302
 30
0.0
 11
-124.184446173708
 21
94.51803038226751
 31
0.0
  0
LINE
  5
1C0
330
1F
100
AcDbEntity
  8
0
  6
Continuous
 62
     7
370
    15
100
AcDbLine
 10
-224.184446173708
 20
91.51150614002302
 30
0.0
 11
-224.184446173708
 21
94.51803038226751
 31
0.0
  0
LINE
  5
1C1
330
1F
100
AcDbEntity
  8
0
  6
Continuous
 62
     7
370
    15
100
AcDbLine
 10
-222.2358332487835
 20
94.51803038226751
 30
0.0
 11
-222.2358332487835
 21
91.51150614002302
 31
0.0
  0
LINE
  5
1C2
330
1F
100
AcDbEntity
  8
0
  6
Continuous
 62
     7
370
    15
100
AcDbLine
 10
-174.184446173708
 20
91.51150614002302
 30
0.0
 11
-174.184446173708
 21
94.51803038226751
 31
0.0
  0
LINE
  5
1C3
330
1F
100
AcDbEntity
  8
0
  6
Continuous
 62
     7
370
    15
100
AcDbLine
 10
-272.2358332487835
 20
94.51803038226751
 30
0.0
 11
-272.2358332487835
 21
91.51150614002302
 31
0.0
  0
LINE
  5
1C4
330
1F
100
AcDbEntity
  8
0
  6
Continuous
 62
     7
370
    15
100
AcDbLine
 10
-297.2358332487835
 20
94.51803038226751
 30
0.0
 11
-297.2358332487835
 21
91.51150614002302
 31
0.0
  0
LINE
  5
1C5
330
1F
100
AcDbEntity
  8
0
  6
Continuous
 62
     7
370
    15
100
AcDbLine
 10
-72.23583324878337
 20
94.51803038226751
 30
0.0
 11
-72.23583324878337
 21
91.51150614002302
 31
0.0
  0
LINE
  5
1C6
330
1F
100
AcDbEntity
  8
0
  6
Continuous
 62
     7
370
    15
100
AcDbLine
 10
-172.2358332487835
 20
94.51803038226751
 30
0.0
 11
-172.2358332487835
 21
91.51150614002302
 31
0.0
  0
LINE
  5
1C7
330
1F
100
AcDbEntity
  8
0
  6
Continuous
 62
     7
370
    15
100
AcDbLine
 10
-122.2358332487836
 20
94.51803038226751
 30
0.0
 11
-122.2358332487836
 21
91.51150614002302
 31
0.0
  0
LINE
  5
1C8
330
1F
100
AcDbEntity
  8
0
  6
Continuous
 62
     7
370
    15
100
AcDbLine
 10
-74.18444617370778
 20
91.51150614002302
 30
0.0
 11
-74.18444617370778
 21
94.51803038226751
 31
0.0
  0
LINE
  5
1C9
330
1F
100
AcDbEntity
  8
0
  6
Continuous
 62
     7
370
    15
100
AcDbLine
 10
-199.1844461737079
 20
91.51150614002302
 30
0.0
 11
-199.1844461737079
 21
94.51803038226751
 31
0.0
  0
LINE
  5
1CA
330
1F
100
AcDbEntity
  8
0
  6
Continuous
 62
     7
370
    15
100
AcDbLine
 10
-99.18444617370802
 20
91.51150614002302
 30
0.0
 11
-99.18444617370802
 21
94.51803038226751
 31
0.0
  0
LINE
  5
1CB
330
1F
100
AcDbEntity
  8
0
  6
Continuous
 62
     7
370
    15
100
AcDbLine
 10
-197.2358332487835
 20
94.51803038226751
 30
0.0
 11
-197.2358332487835
 21
91.51150614002302
 31
0.0
  0
LINE
  5
1CC
330
1F
100
AcDbEntity
  8
0
  6
Continuous
 62
     7
370
    15
100
AcDbLine
 10
-249.184446173708
 20
91.51150614002302
 30
0.0
 11
-249.184446173708
 21
94.51803038226751
 31
0.0
  0
LINE
  5
1CD
330
1F
100
AcDbEntity
  8
0
  6
Continuous
 62
     7
370
    15
100
AcDbLine
 10
-299.184446173708
 20
91.51150614002302
 30
0.0
 11
-299.184446173708
 21
94.51803038226751
 31
0.0
  0
LINE
  5
1CE
330
1F
100
AcDbEntity
  8
0
  6
Continuous
 62
     7
370
    15
100
AcDbLine
 10
-274.184446173708
 20
91.51150614002302
 30
0.0
 11
-274.184446173708
 21
94.51803038226751
 31
0.0
  0
LINE
  5
1CF
330
1F
100
AcDbEntity
  8
0
  6
Continuous
 62
     7
370
    15
100
AcDbLine
 10
-97.23583324878337
 20
94.51803038226751
 30
0.0
 11
-97.23583324878337
 21
91.51150614002302
 31
0.0
  0
LWPOLYLINE
  5
1D0
330
1F
100
AcDbEntity
  8
0
  6
Continuous
 62
     7
370
    15
100
AcDbPolyline
 90
       17
 70
   128
 43
0.0
 10
-514.4687303031133
 20
136.7786854099858
 10
-514.4450958107954
 20
136.4975366112645
 10
-514.37779047105
 20
136.2591901685283
 10
-514.2770609117287
 20
136.099932167068
 10
-514.1582422951225
 20
136.0440081939284
 10
-514.0394236785166
 20
136.099932167068
 10
-513.9386941191953
 20
136.2591901685283
 10
-513.8713887794499
 20
136.4975366112645
 10
-513.8477542871319
 20
136.7786854099858
 10
-513.8713887794499
 20
137.0598342087071
 10
-513.9386941191953
 20
137.2981806514433
 10
-514.0394236785166
 20
137.4574386529036
 10
-514.1582422951225
 20
137.5133626260432
 10
-514.2770609117287
 20
137.4574386529036
 10
-514.37779047105
 20
137.2981806514433
 10
-514.4450958107954
 20
137.0598342087071
 10
-514.4687303031133
 20
136.7786854099858
  0
LWPOLYLINE
  5
1D1
330
1F
100
AcDbEntity
  8
0
  6
Continuous
 62
     7
370
    15
100
AcDbPolyline
 90
       17
 70
   128
 43
0.0
 10
-514.4687303031133
 20
132.8209395561327
 10
-514.4450958107954
 20
132.5397907574114
 10
-514.37779047105
 20
132.3014443146752
 10
-514.2770609117287
 20
132.1421863132149
 10
-514.1582422951225
 20
132.0862623400753
 10
-514.0394236785166
 20
132.1421863132149
 10
-513.9386941191953
 20
132.3014443146752
 10
-513.8713887794499
 20
132.5397907574114
 10
-513.8477542871319
 20
132.8209395561327
 10
-513.8713887794499
 20
133.102088354854
 10
-513.9386941191953
 20
133.3404347975902
 10
-514.0394236785166
 20
133.4996927990504
 10
-514.1582422951225
 20
133.5556167721901
 10
-514.2770609117287
 20
133.4996927990504
 10
-514.37779047105
 20
133.3404347975902
 10
-514.4450958107954
 20
133.102088354854
 10
-514.4687303031133
 20
132.8209395561327
  0
LWPOLYLINE
  5
1D2
330
1F
100
AcDbEntity
  8
0
  6
Continuous
 62
     7
370
    15
100
AcDbPolyline
 90
       17
 70
   128
 43
0.0
 10
-514.4687303031133
 20
134.7806708261168
 10
-514.4450958107954
 20
134.4995220273955
 10
-514.37779047105
 20
134.2611755846593
 10
-514.2770609117287
 20
134.101917583199
 10
-514.1582422951225
 20
134.0459936100593
 10
-514.0394236785166
 20
134.101917583199
 10
-513.9386941191953
 20
134.2611755846593
 10
-513.8713887794499
 20
134.4995220273955
 10
-513.8477542871319
 20
134.7806708261168
 10
-513.8713887794499
 20
135.0618196248381
 10
-513.9386941191953
 20
135.3001660675742
 10
-514.0394236785166
 20
135.4594240690346
 10
-514.1582422951225
 20
135.5153480421742
 10
-514.2770609117287
 20
135.4594240690346
 10
-514.37779047105
 20
135.3001660675742
 10
-514.4450958107954
 20
135.0618196248381
 10
-514.4687303031133
 20
134.7806708261168
  0
LWPOLYLINE
  5
1D3
330
1F
100
AcDbEntity
  8
0
  6
Continuous
 62
     7
370
    15
100
AcDbPolyline
 90
       17
 70
   128
 43
0.0
 10
-514.4687303031133
 20
130.8229249722637
 10
-514.4450958107954
 20
130.5417761735424
 10
-514.37779047105
 20
130.3034297308062
 10
-514.2770609117287
 20
130.1441717293459
 10
-514.1582422951225
 20
130.0882477562062
 10
-514.0394236785166
 20
130.1441717293459
 10
-513.9386941191953
 20
130.3034297308062
 10
-513.8713887794499
 20
130.5417761735424
 10
-513.8477542871319
 20
130.8229249722637
 10
-513.8713887794499
 20
131.104073770985
 10
-513.9386941191953
 20
131.3424202137211
 10
-514.0394236785166
 20
131.5016782151815
 10
-514.1582422951225
 20
131.5576021883211
 10
-514.2770609117287
 20
131.5016782151815
 10
-514.37779047105
 20
131.3424202137211
 10
-514.4450958107954
 20
131.104073770985
 10
-514.4687303031133
 20
130.8229249722637
  0
LWPOLYLINE
  5
1D4
330
1F
100
AcDbEntity
  8
0
  6
Continuous
 62
     7
370
    15
100
AcDbPolyline
 90
       17
 70
   128
 43
0.0
 10
-514.4687303031133
 20
129.0103777589793
 10
-514.4450958107954
 20
128.729228960258
 10
-514.37779047105
 20
128.4908825175218
 10
-514.2770609117287
 20
128.3316245160615
 10
-514.1582422951225
 20
128.275700542922
 10
-514.0394236785166
 20
128.3316245160615
 10
-513.9386941191953
 20
128.4908825175218
 10
-513.8713887794499
 20
128.729228960258
 10
-513.8477542871319
 20
129.0103777589793
 10
-513.8713887794499
 20
129.2915265577006
 10
-513.9386941191953
 20
129.5298730004368
 10
-514.0394236785166
 20
129.6891310018971
 10
-514.1582422951225
 20
129.7450549750368
 10
-514.2770609117287
 20
129.6891310018971
 10
-514.37779047105
 20
129.5298730004368
 10
-514.4450958107954
 20
129.2915265577006
 10
-514.4687303031133
 20
129.0103777589793
  0
LWPOLYLINE
  5
1D5
330
1F
100
AcDbEntity
  8
0
  6
Continuous
 62
     7
370
    15
100
AcDbPolyline
 90
       17
 70
   128
 43
0.0
 10
-514.4687303031133
 20
125.0526319051262
 10
-514.4450958107954
 20
124.7714831064049
 10
-514.37779047105
 20
124.5331366636687
 10
-514.2770609117287
 20
124.3738786622084
 10
-514.1582422951225
 20
124.3179546890688
 10
-514.0394236785166
 20
124.3738786622084
 10
-513.9386941191953
 20
124.5331366636687
 10
-513.8713887794499
 20
124.7714831064049
 10
-513.8477542871319
 20
125.0526319051262
 10
-513.8713887794499
 20
125.3337807038475
 10
-513.9386941191953
 20
125.5721271465837
 10
-514.0394236785166
 20
125.731385148044
 10
-514.1582422951225
 20
125.7873091211836
 10
-514.2770609117287
 20
125.731385148044
 10
-514.37779047105
 20
125.5721271465837
 10
-514.4450958107954
 20
125.3337807038475
 10
-514.4687303031133
 20
125.0526319051262
  0
LWPOLYLINE
  5
1D6
330
1F
100
AcDbEntity
  8
0
  6
Continuous
 62
     7
370
    15
100
AcDbPolyline
 90
       17
 70
   128
 43
0.0
 10
-514.4687303031133
 20
127.0123631751103
 10
-514.4450958107954
 20
126.731214376389
 10
-514.37779047105
 20
126.4928679336528
 10
-514.2770609117287
 20
126.3336099321925
 10
-514.1582422951225
 20
126.2776859590528
 10
-514.0394236785166
 20
126.3336099321925
 10
-513.9386941191953
 20
126.4928679336528
 10
-513.8713887794499
 20
126.731214376389
 10
-513.8477542871319
 20
127.0123631751103
 10
-513.8713887794499
 20
127.2935119738316
 10
-513.9386941191953
 20
127.5318584165677
 10
-514.0394236785166
 20
127.6911164180281
 10
-514.1582422951225
 20
127.7470403911677
 10
-514.2770609117287
 20
127.6911164180281
 10
-514.37779047105
 20
127.5318584165677
 10
-514.4450958107954
 20
127.2935119738316
 10
-514.4687303031133
 20
127.0123631751103
  0
LWPOLYLINE
  5
1D7
330
1F
100
AcDbEntity
  8
0
  6
Continuous
 62
     7
370
    15
100
AcDbPolyline
 90
       17
 70
   128
 43
0.0
 10
-514.4687303031133
 20
123.0546173212572
 10
-514.4450958107954
 20
122.7734685225359
 10
-514.37779047105
 20
122.5351220797997
 10
-514.2770609117287
 20
122.3758640783394
 10
-514.1582422951225
 20
122.3199401051997
 10
-514.0394236785166
 20
122.3758640783394
 10
-513.9386941191953
 20
122.5351220797997
 10
-513.8713887794499
 20
122.7734685225359
 10
-513.8477542871319
 20
123.0546173212572
 10
-513.8713887794499
 20
123.3357661199785
 10
-513.9386941191953
 20
123.5741125627146
 10
-514.0394236785166
 20
123.733370564175
 10
-514.1582422951225
 20
123.7892945373146
 10
-514.2770609117287
 20
123.733370564175
 10
-514.37779047105
 20
123.5741125627146
 10
-514.4450958107954
 20
123.3357661199785
 10
-514.4687303031133
 20
123.0546173212572
  0
LWPOLYLINE
  5
1D8
330
1F
100
AcDbEntity
  8
0
  6
Continuous
 62
     7
370
    15
100
AcDbPolyline
 90
       17
 70
   128
 43
0.0
 10
-515.3367306999546
 20
136.7786854099858
 10
-515.3130962076367
 20
136.4975366112645
 10
-515.2457908678912
 20
136.2591901685283
 10
-515.14506130857
 20
136.099932167068
 10
-515.0262426919639
 20
136.0440081939284
 10
-514.9074240753577
 20
136.099932167068
 10
-514.8066945160366
 20
136.2591901685283
 10
-514.7393891762911
 20
136.4975366112645
 10
-514.7157546839732
 20
136.7786854099858
 10
-514.7393891762911
 20
137.0598342087071
 10
-514.8066945160366
 20
137.2981806514433
 10
-514.9074240753577
 20
137.4574386529036
 10
-515.0262426919639
 20
137.5133626260432
 10
-515.14506130857
 20
137.4574386529036
 10
-515.2457908678912
 20
137.2981806514433
 10
-515.3130962076367
 20
137.0598342087071
 10
-515.3367306999546
 20
136.7786854099858
  0
LWPOLYLINE
  5
1D9
330
1F
100
AcDbEntity
  8
0
  6
Continuous
 62
     7
370
    15
100
AcDbPolyline
 90
       17
 70
   128
 43
0.0
 10
-515.3367306999546
 20
132.8209395561327
 10
-515.3130962076367
 20
132.5397907574114
 10
-515.2457908678912
 20
132.3014443146752
 10
-515.14506130857
 20
132.1421863132149
 10
-515.0262426919639
 20
132.0862623400753
 10
-514.9074240753577
 20
132.1421863132149
 10
-514.8066945160366
 20
132.3014443146752
 10
-514.7393891762911
 20
132.5397907574114
 10
-514.7157546839732
 20
132.8209395561327
 10
-514.7393891762911
 20
133.102088354854
 10
-514.8066945160366
 20
133.3404347975902
 10
-514.9074240753577
 20
133.4996927990504
 10
-515.0262426919639
 20
133.5556167721901
 10
-515.14506130857
 20
133.4996927990504
 10
-515.2457908678912
 20
133.3404347975902
 10
-515.3130962076367
 20
133.102088354854
 10
-515.3367306999546
 20
132.8209395561327
  0
LWPOLYLINE
  5
1DA
330
1F
100
AcDbEntity
  8
0
  6
Continuous
 62
     7
370
    15
100
AcDbPolyline
 90
       17
 70
   128
 43
0.0
 10
-515.3367306999546
 20
134.7806708261168
 10
-515.3130962076367
 20
134.4995220273955
 10
-515.2457908678912
 20
134.2611755846593
 10
-515.14506130857
 20
134.101917583199
 10
-515.0262426919639
 20
134.0459936100593
 10
-514.9074240753577
 20
134.101917583199
 10
-514.8066945160366
 20
134.2611755846593
 10
-514.7393891762911
 20
134.4995220273955
 10
-514.7157546839732
 20
134.7806708261168
 10
-514.7393891762911
 20
135.0618196248381
 10
-514.8066945160366
 20
135.3001660675742
 10
-514.9074240753577
 20
135.4594240690346
 10
-515.0262426919639
 20
135.5153480421742
 10
-515.14506130857
 20
135.4594240690346
 10
-515.2457908678912
 20
135.3001660675742
 10
-515.3130962076367
 20
135.0618196248381
 10
-515.3367306999546
 20
134.7806708261168
  0
LWPOLYLINE
  5
1DB
330
1F
100
AcDbEntity
  8
0
  6
Continuous
 62
     7
370
    15
100
AcDbPolyline
 90
       17
 70
   128
 43
0.0
 10
-515.3367306999546
 20
130.8229249722637
 10
-515.3130962076367
 20
130.5417761735424
 10
-515.2457908678912
 20
130.3034297308062
 10
-515.14506130857
 20
130.1441717293459
 10
-515.0262426919639
 20
130.0882477562062
 10
-514.9074240753577
 20
130.1441717293459
 10
-514.8066945160366
 20
130.3034297308062
 10
-514.7393891762911
 20
130.5417761735424
 10
-514.7157546839732
 20
130.8229249722637
 10
-514.7393891762911
 20
131.104073770985
 10
-514.8066945160366
 20
131.3424202137211
 10
-514.9074240753577
 20
131.5016782151815
 10
-515.0262426919639
 20
131.5576021883211
 10
-515.14506130857
 20
131.5016782151815
 10
-515.2457908678912
 20
131.3424202137211
 10
-515.3130962076367
 20
131.104073770985
 10
-515.3367306999546
 20
130.8229249722637
  0
LWPOLYLINE
  5
1DC
330
1F
100
AcDbEntity
  8
0
  6
Continuous
 62
     7
370
    15
100
AcDbPolyline
 90
       17
 70
   128
 43
0.0
 10
-515.3367306999546
 20
129.0103777589793
 10
-515.3130962076367
 20
128.729228960258
 10
-515.2457908678912
 20
128.4908825175218
 10
-515.14506130857
 20
128.3316245160615
 10
-515.0262426919639
 20
128.275700542922
 10
-514.9074240753577
 20
128.3316245160615
 10
-514.8066945160366
 20
128.4908825175218
 10
-514.7393891762911
 20
128.729228960258
 10
-514.7157546839732
 20
129.0103777589793
 10
-514.7393891762911
 20
129.2915265577006
 10
-514.8066945160366
 20
129.5298730004368
 10
-514.9074240753577
 20
129.6891310018971
 10
-515.0262426919639
 20
129.7450549750368
 10
-515.14506130857
 20
129.6891310018971
 10
-515.2457908678912
 20
129.5298730004368
 10
-515.3130962076367
 20
129.2915265577006
 10
-515.3367306999546
 20
129.0103777589793
  0
LWPOLYLINE
  5
1DD
330
1F
100
AcDbEntity
  8
0
  6
Continuous
 62
     7
370
    15
100
AcDbPolyline
 90
       17
 70
   128
 43
0.0
 10
-515.3367306999546
 20
125.0526319051262
 10
-515.3130962076367
 20
124.7714831064049
 10
-515.2457908678912
 20
124.5331366636687
 10
-515.14506130857
 20
124.3738786622084
 10
-515.0262426919639
 20
124.3179546890688
 10
-514.9074240753577
 20
124.3738786622084
 10
-514.8066945160366
 20
124.5331366636687
 10
-514.7393891762911
 20
124.7714831064049
 10
-514.7157546839732
 20
125.0526319051262
 10
-514.7393891762911
 20
125.3337807038475
 10
-514.8066945160366
 20
125.5721271465837
 10
-514.9074240753577
 20
125.731385148044
 10
-515.0262426919639
 20
125.7873091211836
 10
-515.14506130857
 20
125.731385148044
 10
-515.2457908678912
 20
125.5721271465837
 10
-515.3130962076367
 20
125.3337807038475
 10
-515.3367306999546
 20
125.0526319051262
  0
LWPOLYLINE
  5
1DE
330
1F
100
AcDbEntity
  8
0
  6
Continuous
 62
     7
370
    15
100
AcDbPolyline
 90
       17
 70
   128
 43
0.0
 10
-515.3367306999546
 20
127.0123631751103
 10
-515.3130962076367
 20
126.731214376389
 10
-515.2457908678912
 20
126.4928679336528
 10
-515.14506130857
 20
126.3336099321925
 10
-515.0262426919639
 20
126.2776859590528
 10
-514.9074240753577
 20
126.3336099321925
 10
-514.8066945160366
 20
126.4928679336528
 10
-514.7393891762911
 20
126.731214376389
 10
-514.7157546839732
 20
127.0123631751103
 10
-514.7393891762911
 20
127.2935119738316
 10
-514.8066945160366
 20
127.5318584165677
 10
-514.9074240753577
 20
127.6911164180281
 10
-515.0262426919639
 20
127.7470403911677
 10
-515.14506130857
 20
127.6911164180281
 10
-515.2457908678912
 20
127.5318584165677
 10
-515.3130962076367
 20
127.2935119738316
 10
-515.3367306999546
 20
127.0123631751103
  0
LWPOLYLINE
  5
1DF
330
1F
100
AcDbEntity
  8
0
  6
Continuous
 62
     7
370
    15
100
AcDbPolyline
 90
       17
 70
   128
 43
0.0
 10
-515.3367306999546
 20
123.0546173212572
 10
-515.3130962076367
 20
122.7734685225359
 10
-515.2457908678912
 20
122.5351220797997
 10
-515.14506130857
 20
122.3758640783394
 10
-515.0262426919639
 20
122.3199401051997
 10
-514.9074240753577
 20
122.3758640783394
 10
-514.8066945160366
 20
122.5351220797997
 10
-514.7393891762911
 20
122.7734685225359
 10
-514.7157546839732
 20
123.0546173212572
 10
-514.7393891762911
 20
123.3357661199785
 10
-514.8066945160366
 20
123.5741125627146
 10
-514.9074240753577
 20
123.733370564175
 10
-515.0262426919639
 20
123.7892945373146
 10
-515.14506130857
 20
123.733370564175
 10
-515.2457908678912
 20
123.5741125627146
 10
-515.3130962076367
 20
123.3357661199785
 10
-515.3367306999546
 20
123.0546173212572
  0
LINE
  5
1E0
330
1F
100
AcDbEntity
  8
0
  6
Continuous
 62
     7
370
    15
100
AcDbLine
 10
-494.5960438486804
 20
167.1628145138675
 30
0.0
 11
-494.5960438486804
 21
145.8200643664097
 31
0.0
  0
LINE
  5
1E1
330
1F
100
AcDbEntity
  8
0
  6
Continuous
 62
     7
370
    15
100
AcDbLine
 10
-494.5960438486804
 20
114.1831076049314
 30
0.0
 11
-494.5960438486804
 21
85.06033957280079
 31
0.0
  0
LINE
  5
1E2
330
1F
100
AcDbEntity
  8
0
  6
Continuous
 62
     7
370
    15
100
AcDbLine
 10
105.4039561513195
 20
85.06033957280084
 30
0.0
 11
105.4039561513195
 21
167.1628145138675
 31
0.0
  0
LWPOLYLINE
  5
1E3
330
1F
100
AcDbEntity
  8
0
  6
Continuous
 62
     7
370
    15
100
AcDbPolyline
 90
       17
 70
   128
 43
0.0
 10
-516.158082280577
 20
136.7786854099858
 10
-516.134447788259
 20
136.4975366112645
 10
-516.0671424485135
 20
136.2591901685283
 10
-515.9664128891924
 20
136.099932167068
 10
-515.8475942725863
 20
136.0440081939284
 10
-515.7287756559802
 20
136.099932167068
 10
-515.6280460966589
 20
136.2591901685283
 10
-515.5607407569134
 20
136.4975366112645
 10
-515.5371062645956
 20
136.7786854099858
 10
-515.5607407569134
 20
137.0598342087071
 10
-515.6280460966589
 20
137.2981806514433
 10
-515.7287756559802
 20
137.4574386529036
 10
-515.8475942725863
 20
137.5133626260432
 10
-515.9664128891924
 20
137.4574386529036
 10
-516.0671424485135
 20
137.2981806514433
 10
-516.134447788259
 20
137.0598342087071
 10
-516.158082280577
 20
136.7786854099858
  0
LWPOLYLINE
  5
1E4
330
1F
100
AcDbEntity
  8
0
  6
Continuous
 62
     7
370
    15
100
AcDbPolyline
 90
       17
 70
   128
 43
0.0
 10
-516.158082280577
 20
132.8209395561327
 10
-516.134447788259
 20
132.5397907574114
 10
-516.0671424485135
 20
132.3014443146752
 10
-515.9664128891924
 20
132.1421863132149
 10
-515.8475942725863
 20
132.0862623400753
 10
-515.7287756559802
 20
132.1421863132149
 10
-515.6280460966589
 20
132.3014443146752
 10
-515.5607407569134
 20
132.5397907574114
 10
-515.5371062645956
 20
132.8209395561327
 10
-515.5607407569134
 20
133.102088354854
 10
-515.6280460966589
 20
133.3404347975902
 10
-515.7287756559802
 20
133.4996927990504
 10
-515.8475942725863
 20
133.5556167721901
 10
-515.9664128891924
 20
133.4996927990504
 10
-516.0671424485135
 20
133.3404347975902
 10
-516.134447788259
 20
133.102088354854
 10
-516.158082280577
 20
132.8209395561327
  0
LWPOLYLINE
  5
1E5
330
1F
100
AcDbEntity
  8
0
  6
Continuous
 62
     7
370
    15
100
AcDbPolyline
 90
       17
 70
   128
 43
0.0
 10
-516.158082280577
 20
134.7806708261168
 10
-516.134447788259
 20
134.4995220273955
 10
-516.0671424485135
 20
134.2611755846593
 10
-515.9664128891924
 20
134.101917583199
 10
-515.8475942725863
 20
134.0459936100593
 10
-515.7287756559802
 20
134.101917583199
 10
-515.6280460966589
 20
134.2611755846593
 10
-515.5607407569134
 20
134.4995220273955
 10
-515.5371062645956
 20
134.7806708261168
 10
-515.5607407569134
 20
135.0618196248381
 10
-515.6280460966589
 20
135.3001660675742
 10
-515.7287756559802
 20
135.4594240690346
 10
-515.8475942725863
 20
135.5153480421742
 10
-515.9664128891924
 20
135.4594240690346
 10
-516.0671424485135
 20
135.3001660675742
 10
-516.134447788259
 20
135.0618196248381
 10
-516.158082280577
 20
134.7806708261168
  0
LWPOLYLINE
  5
1E6
330
1F
100
AcDbEntity
  8
0
  6
Continuous
 62
     7
370
    15
100
AcDbPolyline
 90
       17
 70
   128
 43
0.0
 10
-516.158082280577
 20
129.0103777589793
 10
-516.134447788259
 20
128.729228960258
 10
-516.0671424485135
 20
128.4908825175218
 10
-515.9664128891924
 20
128.3316245160615
 10
-515.8475942725863
 20
128.275700542922
 10
-515.7287756559802
 20
128.3316245160615
 10
-515.6280460966589
 20
128.4908825175218
 10
-515.5607407569134
 20
128.729228960258
 10
-515.5371062645956
 20
129.0103777589793
 10
-515.5607407569134
 20
129.2915265577006
 10
-515.6280460966589
 20
129.5298730004368
 10
-515.7287756559802
 20
129.6891310018971
 10
-515.8475942725863
 20
129.7450549750368
 10
-515.9664128891924
 20
129.6891310018971
 10
-516.0671424485135
 20
129.5298730004368
 10
-516.134447788259
 20
129.2915265577006
 10
-516.158082280577
 20
129.0103777589793
  0
LWPOLYLINE
  5
1E7
330
1F
100
AcDbEntity
  8
0
  6
Continuous
 62
     7
370
    15
100
AcDbPolyline
 90
       17
 70
   128
 43
0.0
 10
-516.158082280577
 20
130.8229249722637
 10
-516.134447788259
 20
130.5417761735424
 10
-516.0671424485135
 20
130.3034297308062
 10
-515.9664128891924
 20
130.1441717293459
 10
-515.8475942725863
 20
130.0882477562062
 10
-515.7287756559802
 20
130.1441717293459
 10
-515.6280460966589
 20
130.3034297308062
 10
-515.5607407569134
 20
130.5417761735424
 10
-515.5371062645956
 20
130.8229249722637
 10
-515.5607407569134
 20
131.104073770985
 10
-515.6280460966589
 20
131.3424202137211
 10
-515.7287756559802
 20
131.5016782151815
 10
-515.8475942725863
 20
131.5576021883211
 10
-515.9664128891924
 20
131.5016782151815
 10
-516.0671424485135
 20
131.3424202137211
 10
-516.134447788259
 20
131.104073770985
 10
-516.158082280577
 20
130.8229249722637
  0
LWPOLYLINE
  5
1E8
330
1F
100
AcDbEntity
  8
0
  6
Continuous
 62
     7
370
    15
100
AcDbPolyline
 90
       17
 70
   128
 43
0.0
 10
-516.158082280577
 20
125.0526319051262
 10
-516.134447788259
 20
124.7714831064049
 10
-516.0671424485135
 20
124.5331366636687
 10
-515.9664128891924
 20
124.3738786622084
 10
-515.8475942725863
 20
124.3179546890688
 10
-515.7287756559802
 20
124.3738786622084
 10
-515.6280460966589
 20
124.5331366636687
 10
-515.5607407569134
 20
124.7714831064049
 10
-515.5371062645956
 20
125.0526319051262
 10
-515.5607407569134
 20
125.3337807038475
 10
-515.6280460966589
 20
125.5721271465837
 10
-515.7287756559802
 20
125.731385148044
 10
-515.8475942725863
 20
125.7873091211836
 10
-515.9664128891924
 20
125.731385148044
 10
-516.0671424485135
 20
125.5721271465837
 10
-516.134447788259
 20
125.3337807038475
 10
-516.158082280577
 20
125.0526319051262
  0
LWPOLYLINE
  5
1E9
330
1F
100
AcDbEntity
  8
0
  6
Continuous
 62
     7
370
    15
100
AcDbPolyline
 90
       17
 70
   128
 43
0.0
 10
-516.158082280577
 20
127.0123631751103
 10
-516.134447788259
 20
126.731214376389
 10
-516.0671424485135
 20
126.4928679336528
 10
-515.9664128891924
 20
126.3336099321925
 10
-515.8475942725863
 20
126.2776859590528
 10
-515.7287756559802
 20
126.3336099321925
 10
-515.6280460966589
 20
126.4928679336528
 10
-515.5607407569134
 20
126.731214376389
 10
-515.5371062645956
 20
127.0123631751103
 10
-515.5607407569134
 20
127.2935119738316
 10
-515.6280460966589
 20
127.5318584165677
 10
-515.7287756559802
 20
127.6911164180281
 10
-515.8475942725863
 20
127.7470403911677
 10
-515.9664128891924
 20
127.6911164180281
 10
-516.0671424485135
 20
127.5318584165677
 10
-516.134447788259
 20
127.2935119738316
 10
-516.158082280577
 20
127.0123631751103
  0
LWPOLYLINE
  5
1EA
330
1F
100
AcDbEntity
  8
0
  6
Continuous
 62
     7
370
    15
100
AcDbPolyline
 90
       17
 70
   128
 43
0.0
 10
-516.158082280577
 20
123.0546173212572
 10
-516.134447788259
 20
122.7734685225359
 10
-516.0671424485135
 20
122.5351220797997
 10
-515.9664128891924
 20
122.3758640783394
 10
-515.8475942725863
 20
122.3199401051997
 10
-515.7287756559802
 20
122.3758640783394
 10
-515.6280460966589
 20
122.5351220797997
 10
-515.5607407569134
 20
122.7734685225359
 10
-515.5371062645956
 20
123.0546173212572
 10
-515.5607407569134
 20
123.3357661199785
 10
-515.6280460966589
 20
123.5741125627146
 10
-515.7287756559802
 20
123.733370564175
 10
-515.8475942725863
 20
123.7892945373146
 10
-515.9664128891924
 20
123.733370564175
 10
-516.0671424485135
 20
123.5741125627146
 10
-516.134447788259
 20
123.3357661199785
 10
-516.158082280577
 20
123.0546173212572
  0
LWPOLYLINE
  5
1EB
330
1F
100
AcDbEntity
  8
0
  6
Continuous
 62
     7
370
    15
100
AcDbPolyline
 90
       17
 70
   128
 43
0.0
 10
-516.946446536709
 20
134.7806708261168
 10
-516.9228120443911
 20
134.4995220273955
 10
-516.8555067046456
 20
134.2611755846593
 10
-516.7547771453244
 20
134.101917583199
 10
-516.6359585287183
 20
134.0459936100593
 10
-516.5171399121122
 20
134.101917583199
 10
-516.416410352791
 20
134.2611755846593
 10
-516.3491050130455
 20
134.4995220273955
 10
-516.3254705207276
 20
134.7806708261168
 10
-516.3491050130455
 20
135.0618196248381
 10
-516.416410352791
 20
135.3001660675742
 10
-516.5171399121122
 20
135.4594240690346
 10
-516.6359585287183
 20
135.5153480421742
 10
-516.7547771453244
 20
135.4594240690346
 10
-516.8555067046456
 20
135.3001660675742
 10
-516.9228120443911
 20
135.0618196248381
 10
-516.946446536709
 20
134.7806708261168
  0
LWPOLYLINE
  5
1EC
330
1F
100
AcDbEntity
  8
0
  6
Continuous
 62
     7
370
    15
100
AcDbPolyline
 90
       17
 70
   128
 43
0.0
 10
-516.946446536709
 20
132.8209395561327
 10
-516.9228120443911
 20
132.5397907574114
 10
-516.8555067046456
 20
132.3014443146752
 10
-516.7547771453244
 20
132.1421863132149
 10
-516.6359585287183
 20
132.0862623400753
 10
-516.5171399121122
 20
132.1421863132149
 10
-516.416410352791
 20
132.3014443146752
 10
-516.3491050130455
 20
132.5397907574114
 10
-516.3254705207276
 20
132.8209395561327
 10
-516.3491050130455
 20
133.102088354854
 10
-516.416410352791
 20
133.3404347975902
 10
-516.5171399121122
 20
133.4996927990504
 10
-516.6359585287183
 20
133.5556167721901
 10
-516.7547771453244
 20
133.4996927990504
 10
-516.8555067046456
 20
133.3404347975902
 10
-516.9228120443911
 20
133.102088354854
 10
-516.946446536709
 20
132.8209395561327
  0
LWPOLYLINE
  5
1ED
330
1F
100
AcDbEntity
  8
0
  6
Continuous
 62
     7
370
    15
100
AcDbPolyline
 90
       17
 70
   128
 43
0.0
 10
-516.946446536709
 20
130.8229249722637
 10
-516.9228120443911
 20
130.5417761735424
 10
-516.8555067046456
 20
130.3034297308062
 10
-516.7547771453244
 20
130.1441717293459
 10
-516.6359585287183
 20
130.0882477562062
 10
-516.5171399121122
 20
130.1441717293459
 10
-516.416410352791
 20
130.3034297308062
 10
-516.3491050130455
 20
130.5417761735424
 10
-516.3254705207276
 20
130.8229249722637
 10
-516.3491050130455
 20
131.104073770985
 10
-516.416410352791
 20
131.3424202137211
 10
-516.5171399121122
 20
131.5016782151815
 10
-516.6359585287183
 20
131.5576021883211
 10
-516.7547771453244
 20
131.5016782151815
 10
-516.8555067046456
 20
131.3424202137211
 10
-516.9228120443911
 20
131.104073770985
 10
-516.946446536709
 20
130.8229249722637
  0
LWPOLYLINE
  5
1EE
330
1F
100
AcDbEntity
  8
0
  6
Continuous
 62
     7
370
    15
100
AcDbPolyline
 90
       17
 70
   128
 43
0.0
 10
-516.946446536709
 20
129.0103777589793
 10
-516.9228120443911
 20
128.729228960258
 10
-516.8555067046456
 20
128.4908825175218
 10
-516.7547771453244
 20
128.3316245160615
 10
-516.6359585287183
 20
128.275700542922
 10
-516.5171399121122
 20
128.3316245160615
 10
-516.416410352791
 20
128.4908825175218
 10
-516.3491050130455
 20
128.729228960258
 10
-516.3254705207276
 20
129.0103777589793
 10
-516.3491050130455
 20
129.2915265577006
 10
-516.416410352791
 20
129.5298730004368
 10
-516.5171399121122
 20
129.6891310018971
 10
-516.6359585287183
 20
129.7450549750368
 10
-516.7547771453244
 20
129.6891310018971
 10
-516.8555067046456
 20
129.5298730004368
 10
-516.9228120443911
 20
129.2915265577006
 10
-516.946446536709
 20
129.0103777589793
  0
LWPOLYLINE
  5
1EF
330
1F
100
AcDbEntity
  8
0
  6
Continuous
 62
     7
370
    15
100
AcDbPolyline
 90
       17
 70
   128
 43
0.0
 10
-516.946446536709
 20
125.0526319051262
 10
-516.9228120443911
 20
124.7714831064049
 10
-516.8555067046456
 20
124.5331366636687
 10
-516.7547771453244
 20
124.3738786622084
 10
-516.6359585287183
 20
124.3179546890688
 10
-516.5171399121122
 20
124.3738786622084
 10
-516.416410352791
 20
124.5331366636687
 10
-516.3491050130455
 20
124.7714831064049
 10
-516.3254705207276
 20
125.0526319051262
 10
-516.3491050130455
 20
125.3337807038475
 10
-516.416410352791
 20
125.5721271465837
 10
-516.5171399121122
 20
125.731385148044
 10
-516.6359585287183
 20
125.7873091211836
 10
-516.7547771453244
 20
125.731385148044
 10
-516.8555067046456
 20
125.5721271465837
 10
-516.9228120443911
 20
125.3337807038475
 10
-516.946446536709
 20
125.0526319051262
  0
LWPOLYLINE
  5
1F0
330
1F
100
AcDbEntity
  8
0
  6
Continuous
 62
     7
370
    15
100
AcDbPolyline
 90
       17
 70
   128
 43
0.0
 10
-516.946446536709
 20
127.0123631751103
 10
-516.9228120443911
 20
126.731214376389
 10
-516.8555067046456
 20
126.4928679336528
 10
-516.7547771453244
 20
126.3336099321925
 10
-516.6359585287183
 20
126.2776859590528
 10
-516.5171399121122
 20
126.3336099321925
 10
-516.416410352791
 20
126.4928679336528
 10
-516.3491050130455
 20
126.731214376389
 10
-516.3254705207276
 20
127.0123631751103
 10
-516.3491050130455
 20
127.2935119738316
 10
-516.416410352791
 20
127.5318584165677
 10
-516.5171399121122
 20
127.6911164180281
 10
-516.6359585287183
 20
127.7470403911677
 10
-516.7547771453244
 20
127.6911164180281
 10
-516.8555067046456
 20
127.5318584165677
 10
-516.9228120443911
 20
127.2935119738316
 10
-516.946446536709
 20
127.0123631751103
  0
LWPOLYLINE
  5
1F1
330
1F
100
AcDbEntity
  8
0
  6
Continuous
 62
     7
370
    15
100
AcDbPolyline
 90
       17
 70
   128
 43
0.0
 10
-517.7677981173314
 20
132.8209395561327
 10
-517.7441636250135
 20
132.5397907574114
 10
-517.676858285268
 20
132.3014443146752
 10
-517.5761287259468
 20
132.1421863132149
 10
-517.4573101093407
 20
132.0862623400753
 10
-517.3384914927346
 20
132.1421863132149
 10
-517.2377619334134
 20
132.3014443146752
 10
-517.1704565936679
 20
132.5397907574114
 10
-517.14682210135
 20
132.8209395561327
 10
-517.1704565936679
 20
133.102088354854
 10
-517.2377619334134
 20
133.3404347975902
 10
-517.3384914927346
 20
133.4996927990504
 10
-517.4573101093407
 20
133.5556167721901
 10
-517.5761287259468
 20
133.4996927990504
 10
-517.676858285268
 20
133.3404347975902
 10
-517.7441636250135
 20
133.102088354854
 10
-517.7677981173314
 20
132.8209395561327
  0
LWPOLYLINE
  5
1F2
330
1F
100
AcDbEntity
  8
0
  6
Continuous
 62
     7
370
    15
100
AcDbPolyline
 90
       17
 70
   128
 43
0.0
 10
-517.7677981173314
 20
129.0103777589793
 10
-517.7441636250135
 20
128.729228960258
 10
-517.676858285268
 20
128.4908825175218
 10
-517.5761287259468
 20
128.3316245160615
 10
-517.4573101093407
 20
128.275700542922
 10
-517.3384914927346
 20
128.3316245160615
 10
-517.2377619334134
 20
128.4908825175218
 10
-517.1704565936679
 20
128.729228960258
 10
-517.14682210135
 20
129.0103777589793
 10
-517.1704565936679
 20
129.2915265577006
 10
-517.2377619334134
 20
129.5298730004368
 10
-517.3384914927346
 20
129.6891310018971
 10
-517.4573101093407
 20
129.7450549750368
 10
-517.5761287259468
 20
129.6891310018971
 10
-517.676858285268
 20
129.5298730004368
 10
-517.7441636250135
 20
129.2915265577006
 10
-517.7677981173314
 20
129.0103777589793
  0
LWPOLYLINE
  5
1F3
330
1F
100
AcDbEntity
  8
0
  6
Continuous
 62
     7
370
    15
100
AcDbPolyline
 90
       17
 70
   128
 43
0.0
 10
-517.7677981173314
 20
130.8229249722637
 10
-517.7441636250135
 20
130.5417761735424
 10
-517.676858285268
 20
130.3034297308062
 10
-517.5761287259468
 20
130.1441717293459
 10
-517.4573101093407
 20
130.0882477562062
 10
-517.3384914927346
 20
130.1441717293459
 10
-517.2377619334134
 20
130.3034297308062
 10
-517.1704565936679
 20
130.5417761735424
 10
-517.14682210135
 20
130.8229249722637
 10
-517.1704565936679
 20
131.104073770985
 10
-517.2377619334134
 20
131.3424202137211
 10
-517.3384914927346
 20
131.5016782151815
 10
-517.4573101093407
 20
131.5576021883211
 10
-517.5761287259468
 20
131.5016782151815
 10
-517.676858285268
 20
131.3424202137211
 10
-517.7441636250135
 20
131.104073770985
 10
-517.7677981173314
 20
130.8229249722637
  0
LWPOLYLINE
  5
1F4
330
1F
100
AcDbEntity
  8
0
  6
Continuous
 62
     7
370
    15
100
AcDbPolyline
 90
       17
 70
   128
 43
0.0
 10
-517.7677981173314
 20
127.0123631751103
 10
-517.7441636250135
 20
126.731214376389
 10
-517.676858285268
 20
126.4928679336528
 10
-517.5761287259468
 20
126.3336099321925
 10
-517.4573101093407
 20
126.2776859590528
 10
-517.3384914927346
 20
126.3336099321925
 10
-517.2377619334134
 20
126.4928679336528
 10
-517.1704565936679
 20
126.731214376389
 10
-517.14682210135
 20
127.0123631751103
 10
-517.1704565936679
 20
127.2935119738316
 10
-517.2377619334134
 20
127.5318584165677
 10
-517.3384914927346
 20
127.6911164180281
 10
-517.4573101093407
 20
127.7470403911677
 10
-517.5761287259468
 20
127.6911164180281
 10
-517.676858285268
 20
127.5318584165677
 10
-517.7441636250135
 20
127.2935119738316
 10
-517.7677981173314
 20
127.0123631751103
  0
LINE
  5
1F5
330
1F
100
AcDbEntity
  8
0
  6
Continuous
 62
     7
370
    15
100
AcDbLine
 10
281.9039561513196
 20
86.91553801443854
 30
0.0
 11
281.9039561513196
 21
162.9155380144385
 31
0.0
  0
ARC
  5
1F6
330
1F
100
AcDbEntity
  8
0
  6
Continuous
 62
     7
370
    15
100
AcDbCircle
 10
271.9039561513195
 20
86.91553801443854
 30
0.0
 40
10.0
100
AcDbArc
 50
270.0000000000013
 51
0.0
  0
LINE
  5
1F7
330
1F
100
AcDbEntity
  8
0
  6
Continuous
 62
     7
370
    15
100
AcDbLine
 10
-661.0960438486804
 20
76.91553801443854
 30
0.0
 11
271.9039561513195
 21
76.91553801443854
 31
0.0
  0
ARC
  5
1F8
330
1F
100
AcDbEntity
  8
0
  6
Continuous
 62
     7
370
    15
100
AcDbCircle
 10
-661.0960438486804
 20
86.91553801443854
 30
0.0
 40
10.00000000000001
100
AcDbArc
 50
180.0
 51
270.0000000000013
  0
LINE
  5
1F9
330
1F
100
AcDbEntity
  8
0
  6
Continuous
 62
     7
370
    15
100
AcDbLine
 10
-671.0960438486804
 20
162.9155380144385
 30
0.0
 11
-671.0960438486804
 21
86.91553801443854
 31
0.0
  0
ARC
  5
1FA
330
1F
100
AcDbEntity
  8
0
  6
Continuous
 62
     7
370
    15
100
AcDbCircle
 10
271.9039561513195
 20
162.9155380144385
 30
0.0
 40
10.0
100
AcDbArc
 50
0.0
 51
90.0
  0
ARC
  5
1FB
330
1F
100
AcDbEntity
  8
0
  6
Continuous
 62
     7
370
    15
100
AcDbCircle
 10
-661.0960438486804
 20
162.9155380144385
 30
0.0
 40
10.00000000000001
100
AcDbArc
 50
90.0
 51
180.0
  0
LINE
  5
1FC
330
1F
100
AcDbEntity
  8
0
  6
Continuous
 62
     7
370
    15
100
AcDbLine
 10
271.9039561513195
 20
172.9155380144385
 30
0.0
 11
-661.0960438486804
 21
172.9155380144385
 31
0.0
  0
LINE
  5
1FD
330
1F
100
AcDbEntity
  8
0
  6
Continuous
 62
     7
370
    15
100
AcDbLine
 10
499.688952554294
 20
384.7442652440841
 30
0.0
 11
499.688952554294
 21
388.970447861491
 31
0.0
  0
LINE
  5
1FE
330
1F
100
AcDbEntity
  8
0
  6
Continuous
 62
     7
370
    15
100
AcDbLine
 10
498.2195981221791
 20
388.970447861491
 30
0.0
 11
498.2195981221791
 21
384.7442652440841
 31
0.0
  0
LINE
  5
1FF
330
1F
100
AcDbEntity
  8
0
  6
Continuous
 62
     7
370
    15
100
AcDbLine
 10
501.686967138163
 20
384.7442652440841
 30
0.0
 11
501.686967138163
 21
388.970447861491
 31
0.0
  0
LINE
  5
200
330
1F
100
AcDbEntity
  8
0
  6
Continuous
 62
     7
370
    15
100
AcDbLine
 10
500.2176127060481
 20
388.970447861491
 30
0.0
 11
500.2176127060481
 21
384.7442652440841
 31
0.0
  0
LINE
  5
201
330
1F
100
AcDbEntity
  8
0
  6
Continuous
 62
     7
370
    15
100
AcDbLine
 10
503.4995143514475
 20
384.7442652440841
 30
0.0
 11
503.4995143514475
 21
388.970447861491
 31
0.0
  0
LINE
  5
202
330
1F
100
AcDbEntity
  8
0
  6
Continuous
 62
     7
370
    15
100
AcDbLine
 10
502.0301599193325
 20
388.970447861491
 30
0.0
 11
502.0301599193325
 21
384.7442652440841
 31
0.0
  0
LINE
  5
203
330
1F
100
AcDbEntity
  8
0
  6
Continuous
 62
     7
370
    15
100
AcDbLine
 10
505.4975289353165
 20
384.7442652440841
 30
0.0
 11
505.4975289353165
 21
388.970447861491
 31
0.0
  0
LINE
  5
204
330
1F
100
AcDbEntity
  8
0
  6
Continuous
 62
     7
370
    15
100
AcDbLine
 10
504.0281745032018
 20
388.970447861491
 30
0.0
 11
504.0281745032018
 21
384.7442652440841
 31
0.0
  0
LINE
  5
205
330
1F
100
AcDbEntity
  8
0
  6
Continuous
 62
     7
370
    15
100
AcDbLine
 10
497.7292212843098
 20
386.5056593929001
 30
0.0
 11
497.7292212843098
 21
390.731842010307
 31
0.0
  0
LINE
  5
206
330
1F
100
AcDbEntity
  8
0
  6
Continuous
 62
     7
370
    15
100
AcDbLine
 10
496.259866852195
 20
390.731842010307
 30
0.0
 11
496.259866852195
 21
386.5056593929001
 31
0.0
  0
LINE
  5
207
330
1F
100
AcDbEntity
  8
0
  6
Continuous
 62
     7
370
    15
100
AcDbLine
 10
499.688952554294
 20
388.970447861491
 30
0.0
 11
499.688952554294
 21
390.731842010307
 31
0.0
  0
LINE
  5
208
330
1F
100
AcDbEntity
  8
0
  6
Continuous
 62
     7
370
    15
100
AcDbLine
 10
498.2195981221791
 20
390.731842010307
 30
0.0
 11
498.2195981221791
 21
388.970447861491
 31
0.0
  0
LINE
  5
209
330
1F
100
AcDbEntity
  8
0
  6
Continuous
 62
     7
370
    15
100
AcDbLine
 10
501.686967138163
 20
388.970447861491
 30
0.0
 11
501.686967138163
 21
390.731842010307
 31
0.0
  0
LINE
  5
20A
330
1F
100
AcDbEntity
  8
0
  6
Continuous
 62
     7
370
    15
100
AcDbLine
 10
500.2176127060481
 20
390.731842010307
 30
0.0
 11
500.2176127060481
 21
388.970447861491
 31
0.0
  0
LINE
  5
20B
330
1F
100
AcDbEntity
  8
0
  6
Continuous
 62
     7
370
    15
100
AcDbLine
 10
503.4995143514475
 20
388.970447861491
 30
0.0
 11
503.4995143514475
 21
390.731842010307
 31
0.0
  0
LINE
  5
20C
330
1F
100
AcDbEntity
  8
0
  6
Continuous
 62
     7
370
    15
100
AcDbLine
 10
502.0301599193325
 20
390.731842010307
 30
0.0
 11
502.0301599193325
 21
388.970447861491
 31
0.0
  0
LINE
  5
20D
330
1F
100
AcDbEntity
  8
0
  6
Continuous
 62
     7
370
    15
100
AcDbLine
 10
505.4975289353165
 20
388.970447861491
 30
0.0
 11
505.4975289353165
 21
390.731842010307
 31
0.0
  0
LINE
  5
20E
330
1F
100
AcDbEntity
  8
0
  6
Continuous
 62
     7
370
    15
100
AcDbLine
 10
504.0281745032018
 20
390.731842010307
 30
0.0
 11
504.0281745032018
 21
388.970447861491
 31
0.0
  0
LINE
  5
20F
330
1F
100
AcDbEntity
  8
0
  6
Continuous
 62
     7
370
    15
100
AcDbLine
 10
507.4572602053006
 20
386.5056593929001
 30
0.0
 11
507.4572602053006
 21
390.731842010307
 31
0.0
  0
LINE
  5
210
330
1F
100
AcDbEntity
  8
0
  6
Continuous
 62
     7
370
    15
100
AcDbLine
 10
505.9879057731855
 20
390.731842010307
 30
0.0
 11
505.9879057731855
 21
386.5056593929001
 31
0.0
  0
LINE
  5
211
330
1F
100
AcDbEntity
  8
0
  6
Continuous
 62
     7
370
    15
100
AcDbLine
 10
495.7312067004409
 20
388.1963119960576
 30
0.0
 11
495.7312067004409
 21
392.4224946134647
 31
0.0
  0
LINE
  5
212
330
1F
100
AcDbEntity
  8
0
  6
Continuous
 62
     7
370
    15
100
AcDbLine
 10
494.261852268326
 20
392.4224946134647
 30
0.0
 11
494.261852268326
 21
388.1963119960576
 31
0.0
  0
LINE
  5
213
330
1F
100
AcDbEntity
  8
0
  6
Continuous
 62
     7
370
    15
100
AcDbLine
 10
497.7292212843098
 20
390.731842010307
 30
0.0
 11
497.7292212843098
 21
392.4224946134647
 31
0.0
  0
LINE
  5
214
330
1F
100
AcDbEntity
  8
0
  6
Continuous
 62
     7
370
    15
100
AcDbLine
 10
496.259866852195
 20
392.4224946134647
 30
0.0
 11
496.259866852195
 21
390.731842010307
 31
0.0
  0
LINE
  5
215
330
1F
100
AcDbEntity
  8
0
  6
Continuous
 62
     7
370
    15
100
AcDbLine
 10
499.688952554294
 20
390.731842010307
 30
0.0
 11
499.688952554294
 21
392.4224946134647
 31
0.0
  0
LINE
  5
216
330
1F
100
AcDbEntity
  8
0
  6
Continuous
 62
     7
370
    15
100
AcDbLine
 10
498.2195981221791
 20
392.4224946134647
 30
0.0
 11
498.2195981221791
 21
390.731842010307
 31
0.0
  0
LINE
  5
217
330
1F
100
AcDbEntity
  8
0
  6
Continuous
 62
     7
370
    15
100
AcDbLine
 10
501.686967138163
 20
390.731842010307
 30
0.0
 11
501.686967138163
 21
392.4224946134647
 31
0.0
  0
LINE
  5
218
330
1F
100
AcDbEntity
  8
0
  6
Continuous
 62
     7
370
    15
100
AcDbLine
 10
500.2176127060481
 20
392.4224946134647
 30
0.0
 11
500.2176127060481
 21
390.731842010307
 31
0.0
  0
LINE
  5
219
330
1F
100
AcDbEntity
  8
0
  6
Continuous
 62
     7
370
    15
100
AcDbLine
 10
503.4995143514475
 20
390.731842010307
 30
0.0
 11
503.4995143514475
 21
392.4224946134647
 31
0.0
  0
LINE
  5
21A
330
1F
100
AcDbEntity
  8
0
  6
Continuous
 62
     7
370
    15
100
AcDbLine
 10
502.0301599193325
 20
392.4224946134647
 30
0.0
 11
502.0301599193325
 21
390.731842010307
 31
0.0
  0
LINE
  5
21B
330
1F
100
AcDbEntity
  8
0
  6
Continuous
 62
     7
370
    15
100
AcDbLine
 10
505.4975289353165
 20
390.731842010307
 30
0.0
 11
505.4975289353165
 21
392.4224946134647
 31
0.0
  0
LINE
  5
21C
330
1F
100
AcDbEntity
  8
0
  6
Continuous
 62
     7
370
    15
100
AcDbLine
 10
504.0281745032018
 20
392.4224946134647
 30
0.0
 11
504.0281745032018
 21
390.731842010307
 31
0.0
  0
LINE
  5
21D
330
1F
100
AcDbEntity
  8
0
  6
Continuous
 62
     7
370
    15
100
AcDbLine
 10
507.4572602053006
 20
390.731842010307
 30
0.0
 11
507.4572602053006
 21
392.4224946134647
 31
0.0
  0
LINE
  5
21E
330
1F
100
AcDbEntity
  8
0
  6
Continuous
 62
     7
370
    15
100
AcDbLine
 10
505.9879057731855
 20
392.4224946134647
 30
0.0
 11
505.9879057731855
 21
390.731842010307
 31
0.0
  0
LINE
  5
21F
330
1F
100
AcDbEntity
  8
0
  6
Continuous
 62
     7
370
    15
100
AcDbLine
 10
509.4552747891696
 20
388.1963119960576
 30
0.0
 11
509.4552747891696
 21
392.4224946134647
 31
0.0
  0
LINE
  5
220
330
1F
100
AcDbEntity
  8
0
  6
Continuous
 62
     7
370
    15
100
AcDbLine
 10
507.9859203570549
 20
392.4224946134647
 30
0.0
 11
507.9859203570549
 21
388.1963119960576
 31
0.0
  0
LINE
  5
221
330
1F
100
AcDbEntity
  8
0
  6
Continuous
 62
     7
370
    15
100
AcDbLine
 10
495.7312067004409
 20
392.4224946134647
 30
0.0
 11
495.7312067004409
 21
394.1838887622806
 31
0.0
  0
LINE
  5
222
330
1F
100
AcDbEntity
  8
0
  6
Continuous
 62
     7
370
    15
100
AcDbLine
 10
494.261852268326
 20
394.1838887622806
 30
0.0
 11
494.261852268326
 21
392.4224946134647
 31
0.0
  0
LINE
  5
223
330
1F
100
AcDbEntity
  8
0
  6
Continuous
 62
     7
370
    15
100
AcDbLine
 10
497.7292212843098
 20
392.4224946134647
 30
0.0
 11
497.7292212843098
 21
394.1838887622806
 31
0.0
  0
LINE
  5
224
330
1F
100
AcDbEntity
  8
0
  6
Continuous
 62
     7
370
    15
100
AcDbLine
 10
496.259866852195
 20
394.1838887622806
 30
0.0
 11
496.259866852195
 21
392.4224946134647
 31
0.0
  0
LINE
  5
225
330
1F
100
AcDbEntity
  8
0
  6
Continuous
 62
     7
370
    15
100
AcDbLine
 10
499.688952554294
 20
392.4224946134647
 30
0.0
 11
499.688952554294
 21
394.1838887622806
 31
0.0
  0
LINE
  5
226
330
1F
100
AcDbEntity
  8
0
  6
Continuous
 62
     7
370
    15
100
AcDbLine
 10
498.2195981221791
 20
394.1838887622806
 30
0.0
 11
498.2195981221791
 21
392.4224946134647
 31
0.0
  0
LINE
  5
227
330
1F
100
AcDbEntity
  8
0
  6
Continuous
 62
     7
370
    15
100
AcDbLine
 10
501.686967138163
 20
392.4224946134647
 30
0.0
 11
501.686967138163
 21
394.1838887622806
 31
0.0
  0
LINE
  5
228
330
1F
100
AcDbEntity
  8
0
  6
Continuous
 62
     7
370
    15
100
AcDbLine
 10
500.2176127060481
 20
394.1838887622806
 30
0.0
 11
500.2176127060481
 21
392.4224946134647
 31
0.0
  0
LINE
  5
229
330
1F
100
AcDbEntity
  8
0
  6
Continuous
 62
     7
370
    15
100
AcDbLine
 10
503.4995143514475
 20
392.4224946134647
 30
0.0
 11
503.4995143514475
 21
394.1838887622806
 31
0.0
  0
LINE
  5
22A
330
1F
100
AcDbEntity
  8
0
  6
Continuous
 62
     7
370
    15
100
AcDbLine
 10
502.0301599193325
 20
394.1838887622806
 30
0.0
 11
502.0301599193325
 21
392.4224946134647
 31
0.0
  0
LINE
  5
22B
330
1F
100
AcDbEntity
  8
0
  6
Continuous
 62
     7
370
    15
100
AcDbLine
 10
505.4975289353165
 20
392.4224946134647
 30
0.0
 11
505.4975289353165
 21
394.1838887622806
 31
0.0
  0
LINE
  5
22C
330
1F
100
AcDbEntity
  8
0
  6
Continuous
 62
     7
370
    15
100
AcDbLine
 10
504.0281745032018
 20
394.1838887622806
 30
0.0
 11
504.0281745032018
 21
392.4224946134647
 31
0.0
  0
LINE
  5
22D
330
1F
100
AcDbEntity
  8
0
  6
Continuous
 62
     7
370
    15
100
AcDbLine
 10
507.4572602053006
 20
392.4224946134647
 30
0.0
 11
507.4572602053006
 21
394.1838887622806
 31
0.0
  0
LINE
  5
22E
330
1F
100
AcDbEntity
  8
0
  6
Continuous
 62
     7
370
    15
100
AcDbLine
 10
505.9879057731855
 20
394.1838887622806
 30
0.0
 11
505.9879057731855
 21
392.4224946134647
 31
0.0
  0
LINE
  5
22F
330
1F
100
AcDbEntity
  8
0
  6
Continuous
 62
     7
370
    15
100
AcDbLine
 10
509.4552747891696
 20
392.4224946134647
 30
0.0
 11
509.4552747891696
 21
394.1838887622806
 31
0.0
  0
LINE
  5
230
330
1F
100
AcDbEntity
  8
0
  6
Continuous
 62
     7
370
    15
100
AcDbLine
 10
507.9859203570549
 20
394.1838887622806
 30
0.0
 11
507.9859203570549
 21
392.4224946134647
 31
0.0
  0
LINE
  5
231
330
1F
100
AcDbEntity
  8
0
  6
Continuous
 62
     7
370
    15
100
AcDbLine
 10
495.7312067004409
 20
394.1838887622806
 30
0.0
 11
495.7312067004409
 21
396.0453216203117
 31
0.0
  0
LINE
  5
232
330
1F
100
AcDbEntity
  8
0
  6
Continuous
 62
     7
370
    15
100
AcDbLine
 10
494.261852268326
 20
396.0453216203117
 30
0.0
 11
494.261852268326
 21
394.1838887622806
 31
0.0
  0
LINE
  5
233
330
1F
100
AcDbEntity
  8
0
  6
Continuous
 62
     7
370
    15
100
AcDbLine
 10
497.7292212843098
 20
394.1838887622806
 30
0.0
 11
497.7292212843098
 21
396.0453216203117
 31
0.0
  0
LINE
  5
234
330
1F
100
AcDbEntity
  8
0
  6
Continuous
 62
     7
370
    15
100
AcDbLine
 10
496.259866852195
 20
396.0453216203117
 30
0.0
 11
496.259866852195
 21
394.1838887622806
 31
0.0
  0
LINE
  5
235
330
1F
100
AcDbEntity
  8
0
  6
Continuous
 62
     7
370
    15
100
AcDbLine
 10
499.688952554294
 20
394.1838887622806
 30
0.0
 11
499.688952554294
 21
396.0453216203117
 31
0.0
  0
LINE
  5
236
330
1F
100
AcDbEntity
  8
0
  6
Continuous
 62
     7
370
    15
100
AcDbLine
 10
498.2195981221791
 20
396.0453216203117
 30
0.0
 11
498.2195981221791
 21
394.1838887622806
 31
0.0
  0
LINE
  5
237
330
1F
100
AcDbEntity
  8
0
  6
Continuous
 62
     7
370
    15
100
AcDbLine
 10
501.686967138163
 20
394.1838887622806
 30
0.0
 11
501.686967138163
 21
396.0453216203117
 31
0.0
  0
LINE
  5
238
330
1F
100
AcDbEntity
  8
0
  6
Continuous
 62
     7
370
    15
100
AcDbLine
 10
500.2176127060481
 20
396.0453216203117
 30
0.0
 11
500.2176127060481
 21
394.1838887622806
 31
0.0
  0
LINE
  5
239
330
1F
100
AcDbEntity
  8
0
  6
Continuous
 62
     7
370
    15
100
AcDbLine
 10
503.4995143514475
 20
394.1838887622806
 30
0.0
 11
503.4995143514475
 21
396.0453216203117
 31
0.0
  0
LINE
  5
23A
330
1F
100
AcDbEntity
  8
0
  6
Continuous
 62
     7
370
    15
100
AcDbLine
 10
502.0301599193325
 20
396.0453216203117
 30
0.0
 11
502.0301599193325
 21
394.1838887622806
 31
0.0
  0
LINE
  5
23B
330
1F
100
AcDbEntity
  8
0
  6
Continuous
 62
     7
370
    15
100
AcDbLine
 10
505.4975289353165
 20
394.1838887622806
 30
0.0
 11
505.4975289353165
 21
396.0453216203117
 31
0.0
  0
LINE
  5
23C
330
1F
100
AcDbEntity
  8
0
  6
Continuous
 62
     7
370
    15
100
AcDbLine
 10
504.0281745032018
 20
396.0453216203117
 30
0.0
 11
504.0281745032018
 21
394.1838887622806
 31
0.0
  0
LINE
  5
23D
330
1F
100
AcDbEntity
  8
0
  6
Continuous
 62
     7
370
    15
100
AcDbLine
 10
507.4572602053006
 20
394.1838887622806
 30
0.0
 11
507.4572602053006
 21
396.0453216203117
 31
0.0
  0
LINE
  5
23E
330
1F
100
AcDbEntity
  8
0
  6
Continuous
 62
     7
370
    15
100
AcDbLine
 10
505.9879057731855
 20
396.0453216203117
 30
0.0
 11
505.9879057731855
 21
394.1838887622806
 31
0.0
  0
LINE
  5
23F
330
1F
100
AcDbEntity
  8
0
  6
Continuous
 62
     7
370
    15
100
AcDbLine
 10
509.4552747891696
 20
394.1838887622806
 30
0.0
 11
509.4552747891696
 21
396.0453216203117
 31
0.0
  0
LINE
  5
240
330
1F
100
AcDbEntity
  8
0
  6
Continuous
 62
     7
370
    15
100
AcDbLine
 10
507.9859203570549
 20
396.0453216203117
 30
0.0
 11
507.9859203570549
 21
394.1838887622806
 31
0.0
  0
LINE
  5
241
330
1F
100
AcDbEntity
  8
0
  6
Continuous
 62
     7
370
    15
100
AcDbLine
 10
495.7312067004409
 20
396.0453216203117
 30
0.0
 11
495.7312067004409
 21
397.8067157691278
 31
0.0
  0
LINE
  5
242
330
1F
100
AcDbEntity
  8
0
  6
Continuous
 62
     7
370
    15
100
AcDbLine
 10
494.261852268326
 20
397.8067157691278
 30
0.0
 11
494.261852268326
 21
396.0453216203117
 31
0.0
  0
LINE
  5
243
330
1F
100
AcDbEntity
  8
0
  6
Continuous
 62
     7
370
    15
100
AcDbLine
 10
497.7292212843098
 20
396.0453216203117
 30
0.0
 11
497.7292212843098
 21
397.8067157691278
 31
0.0
  0
LINE
  5
244
330
1F
100
AcDbEntity
  8
0
  6
Continuous
 62
     7
370
    15
100
AcDbLine
 10
496.259866852195
 20
397.8067157691278
 30
0.0
 11
496.259866852195
 21
396.0453216203117
 31
0.0
  0
LINE
  5
245
330
1F
100
AcDbEntity
  8
0
  6
Continuous
 62
     7
370
    15
100
AcDbLine
 10
499.688952554294
 20
396.0453216203117
 30
0.0
 11
499.688952554294
 21
397.8067157691278
 31
0.0
  0
LINE
  5
246
330
1F
100
AcDbEntity
  8
0
  6
Continuous
 62
     7
370
    15
100
AcDbLine
 10
498.2195981221791
 20
397.8067157691278
 30
0.0
 11
498.2195981221791
 21
396.0453216203117
 31
0.0
  0
LINE
  5
247
330
1F
100
AcDbEntity
  8
0
  6
Continuous
 62
     7
370
    15
100
AcDbLine
 10
501.686967138163
 20
396.0453216203117
 30
0.0
 11
501.686967138163
 21
397.8067157691278
 31
0.0
  0
LINE
  5
248
330
1F
100
AcDbEntity
  8
0
  6
Continuous
 62
     7
370
    15
100
AcDbLine
 10
500.2176127060481
 20
397.8067157691278
 30
0.0
 11
500.2176127060481
 21
396.0453216203117
 31
0.0
  0
LINE
  5
249
330
1F
100
AcDbEntity
  8
0
  6
Continuous
 62
     7
370
    15
100
AcDbLine
 10
503.4995143514475
 20
396.0453216203117
 30
0.0
 11
503.4995143514475
 21
397.8067157691278
 31
0.0
  0
LINE
  5
24A
330
1F
100
AcDbEntity
  8
0
  6
Continuous
 62
     7
370
    15
100
AcDbLine
 10
502.0301599193325
 20
397.8067157691278
 30
0.0
 11
502.0301599193325
 21
396.0453216203117
 31
0.0
  0
LINE
  5
24B
330
1F
100
AcDbEntity
  8
0
  6
Continuous
 62
     7
370
    15
100
AcDbLine
 10
505.4975289353165
 20
396.0453216203117
 30
0.0
 11
505.4975289353165
 21
397.8067157691278
 31
0.0
  0
LINE
  5
24C
330
1F
100
AcDbEntity
  8
0
  6
Continuous
 62
     7
370
    15
100
AcDbLine
 10
504.0281745032018
 20
397.8067157691278
 30
0.0
 11
504.0281745032018
 21
396.0453216203117
 31
0.0
  0
LINE
  5
24D
330
1F
100
AcDbEntity
  8
0
  6
Continuous
 62
     7
370
    15
100
AcDbLine
 10
507.4572602053006
 20
396.0453216203117
 30
0.0
 11
507.4572602053006
 21
397.8067157691278
 31
0.0
  0
LINE
  5
24E
330
1F
100
AcDbEntity
  8
0
  6
Continuous
 62
     7
370
    15
100
AcDbLine
 10
505.9879057731855
 20
397.8067157691278
 30
0.0
 11
505.9879057731855
 21
396.0453216203117
 31
0.0
  0
LINE
  5
24F
330
1F
100
AcDbEntity
  8
0
  6
Continuous
 62
     7
370
    15
100
AcDbLine
 10
509.4552747891696
 20
396.0453216203117
 30
0.0
 11
509.4552747891696
 21
397.8067157691278
 31
0.0
  0
LINE
  5
250
330
1F
100
AcDbEntity
  8
0
  6
Continuous
 62
     7
370
    15
100
AcDbLine
 10
507.9859203570549
 20
397.8067157691278
 30
0.0
 11
507.9859203570549
 21
396.0453216203117
 31
0.0
  0
LINE
  5
251
330
1F
100
AcDbEntity
  8
0
  6
Continuous
 62
     7
370
    15
100
AcDbLine
 10
497.7292212843098
 20
397.8067157691278
 30
0.0
 11
497.7292212843098
 21
399.4973683722853
 31
0.0
  0
LINE
  5
252
330
1F
100
AcDbEntity
  8
0
  6
Continuous
 62
     7
370
    15
100
AcDbLine
 10
496.259866852195
 20
399.4973683722853
 30
0.0
 11
496.259866852195
 21
397.8067157691278
 31
0.0
  0
LINE
  5
253
330
1F
100
AcDbEntity
  8
0
  6
Continuous
 62
     7
370
    15
100
AcDbLine
 10
499.688952554294
 20
397.8067157691278
 30
0.0
 11
499.688952554294
 21
399.4973683722853
 31
0.0
  0
LINE
  5
254
330
1F
100
AcDbEntity
  8
0
  6
Continuous
 62
     7
370
    15
100
AcDbLine
 10
498.2195981221791
 20
399.4973683722853
 30
0.0
 11
498.2195981221791
 21
397.8067157691278
 31
0.0
  0
LINE
  5
255
330
1F
100
AcDbEntity
  8
0
  6
Continuous
 62
     7
370
    15
100
AcDbLine
 10
501.686967138163
 20
397.8067157691278
 30
0.0
 11
501.686967138163
 21
399.4973683722853
 31
0.0
  0
LINE
  5
256
330
1F
100
AcDbEntity
  8
0
  6
Continuous
 62
     7
370
    15
100
AcDbLine
 10
500.2176127060481
 20
399.4973683722853
 30
0.0
 11
500.2176127060481
 21
397.8067157691278
 31
0.0
  0
LINE
  5
257
330
1F
100
AcDbEntity
  8
0
  6
Continuous
 62
     7
370
    15
100
AcDbLine
 10
503.4995143514475
 20
397.8067157691278
 30
0.0
 11
503.4995143514475
 21
399.4973683722853
 31
0.0
  0
LINE
  5
258
330
1F
100
AcDbEntity
  8
0
  6
Continuous
 62
     7
370
    15
100
AcDbLine
 10
502.0301599193325
 20
399.4973683722853
 30
0.0
 11
502.0301599193325
 21
397.8067157691278
 31
0.0
  0
LINE
  5
259
330
1F
100
AcDbEntity
  8
0
  6
Continuous
 62
     7
370
    15
100
AcDbLine
 10
505.4975289353165
 20
397.8067157691278
 30
0.0
 11
505.4975289353165
 21
399.4973683722853
 31
0.0
  0
LINE
  5
25A
330
1F
100
AcDbEntity
  8
0
  6
Continuous
 62
     7
370
    15
100
AcDbLine
 10
504.0281745032018
 20
399.4973683722853
 30
0.0
 11
504.0281745032018
 21
397.8067157691278
 31
0.0
  0
LINE
  5
25B
330
1F
100
AcDbEntity
  8
0
  6
Continuous
 62
     7
370
    15
100
AcDbLine
 10
507.4572602053006
 20
397.8067157691278
 30
0.0
 11
507.4572602053006
 21
399.4973683722853
 31
0.0
  0
LINE
  5
25C
330
1F
100
AcDbEntity
  8
0
  6
Continuous
 62
     7
370
    15
100
AcDbLine
 10
505.9879057731855
 20
399.4973683722853
 30
0.0
 11
505.9879057731855
 21
397.8067157691278
 31
0.0
  0
LINE
  5
25D
330
1F
100
AcDbEntity
  8
0
  6
Continuous
 62
     7
370
    15
100
AcDbLine
 10
518.0301515053229
 20
387.2753840749002
 30
0.0
 11
518.0301515053229
 21
391.5015666923073
 31
0.0
  0
LINE
  5
25E
330
1F
100
AcDbEntity
  8
0
  6
Continuous
 62
     7
370
    15
100
AcDbLine
 10
485.5171063120742
 20
391.5015666923076
 30
0.0
 11
485.5171063120742
 21
387.2753840749006
 31
0.0
  0
LINE
  5
25F
330
1F
100
AcDbEntity
  8
0
  6
Continuous
 62
     7
370
    15
100
AcDbLine
 10
499.688952554294
 20
399.4973683722853
 30
0.0
 11
499.688952554294
 21
401.2587625211014
 31
0.0
  0
LINE
  5
260
330
1F
100
AcDbEntity
  8
0
  6
Continuous
 62
     7
370
    15
100
AcDbLine
 10
498.2195981221791
 20
401.2587625211014
 30
0.0
 11
498.2195981221791
 21
399.4973683722853
 31
0.0
  0
LINE
  5
261
330
1F
100
AcDbEntity
  8
0
  6
Continuous
 62
     7
370
    15
100
AcDbLine
 10
501.686967138163
 20
399.4973683722853
 30
0.0
 11
501.686967138163
 21
401.2587625211014
 31
0.0
  0
LINE
  5
262
330
1F
100
AcDbEntity
  8
0
  6
Continuous
 62
     7
370
    15
100
AcDbLine
 10
500.2176127060481
 20
401.2587625211014
 30
0.0
 11
500.2176127060481
 21
399.4973683722853
 31
0.0
  0
LINE
  5
263
330
1F
100
AcDbEntity
  8
0
  6
Continuous
 62
     7
370
    15
100
AcDbLine
 10
503.4995143514475
 20
399.4973683722853
 30
0.0
 11
503.4995143514475
 21
401.2587625211014
 31
0.0
  0
LINE
  5
264
330
1F
100
AcDbEntity
  8
0
  6
Continuous
 62
     7
370
    15
100
AcDbLine
 10
502.0301599193325
 20
401.2587625211014
 30
0.0
 11
502.0301599193325
 21
399.4973683722853
 31
0.0
  0
LINE
  5
265
330
1F
100
AcDbEntity
  8
0
  6
Continuous
 62
     7
370
    15
100
AcDbLine
 10
505.4975289353165
 20
399.4973683722853
 30
0.0
 11
505.4975289353165
 21
401.2587625211014
 31
0.0
  0
LINE
  5
266
330
1F
100
AcDbEntity
  8
0
  6
Continuous
 62
     7
370
    15
100
AcDbLine
 10
504.0281745032018
 20
401.2587625211014
 30
0.0
 11
504.0281745032018
 21
399.4973683722853
 31
0.0
  0
LINE
  5
267
330
1F
100
AcDbEntity
  8
0
  6
Continuous
 62
     7
370
    15
100
AcDbLine
 10
518.9557098856669
 20
397.0105440745136
 30
0.0
 11
518.9557098856669
 21
407.0105440745136
 31
0.0
  0
LINE
  5
268
330
1F
100
AcDbEntity
  8
0
  6
Continuous
 62
     7
370
    15
100
AcDbLine
 10
485.172311113672
 20
407.0105440745136
 30
0.0
 11
485.172311113672
 21
397.0105440745136
 31
0.0
  0
LINE
  5
269
330
1F
100
AcDbEntity
  8
0
  6
Continuous
 62
     7
370
    15
100
AcDbLine
 10
468.8596768799309
 20
367.0105440745136
 30
0.0
 11
468.8596768799309
 21
354.0105440745136
 31
0.0
  0
LINE
  5
26A
330
1F
100
AcDbEntity
  8
0
  6
Continuous
 62
     7
370
    15
100
AcDbLine
 10
468.8596768799309
 20
354.0105440745136
 30
0.0
 11
458.8596768799306
 21
354.0105440745136
 31
0.0
  0
LINE
  5
26B
330
1F
100
AcDbEntity
  8
0
  6
Continuous
 62
     7
370
    15
100
AcDbLine
 10
458.8596768799306
 20
354.0105440745136
 30
0.0
 11
458.8596768799306
 21
367.0105440745136
 31
0.0
  0
LINE
  5
26C
330
1F
100
AcDbEntity
  8
0
  6
Continuous
 62
     7
370
    15
100
AcDbLine
 10
458.8596768799306
 20
367.0105440745136
 30
0.0
 11
468.8596768799309
 21
367.0105440745136
 31
0.0
  0
LINE
  5
26D
330
1F
100
AcDbEntity
  8
0
  6
Continuous
 62
     7
370
    15
100
AcDbLine
 10
544.8596768799307
 20
354.0105440745136
 30
0.0
 11
544.8596768799307
 21
367.0105440745136
 31
0.0
  0
LINE
  5
26E
330
1F
100
AcDbEntity
  8
0
  6
Continuous
 62
     7
370
    15
100
AcDbLine
 10
468.8596768799309
 20
367.0105440745136
 30
0.0
 11
544.8596768799307
 21
367.0105440745136
 31
0.0
  0
LINE
  5
26F
330
1F
100
AcDbEntity
  8
0
  6
Continuous
 62
     7
370
    15
100
AcDbLine
 10
468.8596768799309
 20
354.0105440745136
 30
0.0
 11
544.8596768799307
 21
354.0105440745136
 31
0.0
  0
LINE
  5
270
330
1F
100
AcDbEntity
  8
0
  6
Continuous
 62
     7
370
    15
100
AcDbLine
 10
554.8596768799306
 20
367.0105440745136
 30
0.0
 11
554.8596768799306
 21
354.0105440745136
 31
0.0
  0
LINE
  5
271
330
1F
100
AcDbEntity
  8
0
  6
Continuous
 62
     7
370
    15
100
AcDbLine
 10
544.8596768799307
 20
367.0105440745136
 30
0.0
 11
554.8596768799306
 21
367.0105440745136
 31
0.0
  0
LINE
  5
272
330
1F
100
AcDbEntity
  8
0
  6
Continuous
 62
     7
370
    15
100
AcDbLine
 10
554.8596768799306
 20
354.0105440745136
 30
0.0
 11
544.8596768799307
 21
354.0105440745136
 31
0.0
  0
LINE
  5
273
330
1F
100
AcDbEntity
  8
0
  6
Continuous
 62
     7
370
    15
100
AcDbLine
 10
463.8596768799307
 20
331.0105440745136
 30
0.0
 11
463.8596768799307
 21
354.0105440745136
 31
0.0
  0
LINE
  5
274
330
1F
100
AcDbEntity
  8
0
  6
Continuous
 62
     7
370
    15
100
AcDbLine
 10
473.8596768799307
 20
354.0105440745136
 30
0.0
 11
473.8596768799307
 21
321.0105440745136
 31
0.0
  0
ARC
  5
275
330
1F
100
AcDbEntity
  8
0
  6
Continuous
 62
     7
370
    15
100
AcDbCircle
 10
473.8596768799307
 20
331.0105440745136
 30
0.0
 40
10.0
100
AcDbArc
 50
180.0
 51
270.0000000000013
  0
LINE
  5
276
330
1F
100
AcDbEntity
  8
0
  6
Continuous
 62
     7
370
    15
100
AcDbLine
 10
549.8596768799306
 20
354.0105440745136
 30
0.0
 11
549.8596768799306
 21
331.0105440745136
 31
0.0
  0
ARC
  5
277
330
1F
100
AcDbEntity
  8
0
  6
Continuous
 62
     7
370
    15
100
AcDbCircle
 10
539.8596768799307
 20
331.0105440745136
 30
0.0
 40
10.0
100
AcDbArc
 50
270.0000000000013
 51
0.0
  0
LINE
  5
278
330
1F
100
AcDbEntity
  8
0
  6
Continuous
 62
     7
370
    15
100
AcDbLine
 10
539.8596768799307
 20
321.0105440745136
 30
0.0
 11
539.8596768799307
 21
354.0105440745136
 31
0.0
  0
LINE
  5
279
330
1F
100
AcDbEntity
  8
0
  6
Continuous
 62
     7
370
    15
100
AcDbLine
 10
539.8596768799307
 20
321.0105440745136
 30
0.0
 11
473.8596768799307
 21
321.0105440745136
 31
0.0
  0
LINE
  5
27A
330
1F
100
AcDbEntity
  8
0
  6
Continuous
 62
     7
370
    15
100
AcDbLine
 10
458.9188562972944
 20
349.0105440745136
 30
0.0
 11
458.9188562972944
 21
354.0105440745136
 31
0.0
  0
LINE
  5
27B
330
1F
100
AcDbEntity
  8
0
  6
Continuous
 62
     7
370
    15
100
AcDbLine
 10
463.8596768799307
 20
349.0105440745136
 30
0.0
 11
458.9188562972944
 21
349.0105440745136
 31
0.0
  0
LINE
  5
27C
330
1F
100
AcDbEntity
  8
0
  6
Continuous
 62
     7
370
    15
100
AcDbLine
 10
554.8596768799306
 20
349.0105440745136
 30
0.0
 11
549.8596768799306
 21
349.0105440745136
 31
0.0
  0
LINE
  5
27D
330
1F
100
AcDbEntity
  8
0
  6
Continuous
 62
     7
370
    15
100
AcDbLine
 10
554.8596768799306
 20
349.0105440745136
 30
0.0
 11
554.8596768799306
 21
354.0105440745136
 31
0.0
  0
LWPOLYLINE
  5
27E
330
1F
100
AcDbEntity
  8
0
  6
Continuous
 62
     7
370
    15
100
AcDbPolyline
 90
       17
 70
   128
 43
0.0
 10
498.9542753382365
 20
388.3046041796198
 10
499.235424136958
 20
388.3552885119583
 10
499.4737705796942
 20
388.4996252788297
 10
499.6330285811543
 20
388.7156405158939
 10
499.688952554294
 20
388.970447861491
 10
499.6330285811543
 20
389.2252552070883
 10
499.4737705796942
 20
389.4412704441523
 10
499.235424136958
 20
389.5856072110238
 10
498.9542753382365
 20
389.6362915433623
 10
498.6731265395156
 20
389.5856072110238
 10
498.4347800967789
 20
389.4412704441523
 10
498.2755220953188
 20
389.2252552070882
 10
498.2195981221791
 20
388.970447861491
 10
498.2755220953188
 20
388.7156405158939
 10
498.4347800967789
 20
388.4996252788297
 10
498.6731265395156
 20
388.3552885119583
 10
498.9542753382365
 20
388.3046041796198
  0
ARC
  5
27F
330
1F
100
AcDbEntity
  8
0
  6
Continuous
 62
     7
370
    15
100
AcDbCircle
 10
498.9870798137933
 20
384.7804609780568
 30
0.0
 40
0.7028054318341558
100
AcDbArc
 50
267.3246632995053
 51
357.0478590626184
  0
ARC
  5
280
330
1F
100
AcDbEntity
  8
0
  6
Continuous
 62
     7
370
    15
100
AcDbCircle
 10
498.9214708626798
 20
384.7804609780568
 30
0.0
 40
0.7028054318341558
100
AcDbArc
 50
182.9521409373835
 51
272.6753367004959
  0
ARC
  5
281
330
1F
100
AcDbEntity
  8
0
  6
Continuous
 62
     7
370
    15
100
AcDbCircle
 10
500.985094397663
 20
384.7804609780565
 30
0.0
 40
0.702805431833675
100
AcDbArc
 50
267.3246632994584
 51
357.0478590626386
  0
ARC
  5
282
330
1F
100
AcDbEntity
  8
0
  6
Continuous
 62
     7
370
    15
100
AcDbCircle
 10
500.9194854465481
 20
384.7804609780567
 30
0.0
 40
0.7028054318338168
100
AcDbArc
 50
182.9521409373744
 51
272.6753367005429
  0
LWPOLYLINE
  5
283
330
1F
100
AcDbEntity
  8
0
  6
Continuous
 62
     7
370
    15
100
AcDbPolyline
 90
       17
 70
   128
 43
0.0
 10
500.9522899221056
 20
388.3046041796198
 10
501.233438720827
 20
388.3552885119583
 10
501.4717851635632
 20
388.4996252788297
 10
501.6310431650236
 20
388.7156405158939
 10
501.686967138163
 20
388.970447861491
 10
501.6310431650236
 20
389.2252552070883
 10
501.4717851635632
 20
389.4412704441523
 10
501.233438720827
 20
389.5856072110238
 10
500.9522899221056
 20
389.6362915433623
 10
500.6711411233841
 20
389.5856072110238
 10
500.4327946806479
 20
389.4412704441523
 10
500.2735366791878
 20
389.2252552070882
 10
500.2176127060481
 20
388.970447861491
 10
500.2735366791878
 20
388.7156405158939
 10
500.4327946806479
 20
388.4996252788297
 10
500.6711411233841
 20
388.3552885119583
 10
500.9522899221056
 20
388.3046041796198
  0
LWPOLYLINE
  5
284
330
1F
100
AcDbEntity
  8
0
  6
Continuous
 62
     7
370
    15
100
AcDbPolyline
 90
       17
 70
   128
 43
0.0
 10
502.7648371353897
 20
388.3046041796198
 10
503.0459859341113
 20
388.3552885119583
 10
503.2843323768474
 20
388.4996252788297
 10
503.4435903783077
 20
388.7156405158939
 10
503.4995143514475
 20
388.970447861491
 10
503.4435903783077
 20
389.2252552070883
 10
503.2843323768474
 20
389.4412704441523
 10
503.0459859341113
 20
389.5856072110238
 10
502.7648371353897
 20
389.6362915433623
 10
502.4836883366686
 20
389.5856072110238
 10
502.2453418939326
 20
389.4412704441523
 10
502.086083892472
 20
389.2252552070882
 10
502.0301599193325
 20
388.970447861491
 10
502.086083892472
 20
388.7156405158939
 10
502.2453418939326
 20
388.4996252788297
 10
502.4836883366687
 20
388.3552885119583
 10
502.7648371353897
 20
388.3046041796198
  0
ARC
  5
285
330
1F
100
AcDbEntity
  8
0
  6
Continuous
 62
     7
370
    15
100
AcDbCircle
 10
502.797641610947
 20
384.7804609780571
 30
0.0
 40
0.7028054318344541
100
AcDbArc
 50
267.3246632994832
 51
357.0478590625962
  0
ARC
  5
286
330
1F
100
AcDbEntity
  8
0
  6
Continuous
 62
     7
370
    15
100
AcDbCircle
 10
502.7320326598331
 20
384.7804609780568
 30
0.0
 40
0.7028054318341558
100
AcDbArc
 50
182.9521409373835
 51
272.6753367004959
  0
ARC
  5
287
330
1F
100
AcDbEntity
  8
0
  6
Continuous
 62
     7
370
    15
100
AcDbCircle
 10
504.7956561948161
 20
384.7804609780571
 30
0.0
 40
0.7028054318342161
100
AcDbArc
 50
267.3246632995066
 51
357.0478590625949
  0
ARC
  5
288
330
1F
100
AcDbEntity
  8
0
  6
Continuous
 62
     7
370
    15
100
AcDbCircle
 10
504.730047243702
 20
384.7804609780567
 30
0.0
 40
0.7028054318338646
100
AcDbArc
 50
182.9521409373731
 51
272.6753367005194
  0
LWPOLYLINE
  5
289
330
1F
100
AcDbEntity
  8
0
  6
Continuous
 62
     7
370
    15
100
AcDbPolyline
 90
       17
 70
   128
 43
0.0
 10
504.7628517192593
 20
388.3046041796198
 10
505.0440005179803
 20
388.3552885119583
 10
505.2823469607164
 20
388.4996252788297
 10
505.4416049621768
 20
388.7156405158939
 10
505.4975289353165
 20
388.970447861491
 10
505.4416049621768
 20
389.2252552070883
 10
505.2823469607164
 20
389.4412704441523
 10
505.0440005179803
 20
389.5856072110238
 10
504.7628517192593
 20
389.6362915433623
 10
504.4817029205378
 20
389.5856072110238
 10
504.2433564778016
 20
389.4412704441523
 10
504.0840984763413
 20
389.2252552070882
 10
504.0281745032018
 20
388.970447861491
 10
504.0840984763413
 20
388.7156405158939
 10
504.2433564778016
 20
388.4996252788297
 10
504.4817029205378
 20
388.3552885119583
 10
504.7628517192593
 20
388.3046041796198
  0
ARC
  5
28A
330
1F
100
AcDbEntity
  8
0
  6
Continuous
 62
     7
370
    15
100
AcDbCircle
 10
497.0273485438101
 20
386.5418551268724
 30
0.0
 40
0.7028054318334042
100
AcDbArc
 50
267.3246632994337
 51
357.0478590626373
  0
ARC
  5
28B
330
1F
100
AcDbEntity
  8
0
  6
Continuous
 62
     7
370
    15
100
AcDbCircle
 10
496.961739592695
 20
386.5418551268726
 30
0.0
 40
0.7028054318335807
100
AcDbArc
 50
182.9521409373744
 51
272.6753367005442
  0
LWPOLYLINE
  5
28C
330
1F
100
AcDbEntity
  8
0
  6
Continuous
 62
     7
370
    15
100
AcDbPolyline
 90
       17
 70
   128
 43
0.0
 10
496.9945440682525
 20
390.0659983284358
 10
497.2756928669737
 20
390.1166826607743
 10
497.5140393097099
 20
390.2610194276456
 10
497.6732973111705
 20
390.47703466471
 10
497.7292212843098
 20
390.731842010307
 10
497.6732973111705
 20
390.9866493559041
 10
497.5140393097099
 20
391.2026645929685
 10
497.2756928669737
 20
391.3470013598399
 10
496.9945440682525
 20
391.3976856921784
 10
496.7133952695312
 20
391.3470013598399
 10
496.475048826795
 20
391.2026645929685
 10
496.3157908253347
 20
390.9866493559041
 10
496.259866852195
 20
390.731842010307
 10
496.3157908253347
 20
390.47703466471
 10
496.475048826795
 20
390.2610194276456
 10
496.7133952695312
 20
390.1166826607743
 10
496.9945440682525
 20
390.0659983284358
  0
LWPOLYLINE
  5
28D
330
1F
100
AcDbEntity
  8
0
  6
Continuous
 62
     7
370
    15
100
AcDbPolyline
 90
       17
 70
   128
 43
0.0
 10
498.9542753382365
 20
390.0659983284358
 10
499.235424136958
 20
390.1166826607743
 10
499.4737705796942
 20
390.2610194276456
 10
499.6330285811543
 20
390.47703466471
 10
499.688952554294
 20
390.731842010307
 10
499.6330285811543
 20
390.9866493559041
 10
499.4737705796942
 20
391.2026645929685
 10
499.235424136958
 20
391.3470013598399
 10
498.9542753382365
 20
391.3976856921784
 10
498.6731265395156
 20
391.3470013598399
 10
498.4347800967789
 20
391.2026645929685
 10
498.2755220953188
 20
390.9866493559041
 10
498.2195981221791
 20
390.731842010307
 10
498.2755220953188
 20
390.47703466471
 10
498.4347800967789
 20
390.2610194276456
 10
498.6731265395156
 20
390.1166826607743
 10
498.9542753382365
 20
390.0659983284358
  0
LWPOLYLINE
  5
28E
330
1F
100
AcDbEntity
  8
0
  6
Continuous
 62
     7
370
    15
100
AcDbPolyline
 90
       17
 70
   128
 43
0.0
 10
500.9522899221056
 20
390.0659983284358
 10
501.233438720827
 20
390.1166826607743
 10
501.4717851635632
 20
390.2610194276456
 10
501.6310431650236
 20
390.47703466471
 10
501.686967138163
 20
390.731842010307
 10
501.6310431650236
 20
390.9866493559041
 10
501.4717851635632
 20
391.2026645929685
 10
501.233438720827
 20
391.3470013598399
 10
500.9522899221056
 20
391.3976856921784
 10
500.6711411233841
 20
391.3470013598399
 10
500.4327946806479
 20
391.2026645929685
 10
500.2735366791878
 20
390.9866493559041
 10
500.2176127060481
 20
390.731842010307
 10
500.2735366791878
 20
390.47703466471
 10
500.4327946806479
 20
390.2610194276456
 10
500.6711411233841
 20
390.1166826607743
 10
500.9522899221056
 20
390.0659983284358
  0
LWPOLYLINE
  5
28F
330
1F
100
AcDbEntity
  8
0
  6
Continuous
 62
     7
370
    15
100
AcDbPolyline
 90
       17
 70
   128
 43
0.0
 10
502.7648371353897
 20
390.0659983284358
 10
503.0459859341113
 20
390.1166826607743
 10
503.2843323768474
 20
390.2610194276456
 10
503.4435903783077
 20
390.47703466471
 10
503.4995143514475
 20
390.731842010307
 10
503.4435903783077
 20
390.9866493559041
 10
503.2843323768474
 20
391.2026645929685
 10
503.0459859341113
 20
391.3470013598399
 10
502.7648371353897
 20
391.3976856921784
 10
502.4836883366686
 20
391.3470013598399
 10
502.2453418939326
 20
391.2026645929685
 10
502.086083892472
 20
390.9866493559041
 10
502.0301599193325
 20
390.731842010307
 10
502.086083892472
 20
390.47703466471
 10
502.2453418939326
 20
390.2610194276456
 10
502.4836883366687
 20
390.1166826607743
 10
502.7648371353897
 20
390.0659983284358
  0
LWPOLYLINE
  5
290
330
1F
100
AcDbEntity
  8
0
  6
Continuous
 62
     7
370
    15
100
AcDbPolyline
 90
       17
 70
   128
 43
0.0
 10
504.7628517192593
 20
390.0659983284358
 10
505.0440005179803
 20
390.1166826607743
 10
505.2823469607164
 20
390.2610194276456
 10
505.4416049621768
 20
390.47703466471
 10
505.4975289353165
 20
390.731842010307
 10
505.4416049621768
 20
390.9866493559041
 10
505.2823469607164
 20
391.2026645929685
 10
505.0440005179803
 20
391.3470013598399
 10
504.7628517192593
 20
391.3976856921784
 10
504.4817029205378
 20
391.3470013598399
 10
504.2433564778016
 20
391.2026645929685
 10
504.0840984763413
 20
390.9866493559041
 10
504.0281745032018
 20
390.731842010307
 10
504.0840984763413
 20
390.47703466471
 10
504.2433564778016
 20
390.2610194276456
 10
504.4817029205378
 20
390.1166826607743
 10
504.7628517192593
 20
390.0659983284358
  0
LWPOLYLINE
  5
291
330
1F
100
AcDbEntity
  8
0
  6
Continuous
 62
     7
370
    15
100
AcDbPolyline
 90
       17
 70
   128
 43
0.0
 10
506.7225829892429
 20
390.0659983284358
 10
507.0037317879644
 20
390.1166826607743
 10
507.2420782307005
 20
390.2610194276456
 10
507.4013362321611
 20
390.47703466471
 10
507.4572602053006
 20
390.731842010307
 10
507.4013362321611
 20
390.9866493559041
 10
507.2420782307005
 20
391.2026645929685
 10
507.0037317879644
 20
391.3470013598399
 10
506.7225829892429
 20
391.3976856921784
 10
506.4414341905217
 20
391.3470013598399
 10
506.2030877477857
 20
391.2026645929685
 10
506.0438297463251
 20
390.9866493559041
 10
505.9879057731855
 20
390.731842010307
 10
506.0438297463251
 20
390.47703466471
 10
506.2030877477857
 20
390.2610194276456
 10
506.4414341905218
 20
390.1166826607743
 10
506.7225829892429
 20
390.0659983284358
  0
ARC
  5
292
330
1F
100
AcDbEntity
  8
0
  6
Continuous
 62
     7
370
    15
100
AcDbCircle
 10
506.7553874648003
 20
386.541855126873
 30
0.0
 40
0.7028054318341704
100
AcDbArc
 50
267.3246632994597
 51
357.0478590625949
  0
ARC
  5
293
330
1F
100
AcDbEntity
  8
0
  6
Continuous
 62
     7
370
    15
100
AcDbCircle
 10
506.6897785136859
 20
386.5418551268729
 30
0.0
 40
0.7028054318338794
100
AcDbArc
 50
182.9521409373966
 51
272.6753367005194
  0
LWPOLYLINE
  5
294
330
1F
100
AcDbEntity
  8
0
  6
Continuous
 62
     7
370
    15
100
AcDbPolyline
 90
       17
 70
   128
 43
0.0
 10
494.9965294843834
 20
391.7566509315933
 10
495.2776782831047
 20
391.8073352639318
 10
495.5160247258409
 20
391.9516720308033
 10
495.6752827273012
 20
392.1676872678674
 10
495.7312067004409
 20
392.4224946134647
 10
495.6752827273012
 20
392.6773019590618
 10
495.5160247258409
 20
392.893317196126
 10
495.2776782831047
 20
393.0376539629974
 10
494.9965294843834
 20
393.0883382953358
 10
494.7153806856622
 20
393.0376539629974
 10
494.477034242926
 20
392.893317196126
 10
494.3177762414655
 20
392.6773019590616
 10
494.261852268326
 20
392.4224946134647
 10
494.3177762414655
 20
392.1676872678674
 10
494.477034242926
 20
391.9516720308033
 10
494.7153806856622
 20
391.8073352639318
 10
494.9965294843834
 20
391.7566509315933
  0
ARC
  5
295
330
1F
100
AcDbEntity
  8
0
  6
Continuous
 62
     7
370
    15
100
AcDbCircle
 10
495.0293339599409
 20
388.2325077300301
 30
0.0
 40
0.7028054318335735
100
AcDbArc
 50
267.3246632994584
 51
357.0478590626386
  0
ARC
  5
296
330
1F
100
AcDbEntity
  8
0
  6
Continuous
 62
     7
370
    15
100
AcDbCircle
 10
494.963725008826
 20
388.2325077300301
 30
0.0
 40
0.7028054318335735
100
AcDbArc
 50
182.9521409373627
 51
272.6753367005442
  0
LWPOLYLINE
  5
297
330
1F
100
AcDbEntity
  8
0
  6
Continuous
 62
     7
370
    15
100
AcDbPolyline
 90
       17
 70
   128
 43
0.0
 10
496.9945440682525
 20
391.7566509315933
 10
497.2756928669737
 20
391.8073352639318
 10
497.5140393097099
 20
391.9516720308033
 10
497.6732973111705
 20
392.1676872678674
 10
497.7292212843098
 20
392.4224946134647
 10
497.6732973111705
 20
392.6773019590618
 10
497.5140393097099
 20
392.893317196126
 10
497.2756928669737
 20
393.0376539629974
 10
496.9945440682525
 20
393.0883382953358
 10
496.7133952695312
 20
393.0376539629974
 10
496.475048826795
 20
392.893317196126
 10
496.3157908253347
 20
392.6773019590616
 10
496.259866852195
 20
392.4224946134647
 10
496.3157908253347
 20
392.1676872678674
 10
496.475048826795
 20
391.9516720308033
 10
496.7133952695312
 20
391.8073352639318
 10
496.9945440682525
 20
391.7566509315933
  0
LWPOLYLINE
  5
298
330
1F
100
AcDbEntity
  8
0
  6
Continuous
 62
     7
370
    15
100
AcDbPolyline
 90
       17
 70
   128
 43
0.0
 10
498.9542753382365
 20
391.7566509315933
 10
499.235424136958
 20
391.8073352639318
 10
499.4737705796942
 20
391.9516720308033
 10
499.6330285811543
 20
392.1676872678674
 10
499.688952554294
 20
392.4224946134647
 10
499.6330285811543
 20
392.6773019590618
 10
499.4737705796942
 20
392.893317196126
 10
499.235424136958
 20
393.0376539629974
 10
498.9542753382365
 20
393.0883382953358
 10
498.6731265395156
 20
393.0376539629974
 10
498.4347800967789
 20
392.893317196126
 10
498.2755220953188
 20
392.6773019590616
 10
498.2195981221791
 20
392.4224946134647
 10
498.2755220953188
 20
392.1676872678674
 10
498.4347800967789
 20
391.9516720308033
 10
498.6731265395156
 20
391.8073352639318
 10
498.9542753382365
 20
391.7566509315933
  0
LWPOLYLINE
  5
299
330
1F
100
AcDbEntity
  8
0
  6
Continuous
 62
     7
370
    15
100
AcDbPolyline
 90
       17
 70
   128
 43
0.0
 10
500.9522899221056
 20
391.7566509315933
 10
501.233438720827
 20
391.8073352639318
 10
501.4717851635632
 20
391.9516720308033
 10
501.6310431650236
 20
392.1676872678674
 10
501.686967138163
 20
392.4224946134647
 10
501.6310431650236
 20
392.6773019590618
 10
501.4717851635632
 20
392.893317196126
 10
501.233438720827
 20
393.0376539629974
 10
500.9522899221056
 20
393.0883382953358
 10
500.6711411233841
 20
393.0376539629974
 10
500.4327946806479
 20
392.893317196126
 10
500.2735366791878
 20
392.6773019590616
 10
500.2176127060481
 20
392.4224946134647
 10
500.2735366791878
 20
392.1676872678674
 10
500.4327946806479
 20
391.9516720308033
 10
500.6711411233841
 20
391.8073352639318
 10
500.9522899221056
 20
391.7566509315933
  0
LWPOLYLINE
  5
29A
330
1F
100
AcDbEntity
  8
0
  6
Continuous
 62
     7
370
    15
100
AcDbPolyline
 90
       17
 70
   128
 43
0.0
 10
502.7648371353897
 20
391.7566509315933
 10
503.0459859341113
 20
391.8073352639318
 10
503.2843323768474
 20
391.9516720308033
 10
503.4435903783077
 20
392.1676872678674
 10
503.4995143514475
 20
392.4224946134647
 10
503.4435903783077
 20
392.6773019590618
 10
503.2843323768474
 20
392.893317196126
 10
503.0459859341113
 20
393.0376539629974
 10
502.7648371353897
 20
393.0883382953358
 10
502.4836883366686
 20
393.0376539629974
 10
502.2453418939326
 20
392.893317196126
 10
502.086083892472
 20
392.6773019590616
 10
502.0301599193325
 20
392.4224946134647
 10
502.086083892472
 20
392.1676872678674
 10
502.2453418939326
 20
391.9516720308033
 10
502.4836883366687
 20
391.8073352639318
 10
502.7648371353897
 20
391.7566509315933
  0
LWPOLYLINE
  5
29B
330
1F
100
AcDbEntity
  8
0
  6
Continuous
 62
     7
370
    15
100
AcDbPolyline
 90
       17
 70
   128
 43
0.0
 10
504.7628517192593
 20
391.7566509315933
 10
505.0440005179803
 20
391.8073352639318
 10
505.2823469607164
 20
391.9516720308033
 10
505.4416049621768
 20
392.1676872678674
 10
505.4975289353165
 20
392.4224946134647
 10
505.4416049621768
 20
392.6773019590618
 10
505.2823469607164
 20
392.893317196126
 10
505.0440005179803
 20
393.0376539629974
 10
504.7628517192593
 20
393.0883382953358
 10
504.4817029205378
 20
393.0376539629974
 10
504.2433564778016
 20
392.893317196126
 10
504.0840984763413
 20
392.6773019590616
 10
504.0281745032018
 20
392.4224946134647
 10
504.0840984763413
 20
392.1676872678674
 10
504.2433564778016
 20
391.9516720308033
 10
504.4817029205378
 20
391.8073352639318
 10
504.7628517192593
 20
391.7566509315933
  0
LWPOLYLINE
  5
29C
330
1F
100
AcDbEntity
  8
0
  6
Continuous
 62
     7
370
    15
100
AcDbPolyline
 90
       17
 70
   128
 43
0.0
 10
506.7225829892429
 20
391.7566509315933
 10
507.0037317879644
 20
391.8073352639318
 10
507.2420782307005
 20
391.9516720308033
 10
507.4013362321611
 20
392.1676872678674
 10
507.4572602053006
 20
392.4224946134647
 10
507.4013362321611
 20
392.6773019590618
 10
507.2420782307005
 20
392.893317196126
 10
507.0037317879644
 20
393.0376539629974
 10
506.7225829892429
 20
393.0883382953358
 10
506.4414341905217
 20
393.0376539629974
 10
506.2030877477857
 20
392.893317196126
 10
506.0438297463251
 20
392.6773019590616
 10
505.9879057731855
 20
392.4224946134647
 10
506.0438297463251
 20
392.1676872678674
 10
506.2030877477857
 20
391.9516720308033
 10
506.4414341905218
 20
391.8073352639318
 10
506.7225829892429
 20
391.7566509315933
  0
ARC
  5
29D
330
1F
100
AcDbEntity
  8
0
  6
Continuous
 62
     7
370
    15
100
AcDbCircle
 10
508.7534020486693
 20
388.2325077300304
 30
0.0
 40
0.7028054318339456
100
AcDbArc
 50
267.3246632994832
 51
357.0478590626053
  0
ARC
  5
29E
330
1F
100
AcDbEntity
  8
0
  6
Continuous
 62
     7
370
    15
100
AcDbCircle
 10
508.6877930975549
 20
388.2325077300301
 30
0.0
 40
0.7028054318335735
100
AcDbArc
 50
182.9521409373627
 51
272.6753367005442
  0
LWPOLYLINE
  5
29F
330
1F
100
AcDbEntity
  8
0
  6
Continuous
 62
     7
370
    15
100
AcDbPolyline
 90
       17
 70
   128
 43
0.0
 10
508.7205975731121
 20
391.7566509315933
 10
509.0017463718334
 20
391.8073352639318
 10
509.2400928145695
 20
391.9516720308033
 10
509.3993508160301
 20
392.1676872678674
 10
509.4552747891696
 20
392.4224946134647
 10
509.3993508160301
 20
392.6773019590618
 10
509.2400928145695
 20
392.893317196126
 10
509.0017463718334
 20
393.0376539629974
 10
508.7205975731121
 20
393.0883382953358
 10
508.4394487743909
 20
393.0376539629974
 10
508.2011023316547
 20
392.893317196126
 10
508.0418443301946
 20
392.6773019590616
 10
507.9859203570549
 20
392.4224946134647
 10
508.0418443301946
 20
392.1676872678674
 10
508.2011023316547
 20
391.9516720308033
 10
508.4394487743909
 20
391.8073352639318
 10
508.7205975731121
 20
391.7566509315933
  0
LWPOLYLINE
  5
2A0
330
1F
100
AcDbEntity
  8
0
  6
Continuous
 62
     7
370
    15
100
AcDbPolyline
 90
       17
 70
   128
 43
0.0
 10
494.9965294843834
 20
393.5180450804094
 10
495.2776782831047
 20
393.568729412748
 10
495.5160247258409
 20
393.7130661796193
 10
495.6752827273012
 20
393.9290814166835
 10
495.7312067004409
 20
394.1838887622806
 10
495.6752827273012
 20
394.4386961078776
 10
495.5160247258409
 20
394.654711344942
 10
495.2776782831047
 20
394.7990481118135
 10
494.9965294843834
 20
394.8497324441519
 10
494.7153806856622
 20
394.7990481118135
 10
494.477034242926
 20
394.654711344942
 10
494.3177762414655
 20
394.4386961078776
 10
494.261852268326
 20
394.1838887622806
 10
494.3177762414655
 20
393.9290814166835
 10
494.477034242926
 20
393.7130661796193
 10
494.7153806856622
 20
393.568729412748
 10
494.9965294843834
 20
393.5180450804094
  0
LWPOLYLINE
  5
2A1
330
1F
100
AcDbEntity
  8
0
  6
Continuous
 62
     7
370
    15
100
AcDbPolyline
 90
       17
 70
   128
 43
0.0
 10
496.9945440682525
 20
393.5180450804094
 10
497.2756928669737
 20
393.568729412748
 10
497.5140393097099
 20
393.7130661796193
 10
497.6732973111705
 20
393.9290814166835
 10
497.7292212843098
 20
394.1838887622806
 10
497.6732973111705
 20
394.4386961078776
 10
497.5140393097099
 20
394.654711344942
 10
497.2756928669737
 20
394.7990481118135
 10
496.9945440682525
 20
394.8497324441519
 10
496.7133952695312
 20
394.7990481118135
 10
496.475048826795
 20
394.654711344942
 10
496.3157908253347
 20
394.4386961078776
 10
496.259866852195
 20
394.1838887622806
 10
496.3157908253347
 20
393.9290814166835
 10
496.475048826795
 20
393.7130661796193
 10
496.7133952695312
 20
393.568729412748
 10
496.9945440682525
 20
393.5180450804094
  0
LWPOLYLINE
  5
2A2
330
1F
100
AcDbEntity
  8
0
  6
Continuous
 62
     7
370
    15
100
AcDbPolyline
 90
       17
 70
   128
 43
0.0
 10
498.9542753382365
 20
393.5180450804094
 10
499.235424136958
 20
393.568729412748
 10
499.4737705796942
 20
393.7130661796193
 10
499.6330285811543
 20
393.9290814166835
 10
499.688952554294
 20
394.1838887622806
 10
499.6330285811543
 20
394.4386961078776
 10
499.4737705796942
 20
394.654711344942
 10
499.235424136958
 20
394.7990481118135
 10
498.9542753382365
 20
394.8497324441519
 10
498.6731265395156
 20
394.7990481118135
 10
498.4347800967789
 20
394.654711344942
 10
498.2755220953188
 20
394.4386961078776
 10
498.2195981221791
 20
394.1838887622806
 10
498.2755220953188
 20
393.9290814166835
 10
498.4347800967789
 20
393.7130661796193
 10
498.6731265395156
 20
393.568729412748
 10
498.9542753382365
 20
393.5180450804094
  0
LWPOLYLINE
  5
2A3
330
1F
100
AcDbEntity
  8
0
  6
Continuous
 62
     7
370
    15
100
AcDbPolyline
 90
       17
 70
   128
 43
0.0
 10
500.9522899221056
 20
393.5180450804094
 10
501.233438720827
 20
393.568729412748
 10
501.4717851635632
 20
393.7130661796193
 10
501.6310431650236
 20
393.9290814166835
 10
501.686967138163
 20
394.1838887622806
 10
501.6310431650236
 20
394.4386961078776
 10
501.4717851635632
 20
394.654711344942
 10
501.233438720827
 20
394.7990481118135
 10
500.9522899221056
 20
394.8497324441519
 10
500.6711411233841
 20
394.7990481118135
 10
500.4327946806479
 20
394.654711344942
 10
500.2735366791878
 20
394.4386961078776
 10
500.2176127060481
 20
394.1838887622806
 10
500.2735366791878
 20
393.9290814166835
 10
500.4327946806479
 20
393.7130661796193
 10
500.6711411233841
 20
393.568729412748
 10
500.9522899221056
 20
393.5180450804094
  0
LWPOLYLINE
  5
2A4
330
1F
100
AcDbEntity
  8
0
  6
Continuous
 62
     7
370
    15
100
AcDbPolyline
 90
       17
 70
   128
 43
0.0
 10
502.7648371353897
 20
393.5180450804094
 10
503.0459859341113
 20
393.568729412748
 10
503.2843323768474
 20
393.7130661796193
 10
503.4435903783077
 20
393.9290814166835
 10
503.4995143514475
 20
394.1838887622806
 10
503.4435903783077
 20
394.4386961078776
 10
503.2843323768474
 20
394.654711344942
 10
503.0459859341113
 20
394.7990481118135
 10
502.7648371353897
 20
394.8497324441519
 10
502.4836883366686
 20
394.7990481118135
 10
502.2453418939326
 20
394.654711344942
 10
502.086083892472
 20
394.4386961078776
 10
502.0301599193325
 20
394.1838887622806
 10
502.086083892472
 20
393.9290814166835
 10
502.2453418939326
 20
393.7130661796193
 10
502.4836883366687
 20
393.568729412748
 10
502.7648371353897
 20
393.5180450804094
  0
LWPOLYLINE
  5
2A5
330
1F
100
AcDbEntity
  8
0
  6
Continuous
 62
     7
370
    15
100
AcDbPolyline
 90
       17
 70
   128
 43
0.0
 10
504.7628517192593
 20
393.5180450804094
 10
505.0440005179803
 20
393.568729412748
 10
505.2823469607164
 20
393.7130661796193
 10
505.4416049621768
 20
393.9290814166835
 10
505.4975289353165
 20
394.1838887622806
 10
505.4416049621768
 20
394.4386961078776
 10
505.2823469607164
 20
394.654711344942
 10
505.0440005179803
 20
394.7990481118135
 10
504.7628517192593
 20
394.8497324441519
 10
504.4817029205378
 20
394.7990481118135
 10
504.2433564778016
 20
394.654711344942
 10
504.0840984763413
 20
394.4386961078776
 10
504.0281745032018
 20
394.1838887622806
 10
504.0840984763413
 20
393.9290814166835
 10
504.2433564778016
 20
393.7130661796193
 10
504.4817029205378
 20
393.568729412748
 10
504.7628517192593
 20
393.5180450804094
  0
LWPOLYLINE
  5
2A6
330
1F
100
AcDbEntity
  8
0
  6
Continuous
 62
     7
370
    15
100
AcDbPolyline
 90
       17
 70
   128
 43
0.0
 10
506.7225829892429
 20
393.5180450804094
 10
507.0037317879644
 20
393.568729412748
 10
507.2420782307005
 20
393.7130661796193
 10
507.4013362321611
 20
393.9290814166835
 10
507.4572602053006
 20
394.1838887622806
 10
507.4013362321611
 20
394.4386961078776
 10
507.2420782307005
 20
394.654711344942
 10
507.0037317879644
 20
394.7990481118135
 10
506.7225829892429
 20
394.8497324441519
 10
506.4414341905217
 20
394.7990481118135
 10
506.2030877477857
 20
394.654711344942
 10
506.0438297463251
 20
394.4386961078776
 10
505.9879057731855
 20
394.1838887622806
 10
506.0438297463251
 20
393.9290814166835
 10
506.2030877477857
 20
393.7130661796193
 10
506.4414341905218
 20
393.568729412748
 10
506.7225829892429
 20
393.5180450804094
  0
LWPOLYLINE
  5
2A7
330
1F
100
AcDbEntity
  8
0
  6
Continuous
 62
     7
370
    15
100
AcDbPolyline
 90
       17
 70
   128
 43
0.0
 10
508.7205975731121
 20
393.5180450804094
 10
509.0017463718334
 20
393.568729412748
 10
509.2400928145695
 20
393.7130661796193
 10
509.3993508160301
 20
393.9290814166835
 10
509.4552747891696
 20
394.1838887622806
 10
509.3993508160301
 20
394.4386961078776
 10
509.2400928145695
 20
394.654711344942
 10
509.0017463718334
 20
394.7990481118135
 10
508.7205975731121
 20
394.8497324441519
 10
508.4394487743909
 20
394.7990481118135
 10
508.2011023316547
 20
394.654711344942
 10
508.0418443301946
 20
394.4386961078776
 10
507.9859203570549
 20
394.1838887622806
 10
508.0418443301946
 20
393.9290814166835
 10
508.2011023316547
 20
393.7130661796193
 10
508.4394487743909
 20
393.568729412748
 10
508.7205975731121
 20
393.5180450804094
  0
LWPOLYLINE
  5
2A8
330
1F
100
AcDbEntity
  8
0
  6
Continuous
 62
     7
370
    15
100
AcDbPolyline
 90
       17
 70
   128
 43
0.0
 10
494.9965294843834
 20
395.3794779384407
 10
495.2776782831047
 20
395.430162270779
 10
495.5160247258409
 20
395.5744990376504
 10
495.6752827273012
 20
395.7905142747147
 10
495.7312067004409
 20
396.0453216203117
 10
495.6752827273012
 20
396.3001289659089
 10
495.5160247258409
 20
396.5161442029732
 10
495.2776782831047
 20
396.6604809698445
 10
494.9965294843834
 20
396.7111653021831
 10
494.7153806856622
 20
396.6604809698445
 10
494.477034242926
 20
396.5161442029732
 10
494.3177762414655
 20
396.3001289659089
 10
494.261852268326
 20
396.0453216203117
 10
494.3177762414655
 20
395.7905142747147
 10
494.477034242926
 20
395.5744990376504
 10
494.7153806856622
 20
395.430162270779
 10
494.9965294843834
 20
395.3794779384407
  0
LWPOLYLINE
  5
2A9
330
1F
100
AcDbEntity
  8
0
  6
Continuous
 62
     7
370
    15
100
AcDbPolyline
 90
       17
 70
   128
 43
0.0
 10
496.9945440682525
 20
395.3794779384407
 10
497.2756928669737
 20
395.430162270779
 10
497.5140393097099
 20
395.5744990376504
 10
497.6732973111705
 20
395.7905142747147
 10
497.7292212843098
 20
396.0453216203117
 10
497.6732973111705
 20
396.3001289659089
 10
497.5140393097099
 20
396.5161442029732
 10
497.2756928669737
 20
396.6604809698445
 10
496.9945440682525
 20
396.7111653021831
 10
496.7133952695312
 20
396.6604809698445
 10
496.475048826795
 20
396.5161442029732
 10
496.3157908253347
 20
396.3001289659089
 10
496.259866852195
 20
396.0453216203117
 10
496.3157908253347
 20
395.7905142747147
 10
496.475048826795
 20
395.5744990376504
 10
496.7133952695312
 20
395.430162270779
 10
496.9945440682525
 20
395.3794779384407
  0
LWPOLYLINE
  5
2AA
330
1F
100
AcDbEntity
  8
0
  6
Continuous
 62
     7
370
    15
100
AcDbPolyline
 90
       17
 70
   128
 43
0.0
 10
498.9542753382365
 20
395.3794779384407
 10
499.235424136958
 20
395.430162270779
 10
499.4737705796942
 20
395.5744990376504
 10
499.6330285811543
 20
395.7905142747147
 10
499.688952554294
 20
396.0453216203117
 10
499.6330285811543
 20
396.3001289659089
 10
499.4737705796942
 20
396.5161442029732
 10
499.235424136958
 20
396.6604809698445
 10
498.9542753382365
 20
396.7111653021831
 10
498.6731265395156
 20
396.6604809698445
 10
498.4347800967789
 20
396.5161442029732
 10
498.2755220953188
 20
396.3001289659089
 10
498.2195981221791
 20
396.0453216203117
 10
498.2755220953188
 20
395.7905142747147
 10
498.4347800967789
 20
395.5744990376504
 10
498.6731265395156
 20
395.430162270779
 10
498.9542753382365
 20
395.3794779384407
  0
LWPOLYLINE
  5
2AB
330
1F
100
AcDbEntity
  8
0
  6
Continuous
 62
     7
370
    15
100
AcDbPolyline
 90
       17
 70
   128
 43
0.0
 10
500.9522899221056
 20
395.3794779384407
 10
501.233438720827
 20
395.430162270779
 10
501.4717851635632
 20
395.5744990376504
 10
501.6310431650236
 20
395.7905142747147
 10
501.686967138163
 20
396.0453216203117
 10
501.6310431650236
 20
396.3001289659089
 10
501.4717851635632
 20
396.5161442029732
 10
501.233438720827
 20
396.6604809698445
 10
500.9522899221056
 20
396.7111653021831
 10
500.6711411233841
 20
396.6604809698445
 10
500.4327946806479
 20
396.5161442029732
 10
500.2735366791878
 20
396.3001289659089
 10
500.2176127060481
 20
396.0453216203117
 10
500.2735366791878
 20
395.7905142747147
 10
500.4327946806479
 20
395.5744990376504
 10
500.6711411233841
 20
395.430162270779
 10
500.9522899221056
 20
395.3794779384407
  0
LWPOLYLINE
  5
2AC
330
1F
100
AcDbEntity
  8
0
  6
Continuous
 62
     7
370
    15
100
AcDbPolyline
 90
       17
 70
   128
 43
0.0
 10
502.7648371353897
 20
395.3794779384407
 10
503.0459859341113
 20
395.430162270779
 10
503.2843323768474
 20
395.5744990376504
 10
503.4435903783077
 20
395.7905142747147
 10
503.4995143514475
 20
396.0453216203117
 10
503.4435903783077
 20
396.3001289659089
 10
503.2843323768474
 20
396.5161442029732
 10
503.0459859341113
 20
396.6604809698445
 10
502.7648371353897
 20
396.7111653021831
 10
502.4836883366686
 20
396.6604809698445
 10
502.2453418939326
 20
396.5161442029732
 10
502.086083892472
 20
396.3001289659089
 10
502.0301599193325
 20
396.0453216203117
 10
502.086083892472
 20
395.7905142747147
 10
502.2453418939326
 20
395.5744990376504
 10
502.4836883366687
 20
395.430162270779
 10
502.7648371353897
 20
395.3794779384407
  0
LWPOLYLINE
  5
2AD
330
1F
100
AcDbEntity
  8
0
  6
Continuous
 62
     7
370
    15
100
AcDbPolyline
 90
       17
 70
   128
 43
0.0
 10
504.7628517192593
 20
395.3794779384407
 10
505.0440005179803
 20
395.430162270779
 10
505.2823469607164
 20
395.5744990376504
 10
505.4416049621768
 20
395.7905142747147
 10
505.4975289353165
 20
396.0453216203117
 10
505.4416049621768
 20
396.3001289659089
 10
505.2823469607164
 20
396.5161442029732
 10
505.0440005179803
 20
396.6604809698445
 10
504.7628517192593
 20
396.7111653021831
 10
504.4817029205378
 20
396.6604809698445
 10
504.2433564778016
 20
396.5161442029732
 10
504.0840984763413
 20
396.3001289659089
 10
504.0281745032018
 20
396.0453216203117
 10
504.0840984763413
 20
395.7905142747147
 10
504.2433564778016
 20
395.5744990376504
 10
504.4817029205378
 20
395.430162270779
 10
504.7628517192593
 20
395.3794779384407
  0
LWPOLYLINE
  5
2AE
330
1F
100
AcDbEntity
  8
0
  6
Continuous
 62
     7
370
    15
100
AcDbPolyline
 90
       17
 70
   128
 43
0.0
 10
506.7225829892429
 20
395.3794779384407
 10
507.0037317879644
 20
395.430162270779
 10
507.2420782307005
 20
395.5744990376504
 10
507.4013362321611
 20
395.7905142747147
 10
507.4572602053006
 20
396.0453216203117
 10
507.4013362321611
 20
396.3001289659089
 10
507.2420782307005
 20
396.5161442029732
 10
507.0037317879644
 20
396.6604809698445
 10
506.7225829892429
 20
396.7111653021831
 10
506.4414341905217
 20
396.6604809698445
 10
506.2030877477857
 20
396.5161442029732
 10
506.0438297463251
 20
396.3001289659089
 10
505.9879057731855
 20
396.0453216203117
 10
506.0438297463251
 20
395.7905142747147
 10
506.2030877477857
 20
395.5744990376504
 10
506.4414341905218
 20
395.430162270779
 10
506.7225829892429
 20
395.3794779384407
  0
LWPOLYLINE
  5
2AF
330
1F
100
AcDbEntity
  8
0
  6
Continuous
 62
     7
370
    15
100
AcDbPolyline
 90
       17
 70
   128
 43
0.0
 10
508.7205975731121
 20
395.3794779384407
 10
509.0017463718334
 20
395.430162270779
 10
509.2400928145695
 20
395.5744990376504
 10
509.3993508160301
 20
395.7905142747147
 10
509.4552747891696
 20
396.0453216203117
 10
509.3993508160301
 20
396.3001289659089
 10
509.2400928145695
 20
396.5161442029732
 10
509.0017463718334
 20
396.6604809698445
 10
508.7205975731121
 20
396.7111653021831
 10
508.4394487743909
 20
396.6604809698445
 10
508.2011023316547
 20
396.5161442029732
 10
508.0418443301946
 20
396.3001289659089
 10
507.9859203570549
 20
396.0453216203117
 10
508.0418443301946
 20
395.7905142747147
 10
508.2011023316547
 20
395.5744990376504
 10
508.4394487743909
 20
395.430162270779
 10
508.7205975731121
 20
395.3794779384407
  0
LWPOLYLINE
  5
2B0
330
1F
100
AcDbEntity
  8
0
  6
Continuous
 62
     7
370
    15
100
AcDbPolyline
 90
       17
 70
   128
 43
0.0
 10
494.9965294843834
 20
397.1408720872565
 10
495.2776782831047
 20
397.1915564195949
 10
495.5160247258409
 20
397.3358931864665
 10
495.6752827273012
 20
397.5519084235307
 10
495.7312067004409
 20
397.8067157691278
 10
495.6752827273012
 20
398.061523114725
 10
495.5160247258409
 20
398.2775383517892
 10
495.2776782831047
 20
398.4218751186606
 10
494.9965294843834
 20
398.4725594509992
 10
494.7153806856622
 20
398.4218751186606
 10
494.477034242926
 20
398.2775383517892
 10
494.3177762414655
 20
398.061523114725
 10
494.261852268326
 20
397.8067157691278
 10
494.3177762414655
 20
397.5519084235307
 10
494.477034242926
 20
397.3358931864665
 10
494.7153806856622
 20
397.1915564195949
 10
494.9965294843834
 20
397.1408720872565
  0
LWPOLYLINE
  5
2B1
330
1F
100
AcDbEntity
  8
0
  6
Continuous
 62
     7
370
    15
100
AcDbPolyline
 90
       17
 70
   128
 43
0.0
 10
496.9945440682525
 20
397.1408720872565
 10
497.2756928669737
 20
397.1915564195949
 10
497.5140393097099
 20
397.3358931864665
 10
497.6732973111705
 20
397.5519084235307
 10
497.7292212843098
 20
397.8067157691278
 10
497.6732973111705
 20
398.061523114725
 10
497.5140393097099
 20
398.2775383517892
 10
497.2756928669737
 20
398.4218751186606
 10
496.9945440682525
 20
398.4725594509992
 10
496.7133952695312
 20
398.4218751186606
 10
496.475048826795
 20
398.2775383517892
 10
496.3157908253347
 20
398.061523114725
 10
496.259866852195
 20
397.8067157691278
 10
496.3157908253347
 20
397.5519084235307
 10
496.475048826795
 20
397.3358931864665
 10
496.7133952695312
 20
397.1915564195949
 10
496.9945440682525
 20
397.1408720872565
  0
LWPOLYLINE
  5
2B2
330
1F
100
AcDbEntity
  8
0
  6
Continuous
 62
     7
370
    15
100
AcDbPolyline
 90
       17
 70
   128
 43
0.0
 10
498.9542753382365
 20
397.1408720872565
 10
499.235424136958
 20
397.1915564195949
 10
499.4737705796942
 20
397.3358931864665
 10
499.6330285811543
 20
397.5519084235307
 10
499.688952554294
 20
397.8067157691278
 10
499.6330285811543
 20
398.061523114725
 10
499.4737705796942
 20
398.2775383517892
 10
499.235424136958
 20
398.4218751186606
 10
498.9542753382365
 20
398.4725594509992
 10
498.6731265395156
 20
398.4218751186606
 10
498.4347800967789
 20
398.2775383517892
 10
498.2755220953188
 20
398.061523114725
 10
498.2195981221791
 20
397.8067157691278
 10
498.2755220953188
 20
397.5519084235307
 10
498.4347800967789
 20
397.3358931864665
 10
498.6731265395156
 20
397.1915564195949
 10
498.9542753382365
 20
397.1408720872565
  0
LWPOLYLINE
  5
2B3
330
1F
100
AcDbEntity
  8
0
  6
Continuous
 62
     7
370
    15
100
AcDbPolyline
 90
       17
 70
   128
 43
0.0
 10
500.9522899221056
 20
397.1408720872565
 10
501.233438720827
 20
397.1915564195949
 10
501.4717851635632
 20
397.3358931864665
 10
501.6310431650236
 20
397.5519084235307
 10
501.686967138163
 20
397.8067157691278
 10
501.6310431650236
 20
398.061523114725
 10
501.4717851635632
 20
398.2775383517892
 10
501.233438720827
 20
398.4218751186606
 10
500.9522899221056
 20
398.4725594509992
 10
500.6711411233841
 20
398.4218751186606
 10
500.4327946806479
 20
398.2775383517892
 10
500.2735366791878
 20
398.061523114725
 10
500.2176127060481
 20
397.8067157691278
 10
500.2735366791878
 20
397.5519084235307
 10
500.4327946806479
 20
397.3358931864665
 10
500.6711411233841
 20
397.1915564195949
 10
500.9522899221056
 20
397.1408720872565
  0
LWPOLYLINE
  5
2B4
330
1F
100
AcDbEntity
  8
0
  6
Continuous
 62
     7
370
    15
100
AcDbPolyline
 90
       17
 70
   128
 43
0.0
 10
502.7648371353897
 20
397.1408720872565
 10
503.0459859341113
 20
397.1915564195949
 10
503.2843323768474
 20
397.3358931864665
 10
503.4435903783077
 20
397.5519084235307
 10
503.4995143514475
 20
397.8067157691278
 10
503.4435903783077
 20
398.061523114725
 10
503.2843323768474
 20
398.2775383517892
 10
503.0459859341113
 20
398.4218751186606
 10
502.7648371353897
 20
398.4725594509992
 10
502.4836883366686
 20
398.4218751186606
 10
502.2453418939326
 20
398.2775383517892
 10
502.086083892472
 20
398.061523114725
 10
502.0301599193325
 20
397.8067157691278
 10
502.086083892472
 20
397.5519084235307
 10
502.2453418939326
 20
397.3358931864665
 10
502.4836883366687
 20
397.1915564195949
 10
502.7648371353897
 20
397.1408720872565
  0
LWPOLYLINE
  5
2B5
330
1F
100
AcDbEntity
  8
0
  6
Continuous
 62
     7
370
    15
100
AcDbPolyline
 90
       17
 70
   128
 43
0.0
 10
504.7628517192593
 20
397.1408720872565
 10
505.0440005179803
 20
397.1915564195949
 10
505.2823469607164
 20
397.3358931864665
 10
505.4416049621768
 20
397.5519084235307
 10
505.4975289353165
 20
397.8067157691278
 10
505.4416049621768
 20
398.061523114725
 10
505.2823469607164
 20
398.2775383517892
 10
505.0440005179803
 20
398.4218751186606
 10
504.7628517192593
 20
398.4725594509992
 10
504.4817029205378
 20
398.4218751186606
 10
504.2433564778016
 20
398.2775383517892
 10
504.0840984763413
 20
398.061523114725
 10
504.0281745032018
 20
397.8067157691278
 10
504.0840984763413
 20
397.5519084235307
 10
504.2433564778016
 20
397.3358931864665
 10
504.4817029205378
 20
397.1915564195949
 10
504.7628517192593
 20
397.1408720872565
  0
LWPOLYLINE
  5
2B6
330
1F
100
AcDbEntity
  8
0
  6
Continuous
 62
     7
370
    15
100
AcDbPolyline
 90
       17
 70
   128
 43
0.0
 10
506.7225829892429
 20
397.1408720872565
 10
507.0037317879644
 20
397.1915564195949
 10
507.2420782307005
 20
397.3358931864665
 10
507.4013362321611
 20
397.5519084235307
 10
507.4572602053006
 20
397.8067157691278
 10
507.4013362321611
 20
398.061523114725
 10
507.2420782307005
 20
398.2775383517892
 10
507.0037317879644
 20
398.4218751186606
 10
506.7225829892429
 20
398.4725594509992
 10
506.4414341905217
 20
398.4218751186606
 10
506.2030877477857
 20
398.2775383517892
 10
506.0438297463251
 20
398.061523114725
 10
505.9879057731855
 20
397.8067157691278
 10
506.0438297463251
 20
397.5519084235307
 10
506.2030877477857
 20
397.3358931864665
 10
506.4414341905218
 20
397.1915564195949
 10
506.7225829892429
 20
397.1408720872565
  0
LWPOLYLINE
  5
2B7
330
1F
100
AcDbEntity
  8
0
  6
Continuous
 62
     7
370
    15
100
AcDbPolyline
 90
       17
 70
   128
 43
0.0
 10
508.7205975731121
 20
397.1408720872565
 10
509.0017463718334
 20
397.1915564195949
 10
509.2400928145695
 20
397.3358931864665
 10
509.3993508160301
 20
397.5519084235307
 10
509.4552747891696
 20
397.8067157691278
 10
509.3993508160301
 20
398.061523114725
 10
509.2400928145695
 20
398.2775383517892
 10
509.0017463718334
 20
398.4218751186606
 10
508.7205975731121
 20
398.4725594509992
 10
508.4394487743909
 20
398.4218751186606
 10
508.2011023316547
 20
398.2775383517892
 10
508.0418443301946
 20
398.061523114725
 10
507.9859203570549
 20
397.8067157691278
 10
508.0418443301946
 20
397.5519084235307
 10
508.2011023316547
 20
397.3358931864665
 10
508.4394487743909
 20
397.1915564195949
 10
508.7205975731121
 20
397.1408720872565
  0
LWPOLYLINE
  5
2B8
330
1F
100
AcDbEntity
  8
0
  6
Continuous
 62
     7
370
    15
100
AcDbPolyline
 90
       17
 70
   128
 43
0.0
 10
496.9945440682525
 20
398.8315246904142
 10
497.2756928669737
 20
398.8822090227526
 10
497.5140393097099
 20
399.0265457896239
 10
497.6732973111705
 20
399.2425610266882
 10
497.7292212843098
 20
399.4973683722853
 10
497.6732973111705
 20
399.7521757178824
 10
497.5140393097099
 20
399.9681909549467
 10
497.2756928669737
 20
400.1125277218181
 10
496.9945440682525
 20
400.1632120541565
 10
496.7133952695312
 20
400.1125277218181
 10
496.475048826795
 20
399.9681909549467
 10
496.3157908253347
 20
399.7521757178824
 10
496.259866852195
 20
399.4973683722853
 10
496.3157908253347
 20
399.2425610266882
 10
496.475048826795
 20
399.0265457896239
 10
496.7133952695312
 20
398.8822090227526
 10
496.9945440682525
 20
398.8315246904142
  0
LWPOLYLINE
  5
2B9
330
1F
100
AcDbEntity
  8
0
  6
Continuous
 62
     7
370
    15
100
AcDbPolyline
 90
       17
 70
   128
 43
0.0
 10
498.9542753382365
 20
398.8315246904142
 10
499.235424136958
 20
398.8822090227526
 10
499.4737705796942
 20
399.0265457896239
 10
499.6330285811543
 20
399.2425610266882
 10
499.688952554294
 20
399.4973683722853
 10
499.6330285811543
 20
399.7521757178824
 10
499.4737705796942
 20
399.9681909549467
 10
499.235424136958
 20
400.1125277218181
 10
498.9542753382365
 20
400.1632120541565
 10
498.6731265395156
 20
400.1125277218181
 10
498.4347800967789
 20
399.9681909549467
 10
498.2755220953188
 20
399.7521757178824
 10
498.2195981221791
 20
399.4973683722853
 10
498.2755220953188
 20
399.2425610266882
 10
498.4347800967789
 20
399.0265457896239
 10
498.6731265395156
 20
398.8822090227526
 10
498.9542753382365
 20
398.8315246904142
  0
LWPOLYLINE
  5
2BA
330
1F
100
AcDbEntity
  8
0
  6
Continuous
 62
     7
370
    15
100
AcDbPolyline
 90
       17
 70
   128
 43
0.0
 10
500.9522899221056
 20
398.8315246904142
 10
501.233438720827
 20
398.8822090227526
 10
501.4717851635632
 20
399.0265457896239
 10
501.6310431650236
 20
399.2425610266882
 10
501.686967138163
 20
399.4973683722853
 10
501.6310431650236
 20
399.7521757178824
 10
501.4717851635632
 20
399.9681909549467
 10
501.233438720827
 20
400.1125277218181
 10
500.9522899221056
 20
400.1632120541565
 10
500.6711411233841
 20
400.1125277218181
 10
500.4327946806479
 20
399.9681909549467
 10
500.2735366791878
 20
399.7521757178824
 10
500.2176127060481
 20
399.4973683722853
 10
500.2735366791878
 20
399.2425610266882
 10
500.4327946806479
 20
399.0265457896239
 10
500.6711411233841
 20
398.8822090227526
 10
500.9522899221056
 20
398.8315246904142
  0
LWPOLYLINE
  5
2BB
330
1F
100
AcDbEntity
  8
0
  6
Continuous
 62
     7
370
    15
100
AcDbPolyline
 90
       17
 70
   128
 43
0.0
 10
502.7648371353897
 20
398.8315246904142
 10
503.0459859341113
 20
398.8822090227526
 10
503.2843323768474
 20
399.0265457896239
 10
503.4435903783077
 20
399.2425610266882
 10
503.4995143514475
 20
399.4973683722853
 10
503.4435903783077
 20
399.7521757178824
 10
503.2843323768474
 20
399.9681909549467
 10
503.0459859341113
 20
400.1125277218181
 10
502.7648371353897
 20
400.1632120541565
 10
502.4836883366686
 20
400.1125277218181
 10
502.2453418939326
 20
399.9681909549467
 10
502.086083892472
 20
399.7521757178824
 10
502.0301599193325
 20
399.4973683722853
 10
502.086083892472
 20
399.2425610266882
 10
502.2453418939326
 20
399.0265457896239
 10
502.4836883366687
 20
398.8822090227526
 10
502.7648371353897
 20
398.8315246904142
  0
LWPOLYLINE
  5
2BC
330
1F
100
AcDbEntity
  8
0
  6
Continuous
 62
     7
370
    15
100
AcDbPolyline
 90
       17
 70
   128
 43
0.0
 10
504.7628517192593
 20
398.8315246904142
 10
505.0440005179803
 20
398.8822090227526
 10
505.2823469607164
 20
399.0265457896239
 10
505.4416049621768
 20
399.2425610266882
 10
505.4975289353165
 20
399.4973683722853
 10
505.4416049621768
 20
399.7521757178824
 10
505.2823469607164
 20
399.9681909549467
 10
505.0440005179803
 20
400.1125277218181
 10
504.7628517192593
 20
400.1632120541565
 10
504.4817029205378
 20
400.1125277218181
 10
504.2433564778016
 20
399.9681909549467
 10
504.0840984763413
 20
399.7521757178824
 10
504.0281745032018
 20
399.4973683722853
 10
504.0840984763413
 20
399.2425610266882
 10
504.2433564778016
 20
399.0265457896239
 10
504.4817029205378
 20
398.8822090227526
 10
504.7628517192593
 20
398.8315246904142
  0
LWPOLYLINE
  5
2BD
330
1F
100
AcDbEntity
  8
0
  6
Continuous
 62
     7
370
    15
100
AcDbPolyline
 90
       17
 70
   128
 43
0.0
 10
506.7225829892429
 20
398.8315246904142
 10
507.0037317879644
 20
398.8822090227526
 10
507.2420782307005
 20
399.0265457896239
 10
507.4013362321611
 20
399.2425610266882
 10
507.4572602053006
 20
399.4973683722853
 10
507.4013362321611
 20
399.7521757178824
 10
507.2420782307005
 20
399.9681909549467
 10
507.0037317879644
 20
400.1125277218181
 10
506.7225829892429
 20
400.1632120541565
 10
506.4414341905217
 20
400.1125277218181
 10
506.2030877477857
 20
399.9681909549467
 10
506.0438297463251
 20
399.7521757178824
 10
505.9879057731855
 20
399.4973683722853
 10
506.0438297463251
 20
399.2425610266882
 10
506.2030877477857
 20
399.0265457896239
 10
506.4414341905218
 20
398.8822090227526
 10
506.7225829892429
 20
398.8315246904142
  0
LWPOLYLINE
  5
2BE
330
1F
100
AcDbEntity
  8
0
  6
Continuous
 62
     7
370
    15
100
AcDbPolyline
 90
       43
 70
   128
 43
0.0
 10
501.7736289086985
 20
376.7681536728495
 10
504.1965378766435
 20
376.9327137231607
 10
506.5653230619812
 20
377.4227178744979
 10
508.827069717971
 20
378.2272202438277
 10
510.9312541617419
 20
379.3282495776192
 10
512.8308723898796
 20
380.7012106999518
 10
514.4834900701925
 20
382.3154339281027
 10
515.8521904545709
 20
384.1348601825785
 10
516.9063990381378
 20
386.1188464873654
 10
517.6225665431624
 20
388.2230738668536
 10
517.984694971014
 20
390.400537358516
 10
517.984694971014
 20
392.6025960260992
 10
517.6225665431624
 20
394.7800595177614
 10
516.9063990381378
 20
396.8842868972494
 10
515.8521904545709
 20
398.8682732020365
 10
514.4834900701921
 20
400.6876994565121
 10
512.8308723898794
 20
402.3019226846631
 10
510.9312541617414
 20
403.6748838069958
 10
508.827069717971
 20
404.7759131407873
 10
506.5653230619812
 20
405.5804155101169
 10
504.1965378766435
 20
406.0704196614542
 10
501.7736289086983
 20
406.2349797117652
 10
499.3507199407534
 20
406.0704196614541
 10
496.9819347554155
 20
405.5804155101169
 10
494.7201880994259
 20
404.7759131407873
 10
492.6160036556555
 20
403.6748838069956
 10
490.7163854275177
 20
402.301922684663
 10
489.0637677472045
 20
400.6876994565121
 10
487.6950673628259
 20
398.8682732020361
 10
486.6408587792595
 20
396.8842868972492
 10
485.9246912742348
 20
394.7800595177612
 10
485.5625628463831
 20
392.6025960260988
 10
485.5625628463831
 20
390.4005373585158
 10
485.9246912742348
 20
388.2230738668534
 10
486.6408587792595
 20
386.1188464873653
 10
487.6950673628262
 20
384.1348601825783
 10
489.0637677472049
 20
382.3154339281026
 10
490.7163854275179
 20
380.7012106999517
 10
492.6160036556557
 20
379.3282495776192
 10
494.7201880994263
 20
378.2272202438277
 10
496.9819347554157
 20
377.4227178744979
 10
499.350719940754
 20
376.9327137231607
 10
501.7736289086985
 20
376.7681536728495
  0
LWPOLYLINE
  5
2BF
330
1F
100
AcDbEntity
  8
0
  6
Continuous
 62
     7
370
    15
100
AcDbPolyline
 90
       12
 70
   128
 43
0.0
 10
501.7736289086985
 20
372.5419710554426
 10
504.1965378766435
 20
372.7065311057538
 10
506.5653230619812
 20
373.196535257091
 10
508.827069717971
 20
374.0010376264206
 10
510.9312541617419
 20
375.1020669602121
 10
512.8308723898796
 20
376.4750280825448
 10
514.4834900701925
 20
378.0892513106958
 10
515.8521904545709
 20
379.9086775651714
 10
516.9063990381378
 20
381.8926638699585
 10
517.6225665431624
 20
383.9968912494466
 10
517.984694971014
 20
386.1743547411088
 10
518.0301515053229
 20
387.2753840749002
  0
LWPOLYLINE
  5
2C0
330
1F
100
AcDbEntity
  8
0
  6
Continuous
 62
     7
370
    15
100
AcDbPolyline
 90
       12
 70
   128
 43
0.0
 10
485.5171063120742
 20
387.2753840749006
 10
485.5625628463831
 20
386.1743547411087
 10
485.9246912742348
 20
383.9968912494464
 10
486.6408587792595
 20
381.8926638699584
 10
487.6950673628262
 20
379.9086775651713
 10
489.0637677472049
 20
378.0892513106957
 10
490.7163854275179
 20
376.4750280825447
 10
492.6160036556557
 20
375.1020669602119
 10
494.7201880994263
 20
374.0010376264204
 10
496.9819347554157
 20
373.196535257091
 10
499.350719940754
 20
372.7065311057536
 10
501.7736289086985
 20
372.5419710554426
  0
LWPOLYLINE
  5
2C1
330
1F
100
AcDbEntity
  8
0
  6
Continuous
 62
     7
370
    15
100
AcDbPolyline
 90
       17
 70
   128
 43
0.0
 10
498.9542753382365
 20
400.5929188392301
 10
499.235424136958
 20
400.6436031715686
 10
499.4737705796942
 20
400.7879399384401
 10
499.6330285811543
 20
401.0039551755043
 10
499.688952554294
 20
401.2587625211014
 10
499.6330285811543
 20
401.5135698666985
 10
499.4737705796942
 20
401.7295851037626
 10
499.235424136958
 20
401.8739218706341
 10
498.9542753382365
 20
401.9246062029727
 10
498.6731265395156
 20
401.8739218706341
 10
498.4347800967789
 20
401.7295851037626
 10
498.2755220953188
 20
401.5135698666985
 10
498.2195981221791
 20
401.2587625211014
 10
498.2755220953188
 20
401.0039551755043
 10
498.4347800967789
 20
400.7879399384401
 10
498.6731265395156
 20
400.6436031715686
 10
498.9542753382365
 20
400.5929188392301
  0
LWPOLYLINE
  5
2C2
330
1F
100
AcDbEntity
  8
0
  6
Continuous
 62
     7
370
    15
100
AcDbPolyline
 90
       17
 70
   128
 43
0.0
 10
500.9522899221056
 20
400.5929188392301
 10
501.233438720827
 20
400.6436031715686
 10
501.4717851635632
 20
400.7879399384401
 10
501.6310431650236
 20
401.0039551755043
 10
501.686967138163
 20
401.2587625211014
 10
501.6310431650236
 20
401.5135698666985
 10
501.4717851635632
 20
401.7295851037626
 10
501.233438720827
 20
401.8739218706341
 10
500.9522899221056
 20
401.9246062029727
 10
500.6711411233841
 20
401.8739218706341
 10
500.4327946806479
 20
401.7295851037626
 10
500.2735366791878
 20
401.5135698666985
 10
500.2176127060481
 20
401.2587625211014
 10
500.2735366791878
 20
401.0039551755043
 10
500.4327946806479
 20
400.7879399384401
 10
500.6711411233841
 20
400.6436031715686
 10
500.9522899221056
 20
400.5929188392301
  0
LWPOLYLINE
  5
2C3
330
1F
100
AcDbEntity
  8
0
  6
Continuous
 62
     7
370
    15
100
AcDbPolyline
 90
       17
 70
   128
 43
0.0
 10
502.7648371353897
 20
400.5929188392301
 10
503.0459859341113
 20
400.6436031715686
 10
503.2843323768474
 20
400.7879399384401
 10
503.4435903783077
 20
401.0039551755043
 10
503.4995143514475
 20
401.2587625211014
 10
503.4435903783077
 20
401.5135698666985
 10
503.2843323768474
 20
401.7295851037626
 10
503.0459859341113
 20
401.8739218706341
 10
502.7648371353897
 20
401.9246062029727
 10
502.4836883366686
 20
401.8739218706341
 10
502.2453418939326
 20
401.7295851037626
 10
502.086083892472
 20
401.5135698666985
 10
502.0301599193325
 20
401.2587625211014
 10
502.086083892472
 20
401.0039551755043
 10
502.2453418939326
 20
400.7879399384401
 10
502.4836883366687
 20
400.6436031715686
 10
502.7648371353897
 20
400.5929188392301
  0
LWPOLYLINE
  5
2C4
330
1F
100
AcDbEntity
  8
0
  6
Continuous
 62
     7
370
    15
100
AcDbPolyline
 90
       17
 70
   128
 43
0.0
 10
504.7628517192593
 20
400.5929188392301
 10
505.0440005179803
 20
400.6436031715686
 10
505.2823469607164
 20
400.7879399384401
 10
505.4416049621768
 20
401.0039551755043
 10
505.4975289353165
 20
401.2587625211014
 10
505.4416049621768
 20
401.5135698666985
 10
505.2823469607164
 20
401.7295851037626
 10
505.0440005179803
 20
401.8739218706341
 10
504.7628517192593
 20
401.9246062029727
 10
504.4817029205378
 20
401.8739218706341
 10
504.2433564778016
 20
401.7295851037626
 10
504.0840984763413
 20
401.5135698666985
 10
504.0281745032018
 20
401.2587625211014
 10
504.0840984763413
 20
401.0039551755043
 10
504.2433564778016
 20
400.7879399384401
 10
504.4817029205378
 20
400.6436031715686
 10
504.7628517192593
 20
400.5929188392301
  0
LWPOLYLINE
  5
2C5
330
1F
100
AcDbEntity
  8
0
  6
Continuous
 62
     7
370
    15
100
AcDbPolyline
 90
       18
 70
   128
 43
0.0
 10
488.1535170393997
 20
379.2318281938883
 10
488.5810962512305
 20
378.1513210925119
 10
489.5927822170669
 20
376.335460163721
 10
490.9063903787978
 20
374.6860102870846
 10
492.4893608109296
 20
373.2438557739627
 10
494.3024570038005
 20
372.0447427812892
 10
496.3007384046079
 20
371.1183932846406
 10
498.4346743424703
 20
370.4877683704892
 10
500.6513717270649
 20
370.1684991081436
 10
502.8958860903324
 20
370.1684991081436
 10
505.1125834749273
 20
370.4877683704892
 10
507.2465194127894
 20
371.1183932846406
 10
509.2448008135968
 20
372.0447427812892
 10
511.0578970064675
 20
373.2438557739627
 10
512.6408674385995
 20
374.6860102870848
 10
513.9544756003301
 20
376.3354601637211
 10
514.9661615661666
 20
378.151321092512
 10
515.3937407779974
 20
379.2318281938882
  0
ELLIPSE
  5
2C6
330
1F
100
AcDbEntity
  8
0
  6
Continuous
 62
     7
370
    15
100
AcDbEllipse
 10
477.255442494006
 20
392.0105440745136
 30
0.0
 11
-3.159137237737468
 21
4.958852158211044
 31
0.0
210
0.0
220
0.0
230
0.9999999999999998
 40
0.2026327696451532
 41
5.020339979888087
 42
6.15480399368443
  0
LINE
  5
2C7
330
1F
100
AcDbEntity
  8
0
  6
Continuous
 62
     7
370
    15
100
AcDbLine
 10
477.255442494006
 20
394.1236353832171
 30
0.0
 11
464.6124003805018
 21
367.0105440745136
 31
0.0
  0
LINE
  5
2C8
330
1F
100
AcDbEntity
  8
0
  6
Continuous
 62
     7
370
    15
100
AcDbLine
 10
460.0808614453185
 20
367.0105440745136
 30
0.0
 11
474.0700911899685
 21
397.0105440745136
 31
0.0
  0
LINE
  5
2C9
330
1F
100
AcDbEntity
  8
0
  6
Continuous
 62
     7
370
    15
100
AcDbLine
 10
474.0700911899685
 20
397.0105440745136
 30
0.0
 11
474.2509503986688
 21
397.0105440745136
 31
0.0
  0
LINE
  5
2CA
330
1F
100
AcDbEntity
  8
0
  6
Continuous
 62
     7
370
    15
100
AcDbLine
 10
546.7148753215683
 20
367.0105440745136
 30
0.0
 11
534.0718332080643
 21
394.1236353832171
 31
0.0
  0
ELLIPSE
  5
2CB
330
1F
100
AcDbEntity
  8
0
  6
Continuous
 62
     7
370
    15
100
AcDbEllipse
 10
534.0718332080643
 20
392.0105440745136
 30
0.0
 11
3.159137237737184
 21
4.958852158211044
 31
0.0
210
0.0
220
0.0
230
1.0
 40
0.2026327696451789
 41
0.1283813134949089
 42
1.262845327291445
  0
LINE
  5
2CC
330
1F
100
AcDbEntity
  8
0
  6
Continuous
 62
     7
370
    15
100
AcDbLine
 10
537.0763253034015
 20
397.0105440745136
 30
0.0
 11
537.2571845121017
 21
397.0105440745136
 31
0.0
  0
LINE
  5
2CD
330
1F
100
AcDbEntity
  8
0
  6
Continuous
 62
     7
370
    15
100
AcDbLine
 10
537.2571845121017
 20
397.0105440745136
 30
0.0
 11
551.2464142567516
 21
367.0105440745136
 31
0.0
  0
LINE
  5
2CE
330
1F
100
AcDbEntity
  8
0
  6
Continuous
 62
     7
370
    15
100
AcDbLine
 10
474.2509503986688
 20
397.0105440745136
 30
0.0
 11
486.696276382433
 21
397.0105440745136
 31
0.0
  0
LINE
  5
2CF
330
1F
100
AcDbEntity
  8
0
  6
Continuous
 62
     7
370
    15
100
AcDbLine
 10
516.8509814349645
 20
397.0105440745136
 30
0.0
 11
537.0763253034015
 21
397.0105440745136
 31
0.0
  0
LINE
  5
2D0
330
1F
100
AcDbEntity
  8
0
  6
Continuous
 62
     7
370
    15
100
AcDbLine
 10
485.172311113672
 20
407.0105440745136
 30
0.0
 11
518.9557098856669
 21
407.0105440745136
 31
0.0
  0
LINE
  5
2D1
330
1F
100
AcDbEntity
  8
0
  6
Continuous
 62
     8
370
    15
100
AcDbLine
 10
534.0718332080643
 20
394.1236353832171
 30
0.0
 11
517.7706383211011
 21
394.1236353832171
 31
0.0
  0
LINE
  5
2D2
330
1F
100
AcDbEntity
  8
0
  6
Continuous
 62
     8
370
    15
100
AcDbLine
 10
485.7766194962964
 20
394.1236353832171
 30
0.0
 11
477.255442494006
 21
394.1236353832171
 31
0.0
  0
ENDSEC
  0
SECTION
  2
OBJECTS
  0
DICTIONARY
  5
C
330
0
100
AcDbDictionary
281
     1
  3
ACAD_COLOR
350
2FE
  3
ACAD_GROUP
350
D
  3
ACAD_LAYOUT
350
1A
  3
ACAD_MATERIAL
350
2D4
  3
ACAD_MLEADERSTYLE
350
313
  3
ACAD_MLINESTYLE
350
17
  3
ACAD_PLOTSETTINGS
350
19
  3
ACAD_PLOTSTYLENAME
350
E
  3
ACAD_SCALELIST
350
301
  3
ACAD_TABLESTYLE
350
2FF
  3
ACAD_VISUALSTYLE
350
2ED
  3
ACDB_RECOMPOSE_DATA
350
33B
  3
AcDbVariableDictionary
350
331
  0
DICTIONARY
  5
32F
330
10
100
AcDbDictionary
280
     1
281
     1
  3
ADSK_XREC_LAYER_RECONCILED
360
330
  0
DICTIONARY
  5
2FE
102
{ACAD_REACTORS
330
C
102
}
330
C
100
AcDbDictionary
281
     1
  0
DICTIONARY
  5
D
102
{ACAD_REACTORS
330
C
102
}
330
C
100
AcDbDictionary
281
     1
  0
DICTIONARY
  5
1A
102
{ACAD_REACTORS
330
C
102
}
330
C
100
AcDbDictionary
281
     1
  3
Layout1
350
1E
  3
Layout2
350
26
  3
Model
350
22
  0
DICTIONARY
  5
2D4
102
{ACAD_REACTORS
330
C
102
}
330
C
100
AcDbDictionary
281
     1
  3
ByBlock
350
2DD
  3
ByLayer
350
2D5
  3
Global
350
2E5
  0
DICTIONARY
  5
313
102
{ACAD_REACTORS
330
C
102
}
330
C
100
AcDbDictionary
281
     1
  3
Standard
350
314
  0
DICTIONARY
  5
17
102
{ACAD_REACTORS
330
C
102
}
330
C
100
AcDbDictionary
281
     1
  3
Standard
350
18
  0
DICTIONARY
  5
19
102
{ACAD_REACTORS
330
C
102
}
330
C
100
AcDbDictionary
281
     1
  0
ACDBDICTIONARYWDFLT
  5
E
102
{ACAD_REACTORS
330
C
102
}
330
C
100
AcDbDictionary
281
     1
  3
Normal
350
F
100
AcDbDictionaryWithDefault
340
F
  0
DICTIONARY
  5
301
102
{ACAD_REACTORS
330
C
102
}
330
C
100
AcDbDictionary
281
     1
  3
A0
350
302
  3
A1
350
303
  3
A2
350
304
  3
A3
350
305
  3
A4
350
306
  3
A5
350
307
  3
A6
350
308
  3
A7
350
309
  3
A8
350
30A
  3
A9
350
30B
  3
B0
350
30C
  3
B1
350
30D
  3
B2
350
30E
  3
B3
350
30F
  3
B4
350
310
  3
B5
350
311
  3
B6
350
312
  0
DICTIONARY
  5
2FF
102
{ACAD_REACTORS
330
C
102
}
330
C
100
AcDbDictionary
281
     1
  3
Standard
350
300
  0
DICTIONARY
  5
2ED
102
{ACAD_REACTORS
330
C
102
}
330
C
100
AcDbDictionary
281
     1
  3
2dWireframe
350
2F3
  3
3D Hidden
350
2F5
  3
3dWireframe
350
2F4
  3
Basic
350
2F2
  3
Brighten
350
2F9
  3
ColorChange
350
2FD
  3
Conceptual
350
2F6
  3
Dim
350
2F8
  3
Facepattern
350
2FC
  3
Flat
350
2EE
  3
FlatWithEdges
350
2EF
  3
Gouraud
350
2F0
  3
GouraudWithEdges
350
2F1
  3
Linepattern
350
2FB
  3
Realistic
350
2F7
  3
Thicken
350
2FA
  0
XRECORD
  5
33B
102
{ACAD_REACTORS
330
C
102
}
330
C
100
AcDbXrecord
280
     1
 90
        1
330
300
  0
DICTIONARY
  5
331
102
{ACAD_REACTORS
330
C
102
}
330
C
100
AcDbDictionary
281
     1
  3
CANNOSCALE
350
335
  3
CMLEADERSTYLE
350
333
  3
CTABLESTYLE
350
332
  3
LAYEREVAL
350
337
  3
LAYERNOTIFY
350
338
  3
LIGHTINGUNITS
350
336
  3
MSLTSCALE
350
334
  0
XRECORD
  5
330
102
{ACAD_REACTORS
330
32F
102
}
330
32F
100
AcDbXrecord
280
     1
290
     1
  0
LAYOUT
  5
1E
102
{ACAD_REACTORS
330
1A
102
}
330
1A
100
AcDbPlotSettings
  1

  2
none_device
  4

  6

 40
0.0
 41
0.0
 42
0.0
 43
0.0
 44
0.0
 45
0.0
 46
0.0
 47
0.0
 48
0.0
 49
0.0
140
0.0
141
0.0
142
1.0
143
1.0
 70
   688
 72
     0
 73
     0
 74
     5
  7

 75
    16
147
1.0
 76
     0
 77
     2
 78
   300
148
0.0
149
0.0
100
AcDbLayout
  1
Layout1
 70
     1
 71
     1
 10
0.0
 20
0.0
 11
420.0
 21
297.0
 12
0.0
 22
0.0
 32
0.0
 14
1.000000000000000E+20
 24
1.000000000000000E+20
 34
1.000000000000000E+20
 15
-1.000000000000000E+20
 25
-1.000000000000000E+20
 35
-1.000000000000000E+20
146
0.0
 13
0.0
 23
0.0
 33
0.0
 16
1.0
 26
0.0
 36
0.0
 17
0.0
 27
1.0
 37
0.0
 76
     0
330
1B
  0
LAYOUT
  5
26
102
{ACAD_REACTORS
330
1A
102
}
330
1A
100
AcDbPlotSettings
  1

  2
none_device
  4

  6

 40
0.0
 41
0.0
 42
0.0
 43
0.0
 44
0.0
 45
0.0
 46
0.0
 47
0.0
 48
0.0
 49
0.0
140
0.0
141
0.0
142
1.0
143
1.0
 70
   688
 72
     0
 73
     0
 74
     5
  7

 75
    16
147
1.0
 76
     0
 77
     2
 78
   300
148
0.0
149
0.0
100
AcDbLayout
  1
Layout2
 70
     1
 71
     2
 10
0.0
 20
0.0
 11
0.0
 21
0.0
 12
0.0
 22
0.0
 32
0.0
 14
0.0
 24
0.0
 34
0.0
 15
0.0
 25
0.0
 35
0.0
146
0.0
 13
0.0
 23
0.0
 33
0.0
 16
1.0
 26
0.0
 36
0.0
 17
0.0
 27
1.0
 37
0.0
 76
     0
330
23
  0
LAYOUT
  5
22
102
{ACAD_REACTORS
330
1A
102
}
330
1A
100
AcDbPlotSettings
  1

  2
none_device
  4

  6

 40
0.0
 41
0.0
 42
0.0
 43
0.0
 44
0.0
 45
0.0
 46
0.0
 47
0.0
 48
0.0
 49
0.0
140
0.0
141
0.0
142
1.0
143
1.0
 70
  1712
 72
     0
 73
     0
 74
     0
  7

 75
     0
147
1.0
 76
     0
 77
     2
 78
   300
148
0.0
149
0.0
100
AcDbLayout
  1
Model
 70
     1
 71
     0
 10
0.0
 20
0.0
 11
279.4
 21
215.9
 12
0.0
 22
0.0
 32
0.0
 14
0.0
 24
0.0
 34
0.0
 15
279.4
 25
215.9
 35
0.0
146
0.0
 13
0.0
 23
0.0
 33
0.0
 16
1.0
 26
0.0
 36
0.0
 17
0.0
 27
1.0
 37
0.0
 76
     0
330
1F
331
29
  0
MATERIAL
  5
2DD
102
{ACAD_XDICTIONARY
360
2DE
102
}
102
{ACAD_REACTORS
330
2D4
102
}
330
2D4
100
AcDbMaterial
  1
ByBlock
 72
     0
 43
0.0008202099737533
 43
0.0
 43
0.0
 43
0.0
 43
0.0
 43
0.0008202099737533
 43
0.0
 43
0.0
 43
0.0
 43
0.0
 43
1.0
 43
0.0
 43
0.0
 43
0.0
 43
0.0
 43
1.0
 77
     0
 47
0.0008202099737533
 47
0.0
 47
0.0
 47
0.0
 47
0.0
 47
0.0008202099737533
 47
0.0
 47
0.0
 47
0.0
 47
0.0
 47
1.0
 47
0.0
 47
0.0
 47
0.0
 47
0.0
 47
1.0
171
     0
 49
0.0008202099737533
 49
0.0
 49
0.0
 49
0.0
 49
0.0
 49
0.0008202099737533
 49
0.0
 49
0.0
 49
0.0
 49
0.0
 49
1.0
 49
0.0
 49
0.0
 49
0.0
 49
0.0
 49
1.0
175
     0
142
0.0008202099737533
142
0.0
142
0.0
142
0.0
142
0.0
142
0.0008202099737533
142
0.0
142
0.0
142
0.0
142
0.0
142
1.0
142
0.0
142
0.0
142
0.0
142
0.0
142
1.0
179
     0
144
0.0008202099737533
144
0.0
144
0.0
144
0.0
144
0.0
144
0.0008202099737533
144
0.0
144
0.0
144
0.0
144
0.0
144
1.0
144
0.0
144
0.0
144
0.0
144
0.0
144
1.0
147
0.0008202099737533
147
0.0
147
0.0
147
0.0
147
0.0
147
0.0008202099737533
147
0.0
147
0.0
147
0.0
147
0.0
147
1.0
147
0.0
147
0.0
147
0.0
147
0.0
147
1.0
  0
MATERIAL
  5
2D5
102
{ACAD_XDICTIONARY
360
2D6
102
}
102
{ACAD_REACTORS
330
2D4
102
}
330
2D4
100
AcDbMaterial
  1
ByLayer
 72
     0
 43
0.0008202099737533
 43
0.0
 43
0.0
 43
0.0
 43
0.0
 43
0.0008202099737533
 43
0.0
 43
0.0
 43
0.0
 43
0.0
 43
1.0
 43
0.0
 43
0.0
 43
0.0
 43
0.0
 43
1.0
 77
     0
 47
0.0008202099737533
 47
0.0
 47
0.0
 47
0.0
 47
0.0
 47
0.0008202099737533
 47
0.0
 47
0.0
 47
0.0
 47
0.0
 47
1.0
 47
0.0
 47
0.0
 47
0.0
 47
0.0
 47
1.0
171
     0
 49
0.0008202099737533
 49
0.0
 49
0.0
 49
0.0
 49
0.0
 49
0.0008202099737533
 49
0.0
 49
0.0
 49
0.0
 49
0.0
 49
1.0
 49
0.0
 49
0.0
 49
0.0
 49
0.0
 49
1.0
175
     0
142
0.0008202099737533
142
0.0
142
0.0
142
0.0
142
0.0
142
0.0008202099737533
142
0.0
142
0.0
142
0.0
142
0.0
142
1.0
142
0.0
142
0.0
142
0.0
142
0.0
142
1.0
179
     0
144
0.0008202099737533
144
0.0
144
0.0
144
0.0
144
0.0
144
0.0008202099737533
144
0.0
144
0.0
144
0.0
144
0.0
144
1.0
144
0.0
144
0.0
144
0.0
144
0.0
144
1.0
147
0.0008202099737533
147
0.0
147
0.0
147
0.0
147
0.0
147
0.0008202099737533
147
0.0
147
0.0
147
0.0
147
0.0
147
1.0
147
0.0
147
0.0
147
0.0
147
0.0
147
1.0
  0
MATERIAL
  5
2E5
102
{ACAD_XDICTIONARY
360
2E6
102
}
102
{ACAD_REACTORS
330
2D4
102
}
330
2D4
100
AcDbMaterial
  1
Global
 72
     0
 43
0.0008202099737533
 43
0.0
 43
0.0
 43
0.0
 43
0.0
 43
0.0008202099737533
 43
0.0
 43
0.0
 43
0.0
 43
0.0
 43
1.0
 43
0.0
 43
0.0
 43
0.0
 43
0.0
 43
1.0
 77
     0
 47
0.0008202099737533
 47
0.0
 47
0.0
 47
0.0
 47
0.0
 47
0.0008202099737533
 47
0.0
 47
0.0
 47
0.0
 47
0.0
 47
1.0
 47
0.0
 47
0.0
 47
0.0
 47
0.0
 47
1.0
171
     0
 49
0.0008202099737533
 49
0.0
 49
0.0
 49
0.0
 49
0.0
 49
0.0008202099737533
 49
0.0
 49
0.0
 49
0.0
 49
0.0
 49
1.0
 49
0.0
 49
0.0
 49
0.0
 49
0.0
 49
1.0
175
     0
142
0.0008202099737533
142
0.0
142
0.0
142
0.0
142
0.0
142
0.0008202099737533
142
0.0
142
0.0
142
0.0
142
0.0
142
1.0
142
0.0
142
0.0
142
0.0
142
0.0
142
1.0
179
     0
144
0.0008202099737533
144
0.0
144
0.0
144
0.0
144
0.0
144
0.0008202099737533
144
0.0
144
0.0
144
0.0
144
0.0
144
1.0
144
0.0
144
0.0
144
0.0
144
0.0
144
1.0
147
0.0008202099737533
147
0.0
147
0.0
147
0.0
147
0.0
147
0.0008202099737533
147
0.0
147
0.0
147
0.0
147
0.0
147
1.0
147
0.0
147
0.0
147
0.0
147
0.0
147
1.0
  0
MLEADERSTYLE
  5
314
102
{ACAD_REACTORS
330
313
102
}
330
313
100
AcDbMLeaderStyle
170
     2
171
     1
172
     0
 90
        2
 40
0.0
 41
0.0
173
     1
 91
-1056964608
340
14
 92
       -2
290
     1
 42
2.0
291
     1
 43
0.36
  3
Standard
 44
4.0
300

342
11
174
     1
178
     6
175
     1
176
     0
 93
-1056964608
 45
4.0
292
     0
297
     0
 46
4.0
 94
-1056964608
 47
1.0
 49
1.0
140
1.0
293
     1
141
0.0
294
     1
177
     0
142
1.0
295
     1
296
     0
143
0.125
1001
ACAD_MLEADERVER
1070
     2
  0
MLINESTYLE
  5
18
102
{ACAD_REACTORS
330
17
102
}
330
17
100
AcDbMlineStyle
  2
STANDARD
 70
     0
  3

 62
   256
 51
90.0
 52
90.0
 71
     2
 49
0.5
 62
   256
  6
BYLAYER
 49
-0.5
 62
   256
  6
BYLAYER
  0
ACDBPLACEHOLDER
  5
F
102
{ACAD_REACTORS
330
E
102
}
330
E
  0
SCALE
  5
302
102
{ACAD_REACTORS
330
301
102
}
330
301
100
AcDbScale
 70
     0
300
1:1
140
1.0
141
1.0
290
     1
  0
SCALE
  5
303
102
{ACAD_REACTORS
330
301
102
}
330
301
100
AcDbScale
 70
     0
300
1:2
140
1.0
141
2.0
290
     0
  0
SCALE
  5
304
102
{ACAD_REACTORS
330
301
102
}
330
301
100
AcDbScale
 70
     0
300
1:4
140
1.0
141
4.0
290
     0
  0
SCALE
  5
305
102
{ACAD_REACTORS
330
301
102
}
330
301
100
AcDbScale
 70
     0
300
1:5
140
1.0
141
5.0
290
     0
  0
SCALE
  5
306
102
{ACAD_REACTORS
330
301
102
}
330
301
100
AcDbScale
 70
     0
300
1:8
140
1.0
141
8.0
290
     0
  0
SCALE
  5
307
102
{ACAD_REACTORS
330
301
102
}
330
301
100
AcDbScale
 70
     0
300
1:10
140
1.0
141
10.0
290
     0
  0
SCALE
  5
308
102
{ACAD_REACTORS
330
301
102
}
330
301
100
AcDbScale
 70
     0
300
1:16
140
1.0
141
16.0
290
     0
  0
SCALE
  5
309
102
{ACAD_REACTORS
330
301
102
}
330
301
100
AcDbScale
 70
     0
300
1:20
140
1.0
141
20.0
290
     0
  0
SCALE
  5
30A
102
{ACAD_REACTORS
330
301
102
}
330
301
100
AcDbScale
 70
     0
300
1:30
140
1.0
141
30.0
290
     0
  0
SCALE
  5
30B
102
{ACAD_REACTORS
330
301
102
}
330
301
100
AcDbScale
 70
     0
300
1:40
140
1.0
141
40.0
290
     0
  0
SCALE
  5
30C
102
{ACAD_REACTORS
330
301
102
}
330
301
100
AcDbScale
 70
     0
300
1:50
140
1.0
141
50.0
290
     0
  0
SCALE
  5
30D
102
{ACAD_REACTORS
330
301
102
}
330
301
100
AcDbScale
 70
     0
300
1:100
140
1.0
141
100.0
290
     0
  0
SCALE
  5
30E
102
{ACAD_REACTORS
330
301
102
}
330
301
100
AcDbScale
 70
     0
300
2:1
140
2.0
141
1.0
290
     0
  0
SCALE
  5
30F
102
{ACAD_REACTORS
330
301
102
}
330
301
100
AcDbScale
 70
     0
300
4:1
140
4.0
141
1.0
290
     0
  0
SCALE
  5
310
102
{ACAD_REACTORS
330
301
102
}
330
301
100
AcDbScale
 70
     0
300
8:1
140
8.0
141
1.0
290
     0
  0
SCALE
  5
311
102
{ACAD_REACTORS
330
301
102
}
330
301
100
AcDbScale
 70
     0
300
10:1
140
10.0
141
1.0
290
     0
  0
SCALE
  5
312
102
{ACAD_REACTORS
330
301
102
}
330
301
100
AcDbScale
 70
     0
300
100:1
140
100.0
141
1.0
290
     0
  0
TABLESTYLE
  5
300
102
{ACAD_XDICTIONARY
360
339
102
}
102
{ACAD_REACTORS
330
2FF
102
}
330
2FF
100
AcDbTableStyle
  3
Standard
 70
     0
 71
     0
 40
1.5
 41
1.5
280
     0
281
     0
  7
Standard
140
4.5
170
     2
 62
     0
 63
     7
283
     0
 90
      512
 91
        0
  1

274
    -2
284
     1
 64
     0
275
    -2
285
     1
 65
     0
276
    -2
286
     1
 66
     0
277
    -2
287
     1
 67
     0
278
    -2
288
     1
 68
     0
279
    -2
289
     1
 69
     0
  7
Standard
140
6.0
170
     5
 62
     0
 63
     7
283
     0
 90
      512
 91
        0
  1

274
    -2
284
     1
 64
     0
275
    -2
285
     1
 65
     0
276
    -2
286
     1
 66
     0
277
    -2
287
     1
 67
     0
278
    -2
288
     1
 68
     0
279
    -2
289
     1
 69
     0
  7
Standard
140
4.5
170
     5
 62
     0
 63
     7
283
     0
 90
      512
 91
        0
  1

274
    -2
284
     1
 64
     0
275
    -2
285
     1
 65
     0
276
    -2
286
     1
 66
     0
277
    -2
287
     1
 67
     0
278
    -2
288
     1
 68
     0
279
    -2
289
     1
 69
     0
  0
VISUALSTYLE
  5
2F3
102
{ACAD_REACTORS
330
2ED
102
}
330
2ED
100
AcDbVisualStyle
  2
2dWireframe
 70
     4
 71
     0
 72
     2
 73
     0
 90
        0
 40
-0.6
 41
-30.0
 62
     5
 63
     7
421
 16777215
 74
     1
 91
        4
 64
     7
 65
   257
 75
     1
175
     1
 42
1.0
 92
        0
 66
   257
 43
1.0
 76
     1
 77
     6
 78
     2
 67
     7
 79
     5
170
     0
171
     0
290
     0
174
     0
 93
        1
 44
0.0
173
     0
291
     0
 45
0.0
  0
VISUALSTYLE
  5
2F5
102
{ACAD_REACTORS
330
2ED
102
}
330
2ED
100
AcDbVisualStyle
  2
3D Hidden
 70
     6
 71
     1
 72
     2
 73
     2
 90
        0
 40
-0.6
 41
-30.0
 62
     5
 63
     7
421
 16777215
 74
     2
 91
        2
 64
     7
 65
   257
 75
     2
175
     1
 42
40.0
 92
        0
 66
   257
 43
1.0
 76
     1
 77
     6
 78
     2
 67
     7
 79
     3
170
     0
171
     0
290
     0
174
     0
 93
        1
 44
0.0
173
     0
291
     0
 45
0.0
  0
VISUALSTYLE
  5
2F4
102
{ACAD_REACTORS
330
2ED
102
}
330
2ED
100
AcDbVisualStyle
  2
3dWireframe
 70
     5
 71
     0
 72
     2
 73
     0
 90
        0
 40
-0.6
 41
-30.0
 62
     5
 63
     7
421
 16777215
 74
     1
 91
        4
 64
     7
 65
   257
 75
     1
175
     1
 42
1.0
 92
        0
 66
   257
 43
1.0
 76
     1
 77
     6
 78
     2
 67
     7
 79
     5
170
     0
171
     0
290
     0
174
     0
 93
        1
 44
0.0
173
     0
291
     0
 45
0.0
  0
VISUALSTYLE
  5
2F2
102
{ACAD_REACTORS
330
2ED
102
}
330
2ED
100
AcDbVisualStyle
  2
Basic
 70
     7
 71
     1
 72
     0
 73
     1
 90
        0
 40
-0.6
 41
-30.0
 62
     5
 63
     7
421
 16777215
 74
     0
 91
        4
 64
     7
 65
   257
 75
     1
175
     1
 42
1.0
 92
        8
 66
     7
 43
1.0
 76
     1
 77
     6
 78
     2
 67
     7
 79
     5
170
     0
171
     0
290
     0
174
     0
 93
        1
 44
0.0
173
     0
291
     1
 45
0.0
  0
VISUALSTYLE
  5
2F9
102
{ACAD_REACTORS
330
2ED
102
}
330
2ED
100
AcDbVisualStyle
  2
Brighten
 70
    12
 71
     2
 72
     2
 73
     0
 90
        0
 40
-0.6
 41
-30.0
 62
     5
 63
     7
421
 16777215
 74
     1
 91
        4
 64
     7
 65
   257
 75
     1
175
     1
 42
1.0
 92
        8
 66
     7
 43
1.0
 76
     1
 77
     6
 78
     2
 67
     7
 79
     5
170
     0
171
     0
290
     0
174
     0
 93
        1
 44
50.0
173
     0
291
     1
 45
0.0
  0
VISUALSTYLE
  5
2FD
102
{ACAD_REACTORS
330
2ED
102
}
330
2ED
100
AcDbVisualStyle
  2
ColorChange
 70
    16
 71
     2
 72
     2
 73
     3
 90
        0
 40
-0.6
 41
-30.0
 62
     5
 63
     8
421
  8421504
 74
     1
 91
        4
 64
     7
 65
   257
 75
     1
175
     1
 42
1.0
 92
        8
 66
     8
424
  8421504
 43
1.0
 76
     1
 77
     6
 78
     2
 67
     7
 79
     5
170
     0
171
     0
290
     0
174
     0
 93
        1
 44
0.0
173
     0
291
     1
 45
0.0
  0
VISUALSTYLE
  5
2F6
102
{ACAD_REACTORS
330
2ED
102
}
330
2ED
100
AcDbVisualStyle
  2
Conceptual
 70
     9
 71
     3
 72
     2
 73
     0
 90
        0
 40
-0.6
 41
-30.0
 62
     5
 63
     7
421
 16777215
 74
     2
 91
        2
 64
     7
 65
   257
 75
     1
175
     1
 42
40.0
 92
        8
 66
     7
 43
1.0
 76
     1
 77
     6
 78
     2
 67
     7
 79
     3
170
     0
171
     0
290
     0
174
     0
 93
        1
 44
0.0
173
     0
291
     0
 45
0.0
  0
VISUALSTYLE
  5
2F8
102
{ACAD_REACTORS
330
2ED
102
}
330
2ED
100
AcDbVisualStyle
  2
Dim
 70
    11
 71
     2
 72
     2
 73
     0
 90
        0
 40
-0.6
 41
-30.0
 62
     5
 63
     7
421
 16777215
 74
     1
 91
        4
 64
     7
 65
   257
 75
     1
175
     1
 42
1.0
 92
        8
 66
     7
 43
1.0
 76
     1
 77
     6
 78
     2
 67
     7
 79
     5
170
     0
171
     0
290
     0
174
     0
 93
        1
 44
-50.0
173
     0
291
     1
 45
0.0
  0
VISUALSTYLE
  5
2FC
102
{ACAD_REACTORS
330
2ED
102
}
330
2ED
100
AcDbVisualStyle
  2
Facepattern
 70
    15
 71
     2
 72
     2
 73
     0
 90
        0
 40
-0.6
 41
-30.0
 62
     5
 63
     7
421
 16777215
 74
     1
 91
        4
 64
     7
 65
   257
 75
     1
175
     1
 42
1.0
 92
        8
 66
     7
 43
1.0
 76
     1
 77
     6
 78
     2
 67
     7
 79
     5
170
     0
171
     0
290
     0
174
     0
 93
        1
 44
0.0
173
     0
291
     1
 45
0.0
  0
VISUALSTYLE
  5
2EE
102
{ACAD_REACTORS
330
2ED
102
}
330
2ED
100
AcDbVisualStyle
  2
Flat
 70
     0
 71
     2
 72
     1
 73
     1
 90
        2
 40
-0.6
 41
30.0
 62
     5
 63
     7
421
 16777215
 74
     0
 91
        4
 64
     7
 65
   257
 75
     1
175
     1
 42
1.0
 92
        8
 66
     7
 43
1.0
 76
     1
 77
     6
 78
     2
 67
     7
 79
     5
170
     0
171
     0
290
     0
174
     0
 93
       13
 44
0.0
173
     0
291
     1
 45
0.0
  0
VISUALSTYLE
  5
2EF
102
{ACAD_REACTORS
330
2ED
102
}
330
2ED
100
AcDbVisualStyle
  2
FlatWithEdges
 70
     1
 71
     2
 72
     1
 73
     1
 90
        2
 40
-0.6
 41
30.0
 62
     5
 63
     7
421
 16777215
 74
     1
 91
        4
 64
     7
 65
   257
 75
     1
175
     1
 42
1.0
 92
        0
 66
   257
 43
1.0
 76
     1
 77
     6
 78
     2
 67
     7
 79
     5
170
     0
171
     0
290
     0
174
     0
 93
       13
 44
0.0
173
     0
291
     1
 45
0.0
  0
VISUALSTYLE
  5
2F0
102
{ACAD_REACTORS
330
2ED
102
}
330
2ED
100
AcDbVisualStyle
  2
Gouraud
 70
     2
 71
     2
 72
     2
 73
     1
 90
        2
 40
-0.6
 41
30.0
 62
     5
 63
     7
421
 16777215
 74
     0
 91
        4
 64
     7
 65
   257
 75
     1
175
     1
 42
1.0
 92
        0
 66
     7
 43
1.0
 76
     1
 77
     6
 78
     2
 67
     7
 79
     5
170
     0
171
     0
290
     0
174
     0
 93
       13
 44
0.0
173
     0
291
     1
 45
0.0
  0
VISUALSTYLE
  5
2F1
102
{ACAD_REACTORS
330
2ED
102
}
330
2ED
100
AcDbVisualStyle
  2
GouraudWithEdges
 70
     3
 71
     2
 72
     2
 73
     1
 90
        2
 40
-0.6
 41
30.0
 62
     5
 63
     7
421
 16777215
 74
     1
 91
        4
 64
     7
 65
   257
 75
     1
175
     1
 42
1.0
 92
        0
 66
   257
 43
1.0
 76
     1
 77
     6
 78
     2
 67
     7
 79
     5
170
     0
171
     0
290
     0
174
     0
 93
       13
 44
0.0
173
     0
291
     1
 45
0.0
  0
VISUALSTYLE
  5
2FB
102
{ACAD_REACTORS
330
2ED
102
}
330
2ED
100
AcDbVisualStyle
  2
Linepattern
 70
    14
 71
     2
 72
     2
 73
     0
 90
        0
 40
-0.6
 41
-30.0
 62
     5
 63
     7
421
 16777215
 74
     1
 91
        4
 64
     7
 65
   257
 75
     7
175
     7
 42
1.0
 92
        8
 66
     7
 43
1.0
 76
     1
 77
     6
 78
     2
 67
     7
 79
     5
170
     0
171
     0
290
     0
174
     0
 93
        1
 44
0.0
173
     0
291
     1
 45
0.0
  0
VISUALSTYLE
  5
2F7
102
{ACAD_REACTORS
330
2ED
102
}
330
2ED
100
AcDbVisualStyle
  2
Realistic
 70
     8
 71
     2
 72
     2
 73
     0
 90
        0
 40
-0.6
 41
-30.0
 62
     5
 63
     7
421
 16777215
 74
     1
 91
        0
 64
     7
 65
   257
 75
     1
175
     1
 42
1.0
 92
        8
 66
     8
424
  7895160
 43
1.0
 76
     1
 77
     6
 78
     2
 67
     7
 79
     5
170
     0
171
     0
290
     0
174
     0
 93
       13
 44
0.0
173
     0
291
     0
 45
0.0
  0
VISUALSTYLE
  5
2FA
102
{ACAD_REACTORS
330
2ED
102
}
330
2ED
100
AcDbVisualStyle
  2
Thicken
 70
    13
 71
     2
 72
     2
 73
     0
 90
        0
 40
-0.6
 41
-30.0
 62
     5
 63
     7
421
 16777215
 74
     1
 91
        4
 64
     7
 65
   257
 75
     1
175
     1
 42
1.0
 92
       12
 66
     7
 43
1.0
 76
     1
 77
     6
 78
     2
 67
     7
 79
     5
170
     0
171
     0
290
     0
174
     0
 93
        1
 44
0.0
173
     0
291
     1
 45
0.0
  0
DICTIONARYVAR
  5
335
102
{ACAD_REACTORS
330
331
102
}
330
331
100
DictionaryVariables
280
     0
  1
1:1
  0
DICTIONARYVAR
  5
333
102
{ACAD_REACTORS
330
331
102
}
330
331
100
DictionaryVariables
280
     0
  1
STANDARD
  0
DICTIONARYVAR
  5
332
102
{ACAD_REACTORS
330
331
102
}
330
331
100
DictionaryVariables
280
     0
  1
STANDARD
  0
DICTIONARYVAR
  5
337
102
{ACAD_REACTORS
330
331
102
}
330
331
100
DictionaryVariables
280
     0
  1
1
  0
DICTIONARYVAR
  5
338
102
{ACAD_REACTORS
330
331
102
}
330
331
100
DictionaryVariables
280
     0
  1
15
  0
DICTIONARYVAR
  5
336
102
{ACAD_REACTORS
330
331
102
}
330
331
100
DictionaryVariables
280
     0
  1
0
  0
DICTIONARYVAR
  5
334
102
{ACAD_REACTORS
330
331
102
}
330
331
100
DictionaryVariables
280
     0
  1
0
  0
DICTIONARY
  5
2DE
330
2DD
100
AcDbDictionary
280
     1
281
     1
  3
BUMPTILE
360
2E0
  3
DIFFUSETILE
360
2DF
  3
OPACITYTILE
360
2E3
  3
REFLECTIONTILE
360
2E2
  3
REFRACTIONTILE
360
2E4
  3
SPECULARTILE
360
2E1
  0
DICTIONARY
  5
2D6
330
2D5
100
AcDbDictionary
280
     1
281
     1
  3
BUMPTILE
360
2D8
  3
DIFFUSETILE
360
2D7
  3
OPACITYTILE
360
2DB
  3
REFLECTIONTILE
360
2DA
  3
REFRACTIONTILE
360
2DC
  3
SPECULARTILE
360
2D9
  0
DICTIONARY
  5
2E6
330
2E5
100
AcDbDictionary
280
     1
281
     1
  3
BUMPTILE
360
2E8
  3
DIFFUSETILE
360
2E7
  3
OPACITYTILE
360
2EB
  3
REFLECTIONTILE
360
2EA
  3
REFRACTIONTILE
360
2EC
  3
SPECULARTILE
360
2E9
  0
DICTIONARY
  5
339
330
300
100
AcDbDictionary
280
     1
281
     1
  3
ACAD_ROUNDTRIP_2008_TABLESTYLE_CELLSTYLEMAP
360
33A
  0
XRECORD
  5
2E0
102
{ACAD_REACTORS
330
2DE
102
}
330
2DE
100
AcDbXrecord
280
     1
270
     1
271
     1
  0
XRECORD
  5
2DF
102
{ACAD_REACTORS
330
2DE
102
}
330
2DE
100
AcDbXrecord
280
     1
270
     1
271
     1
  0
XRECORD
  5
2E3
102
{ACAD_REACTORS
330
2DE
102
}
330
2DE
100
AcDbXrecord
280
     1
270
     1
271
     1
  0
XRECORD
  5
2E2
102
{ACAD_REACTORS
330
2DE
102
}
330
2DE
100
AcDbXrecord
280
     1
270
     1
271
     1
  0
XRECORD
  5
2E4
102
{ACAD_REACTORS
330
2DE
102
}
330
2DE
100
AcDbXrecord
280
     1
270
     1
271
     1
  0
XRECORD
  5
2E1
102
{ACAD_REACTORS
330
2DE
102
}
330
2DE
100
AcDbXrecord
280
     1
270
     1
271
     1
  0
XRECORD
  5
2D8
102
{ACAD_REACTORS
330
2D6
102
}
330
2D6
100
AcDbXrecord
280
     1
270
     1
271
     1
  0
XRECORD
  5
2D7
102
{ACAD_REACTORS
330
2D6
102
}
330
2D6
100
AcDbXrecord
280
     1
270
     1
271
     1
  0
XRECORD
  5
2DB
102
{ACAD_REACTORS
330
2D6
102
}
330
2D6
100
AcDbXrecord
280
     1
270
     1
271
     1
  0
XRECORD
  5
2DA
102
{ACAD_REACTORS
330
2D6
102
}
330
2D6
100
AcDbXrecord
280
     1
270
     1
271
     1
  0
XRECORD
  5
2DC
102
{ACAD_REACTORS
330
2D6
102
}
330
2D6
100
AcDbXrecord
280
     1
270
     1
271
     1
  0
XRECORD
  5
2D9
102
{ACAD_REACTORS
330
2D6
102
}
330
2D6
100
AcDbXrecord
280
     1
270
     1
271
     1
  0
XRECORD
  5
2E8
102
{ACAD_REACTORS
330
2E6
102
}
330
2E6
100
AcDbXrecord
280
     1
270
     1
271
     1
  0
XRECORD
  5
2E7
102
{ACAD_REACTORS
330
2E6
102
}
330
2E6
100
AcDbXrecord
280
     1
270
     1
271
     1
  0
XRECORD
  5
2EB
102
{ACAD_REACTORS
330
2E6
102
}
330
2E6
100
AcDbXrecord
280
     1
270
     1
271
     1
  0
XRECORD
  5
2EA
102
{ACAD_REACTORS
330
2E6
102
}
330
2E6
100
AcDbXrecord
280
     1
270
     1
271
     1
  0
XRECORD
  5
2EC
102
{ACAD_REACTORS
330
2E6
102
}
330
2E6
100
AcDbXrecord
280
     1
270
     1
271
     1
  0
XRECORD
  5
2E9
102
{ACAD_REACTORS
330
2E6
102
}
330
2E6
100
AcDbXrecord
280
     1
270
     1
271
     1
  0
CELLSTYLEMAP
  5
33A
102
{ACAD_REACTORS
330
339
102
}
330
339
100
AcDbCellStyleMap
 90
        3
300
CELLSTYLE
  1
TABLEFORMAT_BEGIN
 90
        5
170
     1
 91
        0
 92
    32768
 62
   257
 93
        1
300
CONTENTFORMAT
  1
CONTENTFORMAT_BEGIN
 90
        0
 91
        0
 92
      512
 93
        0
300

 40
0.0
140
1.0
 94
        5
 62
     0
340
11
144
6.0
309
CONTENTFORMAT_END
171
     1
301
MARGIN
  1
CELLMARGIN_BEGIN
 40
1.5
 40
1.5
 40
1.5
 40
1.5
 40
4.5
 40
4.5
309
CELLMARGIN_END
 94
        6
 95
        1
302
GRIDFORMAT
  1
GRIDFORMAT_BEGIN
 90
        0
 91
        1
 62
     0
 92
       -2
340
0
 93
        0
 40
1.125
309
GRIDFORMAT_END
 95
        2
302
GRIDFORMAT
  1
GRIDFORMAT_BEGIN
 90
        0
 91
        1
 62
     0
 92
       -2
340
0
 93
        0
 40
1.125
309
GRIDFORMAT_END
 95
        4
302
GRIDFORMAT
  1
GRIDFORMAT_BEGIN
 90
        0
 91
        1
 62
     0
 92
       -2
340
0
 93
        0
 40
1.125
309
GRIDFORMAT_END
 95
        8
302
GRIDFORMAT
  1
GRIDFORMAT_BEGIN
 90
        0
 91
        1
 62
     0
 92
       -2
340
0
 93
        0
 40
1.125
309
GRIDFORMAT_END
 95
       16
302
GRIDFORMAT
  1
GRIDFORMAT_BEGIN
 90
        0
 91
        1
 62
     0
 92
       -2
340
0
 93
        0
 40
1.125
309
GRIDFORMAT_END
 95
       32
302
GRIDFORMAT
  1
GRIDFORMAT_BEGIN
 90
        0
 91
        1
 62
     0
 92
       -2
340
0
 93
        0
 40
1.125
309
GRIDFORMAT_END
309
TABLEFORMAT_END
  1
CELLSTYLE_BEGIN
 90
        1
 91
        1
300
_TITLE
309
CELLSTYLE_END
300
CELLSTYLE
  1
TABLEFORMAT_BEGIN
 90
        5
170
     1
 91
        0
 92
        0
 62
   257
 93
        1
300
CONTENTFORMAT
  1
CONTENTFORMAT_BEGIN
 90
        0
 91
        0
 92
      512
 93
        0
300

 40
0.0
140
1.0
 94
        5
 62
     0
340
11
144
4.5
309
CONTENTFORMAT_END
171
     1
301
MARGIN
  1
CELLMARGIN_BEGIN
 40
1.5
 40
1.5
 40
1.5
 40
1.5
 40
4.5
 40
4.5
309
CELLMARGIN_END
 94
        6
 95
        1
302
GRIDFORMAT
  1
GRIDFORMAT_BEGIN
 90
        0
 91
        1
 62
     0
 92
       -2
340
0
 93
        0
 40
1.125
309
GRIDFORMAT_END
 95
        2
302
GRIDFORMAT
  1
GRIDFORMAT_BEGIN
 90
        0
 91
        1
 62
     0
 92
       -2
340
0
 93
        0
 40
1.125
309
GRIDFORMAT_END
 95
        4
302
GRIDFORMAT
  1
GRIDFORMAT_BEGIN
 90
        0
 91
        1
 62
     0
 92
       -2
340
0
 93
        0
 40
1.125
309
GRIDFORMAT_END
 95
        8
302
GRIDFORMAT
  1
GRIDFORMAT_BEGIN
 90
        0
 91
        1
 62
     0
 92
       -2
340
0
 93
        0
 40
1.125
309
GRIDFORMAT_END
 95
       16
302
GRIDFORMAT
  1
GRIDFORMAT_BEGIN
 90
        0
 91
        1
 62
     0
 92
       -2
340
0
 93
        0
 40
1.125
309
GRIDFORMAT_END
 95
       32
302
GRIDFORMAT
  1
GRIDFORMAT_BEGIN
 90
        0
 91
        1
 62
     0
 92
       -2
340
0
 93
        0
 40
1.125
309
GRIDFORMAT_END
309
TABLEFORMAT_END
  1
CELLSTYLE_BEGIN
 90
        2
 91
        1
300
_HEADER
309
CELLSTYLE_END
300
CELLSTYLE
  1
TABLEFORMAT_BEGIN
 90
        5
170
     1
 91
        0
 92
        0
 62
   257
 93
        1
300
CONTENTFORMAT
  1
CONTENTFORMAT_BEGIN
 90
        0
 91
        0
 92
      512
 93
        0
300

 40
0.0
140
1.0
 94
        2
 62
     0
340
11
144
4.5
309
CONTENTFORMAT_END
171
     1
301
MARGIN
  1
CELLMARGIN_BEGIN
 40
1.5
 40
1.5
 40
1.5
 40
1.5
 40
4.5
 40
4.5
309
CELLMARGIN_END
 94
        6
 95
        1
302
GRIDFORMAT
  1
GRIDFORMAT_BEGIN
 90
        0
 91
        1
 62
     0
 92
       -2
340
0
 93
        0
 40
1.125
309
GRIDFORMAT_END
 95
        2
302
GRIDFORMAT
  1
GRIDFORMAT_BEGIN
 90
        0
 91
        1
 62
     0
 92
       -2
340
0
 93
        0
 40
1.125
309
GRIDFORMAT_END
 95
        4
302
GRIDFORMAT
  1
GRIDFORMAT_BEGIN
 90
        0
 91
        1
 62
     0
 92
       -2
340
0
 93
        0
 40
1.125
309
GRIDFORMAT_END
 95
        8
302
GRIDFORMAT
  1
GRIDFORMAT_BEGIN
 90
        0
 91
        1
 62
     0
 92
       -2
340
0
 93
        0
 40
1.125
309
GRIDFORMAT_END
 95
       16
302
GRIDFORMAT
  1
GRIDFORMAT_BEGIN
 90
        0
 91
        1
 62
     0
 92
       -2
340
0
 93
        0
 40
1.125
309
GRIDFORMAT_END
 95
       32
302
GRIDFORMAT
  1
GRIDFORMAT_BEGIN
 90
        0
 91
        1
 62
     0
 92
       -2
340
0
 93
        0
 40
1.125
309
GRIDFORMAT_END
309
TABLEFORMAT_END
  1
CELLSTYLE_BEGIN
 90
        3
 91
        2
300
_DATA
309
CELLSTYLE_END
  0
ENDSEC
  0
EOF
