  0
SECTION
  2
HEADER
  9
$ACADVER
  1
AC1015
  9
$ACADMAINTVER
 70
     6
  9
$DWGCODEPAGE
  3
ANSI_1251
  9
$INSBASE
 10
0.0
 20
0.0
 30
0.0
  9
$EXTMIN
 10
0.0
 20
0.0
 30
0.0
  9
$EXTMAX
 10
558.8
 20
431.8
 30
0.0
  9
$LIMMIN
 10
0.0
 20
0.0
  9
$LIMMAX
 10
558.8
 20
431.8
  9
$ORTHOMODE
 70
     0
  9
$REGENMODE
 70
     1
  9
$FILLMODE
 70
     1
  9
$QTEXTMODE
 70
     0
  9
$MIRRTEXT
 70
     1
  9
$LTSCALE
 40
2.0
  9
$ATTMODE
 70
     1
  9
$TEXTSIZE
 40
7.0
  9
$TRACEWID
 40
1.0
  9
$TEXTSTYLE
  7
Standard
  9
$CLAYER
  8
0
  9
$CELTYPE
  6
ByLayer
  9
$CECOLOR
 62
   256
  9
$CELTSCALE
 40
1.0
  9
$DISPSILH
 70
     0
  9
$DIMSCALE
 40
1.0
  9
$DIMASZ
 40
7.0
  9
$DIMEXO
 40
0.02
  9
$DIMDLI
 40
3.75
  9
$DIMRND
 40
0.0
  9
$DIMDLE
 40
0.0
  9
$DIMEXE
 40
2.0
  9
$DIMTP
 40
0.0
  9
$DIMTM
 40
0.0
  9
$DIMTXT
 40
7.0
  9
$DIMCEN
 40
2.5
  9
$DIMTSZ
 40
0.0
  9
$DIMTOL
 70
     0
  9
$DIMLIM
 70
     0
  9
$DIMTIH
 70
     1
  9
$DIMTOH
 70
     1
  9
$DIMSE1
 70
     0
  9
$DIMSE2
 70
     0
  9
$DIMTAD
 70
     1
  9
$DIMZIN
 70
     0
  9
$DIMBLK
  1

  9
$DIMASO
 70
     1
  9
$DIMSHO
 70
     1
  9
$DIMPOST
  1

  9
$DIMAPOST
  1

  9
$DIMALT
 70
     0
  9
$DIMALTD
 70
     3
  9
$DIMALTF
 40
0.0393700787
  9
$DIMLFAC
 40
1.0
  9
$DIMTOFL
 70
     1
  9
$DIMTVP
 40
0.0
  9
$DIMTIX
 70
     0
  9
$DIMSOXD
 70
     0
  9
$DIMSAH
 70
     0
  9
$DIMBLK1
  1

  9
$DIMBLK2
  1

  9
$DIMSTYLE
  2
ISO-25
  9
$DIMCLRD
 70
     0
  9
$DIMCLRE
 70
     0
  9
$DIMCLRT
 70
     0
  9
$DIMTFAC
 40
1.0
  9
$DIMGAP
 40
6.0
  9
$DIMJUST
 70
     0
  9
$DIMSD1
 70
     0
  9
$DIMSD2
 70
     0
  9
$DIMTOLJ
 70
     0
  9
$DIMTZIN
 70
     0
  9
$DIMALTZ
 70
     0
  9
$DIMALTTZ
 70
     0
  9
$DIMUPT
 70
     0
  9
$DIMDEC
 70
     2
  9
$DIMTDEC
 70
     3
  9
$DIMALTU
 70
     2
  9
$DIMALTTD
 70
     3
  9
$DIMTXSTY
  7
Standard
  9
$DIMAUNIT
 70
     0
  9
$DIMADEC
 70
     2
  9
$DIMALTRND
 40
0.0
  9
$DIMAZIN
 70
     0
  9
$DIMDSEP
 70
    44
  9
$DIMATFIT
 70
     3
  9
$DIMFRAC
 70
     0
  9
$DIMLDRBLK
  1

  9
$DIMLUNIT
 70
     2
  9
$DIMLWD
 70
    -2
  9
$DIMLWE
 70
    -2
  9
$DIMTMOVE
 70
     0
  9
$LUNITS
 70
     2
  9
$LUPREC
 70
     2
  9
$SKETCHINC
 40
1.0
  9
$FILLETRAD
 40
10.0
  9
$AUNITS
 70
     0
  9
$AUPREC
 70
     2
  9
$MENU
  1
.
  9
$ELEVATION
 40
0.0
  9
$PELEVATION
 40
0.0
  9
$THICKNESS
 40
0.0
  9
$LIMCHECK
 70
     0
  9
$CHAMFERA
 40
10.0
  9
$CHAMFERB
 40
10.0
  9
$CHAMFERC
 40
20.0
  9
$CHAMFERD
 40
0.0
  9
$SKPOLY
 70
     0
  9
$TDCREATE
 40
2458090.96230728
  9
$TDUCREATE
 40
2458090.878973947
  9
$TDUPDATE
 40
2458090.962307662
  9
$TDUUPDATE
 40
2458090.878974329
  9
$TDINDWG
 40
0.0000000116
  9
$TDUSRTIMER
 40
0.0000000116
  9
$USRTIMER
 70
     1
  9
$ANGBASE
 50
0.0
  9
$ANGDIR
 70
     0
  9
$PDMODE
 70
     0
  9
$PDSIZE
 40
-1.0
  9
$PLINEWID
 40
0.0
  9
$SPLFRAME
 70
     0
  9
$SPLINETYPE
 70
     6
  9
$SPLINESEGS
 70
     8
  9
$HANDSEED
  5
56
  9
$SURFTAB1
 70
     6
  9
$SURFTAB2
 70
     6
  9
$SURFTYPE
 70
     6
  9
$SURFU
 70
     6
  9
$SURFV
 70
     6
  9
$UCSBASE
  2

  9
$UCSNAME
  2

  9
$UCSORG
 10
0.0
 20
0.0
 30
0.0
  9
$UCSXDIR
 10
1.0
 20
0.0
 30
0.0
  9
$UCSYDIR
 10
0.0
 20
1.0
 30
0.0
  9
$UCSORTHOREF
  2

  9
$UCSORTHOVIEW
 70
     0
  9
$UCSORGTOP
 10
0.0
 20
0.0
 30
0.0
  9
$UCSORGBOTTOM
 10
0.0
 20
0.0
 30
0.0
  9
$UCSORGLEFT
 10
0.0
 20
0.0
 30
0.0
  9
$UCSORGRIGHT
 10
0.0
 20
0.0
 30
0.0
  9
$UCSORGFRONT
 10
0.0
 20
0.0
 30
0.0
  9
$UCSORGBACK
 10
0.0
 20
0.0
 30
0.0
  9
$PUCSBASE
  2

  9
$PUCSNAME
  2

  9
$PUCSORG
 10
0.0
 20
0.0
 30
0.0
  9
$PUCSXDIR
 10
1.0
 20
0.0
 30
0.0
  9
$PUCSYDIR
 10
0.0
 20
1.0
 30
0.0
  9
$PUCSORTHOREF
  2

  9
$PUCSORTHOVIEW
 70
     0
  9
$PUCSORGTOP
 10
0.0
 20
0.0
 30
0.0
  9
$PUCSORGBOTTOM
 10
0.0
 20
0.0
 30
0.0
  9
$PUCSORGLEFT
 10
0.0
 20
0.0
 30
0.0
  9
$PUCSORGRIGHT
 10
0.0
 20
0.0
 30
0.0
  9
$PUCSORGFRONT
 10
0.0
 20
0.0
 30
0.0
  9
$PUCSORGBACK
 10
0.0
 20
0.0
 30
0.0
  9
$USERI1
 70
     0
  9
$USERI2
 70
     0
  9
$USERI3
 70
     0
  9
$USERI4
 70
     0
  9
$USERI5
 70
     0
  9
$USERR1
 40
0.0
  9
$USERR2
 40
0.0
  9
$USERR3
 40
0.0
  9
$USERR4
 40
0.0
  9
$USERR5
 40
0.0
  9
$WORLDVIEW
 70
     1
  9
$SHADEDGE
 70
     3
  9
$SHADEDIF
 70
    70
  9
$TILEMODE
 70
     1
  9
$MAXACTVP
 70
    64
  9
$PINSBASE
 10
0.0
 20
0.0
 30
0.0
  9
$PLIMCHECK
 70
     0
  9
$PEXTMIN
 10
1.0000000000E+20
 20
1.0000000000E+20
 30
1.0000000000E+20
  9
$PEXTMAX
 10
-1.0000000000E+20
 20
-1.0000000000E+20
 30
-1.0000000000E+20
  9
$PLIMMIN
 10
0.0
 20
0.0
  9
$PLIMMAX
 10
420.0
 20
297.0
  9
$UNITMODE
 70
     0
  9
$VISRETAIN
 70
     1
  9
$PLINEGEN
 70
     0
  9
$PSLTSCALE
 70
     1
  9
$TREEDEPTH
 70
  3020
  9
$CMLSTYLE
  2
Standard
  9
$CMLJUST
 70
     0
  9
$CMLSCALE
 40
20.0
  9
$PROXYGRAPHICS
 70
     1
  9
$MEASUREMENT
 70
     1
  9
$CELWEIGHT
370
    -1
  9
$ENDCAPS
280
     0
  9
$JOINSTYLE
280
     0
  9
$LWDISPLAY
290
     1
  9
$INSUNITS
 70
     4
  9
$HYPERLINKBASE
  1

  9
$STYLESHEET
  1

  9
$XEDIT
290
     1
  9
$CEPSNTYPE
380
     0
  9
$PSTYLEMODE
290
     1
  9
$FINGERPRINTGUID
  2
{280365E5-E5FF-4EB9-9C23-93BDE896A8CD}
  9
$VERSIONGUID
  2
{FAEB1C32-E019-11D5-929B-00C0DF256EC4}
  9
$EXTNAMES
290
     1
  9
$PSVPSCALE
 40
0.0
  9
$OLESTARTUP
290
     0
  0
ENDSEC
  0
SECTION
  2
CLASSES
  0
CLASS
  1
ACDBDICTIONARYWDFLT
  2
AcDbDictionaryWithDefault
  3
ObjectDBX Classes
 90
        0
280
     0
281
     0
  0
CLASS
  1
VISUALSTYLE
  2
AcDbVisualStyle
  3
ObjectDBX Classes
 90
     4095
280
     0
281
     0
  0
CLASS
  1
MATERIAL
  2
AcDbMaterial
  3
ObjectDBX Classes
 90
     1153
280
     0
281
     0
  0
CLASS
  1
ACDBPLACEHOLDER
  2
AcDbPlaceHolder
  3
ObjectDBX Classes
 90
        0
280
     0
281
     0
  0
CLASS
  1
LAYOUT
  2
AcDbLayout
  3
ObjectDBX Classes
 90
        0
280
     0
281
     0
  0
ENDSEC
  0
SECTION
  2
TABLES
  0
TABLE
  2
VPORT
  5
8
330
0
100
AcDbSymbolTable
 70
     1
  0
VPORT
  5
29
330
8
100
AcDbSymbolTableRecord
100
AcDbViewportTableRecord
  2
*Active
 70
     0
 10
0.0
 20
0.0
 11
1.0
 21
1.0
 12
279.4
 22
215.9
 13
0.0
 23
0.0
 14
10.0
 24
10.0
 15
10.0
 25
10.0
 16
0.0
 26
0.0
 36
1.0
 17
0.0
 27
0.0
 37
0.0
 40
431.8
 41
1.2941176471
 42
50.0
 43
0.0
 44
0.0
 50
0.0
 51
0.0
 71
     0
 72
  2000
 73
     1
 74
     3
 75
     0
 76
     0
 77
     0
 78
     0
281
     0
 65
     1
110
0.0
120
0.0
130
0.0
111
1.0
121
0.0
131
0.0
112
0.0
122
1.0
132
0.0
 79
     0
146
0.0
  0
ENDTAB
  0
TABLE
  2
LTYPE
  5
5
330
0
100
AcDbSymbolTable
 70
     6
  0
LTYPE
  5
14
330
5
100
AcDbSymbolTableRecord
100
AcDbLinetypeTableRecord
  2
ByBlock
 70
     0
  3

 72
    65
 73
     0
 40
0.0
  0
LTYPE
  5
15
330
5
100
AcDbSymbolTableRecord
100
AcDbLinetypeTableRecord
  2
ByLayer
 70
     0
  3

 72
    65
 73
     0
 40
0.0
  0
LTYPE
  5
16
330
5
100
AcDbSymbolTableRecord
100
AcDbLinetypeTableRecord
  2
Continuous
 70
     0
  3
Solid line
 72
    65
 73
     0
 40
0.0
  0
LTYPE
  5
3F
330
5
100
AcDbSymbolTableRecord
100
AcDbLinetypeTableRecord
  2
HIDDEN
 70
     0
  3
Hidden __ __ __ __ __ __ __ __ __ __ __ __ __ __
 72
    65
 73
     2
 40
1.905
 49
1.27
 74
     0
 49
-0.635
 74
     0
  0
LTYPE
  5
40
330
5
100
AcDbSymbolTableRecord
100
AcDbLinetypeTableRecord
  2
PHANTOM
 70
     0
  3
Phantom ______  __  __  ______  __  __  ______
 72
    65
 73
     6
 40
12.7
 49
6.35
 74
     0
 49
-1.27
 74
     0
 49
1.27
 74
     0
 49
-1.27
 74
     0
 49
1.27
 74
     0
 49
-1.27
 74
     0
  0
LTYPE
  5
41
330
5
100
AcDbSymbolTableRecord
100
AcDbLinetypeTableRecord
  2
CENTER
 70
     0
  3
Center ____ _ ____ _ ____ _ ____ _ ____ _ ____
 72
    65
 73
     4
 40
10.16
 49
6.35
 74
     0
 49
-1.27
 74
     0
 49
1.27
 74
     0
 49
-1.27
 74
     0
  0
LTYPE
  5
42
330
5
100
AcDbSymbolTableRecord
100
AcDbLinetypeTableRecord
  2
CENTERX2
 70
     0
  3
Center (2x) ________  __  ________  __  _____
 72
    65
 73
     4
 40
20.32
 49
12.7
 74
     0
 49
-2.54
 74
     0
 49
2.54
 74
     0
 49
-2.54
 74
     0
  0
LTYPE
  5
43
330
5
100
AcDbSymbolTableRecord
100
AcDbLinetypeTableRecord
  2
DOT2
 70
     0
  3
Dot (.5x) ........................................
 72
    65
 73
     2
 40
0.635
 49
0.0
 74
     0
 49
-0.635
 74
     0
  0
ENDTAB
  0
TABLE
  2
LAYER
  5
2
330
0
100
AcDbSymbolTable
 70
     1
  0
LAYER
  5
10
330
2
100
AcDbSymbolTableRecord
100
AcDbLayerTableRecord
  2
0
 70
     0
 62
     7
  6
Continuous
370
    -3
390
F
  0
ENDTAB
  0
TABLE
  2
STYLE
  5
3
330
0
100
AcDbSymbolTable
 70
     1
  0
STYLE
  5
11
330
3
100
AcDbSymbolTableRecord
100
AcDbTextStyleTableRecord
  2
Standard
 70
     0
 40
0.0
 41
1.0
 50
0.0
 71
     0
 42
7.0
  3
txt
  4

  0
ENDTAB
  0
TABLE
  2
VIEW
  5
6
330
0
100
AcDbSymbolTable
 70
     0
  0
ENDTAB
  0
TABLE
  2
UCS
  5
7
330
0
100
AcDbSymbolTable
 70
     0
  0
ENDTAB
  0
TABLE
  2
APPID
  5
9
330
0
100
AcDbSymbolTable
 70
     1
  0
APPID
  5
12
330
9
100
AcDbSymbolTableRecord
100
AcDbRegAppTableRecord
  2
ACAD
 70
     0
  0
ENDTAB
  0
TABLE
  2
DIMSTYLE
  5
A
330
0
100
AcDbSymbolTable
 70
     1
100
AcDbDimStyleTable
  0
DIMSTYLE
105
27
330
A
100
AcDbSymbolTableRecord
100
AcDbDimStyleTableRecord
  2
ISO-25
 70
     0
 41
2.5
 42
0.625
 43
3.75
 44
1.25
 73
     0
 74
     0
 77
     1
 78
     8
140
2.5
141
2.5
143
0.0393700787
147
0.625
171
     3
172
     1
178
     0
271
     2
272
     2
274
     3
278
    44
283
     0
284
     8
340
11
  0
ENDTAB
  0
TABLE
  2
BLOCK_RECORD
  5
1
330
0
100
AcDbSymbolTable
 70
     1
  0
BLOCK_RECORD
  5
1F
330
1
100
AcDbSymbolTableRecord
100
AcDbBlockTableRecord
  2
*Model_Space
340
22
  0
BLOCK_RECORD
  5
1B
330
1
100
AcDbSymbolTableRecord
100
AcDbBlockTableRecord
  2
*Paper_Space
340
1E
  0
BLOCK_RECORD
  5
23
330
1
100
AcDbSymbolTableRecord
100
AcDbBlockTableRecord
  2
*Paper_Space0
340
26
  0
ENDTAB
  0
ENDSEC
  0
SECTION
  2
BLOCKS
  0
BLOCK
  5
20
330
1F
100
AcDbEntity
  8
0
100
AcDbBlockBegin
  2
*Model_Space
 70
     0
 10
0.0
 20
0.0
 30
0.0
  3
*Model_Space
  1

  0
ENDBLK
  5
21
330
1F
100
AcDbEntity
  8
0
100
AcDbBlockEnd
  0
BLOCK
  5
1C
330
1B
100
AcDbEntity
 67
     1
  8
0
100
AcDbBlockBegin
  2
*Paper_Space
 70
     0
 10
0.0
 20
0.0
 30
0.0
  3
*Paper_Space
  1

  0
ENDBLK
  5
1D
330
1B
100
AcDbEntity
 67
     1
  8
0
100
AcDbBlockEnd
  0
BLOCK
  5
24
330
23
100
AcDbEntity
  8
0
100
AcDbBlockBegin
  2
*Paper_Space0
 70
     0
 10
0.0
 20
0.0
 30
0.0
  3
*Paper_Space0
  1

  0
ENDBLK
  5
25
330
23
100
AcDbEntity
  8
0
100
AcDbBlockEnd
  0
ENDSEC
  0
SECTION
  2
ENTITIES
  0
LINE
  5
44
330
1F
100
AcDbEntity
  8
0
  6
Continuous
 62
     7
370
    15
100
AcDbLine
 10
158.5777828092
 20
345.0756490938
 30
0.0
 11
151.1351460473
 21
345.0756988964
 31
0.0
  0
LINE
  5
45
330
1F
100
AcDbEntity
  8
0
  6
Continuous
 62
     7
370
    15
100
AcDbLine
 10
56.8614436049
 20
345.0760181825
 30
0.0
 11
49.4188068429
 21
345.0760187933
 31
0.0
  0
LINE
  5
46
330
1F
100
AcDbEntity
  8
0
  6
Continuous
 62
     7
370
    15
100
AcDbLine
 10
48.9981660142
 20
345.076017427
 30
0.0
 11
48.9981658358
 21
343.576017427
 31
0.0
  0
LINE
  5
47
330
1F
100
AcDbEntity
  8
0
  6
Continuous
 62
     7
370
    15
100
AcDbLine
 10
158.9984136558
 20
343.5756448783
 30
0.0
 11
158.9984236379
 21
345.0756448782
 31
0.0
  0
LINE
  5
48
330
1F
100
AcDbEntity
  8
0
  6
Continuous
 62
     7
370
    15
100
AcDbLine
 10
48.9981658358
 20
343.576017427
 30
0.0
 11
49.4981625048
 21
343.0760173987
 31
0.0
  0
LINE
  5
49
330
1F
100
AcDbEntity
  8
0
  6
Continuous
 62
     7
370
    15
100
AcDbLine
 10
158.4984136001
 20
343.0756482367
 30
0.0
 11
158.9984136558
 21
343.5756448783
 31
0.0
  0
LINE
  5
4A
330
1F
100
AcDbEntity
  8
0
  6
Continuous
 62
     7
370
    15
100
AcDbLine
 10
56.4981646418
 20
373.0760150951
 30
0.0
 11
56.4981627298
 21
345.0760170025
 31
0.0
  0
LINE
  5
4B
330
1F
100
AcDbEntity
  8
0
  6
Continuous
 62
     7
370
    15
100
AcDbLine
 10
151.4984269224
 20
345.0756952557
 30
0.0
 11
151.4986146712
 21
373.0756933477
 31
0.0
  0
LWPOLYLINE
  5
4C
330
1F
100
AcDbEntity
  8
0
  6
Continuous
 62
     7
370
    15
100
AcDbPolyline
 90
       51
 70
   128
 43
0.0
 10
56.8614436049
 20
345.0760181825
 10
57.2197964686
 20
345.0760179492
 10
57.778534938
 20
345.0760171692
 10
58.4936664443
 20
345.0760158444
 10
59.3627712089
 20
345.0760139791
 10
60.3829084564
 20
345.0760115796
 10
61.5506263652
 20
345.0760086542
 10
62.8619737476
 20
345.0760052127
 10
64.3125134192
 20
345.0760012668
 10
65.8973372128
 20
345.0759968297
 10
67.6110825864
 20
345.0759919166
 10
69.4479507681
 20
345.075986544
 10
71.4017263774
 20
345.0759807301
 10
73.4657984562
 20
345.0759744946
 10
75.6331828378
 20
345.0759678586
 10
77.8965457797
 20
345.0759608445
 10
80.248228778
 20
345.0759534761
 10
82.6802744819
 20
345.0759457784
 10
85.1844536186
 20
345.0759377772
 10
87.7522928386
 20
345.0759294998
 10
90.3751033868
 20
345.0759209742
 10
93.0440105024
 20
345.0759122291
 10
95.7499834487
 20
345.0759032942
 10
98.4838660698
 20
345.0758941997
 10
101.2364077722
 20
345.0758849764
 10
103.9982948262
 20
345.0758756555
 10
106.7601818801
 20
345.0758662685
 10
109.5127235826
 20
345.0758568472
 10
112.2466062036
 20
345.0758474235
 10
114.95257915
 20
345.0758380292
 10
117.6214862656
 20
345.0758286961
 10
120.2442968137
 20
345.0758194559
 10
122.8121360337
 20
345.0758103398
 10
125.3163151704
 20
345.0758013787
 10
127.7483608743
 20
345.0757926027
 10
130.1000438726
 20
345.0757840418
 10
132.3634068145
 20
345.0757757247
 10
134.5307911961
 20
345.0757676797
 10
136.5948632749
 20
345.075759934
 10
138.5486388843
 20
345.0757525138
 10
140.3855070659
 20
345.0757454442
 10
142.0992524395
 20
345.0757387492
 10
143.6840762331
 20
345.0757324512
 10
145.1346159047
 20
345.0757265718
 10
146.4459632871
 20
345.0757211308
 10
147.6136811959
 20
345.0757161465
 10
148.6338184434
 20
345.075711636
 10
149.502923208
 20
345.0757076143
 10
150.2180547143
 20
345.0757040951
 10
150.7767931837
 20
345.0757010904
 10
151.1351460473
 20
345.0756988964
  0
LWPOLYLINE
  5
4D
330
1F
100
AcDbEntity
  8
0
  6
Continuous
 62
     7
370
    15
100
AcDbPolyline
 90
       60
 70
   128
 43
0.0
 10
48.9981660142
 20
345.076017427
 10
49.0179920387
 20
345.0760179669
 10
49.1765144845
 20
345.0760186423
 10
49.4931023148
 20
345.0760187771
 10
49.966842725
 20
345.076018371
 10
50.5963697988
 20
345.076017425
 10
51.3798684467
 20
345.076015942
 10
52.3150796393
 20
345.0760139262
 10
53.3993069206
 20
345.0760113834
 10
54.6294241827
 20
345.0760083209
 10
56.001884679
 20
345.0760047477
 10
57.5127312507
 20
345.0760006739
 10
59.157607736
 20
345.0759961113
 10
60.9317715301
 20
345.0759910731
 10
62.8301072596
 20
345.0759855739
 10
64.8471415312
 20
345.0759796293
 10
66.9770587128
 20
345.0759732567
 10
69.2137177019
 20
345.0759664744
 10
71.5506696316
 20
345.0759593019
 10
73.9811764645
 20
345.0759517599
 10
76.4982304202
 20
345.0759438702
 10
79.0945741806
 20
345.0759356555
 10
81.7627218144
 20
345.0759271394
 10
84.4949803615
 20
345.0759183467
 10
87.2834720129
 20
345.0759093025
 10
90.1201568256
 20
345.075900033
 10
92.9968559027
 20
345.0758905648
 10
95.9052749763
 20
345.0758809254
 10
98.8370283211
 20
345.0758711425
 10
101.7836629334
 20
345.0758612443
 10
104.7366829027
 20
345.0758512593
 10
107.687573908
 20
345.0758412163
 10
110.6278277667
 20
345.0758311444
 10
113.5489669657
 20
345.0758210724
 10
116.4425691046
 20
345.0758110295
 10
119.3002911792
 20
345.0758010447
 10
122.1138936371
 20
345.0757911466
 10
124.875264134
 20
345.0757813639
 10
127.5764409239
 20
345.0757717247
 10
130.209635815
 20
345.0757622569
 10
132.7672566245
 20
345.0757529877
 10
135.2419290698
 20
345.0757439439
 10
137.6265180294
 20
345.0757351516
 10
139.9141481161
 20
345.075726636
 10
142.0982235002
 20
345.0757184218
 10
144.1724469269
 20
345.0757105327
 10
146.1308378732
 20
345.0757029913
 10
147.9677497909
 20
345.0756958194
 10
149.6778863876
 20
345.0756890377
 10
151.2563168966
 20
345.0756826658
 10
152.6984902942
 20
345.075676722
 10
154.0002484212
 20
345.0756712235
 10
155.1578379718
 20
345.075666186
 10
156.1679213159
 20
345.0756616243
 10
157.0275861215
 20
345.0756575513
 10
157.7343537525
 20
345.0756539789
 10
158.2861864149
 20
345.0756509173
 10
158.6814930322
 20
345.0756483753
 10
158.9191338332
 20
345.0756463604
 10
158.9984236379
 20
345.0756448782
  0
LWPOLYLINE
  5
4E
330
1F
100
AcDbEntity
  8
0
  6
Continuous
 62
     7
370
    15
100
AcDbPolyline
 90
       60
 70
   128
 43
0.0
 10
48.9981658358
 20
343.576017427
 10
49.0179918586
 20
343.5760179669
 10
49.1765142903
 20
343.5760186423
 10
49.4931020924
 20
343.5760187771
 10
49.9668424603
 20
343.576018371
 10
50.596369478
 20
343.576017425
 10
51.3798680561
 20
343.576015942
 10
52.3150791653
 20
343.5760139262
 10
53.39930635
 20
343.5760113834
 10
54.6294235024
 20
343.5760083209
 10
56.0018838764
 20
343.5760047477
 10
57.5127303135
 20
343.5760006739
 10
59.1576066521
 20
343.5759961113
 10
60.9317702882
 20
343.5759910731
 10
62.8301058485
 20
343.5759855739
 10
64.8471399403
 20
343.5759796294
 10
66.9770569321
 20
343.5759732567
 10
69.2137157218
 20
343.5759664744
 10
71.5506674432
 20
343.5759593019
 10
73.9811740595
 20
343.5759517599
 10
76.4982277909
 20
343.5759438702
 10
79.0945713199
 20
343.5759356555
 10
81.762718716
 20
343.5759271395
 10
84.4949770195
 20
343.5759183467
 10
87.2834684224
 20
343.5759093025
 10
90.1201529823
 20
343.575900033
 10
92.996851803
 20
343.5758905649
 10
95.9052706174
 20
343.5758809254
 10
98.8370237009
 20
343.5758711425
 10
101.7836580505
 20
343.5758612443
 10
104.7366777567
 20
343.5758512593
 10
107.687568499
 20
343.5758412164
 10
110.6278220957
 20
343.5758311444
 10
113.5489610343
 20
343.5758210724
 10
116.4425629153
 20
343.5758110295
 10
119.3002847352
 20
343.5758010447
 10
122.1138869424
 20
343.5757911466
 10
124.8752571932
 20
343.5757813639
 10
127.5764337424
 20
343.5757717247
 10
130.2096283987
 20
343.5757622569
 10
132.7672489803
 20
343.5757529878
 10
135.241921205
 20
343.575743944
 10
137.6265099521
 20
343.5757351516
 10
139.914139835
 20
343.5757266361
 10
142.0982150244
 20
343.5757184219
 10
144.1724382663
 20
343.5757105327
 10
146.130829038
 20
343.5757029913
 10
147.967740792
 20
343.5756958194
 10
149.6778772362
 20
343.5756890377
 10
151.2563076046
 20
343.5756826658
 10
152.6984808737
 20
343.575676722
 10
154.0002388846
 20
343.5756712235
 10
155.1578283321
 20
343.5756661861
 10
156.1679115861
 20
343.5756616243
 10
157.0275763151
 20
343.5756575513
 10
157.7343438831
 20
343.5756539789
 10
158.2861764963
 20
343.5756509173
 10
158.6814830784
 20
343.5756483753
 10
158.9191238582
 20
343.5756463604
 10
158.9984136558
 20
343.5756448783
  0
LWPOLYLINE
  5
4F
330
1F
100
AcDbEntity
  8
0
  6
Continuous
 62
     7
370
    15
100
AcDbPolyline
 90
       61
 70
   128
 43
0.0
 10
49.4981625048
 20
343.0760173987
 10
49.4981625048
 20
343.0760173987
 10
49.578091634
 20
343.0760183409
 10
49.8176445758
 20
343.076018739
 10
50.2161186802
 20
343.0760185917
 10
50.7723451538
 20
343.0760178995
 10
51.4846924887
 20
343.0760166644
 10
52.3510712474
 20
343.0760148901
 10
53.3689401916
 20
343.0760125817
 10
54.5353137364
 20
343.0760097461
 10
55.8467707073
 20
343.0760063914
 10
57.2994643749
 20
343.0760025277
 10
58.8891337385
 20
343.0759981662
 10
60.6111160239
 20
343.0759933197
 10
62.4603603604
 20
343.0759880024
 10
64.4314425956
 20
343.0759822299
 10
66.5185812059
 20
343.0759760191
 10
68.715654254
 20
343.0759693884
 10
71.0162173462
 20
343.075962357
 10
73.4135225345
 20
343.0759549457
 10
75.9005381098
 20
343.0759471761
 10
78.4699692268
 20
343.0759390712
 10
81.1142793014
 20
343.0759306545
 10
83.8257121165
 20
343.0759219509
 10
86.5963145725
 20
343.0759129859
 10
89.4179600151
 20
343.0759037857
 10
92.282372072
 20
343.0758943773
 10
95.181148929
 20
343.0758847884
 10
98.1057879743
 20
343.0758750471
 10
101.0477107376
 20
343.0758651818
 10
103.9982880525
 20
343.0758552217
 10
106.9488653674
 20
343.0758451958
 10
109.8907881307
 20
343.0758351336
 10
112.815427176
 20
343.0758250647
 10
115.7142040331
 20
343.0758150184
 10
118.5786160899
 20
343.0758050244
 10
121.4002615325
 20
343.0757951119
 10
124.1708639885
 20
343.07578531
 10
126.8822968036
 20
343.0757756475
 10
129.5266068782
 20
343.0757661526
 10
132.0960379952
 20
343.0757568533
 10
134.5830535705
 20
343.0757477768
 10
136.9803587588
 20
343.0757389497
 10
139.2809218509
 20
343.075730398
 10
141.4779948991
 20
343.0757221467
 10
143.5651335093
 20
343.07571422
 10
145.5362157446
 20
343.0757066411
 10
147.3854600811
 20
343.0756994324
 10
149.1074423665
 20
343.0756926149
 10
150.69711173
 20
343.0756862086
 10
152.1498053977
 20
343.0756802324
 10
153.4612623685
 20
343.0756747037
 10
154.6276359133
 20
343.0756696389
 10
155.6455048576
 20
343.0756650526
 10
156.5118836162
 20
343.0756609584
 10
157.2242309511
 20
343.0756573683
 10
157.7804574247
 20
343.0756542929
 10
158.1789315291
 20
343.0756517411
 10
158.4184844709
 20
343.0756497204
 10
158.4984136001
 20
343.0756482368
 10
158.4984136001
 20
343.0756482368
  0
LWPOLYLINE
  5
50
330
1F
100
AcDbEntity
  8
0
  6
Continuous
 62
     7
370
    15
100
AcDbPolyline
 90
       55
 70
   128
 43
0.0
 10
56.4981646418
 20
373.0760150951
 10
56.5785275046
 20
373.0760159583
 10
56.8193441705
 20
373.0760162742
 10
57.2197997922
 20
373.0760160418
 10
57.7785393546
 20
373.0760152619
 10
58.4936722598
 20
373.076013937
 10
59.3627787245
 20
373.0760120717
 10
60.3829179676
 20
373.0760096723
 10
61.5506381607
 20
373.0760067469
 10
62.8619881083
 20
373.0760033054
 10
64.3125306174
 20
373.0759993594
 10
65.8973575112
 20
373.0759949223
 10
67.6111062371
 20
373.0759900092
 10
69.4479780121
 20
373.0759846366
 10
71.4017574433
 20
373.0759788227
 10
73.4658335598
 20
373.0759725872
 10
75.6332221812
 20
373.0759659511
 10
77.8965895506
 20
373.0759589371
 10
80.2482771492
 20
373.0759515687
 10
82.6803276106
 20
373.0759438709
 10
85.1845116459
 20
373.0759358697
 10
87.752355889
 20
373.0759275923
 10
90.3751715678
 20
373.0759190666
 10
93.0440839043
 20
373.0759103215
 10
95.750062144
 20
373.0759013866
 10
98.483950113
 20
373.0758922921
 10
101.2364971999
 20
373.0758830688
 10
103.9983896565
 20
373.0758737478
 10
106.7602821132
 20
373.0758643608
 10
109.5128292001
 20
373.0758549395
 10
112.2467171691
 20
373.0758455158
 10
114.9526954088
 20
373.0758361215
 10
117.6216077453
 20
373.0758267884
 10
120.2444234241
 20
373.0758175482
 10
122.8122676672
 20
373.0758084321
 10
125.3164517025
 20
373.0757994709
 10
127.7485021639
 20
373.0757906949
 10
130.1001897625
 20
373.0757821339
 10
132.3635571319
 20
373.0757738169
 10
134.5309457533
 20
373.0757657719
 10
136.5950218697
 20
373.0757580262
 10
138.548801301
 20
373.075750606
 10
140.3856730759
 20
373.0757435363
 10
142.0994218019
 20
373.0757368412
 10
143.6842486957
 20
373.0757305433
 10
145.1347912047
 20
373.0757246639
 10
146.4461411524
 20
373.0757192229
 10
147.6138613454
 20
373.0757142386
 10
148.6340005885
 20
373.075709728
 10
149.5031070532
 20
373.0757057063
 10
150.2182399584
 20
373.0757021872
 10
150.7769795208
 20
373.0756991825
 10
151.1774351425
 20
373.0756967023
 10
151.4182518084
 20
373.0756947552
 10
151.4986146712
 20
373.0756933477
  0
LWPOLYLINE
  5
51
330
1F
100
AcDbEntity
  8
0
  6
Continuous
 62
     7
370
    15
100
AcDbPolyline
 90
       39
 70
   128
 43
0.0
 10
130.8739634164
 20
373.075747159
 10
130.0990094138
 20
373.0757508252
 10
127.7473595509
 20
373.0757618193
 10
125.3153481147
 20
373.0757729975
 10
122.8112042621
 20
373.0757843222
 10
120.2434012232
 20
373.075795755
 10
117.6206276307
 20
373.0758072571
 10
114.9517581202
 20
373.0758187898
 10
112.2458233012
 20
373.0758303139
 10
109.5119792008
 20
373.0758417905
 10
106.7594762819
 20
373.0758531807
 10
103.9976281432
 20
373.075864446
 10
101.2357800044
 20
373.0758755483
 10
98.4832770855
 20
373.07588645
 10
95.7494329851
 20
373.0758971142
 10
93.0434981661
 20
373.0759075049
 10
90.3746286556
 20
373.0759175868
 10
87.7518550631
 20
373.0759273259
 10
85.1840520242
 20
373.0759366892
 10
82.6799081715
 20
373.075945645
 10
80.2478967353
 20
373.0759541631
 10
77.8962468724
 20
373.0759622146
 10
75.6329158215
 20
373.0759697722
 10
73.4655619785
 20
373.0759768104
 10
71.4015189827
 20
373.0759833054
 10
69.4477709022
 20
373.0759892351
 10
67.6109286021
 20
373.0759945796
 10
65.8972073753
 20
373.0759993208
 10
64.312405912
 20
373.0760034425
 10
62.8618866787
 20
373.0760069309
 10
61.5505577732
 20
373.0760097742
 10
60.3828563176
 20
373.0760119627
 10
59.3627334439
 20
373.076013489
 10
58.4936409251
 20
373.076014348
 10
57.778519495
 20
373.0760145367
 10
57.2197888983
 20
373.0760140546
 10
56.8193397024
 20
373.0760129031
 10
56.5785269007
 20
373.0760110864
 10
56.4981653274
 20
373.0760086104
  0
LINE
  5
52
330
1F
100
AcDbEntity
  8
0
  6
Continuous
 62
     7
370
    15
100
AcDbLine
 10
59.4598330289
 20
245.7514458746
 30
0.0
 11
59.4598407344
 21
245.7514250881
 31
0.0
  0
CIRCLE
  5
53
330
1F
100
AcDbEntity
  8
0
  6
Continuous
 62
     7
370
    15
100
AcDbCircle
 10
103.9983896565
 20
262.2616957208
 30
0.0
 40
47.50022501578457
  0
CIRCLE
  5
54
330
1F
100
AcDbEntity
  8
0
  6
Continuous
 62
     7
370
    15
100
AcDbCircle
 10
103.998294826
 20
262.2616842105
 30
0.0
 40
55.00012881308434
  0
CIRCLE
  5
55
330
1F
100
AcDbEntity
  8
0
  6
Continuous
 62
     7
370
    15
100
AcDbCircle
 10
103.997628143
 20
262.2616652376
 30
0.0
 40
47.49946281714731
  0
ENDSEC
  0
SECTION
  2
OBJECTS
  0
DICTIONARY
  5
C
330
0
100
AcDbDictionary
281
     1
  3
ACAD_GROUP
350
D
  3
ACAD_LAYOUT
350
1A
  3
ACAD_MLINESTYLE
350
17
  3
ACAD_PLOTSETTINGS
350
19
  3
ACAD_PLOTSTYLENAME
350
E
  0
DICTIONARY
  5
D
102
{ACAD_REACTORS
330
C
102
}
330
C
100
AcDbDictionary
281
     1
  0
DICTIONARY
  5
1A
102
{ACAD_REACTORS
330
C
102
}
330
C
100
AcDbDictionary
281
     1
  3
Layout1
350
1E
  3
Layout2
350
26
  3
Model
350
22
  0
DICTIONARY
  5
17
102
{ACAD_REACTORS
330
C
102
}
330
C
100
AcDbDictionary
281
     1
  3
Standard
350
18
  0
DICTIONARY
  5
19
102
{ACAD_REACTORS
330
C
102
}
330
C
100
AcDbDictionary
281
     1
  0
ACDBDICTIONARYWDFLT
  5
E
102
{ACAD_REACTORS
330
C
102
}
330
C
100
AcDbDictionary
281
     1
  3
Normal
350
F
100
AcDbDictionaryWithDefault
340
F
  0
LAYOUT
  5
1E
102
{ACAD_REACTORS
330
1A
102
}
330
1A
100
AcDbPlotSettings
  1

  2
none_device
  4

  6

 40
0.0
 41
0.0
 42
0.0
 43
0.0
 44
0.0
 45
0.0
 46
0.0
 47
0.0
 48
0.0
 49
0.0
140
0.0
141
0.0
142
1.0
143
1.0
 70
   688
 72
     0
 73
     0
 74
     5
  7

 75
    16
147
1.0
148
0.0
149
0.0
100
AcDbLayout
  1
Layout1
 70
     1
 71
     1
 10
0.0
 20
0.0
 11
420.0
 21
297.0
 12
0.0
 22
0.0
 32
0.0
 14
1.0000000000E+20
 24
1.0000000000E+20
 34
1.0000000000E+20
 15
-1.0000000000E+20
 25
-1.0000000000E+20
 35
-1.0000000000E+20
146
0.0
 13
0.0
 23
0.0
 33
0.0
 16
1.0
 26
0.0
 36
0.0
 17
0.0
 27
1.0
 37
0.0
 76
     0
330
1B
  0
LAYOUT
  5
26
102
{ACAD_REACTORS
330
1A
102
}
330
1A
100
AcDbPlotSettings
  1

  2
none_device
  4

  6

 40
0.0
 41
0.0
 42
0.0
 43
0.0
 44
0.0
 45
0.0
 46
0.0
 47
0.0
 48
0.0
 49
0.0
140
0.0
141
0.0
142
1.0
143
1.0
 70
   688
 72
     0
 73
     0
 74
     5
  7

 75
    16
147
1.0
148
0.0
149
0.0
100
AcDbLayout
  1
Layout2
 70
     1
 71
     2
 10
0.0
 20
0.0
 11
0.0
 21
0.0
 12
0.0
 22
0.0
 32
0.0
 14
0.0
 24
0.0
 34
0.0
 15
0.0
 25
0.0
 35
0.0
146
0.0
 13
0.0
 23
0.0
 33
0.0
 16
1.0
 26
0.0
 36
0.0
 17
0.0
 27
1.0
 37
0.0
 76
     0
330
23
  0
LAYOUT
  5
22
102
{ACAD_REACTORS
330
1A
102
}
330
1A
100
AcDbPlotSettings
  1

  2
none_device
  4

  6

 40
0.0
 41
0.0
 42
0.0
 43
0.0
 44
0.0
 45
0.0
 46
0.0
 47
0.0
 48
0.0
 49
0.0
140
0.0
141
0.0
142
1.0
143
1.0
 70
  1712
 72
     0
 73
     0
 74
     0
  7

 75
     0
147
1.0
148
0.0
149
0.0
100
AcDbLayout
  1
Model
 70
     1
 71
     0
 10
0.0
 20
0.0
 11
558.8
 21
431.8
 12
0.0
 22
0.0
 32
0.0
 14
0.0
 24
0.0
 34
0.0
 15
558.8
 25
431.8
 35
0.0
146
0.0
 13
0.0
 23
0.0
 33
0.0
 16
1.0
 26
0.0
 36
0.0
 17
0.0
 27
1.0
 37
0.0
 76
     0
330
1F
331
29
  0
MLINESTYLE
  5
18
102
{ACAD_REACTORS
330
17
102
}
330
17
100
AcDbMlineStyle
  2
Standard
 70
     0
  3

 62
   256
 51
90.0
 52
90.0
 71
     2
 49
0.5
 62
   256
  6
BYLAYER
 49
-0.5
 62
   256
  6
BYLAYER
  0
ACDBPLACEHOLDER
  5
F
102
{ACAD_REACTORS
330
E
102
}
330
E
  0
ENDSEC
  0
EOF
