  0
SECTION
  2
HEADER
  9
$ACADVER
  1
AC1018
  9
$ACADMAINTVER
 70
   104
  9
$DWGCODEPAGE
  3
ANSI_1251
  9
$LASTSAVEDBY
  1
Игорь
  9
$INSBASE
 10
0.0
 20
0.0
 30
0.0
  9
$EXTMIN
 10
-135.7246417142885
 20
-500.6290050333884
 30
0.0
  9
$EXTMAX
 10
824.4253679773866
 20
274.0622100842736
 30
0.0
  9
$LIMMIN
 10
0.0
 20
0.0
  9
$LIMMAX
 10
279.4
 20
215.9
  9
$ORTHOMODE
 70
     0
  9
$REGENMODE
 70
     1
  9
$FILLMODE
 70
     1
  9
$QTEXTMODE
 70
     0
  9
$MIRRTEXT
 70
     1
  9
$LTSCALE
 40
1.0
  9
$ATTMODE
 70
     1
  9
$TEXTSIZE
 40
3.5
  9
$TRACEWID
 40
1.0
  9
$TEXTSTYLE
  7
Standard
  9
$CLAYER
  8
0
  9
$CELTYPE
  6
ByLayer
  9
$CECOLOR
 62
   256
  9
$CELTSCALE
 40
1.0
  9
$DISPSILH
 70
     0
  9
$DIMSCALE
 40
1.0
  9
$DIMASZ
 40
3.5
  9
$DIMEXO
 40
0.01
  9
$DIMDLI
 40
3.75
  9
$DIMRND
 40
0.0
  9
$DIMDLE
 40
0.0
  9
$DIMEXE
 40
1.0
  9
$DIMTP
 40
0.0
  9
$DIMTM
 40
0.0
  9
$DIMTXT
 40
3.5
  9
$DIMCEN
 40
2.5
  9
$DIMTSZ
 40
0.0
  9
$DIMTOL
 70
     0
  9
$DIMLIM
 70
     0
  9
$DIMTIH
 70
     1
  9
$DIMTOH
 70
     1
  9
$DIMSE1
 70
     0
  9
$DIMSE2
 70
     0
  9
$DIMTAD
 70
     1
  9
$DIMZIN
 70
     0
  9
$DIMBLK
  1

  9
$DIMASO
 70
     1
  9
$DIMSHO
 70
     1
  9
$DIMPOST
  1

  9
$DIMAPOST
  1

  9
$DIMALT
 70
     0
  9
$DIMALTD
 70
     3
  9
$DIMALTF
 40
0.0393700787401575
  9
$DIMLFAC
 40
1.0
  9
$DIMTOFL
 70
     1
  9
$DIMTVP
 40
0.0
  9
$DIMTIX
 70
     0
  9
$DIMSOXD
 70
     0
  9
$DIMSAH
 70
     0
  9
$DIMBLK1
  1

  9
$DIMBLK2
  1

  9
$DIMSTYLE
  2
ISO-25
  9
$DIMCLRD
 70
     0
  9
$DIMCLRE
 70
     0
  9
$DIMCLRT
 70
     0
  9
$DIMTFAC
 40
1.0
  9
$DIMGAP
 40
3.0
  9
$DIMJUST
 70
     0
  9
$DIMSD1
 70
     0
  9
$DIMSD2
 70
     0
  9
$DIMTOLJ
 70
     0
  9
$DIMTZIN
 70
     0
  9
$DIMALTZ
 70
     0
  9
$DIMALTTZ
 70
     0
  9
$DIMUPT
 70
     0
  9
$DIMDEC
 70
     2
  9
$DIMTDEC
 70
     3
  9
$DIMALTU
 70
     2
  9
$DIMALTTD
 70
     3
  9
$DIMTXSTY
  7
Standard
  9
$DIMAUNIT
 70
     0
  9
$DIMADEC
 70
     2
  9
$DIMALTRND
 40
0.0
  9
$DIMAZIN
 70
     0
  9
$DIMDSEP
 70
    44
  9
$DIMATFIT
 70
     3
  9
$DIMFRAC
 70
     0
  9
$DIMLDRBLK
  1

  9
$DIMLUNIT
 70
     2
  9
$DIMLWD
 70
    -2
  9
$DIMLWE
 70
    -2
  9
$DIMTMOVE
 70
     0
  9
$LUNITS
 70
     2
  9
$LUPREC
 70
     2
  9
$SKETCHINC
 40
1.0
  9
$FILLETRAD
 40
10.0
  9
$AUNITS
 70
     0
  9
$AUPREC
 70
     2
  9
$MENU
  1
.
  9
$ELEVATION
 40
0.0
  9
$PELEVATION
 40
0.0
  9
$THICKNESS
 40
0.0
  9
$LIMCHECK
 70
     0
  9
$CHAMFERA
 40
10.0
  9
$CHAMFERB
 40
10.0
  9
$CHAMFERC
 40
20.0
  9
$CHAMFERD
 40
0.0
  9
$SKPOLY
 70
     0
  9
$TDCREATE
 40
2458068.755334711
  9
$TDUCREATE
 40
2458068.672001378
  9
$TDUPDATE
 40
2458068.756885903
  9
$TDUUPDATE
 40
2458068.673552570
  9
$TDINDWG
 40
0.0014103588
  9
$TDUSRTIMER
 40
0.0014103588
  9
$USRTIMER
 70
     1
  9
$ANGBASE
 50
0.0
  9
$ANGDIR
 70
     0
  9
$PDMODE
 70
     0
  9
$PDSIZE
 40
-1.0
  9
$PLINEWID
 40
0.0
  9
$SPLFRAME
 70
     0
  9
$SPLINETYPE
 70
     6
  9
$SPLINESEGS
 70
     8
  9
$HANDSEED
  5
626
  9
$SURFTAB1
 70
     6
  9
$SURFTAB2
 70
     6
  9
$SURFTYPE
 70
     6
  9
$SURFU
 70
     6
  9
$SURFV
 70
     6
  9
$UCSBASE
  2

  9
$UCSNAME
  2

  9
$UCSORG
 10
0.0
 20
0.0
 30
0.0
  9
$UCSXDIR
 10
1.0
 20
0.0
 30
0.0
  9
$UCSYDIR
 10
0.0
 20
1.0
 30
0.0
  9
$UCSORTHOREF
  2

  9
$UCSORTHOVIEW
 70
     0
  9
$UCSORGTOP
 10
0.0
 20
0.0
 30
0.0
  9
$UCSORGBOTTOM
 10
0.0
 20
0.0
 30
0.0
  9
$UCSORGLEFT
 10
0.0
 20
0.0
 30
0.0
  9
$UCSORGRIGHT
 10
0.0
 20
0.0
 30
0.0
  9
$UCSORGFRONT
 10
0.0
 20
0.0
 30
0.0
  9
$UCSORGBACK
 10
0.0
 20
0.0
 30
0.0
  9
$PUCSBASE
  2

  9
$PUCSNAME
  2

  9
$PUCSORG
 10
0.0
 20
0.0
 30
0.0
  9
$PUCSXDIR
 10
1.0
 20
0.0
 30
0.0
  9
$PUCSYDIR
 10
0.0
 20
1.0
 30
0.0
  9
$PUCSORTHOREF
  2

  9
$PUCSORTHOVIEW
 70
     0
  9
$PUCSORGTOP
 10
0.0
 20
0.0
 30
0.0
  9
$PUCSORGBOTTOM
 10
0.0
 20
0.0
 30
0.0
  9
$PUCSORGLEFT
 10
0.0
 20
0.0
 30
0.0
  9
$PUCSORGRIGHT
 10
0.0
 20
0.0
 30
0.0
  9
$PUCSORGFRONT
 10
0.0
 20
0.0
 30
0.0
  9
$PUCSORGBACK
 10
0.0
 20
0.0
 30
0.0
  9
$USERI1
 70
     0
  9
$USERI2
 70
     0
  9
$USERI3
 70
     0
  9
$USERI4
 70
     0
  9
$USERI5
 70
     0
  9
$USERR1
 40
0.0
  9
$USERR2
 40
0.0
  9
$USERR3
 40
0.0
  9
$USERR4
 40
0.0
  9
$USERR5
 40
0.0
  9
$WORLDVIEW
 70
     1
  9
$SHADEDGE
 70
     3
  9
$SHADEDIF
 70
    70
  9
$TILEMODE
 70
     1
  9
$MAXACTVP
 70
    64
  9
$PINSBASE
 10
0.0
 20
0.0
 30
0.0
  9
$PLIMCHECK
 70
     0
  9
$PEXTMIN
 10
1.000000000000000E+20
 20
1.000000000000000E+20
 30
1.000000000000000E+20
  9
$PEXTMAX
 10
-1.000000000000000E+20
 20
-1.000000000000000E+20
 30
-1.000000000000000E+20
  9
$PLIMMIN
 10
0.0
 20
0.0
  9
$PLIMMAX
 10
420.0
 20
297.0
  9
$UNITMODE
 70
     0
  9
$VISRETAIN
 70
     1
  9
$PLINEGEN
 70
     0
  9
$PSLTSCALE
 70
     1
  9
$TREEDEPTH
 70
  3020
  9
$CMLSTYLE
  2
Standard
  9
$CMLJUST
 70
     0
  9
$CMLSCALE
 40
20.0
  9
$PROXYGRAPHICS
 70
     1
  9
$MEASUREMENT
 70
     1
  9
$CELWEIGHT
370
    -1
  9
$ENDCAPS
280
     0
  9
$JOINSTYLE
280
     0
  9
$LWDISPLAY
290
     1
  9
$INSUNITS
 70
     4
  9
$HYPERLINKBASE
  1

  9
$STYLESHEET
  1

  9
$XEDIT
290
     1
  9
$CEPSNTYPE
380
     0
  9
$PSTYLEMODE
290
     1
  9
$FINGERPRINTGUID
  2
{F64422D2-F405-4E52-919C-4F47ED2D32E4}
  9
$VERSIONGUID
  2
{5E23EC50-29E2-4A67-A5DF-5FE40BA5DB52}
  9
$EXTNAMES
290
     1
  9
$PSVPSCALE
 40
0.0
  9
$OLESTARTUP
290
     0
  9
$SORTENTS
280
   127
  9
$INDEXCTL
280
     0
  9
$HIDETEXT
280
     0
  9
$XCLIPFRAME
290
     0
  9
$HALOGAP
280
     0
  9
$OBSCOLOR
 70
   257
  9
$OBSLTYPE
280
     0
  9
$INTERSECTIONDISPLAY
280
     0
  9
$INTERSECTIONCOLOR
 70
   257
  9
$DIMASSOC
280
     1
  9
$PROJECTNAME
  1

  0
ENDSEC
  0
SECTION
  2
CLASSES
  0
CLASS
  1
ACDBDICTIONARYWDFLT
  2
AcDbDictionaryWithDefault
  3
ObjectDBX Classes
 90
        0
 91
        1
280
     0
281
     0
  0
CLASS
  1
VISUALSTYLE
  2
AcDbVisualStyle
  3
ObjectDBX Classes
 90
     4095
 91
       16
280
     0
281
     0
  0
CLASS
  1
MATERIAL
  2
AcDbMaterial
  3
ObjectDBX Classes
 90
     1153
 91
        3
280
     0
281
     0
  0
CLASS
  1
TABLESTYLE
  2
AcDbTableStyle
  3
ObjectDBX Classes
 90
     4095
 91
        1
280
     0
281
     0
  0
CLASS
  1
SCALE
  2
AcDbScale
  3
ObjectDBX Classes
 90
     1153
 91
       17
280
     0
281
     0
  0
CLASS
  1
MLEADERSTYLE
  2
AcDbMLeaderStyle
  3
ACDB_MLEADERSTYLE_CLASS
 90
     4095
 91
        1
280
     0
281
     0
  0
CLASS
  1
DICTIONARYVAR
  2
AcDbDictionaryVar
  3
ObjectDBX Classes
 90
        0
 91
        3
280
     0
281
     0
  0
CLASS
  1
CELLSTYLEMAP
  2
AcDbCellStyleMap
  3
ObjectDBX Classes
 90
     1152
 91
        1
280
     0
281
     0
  0
ENDSEC
  0
SECTION
  2
TABLES
  0
TABLE
  2
VPORT
  5
8
330
0
100
AcDbSymbolTable
 70
     1
  0
VPORT
  5
29
330
8
100
AcDbSymbolTableRecord
100
AcDbViewportTableRecord
  2
*Active
 70
     0
 10
0.0
 20
0.0
 11
1.0
 21
1.0
 12
344.3503631315491
 22
-113.2833974745574
 13
0.0
 23
0.0
 14
10.0
 24
10.0
 15
10.0
 25
10.0
 16
0.0
 26
0.0
 36
1.0
 17
0.0
 27
0.0
 37
0.0
 40
784.2553041931887
 41
2.604123711340206
 42
50.0
 43
0.0
 44
0.0
 50
0.0
 51
0.0
 71
     0
 72
  2000
 73
     1
 74
     3
 75
     0
 76
     0
 77
     0
 78
     0
281
     0
 65
     1
110
0.0
120
0.0
130
0.0
111
1.0
121
0.0
131
0.0
112
0.0
122
1.0
132
0.0
 79
     0
146
0.0
  0
ENDTAB
  0
TABLE
  2
LTYPE
  5
5
330
0
100
AcDbSymbolTable
 70
     6
  0
LTYPE
  5
14
330
5
100
AcDbSymbolTableRecord
100
AcDbLinetypeTableRecord
  2
ByBlock
 70
     0
  3

 72
    65
 73
     0
 40
0.0
  0
LTYPE
  5
15
330
5
100
AcDbSymbolTableRecord
100
AcDbLinetypeTableRecord
  2
ByLayer
 70
     0
  3

 72
    65
 73
     0
 40
0.0
  0
LTYPE
  5
16
330
5
100
AcDbSymbolTableRecord
100
AcDbLinetypeTableRecord
  2
Continuous
 70
     0
  3
Solid line
 72
    65
 73
     0
 40
0.0
  0
LTYPE
  5
3F
330
5
100
AcDbSymbolTableRecord
100
AcDbLinetypeTableRecord
  2
HIDDEN
 70
     0
  3
Hidden __ __ __ __ __ __ __ __ __ __ __ __ __ __
 72
    65
 73
     2
 40
1.905
 49
1.27
 74
     0
 49
-0.635
 74
     0
  0
LTYPE
  5
40
330
5
100
AcDbSymbolTableRecord
100
AcDbLinetypeTableRecord
  2
PHANTOM
 70
     0
  3
Phantom ______  __  __  ______  __  __  ______
 72
    65
 73
     6
 40
12.7
 49
6.349999999999999
 74
     0
 49
-1.27
 74
     0
 49
1.27
 74
     0
 49
-1.27
 74
     0
 49
1.27
 74
     0
 49
-1.27
 74
     0
  0
LTYPE
  5
41
330
5
100
AcDbSymbolTableRecord
100
AcDbLinetypeTableRecord
  2
CENTER
 70
     0
  3
Center ____ _ ____ _ ____ _ ____ _ ____ _ ____
 72
    65
 73
     4
 40
10.16
 49
6.349999999999999
 74
     0
 49
-1.27
 74
     0
 49
1.27
 74
     0
 49
-1.27
 74
     0
  0
LTYPE
  5
42
330
5
100
AcDbSymbolTableRecord
100
AcDbLinetypeTableRecord
  2
CENTERX2
 70
     0
  3
Center (2x) ________  __  ________  __  _____
 72
    65
 73
     4
 40
20.32
 49
12.7
 74
     0
 49
-2.54
 74
     0
 49
2.54
 74
     0
 49
-2.54
 74
     0
  0
LTYPE
  5
43
330
5
100
AcDbSymbolTableRecord
100
AcDbLinetypeTableRecord
  2
DOT2
 70
     0
  3
Dot (.5x) ........................................
 72
    65
 73
     2
 40
0.635
 49
0.0
 74
     0
 49
-0.635
 74
     0
  0
ENDTAB
  0
TABLE
  2
LAYER
  5
2
330
0
100
AcDbSymbolTable
 70
     2
  0
LAYER
  5
10
102
{ACAD_XDICTIONARY
360
619
102
}
330
2
100
AcDbSymbolTableRecord
100
AcDbLayerTableRecord
  2
0
 70
     0
 62
     7
  6
Continuous
370
    -3
390
F
  0
LAYER
  5
5F6
330
2
100
AcDbSymbolTableRecord
100
AcDbLayerTableRecord
  2
Defpoints
 70
     0
 62
     7
  6
Continuous
290
     0
370
    -3
390
F
  0
ENDTAB
  0
TABLE
  2
STYLE
  5
3
330
0
100
AcDbSymbolTable
 70
     1
  0
STYLE
  5
11
330
3
100
AcDbSymbolTableRecord
100
AcDbTextStyleTableRecord
  2
Standard
 70
     0
 40
0.0
 41
1.0
 50
0.0
 71
     0
 42
3.5
  3
txt
  4

  0
ENDTAB
  0
TABLE
  2
VIEW
  5
6
330
0
100
AcDbSymbolTable
 70
     0
  0
ENDTAB
  0
TABLE
  2
UCS
  5
7
330
0
100
AcDbSymbolTable
 70
     0
  0
ENDTAB
  0
TABLE
  2
APPID
  5
9
330
0
100
AcDbSymbolTable
 70
     2
  0
APPID
  5
12
330
9
100
AcDbSymbolTableRecord
100
AcDbRegAppTableRecord
  2
ACAD
 70
     0
  0
APPID
  5
5F2
330
9
100
AcDbSymbolTableRecord
100
AcDbRegAppTableRecord
  2
ACAD_MLEADERVER
 70
     0
  0
ENDTAB
  0
TABLE
  2
DIMSTYLE
  5
A
330
0
100
AcDbSymbolTable
 70
     1
100
AcDbDimStyleTable
 71
     1
340
27
  0
DIMSTYLE
105
27
330
A
100
AcDbSymbolTableRecord
100
AcDbDimStyleTableRecord
  2
ISO-25
 70
     0
 41
2.5
 42
0.625
 43
3.75
 44
1.25
 73
     0
 74
     0
 77
     1
 78
     8
140
2.5
141
2.5
143
0.03937007874016
147
0.625
171
     3
172
     1
271
     2
272
     2
274
     3
278
    44
283
     0
284
     8
340
11
  0
ENDTAB
  0
TABLE
  2
BLOCK_RECORD
  5
1
330
0
100
AcDbSymbolTable
 70
     3
  0
BLOCK_RECORD
  5
1F
330
1
100
AcDbSymbolTableRecord
100
AcDbBlockTableRecord
  2
*Model_Space
340
22
  0
BLOCK_RECORD
  5
1B
330
1
100
AcDbSymbolTableRecord
100
AcDbBlockTableRecord
  2
*Paper_Space
340
1E
  0
BLOCK_RECORD
  5
23
330
1
100
AcDbSymbolTableRecord
100
AcDbBlockTableRecord
  2
*Paper_Space0
340
26
  0
BLOCK_RECORD
  5
5F7
330
1
100
AcDbSymbolTableRecord
100
AcDbBlockTableRecord
  2
*D1
340
0
  0
BLOCK_RECORD
  5
604
330
1
100
AcDbSymbolTableRecord
100
AcDbBlockTableRecord
  2
*D2
340
0
  0
ENDTAB
  0
ENDSEC
  0
SECTION
  2
BLOCKS
  0
BLOCK
  5
20
330
1F
100
AcDbEntity
  8
0
100
AcDbBlockBegin
  2
*Model_Space
 70
     0
 10
0.0
 20
0.0
 30
0.0
  3
*Model_Space
  1

  0
ENDBLK
  5
21
330
1F
100
AcDbEntity
  8
0
100
AcDbBlockEnd
  0
BLOCK
  5
1C
330
1B
100
AcDbEntity
 67
     1
  8
0
100
AcDbBlockBegin
  2
*Paper_Space
 70
     0
 10
0.0
 20
0.0
 30
0.0
  3
*Paper_Space
  1

  0
ENDBLK
  5
1D
330
1B
100
AcDbEntity
 67
     1
  8
0
100
AcDbBlockEnd
  0
BLOCK
  5
24
330
23
100
AcDbEntity
 67
     1
  8
0
100
AcDbBlockBegin
  2
*Paper_Space0
 70
     0
 10
0.0
 20
0.0
 30
0.0
  3
*Paper_Space0
  1

  0
ENDBLK
  5
25
330
23
100
AcDbEntity
 67
     1
  8
0
100
AcDbBlockEnd
  0
BLOCK
  5
5F8
330
5F7
100
AcDbEntity
  8
0
100
AcDbBlockBegin
  2
*D1
 70
     1
 10
0.0
 20
0.0
 30
0.0
  3
*D1
  1

  0
LINE
  5
5FA
330
5F7
100
AcDbEntity
  8
0
 62
     0
370
    -2
100
AcDbLine
 10
311.71239338996
 20
54.38500410259458
 30
0.0
 11
311.71239338996
 21
19.62990131332032
 31
0.0
  0
LINE
  5
5FB
330
5F7
100
AcDbEntity
  8
0
 62
     0
370
    -2
100
AcDbLine
 10
506.21239338996
 20
54.5914870946524
 30
0.0
 11
506.21239338996
 21
19.62990131332032
 31
0.0
  0
LINE
  5
5FC
330
5F7
100
AcDbEntity
  8
0
 62
     0
370
    -2
100
AcDbLine
 10
315.21239338996
 20
20.62990131332032
 30
0.0
 11
502.71239338996
 21
20.62990131332032
 31
0.0
  0
SOLID
  5
5FD
330
5F7
100
AcDbEntity
  8
0
 62
     0
100
AcDbTrace
 10
315.21239338996
 20
21.21323464665365
 30
0.0
 11
315.21239338996
 21
20.04656797998698
 31
0.0
 12
311.71239338996
 22
20.62990131332032
 32
0.0
 13
311.71239338996
 23
20.62990131332032
 33
0.0
  0
SOLID
  5
5FE
330
5F7
100
AcDbEntity
  8
0
 62
     0
100
AcDbTrace
 10
502.71239338996
 20
21.21323464665365
 30
0.0
 11
502.71239338996
 21
20.04656797998698
 31
0.0
 12
506.21239338996
 22
20.62990131332032
 32
0.0
 13
506.21239338996
 23
20.62990131332032
 33
0.0
  0
MTEXT
  5
5FF
330
5F7
100
AcDbEntity
  8
0
 62
     0
100
AcDbMText
 10
408.9623933899599
 20
25.67156797998698
 30
0.0
 40
3.5
 41
0.0
 71
     5
 72
     1
  1
194,50
 73
     1
 44
1.0
  0
POINT
  5
600
330
5F7
100
AcDbEntity
  8
Defpoints
 62
     0
100
AcDbPoint
 10
311.71239338996
 20
54.39500410259459
 30
0.0
  0
POINT
  5
601
330
5F7
100
AcDbEntity
  8
Defpoints
 62
     0
100
AcDbPoint
 10
506.21239338996
 20
54.6014870946524
 30
0.0
  0
POINT
  5
602
330
5F7
100
AcDbEntity
  8
Defpoints
 62
     0
100
AcDbPoint
 10
506.21239338996
 20
20.62990131332032
 30
0.0
  0
ENDBLK
  5
5F9
330
5F7
100
AcDbEntity
  8
0
100
AcDbBlockEnd
  0
BLOCK
  5
605
330
604
100
AcDbEntity
  8
0
100
AcDbBlockBegin
  2
*D2
 70
     1
 10
0.0
 20
0.0
 30
0.0
  3
*D2
  1

  0
LINE
  5
610
330
604
100
AcDbEntity
  8
0
 62
     0
370
    -2
100
AcDbLine
 10
-135.7246417142885
 20
40.82543063261118
 30
0.0
 11
-135.7246417142885
 21
-16.86283614010386
 31
0.0
  0
LINE
  5
611
330
604
100
AcDbEntity
  8
0
 62
     0
370
    -2
100
AcDbLine
 10
327.2753582857115
 20
40.82543063261118
 30
0.0
 11
327.2753582857115
 21
-16.86283614010386
 31
0.0
  0
LINE
  5
612
330
604
100
AcDbEntity
  8
0
 62
     0
370
    -2
100
AcDbLine
 10
-132.2246417142885
 20
-15.86283614010386
 30
0.0
 11
323.7753582857115
 21
-15.86283614010386
 31
0.0
  0
SOLID
  5
613
330
604
100
AcDbEntity
  8
0
 62
     0
100
AcDbTrace
 10
-132.2246417142885
 20
-15.27950280677053
 30
0.0
 11
-132.2246417142885
 21
-16.4461694734372
 31
0.0
 12
-135.7246417142885
 22
-15.86283614010386
 32
0.0
 13
-135.7246417142885
 23
-15.86283614010386
 33
0.0
  0
SOLID
  5
614
330
604
100
AcDbEntity
  8
0
 62
     0
100
AcDbTrace
 10
323.7753582857115
 20
-15.27950280677053
 30
0.0
 11
323.7753582857115
 21
-16.4461694734372
 31
0.0
 12
327.2753582857115
 22
-15.86283614010386
 32
0.0
 13
327.2753582857115
 23
-15.86283614010386
 33
0.0
  0
MTEXT
  5
615
330
604
100
AcDbEntity
  8
0
 62
     0
100
AcDbMText
 10
95.7753582857115
 20
-10.8211694734372
 30
0.0
 40
3.5
 41
0.0
 71
     5
 72
     1
  1
463,00
 73
     1
 44
1.0
  0
POINT
  5
616
330
604
100
AcDbEntity
  8
Defpoints
 62
     0
100
AcDbPoint
 10
-135.7246417142885
 20
40.83543063261117
 30
0.0
  0
POINT
  5
617
330
604
100
AcDbEntity
  8
Defpoints
 62
     0
100
AcDbPoint
 10
327.2753582857115
 20
40.83543063261117
 30
0.0
  0
POINT
  5
618
330
604
100
AcDbEntity
  8
Defpoints
 62
     0
100
AcDbPoint
 10
327.2753582857115
 20
-15.86283614010386
 30
0.0
  0
ENDBLK
  5
606
330
604
100
AcDbEntity
  8
0
100
AcDbBlockEnd
  0
ENDSEC
  0
SECTION
  2
ENTITIES
  0
LINE
  5
44
330
1F
100
AcDbEntity
  8
0
  6
Continuous
 62
     7
370
    15
100
AcDbLine
 10
636.9300583010335
 20
162.6926030256111
 30
0.0
 11
636.9300583010335
 21
128.505269820422
 31
0.0
  0
LINE
  5
45
330
1F
100
AcDbEntity
  8
0
  6
Continuous
 62
     7
370
    15
100
AcDbLine
 10
623.0384629439198
 20
128.505269820422
 30
0.0
 11
636.9300583010335
 21
128.505269820422
 31
0.0
  0
LINE
  5
46
330
1F
100
AcDbEntity
  8
0
  6
Continuous
 62
     7
370
    15
100
AcDbLine
 10
726.4338307016475
 20
162.6926030256112
 30
0.0
 11
636.9300583010335
 21
162.6926030256111
 31
0.0
  0
LINE
  5
47
330
1F
100
AcDbEntity
  8
0
  6
Continuous
 62
     7
370
    15
100
AcDbLine
 10
533.5346905433058
 20
162.6926030256112
 30
0.0
 11
623.0384629439198
 21
162.6926030256111
 31
0.0
  0
LINE
  5
48
330
1F
100
AcDbEntity
  8
0
  6
Continuous
 62
     7
370
    15
100
AcDbLine
 10
498.3868644513343
 20
128.6434099544688
 30
0.0
 11
498.3868644513343
 21
147.7379610354491
 31
0.0
  0
LINE
  5
49
330
1F
100
AcDbEntity
  8
0
  6
Continuous
 62
     7
370
    15
100
AcDbLine
 10
623.0384629439198
 20
162.6926030256111
 30
0.0
 11
623.0384629439198
 21
128.505269820422
 31
0.0
  0
LINE
  5
4A
330
1F
100
AcDbEntity
  8
0
  6
Continuous
 62
     7
370
    15
100
AcDbLine
 10
775.5816567936191
 20
179.1760816913431
 30
0.0
 11
775.5816567936191
 21
128.6434099544688
 31
0.0
  0
LINE
  5
4B
330
1F
100
AcDbEntity
  8
0
  6
Continuous
 62
     7
370
    15
100
AcDbLine
 10
645.4603476796095
 20
234.5398924715413
 30
0.0
 11
775.5816567936191
 21
179.1760816913431
 31
0.0
  0
LINE
  5
4C
330
1F
100
AcDbEntity
  8
0
  6
Continuous
 62
     7
370
    15
100
AcDbLine
 10
498.3868644513343
 20
147.7379610354491
 30
0.0
 11
533.5346905433058
 21
162.6926030256112
 31
0.0
  0
LINE
  5
4D
330
1F
100
AcDbEntity
  8
0
  6
Continuous
 62
     7
370
    15
100
AcDbLine
 10
484.3868644513342
 20
128.6434099544688
 30
0.0
 11
498.3868644513343
 21
128.6434099544688
 31
0.0
  0
LINE
  5
4E
330
1F
100
AcDbEntity
  8
0
  6
Continuous
 62
     7
370
    15
100
AcDbLine
 10
614.9243352211129
 20
234.7169602809636
 30
0.0
 11
484.3868644513342
 21
179.1760816913431
 31
0.0
  0
LINE
  5
4F
330
1F
100
AcDbEntity
  8
0
  6
Continuous
 62
     7
370
    15
100
AcDbLine
 10
775.5816567936191
 20
128.6434099544688
 30
0.0
 11
761.5816567936191
 21
128.6434099544688
 31
0.0
  0
LINE
  5
50
330
1F
100
AcDbEntity
  8
0
  6
Continuous
 62
     7
370
    15
100
AcDbLine
 10
614.9243352211129
 20
234.7169602809636
 30
0.0
 11
615.4603476796095
 21
234.7169602809636
 31
0.0
  0
LINE
  5
51
330
1F
100
AcDbEntity
  8
0
  6
Continuous
 62
     7
370
    15
100
AcDbLine
 10
484.3868644513342
 20
179.1760816913431
 30
0.0
 11
484.3868644513342
 21
128.6434099544688
 31
0.0
  0
LINE
  5
52
330
1F
100
AcDbEntity
  8
0
  6
Continuous
 62
     7
370
    15
100
AcDbLine
 10
761.5816567936191
 20
147.7379610354491
 30
0.0
 11
726.4338307016475
 21
162.6926030256112
 31
0.0
  0
CIRCLE
  5
53
330
1F
100
AcDbEntity
  8
0
  6
Continuous
 62
     7
370
    15
100
AcDbCircle
 10
768.3643886412861
 20
136.950519527601
 30
0.0
 40
3.0
  0
CIRCLE
  5
54
330
1F
100
AcDbEntity
  8
0
  6
Continuous
 62
     7
370
    15
100
AcDbCircle
 10
491.6041326036671
 20
136.950519527601
 30
0.0
 40
3.0
  0
LINE
  5
55
330
1F
100
AcDbEntity
  8
0
  6
Continuous
 62
     7
370
    15
100
AcDbLine
 10
761.5816567936191
 20
128.6434099544688
 30
0.0
 11
761.5816567936191
 21
147.7379610354491
 31
0.0
  0
CIRCLE
  5
56
330
1F
100
AcDbEntity
  8
0
  6
Continuous
 62
     7
370
    15
100
AcDbCircle
 10
629.9842606224766
 20
142.7890100886642
 30
0.0
 40
3.0
  0
LINE
  5
57
330
1F
100
AcDbEntity
  8
0
  6
Continuous
 62
     7
370
    15
100
AcDbLine
 10
645.4603476796095
 20
274.0622100842736
 30
0.0
 11
645.4603476796095
 21
215.6622100842736
 31
0.0
  0
LINE
  5
58
330
1F
100
AcDbEntity
  8
0
  6
Continuous
 62
     7
370
    15
100
AcDbLine
 10
615.4603476796095
 20
274.0622100842736
 30
0.0
 11
615.4603476796095
 21
215.6622100842736
 31
0.0
  0
CIRCLE
  5
59
330
1F
100
AcDbEntity
  8
0
  6
Continuous
 62
     7
370
    15
100
AcDbCircle
 10
629.9842606224766
 20
228.8019052119921
 30
0.0
 40
3.0
  0
LINE
  5
5A
330
1F
100
AcDbEntity
  8
0
  6
Continuous
 62
     7
370
    15
100
AcDbLine
 10
645.4603476796095
 20
274.0622100842736
 30
0.0
 11
615.4603476796095
 21
274.0622100842736
 31
0.0
  0
LINE
  5
5B
330
1F
100
AcDbEntity
  8
0
  6
Continuous
 62
     7
370
    15
100
AcDbLine
 10
645.4603476796095
 20
215.6622100842736
 30
0.0
 11
615.4603476796095
 21
215.6622100842736
 31
0.0
  0
LINE
  5
5C
330
1F
100
AcDbEntity
  8
0
  6
Continuous
 62
     7
370
    15
100
AcDbLine
 10
743.5621252170327
 20
33.26861835646987
 30
0.0
 11
714.4253679773858
 21
41.24839661672678
 31
0.0
  0
LINE
  5
5D
330
1F
100
AcDbEntity
  8
0
  6
Continuous
 62
     7
370
    15
100
AcDbLine
 10
714.4253679773858
 20
87.63186111682461
 30
0.0
 11
714.4253679773858
 21
41.24839661672678
 31
0.0
  0
LINE
  5
5E
330
1F
100
AcDbEntity
  8
0
  6
Continuous
 62
     7
370
    15
100
AcDbLine
 10
824.4253679773859
 20
41.2483966167268
 30
0.0
 11
824.4253679773859
 21
87.63186111682461
 31
0.0
  0
LINE
  5
5F
330
1F
100
AcDbEntity
  8
0
  6
Continuous
 62
     7
370
    15
100
AcDbLine
 10
743.5621252170327
 20
33.26861835646987
 30
0.0
 11
795.288610737739
 21
33.26861835646987
 31
0.0
  0
LINE
  5
60
330
1F
100
AcDbEntity
  8
0
  6
Continuous
 62
     7
370
    15
100
AcDbLine
 10
795.288610737739
 20
33.26861835646987
 30
0.0
 11
824.4253679773859
 21
41.2483966167268
 31
0.0
  0
ARC
  5
61
330
1F
100
AcDbEntity
  8
0
  6
Continuous
 62
     7
370
    15
100
AcDbCircle
 10
783.367230247456
 20
-59.06506170302407
 30
0.0
 40
152.3343619760904
100
AcDbArc
 50
74.36391098845451
 51
89.82856302954687
  0
LINE
  5
62
330
1F
100
AcDbEntity
  8
0
  6
Continuous
 62
     7
370
    15
100
AcDbLine
 10
783.823035243329
 20
93.26861835646989
 30
0.0
 11
755.0277007114427
 21
93.26861835646989
 31
0.0
  0
ARC
  5
63
330
1F
100
AcDbEntity
  8
0
  6
Continuous
 62
     7
370
    15
100
AcDbCircle
 10
755.4835057073159
 20
-59.06506170302407
 30
0.0
 40
152.3343619760904
100
AcDbArc
 50
90.17143697045312
 51
105.6360890115455
  0
ARC
  5
64
330
1F
100
AcDbEntity
  8
0
  6
Continuous
 62
     7
370
    15
100
AcDbCircle
 10
786.1813764637044
 20
34.26861835646987
 30
0.0
 40
3.000000000000021
100
AcDbArc
 50
270.0000000000008
 51
340.5287793655104
  0
LINE
  5
65
330
1F
100
AcDbEntity
  8
0
  6
Continuous
 62
     7
370
    15
100
AcDbLine
 10
786.1813764637044
 20
31.26861835646986
 30
0.0
 11
776.8382307131968
 21
31.26861835646986
 31
0.0
  0
ARC
  5
66
330
1F
100
AcDbEntity
  8
0
  6
Continuous
 62
     7
370
    15
100
AcDbCircle
 10
776.8382307131968
 20
34.26861835646987
 30
0.0
 40
3.000000000000021
100
AcDbArc
 50
199.4712206344911
 51
270.0000000000008
  0
LINE
  5
67
330
1F
100
AcDbEntity
  8
0
  6
Continuous
 62
     7
370
    15
100
AcDbLine
 10
760.8942119576909
 20
31.26861835646986
 30
0.0
 11
751.5510662071832
 21
31.26861835646986
 31
0.0
  0
ARC
  5
68
330
1F
100
AcDbEntity
  8
0
  6
Continuous
 62
     7
370
    15
100
AcDbCircle
 10
751.5510662071832
 20
34.26861835646987
 30
0.0
 40
3.000000000000021
100
AcDbArc
 50
199.4712206344911
 51
270.0000000000008
  0
ARC
  5
69
330
1F
100
AcDbEntity
  8
0
  6
Continuous
 62
     7
370
    15
100
AcDbCircle
 10
760.8942119576909
 20
34.26861835646987
 30
0.0
 40
3.000000000000021
100
AcDbArc
 50
270.0000000000008
 51
340.5287793655104
  0
LINE
  5
6A
330
1F
100
AcDbEntity
  8
0
  6
Continuous
 62
     7
370
    15
100
AcDbLine
 10
755.0277007114427
 20
150.5265280031962
 30
0.0
 11
755.0277007114427
 21
93.26861835646989
 31
0.0
  0
LINE
  5
6B
330
1F
100
AcDbEntity
  8
0
  6
Continuous
 62
     7
370
    15
100
AcDbLine
 10
775.5816567936191
 20
153.2686183564698
 30
0.0
 11
783.823035243329
 21
153.2686183564698
 31
0.0
  0
LINE
  5
6C
330
1F
100
AcDbEntity
  8
0
  6
Continuous
 62
     7
370
    15
100
AcDbLine
 10
783.823035243329
 20
153.2686183564698
 30
0.0
 11
783.823035243329
 21
93.26861835646989
 31
0.0
  0
LINE
  5
6D
330
1F
100
AcDbEntity
  8
0
  6
Continuous
 62
     7
370
    15
100
AcDbLine
 10
576.4024256221157
 20
87.42545284462833
 30
0.0
 11
576.4024256221157
 21
41.04198834453052
 31
0.0
  0
LINE
  5
6E
330
1F
100
AcDbEntity
  8
0
  6
Continuous
 62
     7
370
    15
100
AcDbLine
 10
686.4024256221156
 20
41.04198834453055
 30
0.0
 11
686.4024256221156
 21
87.42545284462833
 31
0.0
  0
LINE
  5
6F
330
1F
100
AcDbEntity
  8
0
  6
Continuous
 62
     7
370
    15
100
AcDbLine
 10
657.2656683824687
 20
33.0622100842736
 30
0.0
 11
686.4024256221156
 21
41.04198834453055
 31
0.0
  0
LINE
  5
70
330
1F
100
AcDbEntity
  8
0
  6
Continuous
 62
     7
370
    15
100
AcDbLine
 10
605.5391828617626
 20
33.0622100842736
 30
0.0
 11
657.2656683824687
 21
33.0622100842736
 31
0.0
  0
LINE
  5
71
330
1F
100
AcDbEntity
  8
0
  6
Continuous
 62
     7
370
    15
100
AcDbLine
 10
605.5391828617626
 20
33.0622100842736
 30
0.0
 11
576.4024256221157
 21
41.04198834453052
 31
0.0
  0
ARC
  5
72
330
1F
100
AcDbEntity
  8
0
  6
Continuous
 62
     7
370
    15
100
AcDbCircle
 10
645.3442878921858
 20
-59.27146997522033
 30
0.0
 40
152.3343619760904
100
AcDbArc
 50
74.36391098845451
 51
89.82856302954687
  0
LINE
  5
73
330
1F
100
AcDbEntity
  8
0
  6
Continuous
 62
     7
370
    15
100
AcDbLine
 10
645.8000928880587
 20
93.06221008427362
 30
0.0
 11
617.0047583561725
 21
93.06221008427362
 31
0.0
  0
ARC
  5
74
330
1F
100
AcDbEntity
  8
0
  6
Continuous
 62
     7
370
    15
100
AcDbCircle
 10
617.4605633520457
 20
-59.27146997522033
 30
0.0
 40
152.3343619760904
100
AcDbArc
 50
90.17143697045312
 51
105.6360890115455
  0
LINE
  5
75
330
1F
100
AcDbEntity
  8
0
  6
Continuous
 62
     7
370
    15
100
AcDbLine
 10
622.8712696024206
 20
31.0622100842736
 30
0.0
 11
613.5281238519131
 21
31.0622100842736
 31
0.0
  0
ARC
  5
76
330
1F
100
AcDbEntity
  8
0
  6
Continuous
 62
     7
370
    15
100
AcDbCircle
 10
613.5281238519131
 20
34.06221008427362
 30
0.0
 40
3.000000000000133
100
AcDbArc
 50
199.4712206344907
 51
270.0000000000008
  0
ARC
  5
77
330
1F
100
AcDbEntity
  8
0
  6
Continuous
 62
     7
370
    15
100
AcDbCircle
 10
622.8712696024206
 20
34.06221008427362
 30
0.0
 40
3.000000000000133
100
AcDbArc
 50
270.0000000000008
 51
340.5287793655108
  0
ARC
  5
78
330
1F
100
AcDbEntity
  8
0
  6
Continuous
 62
     7
370
    15
100
AcDbCircle
 10
648.1584341084342
 20
34.06221008427362
 30
0.0
 40
3.000000000000026
100
AcDbArc
 50
270.0000000000008
 51
340.52877936551
  0
LINE
  5
79
330
1F
100
AcDbEntity
  8
0
  6
Continuous
 62
     7
370
    15
100
AcDbLine
 10
648.1584341084342
 20
31.0622100842736
 30
0.0
 11
638.8152883579266
 21
31.0622100842736
 31
0.0
  0
ARC
  5
7A
330
1F
100
AcDbEntity
  8
0
  6
Continuous
 62
     7
370
    15
100
AcDbCircle
 10
638.8152883579266
 20
34.06221008427362
 30
0.0
 40
3.000000000000133
100
AcDbArc
 50
199.4712206344907
 51
270.0000000000008
  0
LINE
  5
7B
330
1F
100
AcDbEntity
  8
0
  6
Continuous
 62
     7
370
    15
100
AcDbLine
 10
617.0047583561725
 20
153.0622100842736
 30
0.0
 11
617.0047583561725
 21
93.06221008427362
 31
0.0
  0
LINE
  5
7C
330
1F
100
AcDbEntity
  8
0
  6
Continuous
 62
     7
370
    15
100
AcDbLine
 10
617.0047583561725
 20
153.0622100842736
 30
0.0
 11
623.0384629439198
 21
153.0622100842736
 31
0.0
  0
LINE
  5
7D
330
1F
100
AcDbEntity
  8
0
  6
Continuous
 62
     7
370
    15
100
AcDbLine
 10
636.9300583010335
 20
153.0622100842736
 30
0.0
 11
645.8000928880587
 21
153.0622100842736
 31
0.0
  0
LINE
  5
7E
330
1F
100
AcDbEntity
  8
0
  6
Continuous
 62
     7
370
    15
100
AcDbLine
 10
645.8000928880587
 20
153.0622100842736
 30
0.0
 11
645.8000928880587
 21
93.06221008427362
 31
0.0
  0
LINE
  5
7F
330
1F
100
AcDbEntity
  8
0
  6
Continuous
 62
     7
370
    15
100
AcDbLine
 10
545.4253679773858
 20
40.8354306326112
 30
0.0
 11
545.4253679773858
 21
87.21889513270898
 31
0.0
  0
LINE
  5
80
330
1F
100
AcDbEntity
  8
0
  6
Continuous
 62
     7
370
    15
100
AcDbLine
 10
516.2886107377389
 20
32.85565237235426
 30
0.0
 11
545.4253679773858
 21
40.8354306326112
 31
0.0
  0
LINE
  5
81
330
1F
100
AcDbEntity
  8
0
  6
Continuous
 62
     7
370
    15
100
AcDbLine
 10
464.5621252170327
 20
32.85565237235426
 30
0.0
 11
516.2886107377389
 21
32.85565237235426
 31
0.0
  0
LINE
  5
82
330
1F
100
AcDbEntity
  8
0
  6
Continuous
 62
     7
370
    15
100
AcDbLine
 10
464.5621252170327
 20
32.85565237235426
 30
0.0
 11
435.4253679773858
 21
40.83543063261117
 31
0.0
  0
LINE
  5
83
330
1F
100
AcDbEntity
  8
0
  6
Continuous
 62
     7
370
    15
100
AcDbLine
 10
435.4253679773858
 20
87.21889513270898
 30
0.0
 11
435.4253679773858
 21
40.83543063261117
 31
0.0
  0
ARC
  5
84
330
1F
100
AcDbEntity
  8
0
  6
Continuous
 62
     7
370
    15
100
AcDbCircle
 10
476.4835057073159
 20
-59.47802768713969
 30
0.0
 40
152.3343619760904
100
AcDbArc
 50
90.17143697045312
 51
105.6360890115455
  0
ARC
  5
85
330
1F
100
AcDbEntity
  8
0
  6
Continuous
 62
     7
370
    15
100
AcDbCircle
 10
504.3672302474558
 20
-59.47802768713969
 30
0.0
 40
152.3343619760904
100
AcDbArc
 50
74.36391098845451
 51
89.82856302954687
  0
LINE
  5
86
330
1F
100
AcDbEntity
  8
0
  6
Continuous
 62
     7
370
    15
100
AcDbLine
 10
504.823035243329
 20
92.85565237235429
 30
0.0
 11
476.0277007114427
 21
92.85565237235429
 31
0.0
  0
LINE
  5
87
330
1F
100
AcDbEntity
  8
0
  6
Continuous
 62
     7
370
    15
100
AcDbLine
 10
481.8942119576909
 20
30.85565237235426
 30
0.0
 11
472.5510662071831
 21
30.85565237235426
 31
0.0
  0
ARC
  5
88
330
1F
100
AcDbEntity
  8
0
  6
Continuous
 62
     7
370
    15
100
AcDbCircle
 10
481.8942119576909
 20
33.85565237235426
 30
0.0
 40
3.0
100
AcDbArc
 50
270.0000000000008
 51
340.5287793655089
  0
ARC
  5
89
330
1F
100
AcDbEntity
  8
0
  6
Continuous
 62
     7
370
    15
100
AcDbCircle
 10
472.5510662071831
 20
33.85565237235426
 30
0.0
 40
3.0
100
AcDbArc
 50
199.4712206344922
 51
270.0000000000008
  0
LINE
  5
8A
330
1F
100
AcDbEntity
  8
0
  6
Continuous
 62
     7
370
    15
100
AcDbLine
 10
507.1813764637044
 20
30.85565237235426
 30
0.0
 11
497.8382307131965
 21
30.85565237235426
 31
0.0
  0
ARC
  5
8B
330
1F
100
AcDbEntity
  8
0
  6
Continuous
 62
     7
370
    15
100
AcDbCircle
 10
507.1813764637044
 20
33.85565237235426
 30
0.0
 40
3.0
100
AcDbArc
 50
270.0000000000008
 51
340.5287793655096
  0
ARC
  5
8C
330
1F
100
AcDbEntity
  8
0
  6
Continuous
 62
     7
370
    15
100
AcDbCircle
 10
497.8382307131965
 20
33.85565237235426
 30
0.0
 40
3.0
100
AcDbArc
 50
199.4712206344929
 51
270.0000000000008
  0
LINE
  5
8D
330
1F
100
AcDbEntity
  8
0
  6
Continuous
 62
     7
370
    15
100
AcDbLine
 10
476.0277007114427
 20
152.8556523723542
 30
0.0
 11
476.0277007114427
 21
92.85565237235429
 31
0.0
  0
LINE
  5
8E
330
1F
100
AcDbEntity
  8
0
  6
Continuous
 62
     7
370
    15
100
AcDbLine
 10
476.0277007114427
 20
152.8556523723542
 30
0.0
 11
484.3868644513342
 21
152.8556523723542
 31
0.0
  0
LINE
  5
8F
330
1F
100
AcDbEntity
  8
0
  6
Continuous
 62
     7
370
    15
100
AcDbLine
 10
504.823035243329
 20
150.4764129024283
 30
0.0
 11
504.823035243329
 21
92.85565237235429
 31
0.0
  0
LINE
  5
90
330
1F
100
AcDbEntity
  8
0
  6
Continuous
 62
     7
370
    15
100
AcDbLine
 10
-34.53178264837533
 20
234.7169602809636
 30
0.0
 11
-36.53178264837533
 21
234.7169602809636
 31
0.0
  0
LINE
  5
91
330
1F
100
AcDbEntity
  8
0
  6
Continuous
 62
     7
370
    15
100
AcDbLine
 10
-34.53178264837533
 20
179.1760816913429
 30
0.0
 11
-36.53178264837533
 21
179.1760816913429
 31
0.0
  0
LINE
  5
92
330
1F
100
AcDbEntity
  8
0
  6
Continuous
 62
     7
370
    15
100
AcDbLine
 10
-36.53178264837533
 20
234.7169602809636
 30
0.0
 11
-36.53178264837533
 21
179.1760816913429
 31
0.0
  0
LINE
  5
93
330
1F
100
AcDbEntity
  8
0
  6
Continuous
 62
     7
370
    15
100
AcDbLine
 10
-34.53178264837533
 20
234.7169602809636
 30
0.0
 11
-34.53178264837533
 21
179.1760816913429
 31
0.0
  0
LINE
  5
94
330
1F
100
AcDbEntity
  8
0
  6
Continuous
 62
     7
370
    15
100
AcDbLine
 10
-34.53178264837533
 20
128.6434099544686
 30
0.0
 11
-36.53178264837533
 21
128.6434099544686
 31
0.0
  0
LINE
  5
95
330
1F
100
AcDbEntity
  8
0
  6
Continuous
 62
     7
370
    15
100
AcDbLine
 10
-36.53178264837533
 20
179.1760816913429
 30
0.0
 11
-36.53178264837533
 21
128.6434099544686
 31
0.0
  0
LINE
  5
96
330
1F
100
AcDbEntity
  8
0
  6
Continuous
 62
     7
370
    15
100
AcDbLine
 10
-34.53178264837533
 20
179.1760816913429
 30
0.0
 11
-34.53178264837533
 21
152.8556523723542
 31
0.0
  0
LINE
  5
97
330
1F
100
AcDbEntity
  8
0
  6
Continuous
 62
     7
370
    15
100
AcDbLine
 10
-34.53178264837533
 20
234.7169602809636
 30
0.0
 11
97.46821735162468
 21
234.7169602809636
 31
0.0
  0
LINE
  5
98
330
1F
100
AcDbEntity
  8
0
  6
Continuous
 62
     7
370
    15
100
AcDbLine
 10
97.46821735162468
 20
233.7169602809636
 30
0.0
 11
97.46821735162468
 21
234.7169602809636
 31
0.0
  0
LINE
  5
99
330
1F
100
AcDbEntity
  8
0
  6
Continuous
 62
     7
370
    15
100
AcDbLine
 10
-34.53178264837533
 20
233.7169602809636
 30
0.0
 11
97.46821735162468
 21
233.7169602809636
 31
0.0
  0
LINE
  5
9A
330
1F
100
AcDbEntity
  8
0
  6
Continuous
 62
     7
370
    15
100
AcDbLine
 10
-34.53178264837533
 20
128.505269820422
 30
0.0
 11
-36.53178264837533
 21
128.505269820422
 31
0.0
  0
LINE
  5
9B
330
1F
100
AcDbEntity
  8
0
  6
Continuous
 62
     7
370
    15
100
AcDbLine
 10
-36.53178264837533
 20
128.6434099544689
 30
0.0
 11
-36.53178264837533
 21
128.505269820422
 31
0.0
  0
LINE
  5
9C
330
1F
100
AcDbEntity
  8
0
  6
Continuous
 62
     7
370
    15
100
AcDbLine
 10
229.4682173516247
 20
128.6434099544688
 30
0.0
 11
231.4682173516247
 21
128.6434099544688
 31
0.0
  0
LINE
  5
9D
330
1F
100
AcDbEntity
  8
0
  6
Continuous
 62
     7
370
    15
100
AcDbLine
 10
229.4682173516247
 20
179.1760816913431
 30
0.0
 11
231.4682173516247
 21
179.1760816913431
 31
0.0
  0
LINE
  5
9E
330
1F
100
AcDbEntity
  8
0
  6
Continuous
 62
     7
370
    15
100
AcDbLine
 10
229.4682173516247
 20
179.1760816913431
 30
0.0
 11
229.4682173516247
 21
152.8556523723542
 31
0.0
  0
LINE
  5
9F
330
1F
100
AcDbEntity
  8
0
  6
Continuous
 62
     7
370
    15
100
AcDbLine
 10
231.4682173516247
 20
179.1760816913431
 30
0.0
 11
231.4682173516247
 21
128.6434099544688
 31
0.0
  0
LINE
  5
A0
330
1F
100
AcDbEntity
  8
0
  6
Continuous
 62
     7
370
    15
100
AcDbLine
 10
229.4682173516247
 20
234.7169602809636
 30
0.0
 11
231.4682173516247
 21
234.7169602809636
 31
0.0
  0
LINE
  5
A1
330
1F
100
AcDbEntity
  8
0
  6
Continuous
 62
     7
370
    15
100
AcDbLine
 10
229.4682173516247
 20
234.7169602809636
 30
0.0
 11
229.4682173516247
 21
179.1760816913431
 31
0.0
  0
LINE
  5
A2
330
1F
100
AcDbEntity
  8
0
  6
Continuous
 62
     7
370
    15
100
AcDbLine
 10
231.4682173516247
 20
234.7169602809636
 30
0.0
 11
231.4682173516247
 21
179.1760816913431
 31
0.0
  0
LINE
  5
A3
330
1F
100
AcDbEntity
  8
0
  6
Continuous
 62
     7
370
    15
100
AcDbLine
 10
97.46821735162468
 20
233.7169602809636
 30
0.0
 11
229.4682173516247
 21
233.7169602809636
 31
0.0
  0
LINE
  5
A4
330
1F
100
AcDbEntity
  8
0
  6
Continuous
 62
     7
370
    15
100
AcDbLine
 10
97.46821735162468
 20
234.7169602809636
 30
0.0
 11
229.4682173516247
 21
234.7169602809636
 31
0.0
  0
LINE
  5
A5
330
1F
100
AcDbEntity
  8
0
  6
Continuous
 62
     7
370
    15
100
AcDbLine
 10
229.4682173516247
 20
128.505269820422
 30
0.0
 11
231.4682173516247
 21
128.505269820422
 31
0.0
  0
LINE
  5
A6
330
1F
100
AcDbEntity
  8
0
  6
Continuous
 62
     7
370
    15
100
AcDbLine
 10
231.4682173516247
 20
128.6434099544688
 30
0.0
 11
231.4682173516247
 21
128.505269820422
 31
0.0
  0
LINE
  5
A7
330
1F
100
AcDbEntity
  8
0
  6
Continuous
 62
     7
370
    15
100
AcDbLine
 10
-36.53178264837533
 20
215.6622100842736
 30
0.0
 11
-38.53178264837533
 21
215.6622100842736
 31
0.0
  0
LINE
  5
A8
330
1F
100
AcDbEntity
  8
0
  6
Continuous
 62
     7
370
    15
100
AcDbLine
 10
-38.53178264837533
 20
215.6622100842736
 30
0.0
 11
-38.53178264837533
 21
274.0622100842736
 31
0.0
  0
LINE
  5
A9
330
1F
100
AcDbEntity
  8
0
  6
Continuous
 62
     7
370
    15
100
AcDbLine
 10
-38.53178264837533
 20
274.0622100842736
 30
0.0
 11
233.4682173516247
 21
274.0622100842736
 31
0.0
  0
LINE
  5
AA
330
1F
100
AcDbEntity
  8
0
  6
Continuous
 62
     7
370
    15
100
AcDbLine
 10
233.4682173516247
 20
274.0622100842736
 30
0.0
 11
233.4682173516247
 21
215.6622100842736
 31
0.0
  0
LINE
  5
AB
330
1F
100
AcDbEntity
  8
0
  6
Continuous
 62
     7
370
    15
100
AcDbLine
 10
233.4682173516247
 20
215.6622100842736
 30
0.0
 11
231.4682173516247
 21
215.6622100842736
 31
0.0
  0
LINE
  5
AC
330
1F
100
AcDbEntity
  8
0
  6
Continuous
 62
     7
370
    15
100
AcDbLine
 10
231.4682173516246
 20
234.7169602809636
 30
0.0
 11
231.4682173516247
 21
272.0622100842736
 31
0.0
  0
LINE
  5
AD
330
1F
100
AcDbEntity
  8
0
  6
Continuous
 62
     7
370
    15
100
AcDbLine
 10
-36.53178264837533
 20
272.0622100842736
 30
0.0
 11
-36.53178264837533
 21
234.7169602809636
 31
0.0
  0
LINE
  5
AE
330
1F
100
AcDbEntity
  8
0
  6
Continuous
 62
     7
370
    15
100
AcDbLine
 10
231.4682173516247
 20
272.0622100842736
 30
0.0
 11
-36.53178264837533
 21
272.0622100842736
 31
0.0
  0
LINE
  5
AF
330
1F
100
AcDbEntity
  8
0
  6
Continuous
 62
     7
370
    15
100
AcDbLine
 10
-135.7246417142885
 20
93.26861835646989
 30
0.0
 11
-34.53178264837536
 21
93.26861835646989
 31
0.0
  0
LINE
  5
B0
330
1F
100
AcDbEntity
  8
0
  6
Continuous
 62
     7
370
    15
100
AcDbLine
 10
229.4682173516247
 20
93.26861835646989
 30
0.0
 11
327.2753582857115
 21
93.26861835646989
 31
0.0
  0
LINE
  5
B1
330
1F
100
AcDbEntity
  8
0
  6
Continuous
 62
     7
370
    15
100
AcDbLine
 10
327.2753582857115
 20
93.06221008427362
 30
0.0
 11
327.2753582857115
 21
93.26861835646989
 31
0.0
  0
LINE
  5
B2
330
1F
100
AcDbEntity
  8
0
  6
Continuous
 62
     7
370
    15
100
AcDbLine
 10
-135.7246417142885
 20
93.06221008427362
 30
0.0
 11
-135.7246417142885
 21
93.26861835646989
 31
0.0
  0
LINE
  5
B3
330
1F
100
AcDbEntity
  8
0
  6
Continuous
 62
     7
370
    15
100
AcDbLine
 10
-34.53178264837536
 20
153.2686183564698
 30
0.0
 11
229.4682173516247
 21
153.2686183564698
 31
0.0
  0
LINE
  5
B4
330
1F
100
AcDbEntity
  8
0
  6
Continuous
 62
     7
370
    15
100
AcDbLine
 10
-29.30187293285545
 20
95.14604407756673
 30
0.0
 11
-26.23725237465533
 21
95.14604407756673
 31
0.0
  0
LINE
  5
B5
330
1F
100
AcDbEntity
  8
0
  6
Continuous
 62
     7
370
    15
100
AcDbLine
 10
-19.30187293285544
 20
95.14604407756673
 30
0.0
 11
-16.23725237465533
 21
95.14604407756673
 31
0.0
  0
LINE
  5
B6
330
1F
100
AcDbEntity
  8
0
  6
Continuous
 62
     7
370
    15
100
AcDbLine
 10
-9.301872932855445
 20
95.14604407756673
 30
0.0
 11
-6.237252374655327
 21
95.14604407756673
 31
0.0
  0
LINE
  5
B7
330
1F
100
AcDbEntity
  8
0
  6
Continuous
 62
     7
370
    15
100
AcDbLine
 10
0.6981270671445828
 20
95.14604407756673
 30
0.0
 11
3.762747625344701
 21
95.14604407756673
 31
0.0
  0
LINE
  5
B8
330
1F
100
AcDbEntity
  8
0
  6
Continuous
 62
     7
370
    15
100
AcDbLine
 10
10.69812706714458
 20
95.14604407756673
 30
0.0
 11
13.76274762534464
 21
95.14604407756673
 31
0.0
  0
LINE
  5
B9
330
1F
100
AcDbEntity
  8
0
  6
Continuous
 62
     7
370
    15
100
AcDbLine
 10
20.69812706714458
 20
95.14604407756673
 30
0.0
 11
23.76274762534464
 21
95.14604407756673
 31
0.0
  0
LINE
  5
BA
330
1F
100
AcDbEntity
  8
0
  6
Continuous
 62
     7
370
    15
100
AcDbLine
 10
30.69812706714461
 20
95.14604407756673
 30
0.0
 11
33.76274762534468
 21
95.14604407756673
 31
0.0
  0
LINE
  5
BB
330
1F
100
AcDbEntity
  8
0
  6
Continuous
 62
     7
370
    15
100
AcDbLine
 10
40.6981270671446
 20
95.14604407756673
 30
0.0
 11
43.76274762534467
 21
95.14604407756673
 31
0.0
  0
LINE
  5
BC
330
1F
100
AcDbEntity
  8
0
  6
Continuous
 62
     7
370
    15
100
AcDbLine
 10
50.69812706714461
 20
95.14604407756673
 30
0.0
 11
53.76274762534468
 21
95.14604407756673
 31
0.0
  0
LINE
  5
BD
330
1F
100
AcDbEntity
  8
0
  6
Continuous
 62
     7
370
    15
100
AcDbLine
 10
60.69812706714452
 20
95.14604407756673
 30
0.0
 11
63.76274762534461
 21
95.14604407756673
 31
0.0
  0
LINE
  5
BE
330
1F
100
AcDbEntity
  8
0
  6
Continuous
 62
     7
370
    15
100
AcDbLine
 10
70.69812706714452
 20
95.14604407756673
 30
0.0
 11
73.76274762534461
 21
95.14604407756673
 31
0.0
  0
LINE
  5
BF
330
1F
100
AcDbEntity
  8
0
  6
Continuous
 62
     7
370
    15
100
AcDbLine
 10
80.69812706714452
 20
95.14604407756673
 30
0.0
 11
83.76274762534462
 21
95.14604407756673
 31
0.0
  0
LINE
  5
C0
330
1F
100
AcDbEntity
  8
0
  6
Continuous
 62
     7
370
    15
100
AcDbLine
 10
90.69812706714452
 20
95.14604407756673
 30
0.0
 11
93.76274762534462
 21
95.14604407756673
 31
0.0
  0
LINE
  5
C1
330
1F
100
AcDbEntity
  8
0
  6
Continuous
 62
     7
370
    15
100
AcDbLine
 10
100.6981270671445
 20
95.14604407756673
 30
0.0
 11
103.7627476253446
 21
95.14604407756673
 31
0.0
  0
LINE
  5
C2
330
1F
100
AcDbEntity
  8
0
  6
Continuous
 62
     7
370
    15
100
AcDbLine
 10
110.6981270671445
 20
95.14604407756673
 30
0.0
 11
113.7627476253447
 21
95.14604407756673
 31
0.0
  0
LINE
  5
C3
330
1F
100
AcDbEntity
  8
0
  6
Continuous
 62
     7
370
    15
100
AcDbLine
 10
120.6981270671445
 20
95.14604407756673
 30
0.0
 11
123.7627476253446
 21
95.14604407756673
 31
0.0
  0
LINE
  5
C4
330
1F
100
AcDbEntity
  8
0
  6
Continuous
 62
     7
370
    15
100
AcDbLine
 10
130.6981270671445
 20
95.14604407756673
 30
0.0
 11
133.7627476253447
 21
95.14604407756673
 31
0.0
  0
LINE
  5
C5
330
1F
100
AcDbEntity
  8
0
  6
Continuous
 62
     7
370
    15
100
AcDbLine
 10
140.6981270671446
 20
95.14604407756673
 30
0.0
 11
143.7627476253446
 21
95.14604407756673
 31
0.0
  0
LINE
  5
C6
330
1F
100
AcDbEntity
  8
0
  6
Continuous
 62
     7
370
    15
100
AcDbLine
 10
150.6981270671446
 20
95.14604407756673
 30
0.0
 11
153.7627476253446
 21
95.14604407756673
 31
0.0
  0
LINE
  5
C7
330
1F
100
AcDbEntity
  8
0
  6
Continuous
 62
     7
370
    15
100
AcDbLine
 10
160.6981270671446
 20
95.14604407756673
 30
0.0
 11
163.7627476253447
 21
95.14604407756673
 31
0.0
  0
LINE
  5
C8
330
1F
100
AcDbEntity
  8
0
  6
Continuous
 62
     7
370
    15
100
AcDbLine
 10
170.6981270671446
 20
95.14604407756673
 30
0.0
 11
173.7627476253447
 21
95.14604407756673
 31
0.0
  0
LINE
  5
C9
330
1F
100
AcDbEntity
  8
0
  6
Continuous
 62
     7
370
    15
100
AcDbLine
 10
180.6981270671444
 20
95.14604407756673
 30
0.0
 11
183.7627476253446
 21
95.14604407756673
 31
0.0
  0
LINE
  5
CA
330
1F
100
AcDbEntity
  8
0
  6
Continuous
 62
     7
370
    15
100
AcDbLine
 10
190.6981270671444
 20
95.14604407756673
 30
0.0
 11
193.7627476253446
 21
95.14604407756673
 31
0.0
  0
LINE
  5
CB
330
1F
100
AcDbEntity
  8
0
  6
Continuous
 62
     7
370
    15
100
AcDbLine
 10
200.6981270671445
 20
95.14604407756673
 30
0.0
 11
203.7627476253446
 21
95.14604407756673
 31
0.0
  0
LINE
  5
CC
330
1F
100
AcDbEntity
  8
0
  6
Continuous
 62
     7
370
    15
100
AcDbLine
 10
210.6981270671445
 20
95.14604407756673
 30
0.0
 11
213.7627476253446
 21
95.14604407756673
 31
0.0
  0
LINE
  5
CD
330
1F
100
AcDbEntity
  8
0
  6
Continuous
 62
     7
370
    15
100
AcDbLine
 10
220.6981270671445
 20
95.14604407756673
 30
0.0
 11
223.7627476253446
 21
95.14604407756673
 31
0.0
  0
LINE
  5
CE
330
1F
100
AcDbEntity
  8
0
  6
Continuous
 62
     7
370
    15
100
AcDbLine
 10
-135.7246417142885
 20
93.06221008427362
 30
0.0
 11
-34.53178264837536
 21
93.06221008427362
 31
0.0
  0
LINE
  5
CF
330
1F
100
AcDbEntity
  8
0
  6
Continuous
 62
     7
370
    15
100
AcDbLine
 10
229.4682173516247
 20
93.06221008427362
 30
0.0
 11
327.2753582857115
 21
93.06221008427362
 31
0.0
  0
LINE
  5
D0
330
1F
100
AcDbEntity
  8
0
  6
Continuous
 62
     7
370
    15
100
AcDbLine
 10
327.2753582857115
 20
92.85565237235429
 30
0.0
 11
327.2753582857115
 21
93.06221008427362
 31
0.0
  0
LINE
  5
D1
330
1F
100
AcDbEntity
  8
0
  6
Continuous
 62
     7
370
    15
100
AcDbLine
 10
-135.7246417142885
 20
92.85565237235429
 30
0.0
 11
-135.7246417142885
 21
93.06221008427362
 31
0.0
  0
LINE
  5
D2
330
1F
100
AcDbEntity
  8
0
  6
Continuous
 62
     7
370
    15
100
AcDbLine
 10
-34.53178264837536
 20
153.0622100842736
 30
0.0
 11
229.4682173516247
 21
153.0622100842736
 31
0.0
  0
LINE
  5
D3
330
1F
100
AcDbEntity
  8
0
  6
Continuous
 62
     7
370
    15
100
AcDbLine
 10
-29.30187293285545
 20
94.93963580537046
 30
0.0
 11
-26.23725237465533
 21
94.93963580537046
 31
0.0
  0
LINE
  5
D4
330
1F
100
AcDbEntity
  8
0
  6
Continuous
 62
     7
370
    15
100
AcDbLine
 10
-19.30187293285544
 20
94.93963580537046
 30
0.0
 11
-16.23725237465533
 21
94.93963580537046
 31
0.0
  0
LINE
  5
D5
330
1F
100
AcDbEntity
  8
0
  6
Continuous
 62
     7
370
    15
100
AcDbLine
 10
-9.301872932855445
 20
94.93963580537046
 30
0.0
 11
-6.237252374655327
 21
94.93963580537046
 31
0.0
  0
LINE
  5
D6
330
1F
100
AcDbEntity
  8
0
  6
Continuous
 62
     7
370
    15
100
AcDbLine
 10
0.6981270671445828
 20
94.93963580537046
 30
0.0
 11
3.762747625344701
 21
94.93963580537046
 31
0.0
  0
LINE
  5
D7
330
1F
100
AcDbEntity
  8
0
  6
Continuous
 62
     7
370
    15
100
AcDbLine
 10
10.69812706714458
 20
94.93963580537046
 30
0.0
 11
13.76274762534464
 21
94.93963580537046
 31
0.0
  0
LINE
  5
D8
330
1F
100
AcDbEntity
  8
0
  6
Continuous
 62
     7
370
    15
100
AcDbLine
 10
20.69812706714458
 20
94.93963580537046
 30
0.0
 11
23.76274762534464
 21
94.93963580537046
 31
0.0
  0
LINE
  5
D9
330
1F
100
AcDbEntity
  8
0
  6
Continuous
 62
     7
370
    15
100
AcDbLine
 10
30.69812706714461
 20
94.93963580537046
 30
0.0
 11
33.76274762534468
 21
94.93963580537046
 31
0.0
  0
LINE
  5
DA
330
1F
100
AcDbEntity
  8
0
  6
Continuous
 62
     7
370
    15
100
AcDbLine
 10
40.6981270671446
 20
94.93963580537046
 30
0.0
 11
43.76274762534467
 21
94.93963580537046
 31
0.0
  0
LINE
  5
DB
330
1F
100
AcDbEntity
  8
0
  6
Continuous
 62
     7
370
    15
100
AcDbLine
 10
50.69812706714461
 20
94.93963580537046
 30
0.0
 11
53.76274762534468
 21
94.93963580537046
 31
0.0
  0
LINE
  5
DC
330
1F
100
AcDbEntity
  8
0
  6
Continuous
 62
     7
370
    15
100
AcDbLine
 10
60.69812706714452
 20
94.93963580537046
 30
0.0
 11
63.76274762534461
 21
94.93963580537046
 31
0.0
  0
LINE
  5
DD
330
1F
100
AcDbEntity
  8
0
  6
Continuous
 62
     7
370
    15
100
AcDbLine
 10
70.69812706714452
 20
94.93963580537046
 30
0.0
 11
73.76274762534461
 21
94.93963580537046
 31
0.0
  0
LINE
  5
DE
330
1F
100
AcDbEntity
  8
0
  6
Continuous
 62
     7
370
    15
100
AcDbLine
 10
80.69812706714452
 20
94.93963580537046
 30
0.0
 11
83.76274762534462
 21
94.93963580537046
 31
0.0
  0
LINE
  5
DF
330
1F
100
AcDbEntity
  8
0
  6
Continuous
 62
     7
370
    15
100
AcDbLine
 10
90.69812706714452
 20
94.93963580537046
 30
0.0
 11
93.76274762534462
 21
94.93963580537046
 31
0.0
  0
LINE
  5
E0
330
1F
100
AcDbEntity
  8
0
  6
Continuous
 62
     7
370
    15
100
AcDbLine
 10
100.6981270671445
 20
94.93963580537046
 30
0.0
 11
103.7627476253446
 21
94.93963580537046
 31
0.0
  0
LINE
  5
E1
330
1F
100
AcDbEntity
  8
0
  6
Continuous
 62
     7
370
    15
100
AcDbLine
 10
110.6981270671445
 20
94.93963580537046
 30
0.0
 11
113.7627476253447
 21
94.93963580537046
 31
0.0
  0
LINE
  5
E2
330
1F
100
AcDbEntity
  8
0
  6
Continuous
 62
     7
370
    15
100
AcDbLine
 10
120.6981270671445
 20
94.93963580537046
 30
0.0
 11
123.7627476253446
 21
94.93963580537046
 31
0.0
  0
LINE
  5
E3
330
1F
100
AcDbEntity
  8
0
  6
Continuous
 62
     7
370
    15
100
AcDbLine
 10
130.6981270671445
 20
94.93963580537046
 30
0.0
 11
133.7627476253447
 21
94.93963580537046
 31
0.0
  0
LINE
  5
E4
330
1F
100
AcDbEntity
  8
0
  6
Continuous
 62
     7
370
    15
100
AcDbLine
 10
140.6981270671446
 20
94.93963580537046
 30
0.0
 11
143.7627476253446
 21
94.93963580537046
 31
0.0
  0
LINE
  5
E5
330
1F
100
AcDbEntity
  8
0
  6
Continuous
 62
     7
370
    15
100
AcDbLine
 10
150.6981270671446
 20
94.93963580537046
 30
0.0
 11
153.7627476253446
 21
94.93963580537046
 31
0.0
  0
LINE
  5
E6
330
1F
100
AcDbEntity
  8
0
  6
Continuous
 62
     7
370
    15
100
AcDbLine
 10
160.6981270671446
 20
94.93963580537046
 30
0.0
 11
163.7627476253447
 21
94.93963580537046
 31
0.0
  0
LINE
  5
E7
330
1F
100
AcDbEntity
  8
0
  6
Continuous
 62
     7
370
    15
100
AcDbLine
 10
170.6981270671446
 20
94.93963580537046
 30
0.0
 11
173.7627476253447
 21
94.93963580537046
 31
0.0
  0
LINE
  5
E8
330
1F
100
AcDbEntity
  8
0
  6
Continuous
 62
     7
370
    15
100
AcDbLine
 10
180.6981270671444
 20
94.93963580537046
 30
0.0
 11
183.7627476253446
 21
94.93963580537046
 31
0.0
  0
LINE
  5
E9
330
1F
100
AcDbEntity
  8
0
  6
Continuous
 62
     7
370
    15
100
AcDbLine
 10
190.6981270671444
 20
94.93963580537046
 30
0.0
 11
193.7627476253446
 21
94.93963580537046
 31
0.0
  0
LINE
  5
EA
330
1F
100
AcDbEntity
  8
0
  6
Continuous
 62
     7
370
    15
100
AcDbLine
 10
200.6981270671445
 20
94.93963580537046
 30
0.0
 11
203.7627476253446
 21
94.93963580537046
 31
0.0
  0
LINE
  5
EB
330
1F
100
AcDbEntity
  8
0
  6
Continuous
 62
     7
370
    15
100
AcDbLine
 10
210.6981270671445
 20
94.93963580537046
 30
0.0
 11
213.7627476253446
 21
94.93963580537046
 31
0.0
  0
LINE
  5
EC
330
1F
100
AcDbEntity
  8
0
  6
Continuous
 62
     7
370
    15
100
AcDbLine
 10
220.6981270671445
 20
94.93963580537046
 30
0.0
 11
223.7627476253446
 21
94.93963580537046
 31
0.0
  0
LINE
  5
ED
330
1F
100
AcDbEntity
  8
0
  6
Continuous
 62
     7
370
    15
100
AcDbLine
 10
316.1167087763388
 20
39.57971353442146
 30
0.0
 11
306.1167087763388
 21
39.57971353442146
 31
0.0
  0
LINE
  5
EE
330
1F
100
AcDbEntity
  8
0
  6
Continuous
 62
     7
370
    15
100
AcDbLine
 10
306.1167087763388
 20
39.57971353442146
 30
0.0
 11
306.1167087763388
 21
34.10224863012613
 31
0.0
  0
LINE
  5
EF
330
1F
100
AcDbEntity
  8
0
  6
Continuous
 62
     7
370
    15
100
AcDbLine
 10
306.1167087763388
 20
34.10224863012613
 30
0.0
 11
316.1167087763388
 21
34.10224863012613
 31
0.0
  0
LINE
  5
F0
330
1F
100
AcDbEntity
  8
0
  6
Continuous
 62
     7
370
    15
100
AcDbLine
 10
316.1167087763388
 20
34.10224863012613
 30
0.0
 11
316.1167087763388
 21
39.57971353442146
 31
0.0
  0
LINE
  5
F1
330
1F
100
AcDbEntity
  8
0
  6
Continuous
 62
     7
370
    15
100
AcDbLine
 10
286.1167087763388
 20
39.57971353442137
 30
0.0
 11
276.1167087763387
 21
39.57971353442137
 31
0.0
  0
LINE
  5
F2
330
1F
100
AcDbEntity
  8
0
  6
Continuous
 62
     7
370
    15
100
AcDbLine
 10
276.1167087763387
 20
39.57971353442137
 30
0.0
 11
276.1167087763387
 21
34.10224863012604
 31
0.0
  0
LINE
  5
F3
330
1F
100
AcDbEntity
  8
0
  6
Continuous
 62
     7
370
    15
100
AcDbLine
 10
276.1167087763387
 20
34.10224863012604
 30
0.0
 11
286.1167087763388
 21
34.10224863012604
 31
0.0
  0
LINE
  5
F4
330
1F
100
AcDbEntity
  8
0
  6
Continuous
 62
     7
370
    15
100
AcDbLine
 10
286.1167087763388
 20
34.10224863012604
 30
0.0
 11
286.1167087763388
 21
39.57971353442137
 31
0.0
  0
LINE
  5
F5
330
1F
100
AcDbEntity
  8
0
  6
Continuous
 62
     7
370
    15
100
AcDbLine
 10
256.1167087763387
 20
39.57971353442126
 30
0.0
 11
246.1167087763387
 21
39.57971353442126
 31
0.0
  0
LINE
  5
F6
330
1F
100
AcDbEntity
  8
0
  6
Continuous
 62
     7
370
    15
100
AcDbLine
 10
246.1167087763387
 20
39.57971353442126
 30
0.0
 11
246.1167087763387
 21
34.10224863012597
 31
0.0
  0
LINE
  5
F7
330
1F
100
AcDbEntity
  8
0
  6
Continuous
 62
     7
370
    15
100
AcDbLine
 10
246.1167087763387
 20
34.10224863012597
 30
0.0
 11
256.1167087763387
 21
34.10224863012597
 31
0.0
  0
LINE
  5
F8
330
1F
100
AcDbEntity
  8
0
  6
Continuous
 62
     7
370
    15
100
AcDbLine
 10
256.1167087763387
 20
34.10224863012597
 30
0.0
 11
256.1167087763387
 21
39.57971353442126
 31
0.0
  0
LINE
  5
F9
330
1F
100
AcDbEntity
  8
0
  6
Continuous
 62
     7
370
    15
100
AcDbLine
 10
226.1167087763387
 20
39.5797135344212
 30
0.0
 11
216.1167087763387
 21
39.5797135344212
 31
0.0
  0
LINE
  5
FA
330
1F
100
AcDbEntity
  8
0
  6
Continuous
 62
     7
370
    15
100
AcDbLine
 10
216.1167087763387
 20
39.5797135344212
 30
0.0
 11
216.1167087763387
 21
34.10224863012589
 31
0.0
  0
LINE
  5
FB
330
1F
100
AcDbEntity
  8
0
  6
Continuous
 62
     7
370
    15
100
AcDbLine
 10
216.1167087763387
 20
34.10224863012589
 30
0.0
 11
226.1167087763387
 21
34.10224863012589
 31
0.0
  0
LINE
  5
FC
330
1F
100
AcDbEntity
  8
0
  6
Continuous
 62
     7
370
    15
100
AcDbLine
 10
226.1167087763387
 20
34.10224863012589
 30
0.0
 11
226.1167087763387
 21
39.5797135344212
 31
0.0
  0
LINE
  5
FD
330
1F
100
AcDbEntity
  8
0
  6
Continuous
 62
     7
370
    15
100
AcDbLine
 10
196.1167087763388
 20
39.57971353442109
 30
0.0
 11
186.1167087763388
 21
39.57971353442109
 31
0.0
  0
LINE
  5
FE
330
1F
100
AcDbEntity
  8
0
  6
Continuous
 62
     7
370
    15
100
AcDbLine
 10
186.1167087763388
 20
39.57971353442109
 30
0.0
 11
186.1167087763388
 21
34.1022486301258
 31
0.0
  0
LINE
  5
FF
330
1F
100
AcDbEntity
  8
0
  6
Continuous
 62
     7
370
    15
100
AcDbLine
 10
186.1167087763388
 20
34.1022486301258
 30
0.0
 11
196.1167087763388
 21
34.1022486301258
 31
0.0
  0
LINE
  5
100
330
1F
100
AcDbEntity
  8
0
  6
Continuous
 62
     7
370
    15
100
AcDbLine
 10
196.1167087763388
 20
34.1022486301258
 30
0.0
 11
196.1167087763388
 21
39.57971353442109
 31
0.0
  0
LINE
  5
101
330
1F
100
AcDbEntity
  8
0
  6
Continuous
 62
     7
370
    15
100
AcDbLine
 10
166.1167087763388
 20
39.57971353442103
 30
0.0
 11
156.1167087763387
 21
39.57971353442103
 31
0.0
  0
LINE
  5
102
330
1F
100
AcDbEntity
  8
0
  6
Continuous
 62
     7
370
    15
100
AcDbLine
 10
156.1167087763387
 20
39.57971353442103
 30
0.0
 11
156.1167087763387
 21
34.10224863012571
 31
0.0
  0
LINE
  5
103
330
1F
100
AcDbEntity
  8
0
  6
Continuous
 62
     7
370
    15
100
AcDbLine
 10
156.1167087763387
 20
34.10224863012571
 30
0.0
 11
166.1167087763388
 21
34.10224863012571
 31
0.0
  0
LINE
  5
104
330
1F
100
AcDbEntity
  8
0
  6
Continuous
 62
     7
370
    15
100
AcDbLine
 10
166.1167087763388
 20
34.10224863012571
 30
0.0
 11
166.1167087763388
 21
39.57971353442103
 31
0.0
  0
LINE
  5
105
330
1F
100
AcDbEntity
  8
0
  6
Continuous
 62
     7
370
    15
100
AcDbLine
 10
136.1167087763387
 20
39.57971353442092
 30
0.0
 11
126.1167087763387
 21
39.57971353442092
 31
0.0
  0
LINE
  5
106
330
1F
100
AcDbEntity
  8
0
  6
Continuous
 62
     7
370
    15
100
AcDbLine
 10
126.1167087763387
 20
39.57971353442092
 30
0.0
 11
126.1167087763387
 21
34.10224863012563
 31
0.0
  0
LINE
  5
107
330
1F
100
AcDbEntity
  8
0
  6
Continuous
 62
     7
370
    15
100
AcDbLine
 10
126.1167087763387
 20
34.10224863012563
 30
0.0
 11
136.1167087763387
 21
34.10224863012563
 31
0.0
  0
LINE
  5
108
330
1F
100
AcDbEntity
  8
0
  6
Continuous
 62
     7
370
    15
100
AcDbLine
 10
136.1167087763387
 20
34.10224863012563
 30
0.0
 11
136.1167087763387
 21
39.57971353442092
 31
0.0
  0
LINE
  5
109
330
1F
100
AcDbEntity
  8
0
  6
Continuous
 62
     7
370
    15
100
AcDbLine
 10
106.1167087763387
 20
39.57971353442088
 30
0.0
 11
96.11670877633873
 21
39.57971353442088
 31
0.0
  0
LINE
  5
10A
330
1F
100
AcDbEntity
  8
0
  6
Continuous
 62
     7
370
    15
100
AcDbLine
 10
96.11670877633873
 20
39.57971353442088
 30
0.0
 11
96.11670877633873
 21
34.10224863012552
 31
0.0
  0
LINE
  5
10B
330
1F
100
AcDbEntity
  8
0
  6
Continuous
 62
     7
370
    15
100
AcDbLine
 10
96.11670877633873
 20
34.10224863012552
 30
0.0
 11
106.1167087763387
 21
34.10224863012552
 31
0.0
  0
LINE
  5
10C
330
1F
100
AcDbEntity
  8
0
  6
Continuous
 62
     7
370
    15
100
AcDbLine
 10
106.1167087763387
 20
34.10224863012552
 30
0.0
 11
106.1167087763387
 21
39.57971353442088
 31
0.0
  0
LINE
  5
10D
330
1F
100
AcDbEntity
  8
0
  6
Continuous
 62
     7
370
    15
100
AcDbLine
 10
76.11670877633878
 20
39.57971353442076
 30
0.0
 11
66.11670877633878
 21
39.57971353442076
 31
0.0
  0
LINE
  5
10E
330
1F
100
AcDbEntity
  8
0
  6
Continuous
 62
     7
370
    15
100
AcDbLine
 10
66.11670877633878
 20
39.57971353442076
 30
0.0
 11
66.11670877633878
 21
34.10224863012544
 31
0.0
  0
LINE
  5
10F
330
1F
100
AcDbEntity
  8
0
  6
Continuous
 62
     7
370
    15
100
AcDbLine
 10
66.11670877633878
 20
34.10224863012544
 30
0.0
 11
76.11670877633878
 21
34.10224863012546
 31
0.0
  0
LINE
  5
110
330
1F
100
AcDbEntity
  8
0
  6
Continuous
 62
     7
370
    15
100
AcDbLine
 10
76.11670877633878
 20
34.10224863012546
 30
0.0
 11
76.11670877633878
 21
39.57971353442076
 31
0.0
  0
LINE
  5
111
330
1F
100
AcDbEntity
  8
0
  6
Continuous
 62
     7
370
    15
100
AcDbLine
 10
46.11670877633872
 20
39.57971353442068
 30
0.0
 11
36.11670877633873
 21
39.57971353442068
 31
0.0
  0
LINE
  5
112
330
1F
100
AcDbEntity
  8
0
  6
Continuous
 62
     7
370
    15
100
AcDbLine
 10
36.11670877633873
 20
39.57971353442068
 30
0.0
 11
36.11670877633873
 21
34.10224863012536
 31
0.0
  0
LINE
  5
113
330
1F
100
AcDbEntity
  8
0
  6
Continuous
 62
     7
370
    15
100
AcDbLine
 10
36.11670877633873
 20
34.10224863012536
 30
0.0
 11
46.11670877633872
 21
34.10224863012536
 31
0.0
  0
LINE
  5
114
330
1F
100
AcDbEntity
  8
0
  6
Continuous
 62
     7
370
    15
100
AcDbLine
 10
46.11670877633872
 20
34.10224863012536
 30
0.0
 11
46.11670877633872
 21
39.57971353442068
 31
0.0
  0
LINE
  5
115
330
1F
100
AcDbEntity
  8
0
  6
Continuous
 62
     7
370
    15
100
AcDbLine
 10
16.11670877633875
 20
39.57971353442059
 30
0.0
 11
6.116708776338754
 21
39.57971353442059
 31
0.0
  0
LINE
  5
116
330
1F
100
AcDbEntity
  8
0
  6
Continuous
 62
     7
370
    15
100
AcDbLine
 10
6.116708776338754
 20
39.57971353442059
 30
0.0
 11
6.116708776338754
 21
34.1022486301253
 31
0.0
  0
LINE
  5
117
330
1F
100
AcDbEntity
  8
0
  6
Continuous
 62
     7
370
    15
100
AcDbLine
 10
6.116708776338754
 20
34.1022486301253
 30
0.0
 11
16.11670877633875
 21
34.10224863012528
 31
0.0
  0
LINE
  5
118
330
1F
100
AcDbEntity
  8
0
  6
Continuous
 62
     7
370
    15
100
AcDbLine
 10
16.11670877633875
 20
34.10224863012528
 30
0.0
 11
16.11670877633875
 21
39.57971353442059
 31
0.0
  0
LINE
  5
119
330
1F
100
AcDbEntity
  8
0
  6
Continuous
 62
     7
370
    15
100
AcDbLine
 10
-13.88329122366122
 20
39.57971353442051
 30
0.0
 11
-23.88329122366122
 21
39.57971353442051
 31
0.0
  0
LINE
  5
11A
330
1F
100
AcDbEntity
  8
0
  6
Continuous
 62
     7
370
    15
100
AcDbLine
 10
-23.88329122366122
 20
39.57971353442051
 30
0.0
 11
-23.88329122366122
 21
34.10224863012519
 31
0.0
  0
LINE
  5
11B
330
1F
100
AcDbEntity
  8
0
  6
Continuous
 62
     7
370
    15
100
AcDbLine
 10
-23.88329122366122
 20
34.10224863012519
 30
0.0
 11
-13.88329122366122
 21
34.10224863012519
 31
0.0
  0
LINE
  5
11C
330
1F
100
AcDbEntity
  8
0
  6
Continuous
 62
     7
370
    15
100
AcDbLine
 10
-13.88329122366122
 20
34.10224863012519
 30
0.0
 11
-13.88329122366122
 21
39.57971353442051
 31
0.0
  0
LINE
  5
11D
330
1F
100
AcDbEntity
  8
0
  6
Continuous
 62
     7
370
    15
100
AcDbLine
 10
-43.88329122366124
 20
39.57971353442042
 30
0.0
 11
-53.88329122366124
 21
39.57971353442042
 31
0.0
  0
LINE
  5
11E
330
1F
100
AcDbEntity
  8
0
  6
Continuous
 62
     7
370
    15
100
AcDbLine
 10
-53.88329122366124
 20
39.57971353442042
 30
0.0
 11
-53.88329122366124
 21
34.10224863012513
 31
0.0
  0
LINE
  5
11F
330
1F
100
AcDbEntity
  8
0
  6
Continuous
 62
     7
370
    15
100
AcDbLine
 10
-53.88329122366124
 20
34.10224863012513
 30
0.0
 11
-43.88329122366124
 21
34.10224863012511
 31
0.0
  0
LINE
  5
120
330
1F
100
AcDbEntity
  8
0
  6
Continuous
 62
     7
370
    15
100
AcDbLine
 10
-43.88329122366124
 20
34.10224863012511
 30
0.0
 11
-43.88329122366124
 21
39.57971353442042
 31
0.0
  0
LINE
  5
121
330
1F
100
AcDbEntity
  8
0
  6
Continuous
 62
     7
370
    15
100
AcDbLine
 10
-73.88329122366126
 20
39.57971353442033
 30
0.0
 11
-83.88329122366128
 21
39.57971353442033
 31
0.0
  0
LINE
  5
122
330
1F
100
AcDbEntity
  8
0
  6
Continuous
 62
     7
370
    15
100
AcDbLine
 10
-83.88329122366128
 20
39.57971353442033
 30
0.0
 11
-83.88329122366128
 21
34.10224863012502
 31
0.0
  0
LINE
  5
123
330
1F
100
AcDbEntity
  8
0
  6
Continuous
 62
     7
370
    15
100
AcDbLine
 10
-83.88329122366128
 20
34.10224863012502
 30
0.0
 11
-73.88329122366126
 21
34.10224863012502
 31
0.0
  0
LINE
  5
124
330
1F
100
AcDbEntity
  8
0
  6
Continuous
 62
     7
370
    15
100
AcDbLine
 10
-73.88329122366126
 20
34.10224863012502
 30
0.0
 11
-73.88329122366126
 21
39.57971353442033
 31
0.0
  0
LINE
  5
125
330
1F
100
AcDbEntity
  8
0
  6
Continuous
 62
     7
370
    15
100
AcDbLine
 10
-103.8832912236612
 20
39.57971353442026
 30
0.0
 11
-113.8832912236612
 21
39.57971353442026
 31
0.0
  0
LINE
  5
126
330
1F
100
AcDbEntity
  8
0
  6
Continuous
 62
     7
370
    15
100
AcDbLine
 10
-113.8832912236612
 20
39.57971353442026
 30
0.0
 11
-113.8832912236612
 21
34.10224863012493
 31
0.0
  0
LINE
  5
127
330
1F
100
AcDbEntity
  8
0
  6
Continuous
 62
     7
370
    15
100
AcDbLine
 10
-113.8832912236612
 20
34.10224863012493
 30
0.0
 11
-103.8832912236612
 21
34.10224863012493
 31
0.0
  0
LINE
  5
128
330
1F
100
AcDbEntity
  8
0
  6
Continuous
 62
     7
370
    15
100
AcDbLine
 10
-103.8832912236612
 20
34.10224863012493
 30
0.0
 11
-103.8832912236612
 21
39.57971353442026
 31
0.0
  0
LINE
  5
129
330
1F
100
AcDbEntity
  8
0
  6
Continuous
 62
     7
370
    15
100
AcDbLine
 10
-135.7246417142885
 20
32.85565237235426
 30
0.0
 11
327.2753582857115
 21
32.85565237235426
 31
0.0
  0
LINE
  5
12A
330
1F
100
AcDbEntity
  8
0
  6
Continuous
 62
     7
370
    15
100
AcDbLine
 10
-135.7246417142885
 20
32.85565237235426
 30
0.0
 11
-135.7246417142885
 21
40.83543063261117
 31
0.0
  0
LINE
  5
12B
330
1F
100
AcDbEntity
  8
0
  6
Continuous
 62
     7
370
    15
100
AcDbLine
 10
-135.7246417142885
 20
40.83543063261117
 30
0.0
 11
327.2753582857115
 21
40.83543063261117
 31
0.0
  0
LINE
  5
12C
330
1F
100
AcDbEntity
  8
0
  6
Continuous
 62
     7
370
    15
100
AcDbLine
 10
327.2753582857115
 20
32.85565237235426
 30
0.0
 11
327.2753582857115
 21
40.83543063261117
 31
0.0
  0
LINE
  5
12D
330
1F
100
AcDbEntity
  8
0
  6
Continuous
 62
     7
370
    15
100
AcDbLine
 10
-118.8832912236612
 20
39.57971353442021
 30
0.0
 11
-128.8832912236612
 21
39.57971353442021
 31
0.0
  0
LINE
  5
12E
330
1F
100
AcDbEntity
  8
0
  6
Continuous
 62
     7
370
    15
100
AcDbLine
 10
-128.8832912236612
 20
39.57971353442021
 30
0.0
 11
-128.8832912236612
 21
34.10224863012491
 31
0.0
  0
LINE
  5
12F
330
1F
100
AcDbEntity
  8
0
  6
Continuous
 62
     7
370
    15
100
AcDbLine
 10
-128.8832912236612
 20
34.10224863012491
 30
0.0
 11
-118.8832912236612
 21
34.10224863012491
 31
0.0
  0
LINE
  5
130
330
1F
100
AcDbEntity
  8
0
  6
Continuous
 62
     7
370
    15
100
AcDbLine
 10
-118.8832912236612
 20
34.10224863012491
 30
0.0
 11
-118.8832912236612
 21
39.57971353442021
 31
0.0
  0
LINE
  5
131
330
1F
100
AcDbEntity
  8
0
  6
Continuous
 62
     7
370
    15
100
AcDbLine
 10
-88.88329122366121
 20
39.57971353442029
 30
0.0
 11
-98.88329122366123
 21
39.57971353442029
 31
0.0
  0
LINE
  5
132
330
1F
100
AcDbEntity
  8
0
  6
Continuous
 62
     7
370
    15
100
AcDbLine
 10
-98.88329122366123
 20
39.57971353442029
 30
0.0
 11
-98.88329122366123
 21
34.10224863012496
 31
0.0
  0
LINE
  5
133
330
1F
100
AcDbEntity
  8
0
  6
Continuous
 62
     7
370
    15
100
AcDbLine
 10
-98.88329122366123
 20
34.10224863012496
 30
0.0
 11
-88.88329122366121
 21
34.10224863012496
 31
0.0
  0
LINE
  5
134
330
1F
100
AcDbEntity
  8
0
  6
Continuous
 62
     7
370
    15
100
AcDbLine
 10
-88.88329122366121
 20
34.10224863012496
 30
0.0
 11
-88.88329122366121
 21
39.57971353442029
 31
0.0
  0
LINE
  5
135
330
1F
100
AcDbEntity
  8
0
  6
Continuous
 62
     7
370
    15
100
AcDbLine
 10
-58.88329122366124
 20
39.57971353442037
 30
0.0
 11
-68.88329122366126
 21
39.57971353442037
 31
0.0
  0
LINE
  5
136
330
1F
100
AcDbEntity
  8
0
  6
Continuous
 62
     7
370
    15
100
AcDbLine
 10
-68.88329122366126
 20
39.57971353442037
 30
0.0
 11
-68.88329122366126
 21
34.10224863012505
 31
0.0
  0
LINE
  5
137
330
1F
100
AcDbEntity
  8
0
  6
Continuous
 62
     7
370
    15
100
AcDbLine
 10
-68.88329122366126
 20
34.10224863012505
 30
0.0
 11
-58.88329122366124
 21
34.10224863012508
 31
0.0
  0
LINE
  5
138
330
1F
100
AcDbEntity
  8
0
  6
Continuous
 62
     7
370
    15
100
AcDbLine
 10
-58.88329122366124
 20
34.10224863012508
 30
0.0
 11
-58.88329122366124
 21
39.57971353442037
 31
0.0
  0
LINE
  5
139
330
1F
100
AcDbEntity
  8
0
  6
Continuous
 62
     7
370
    15
100
AcDbLine
 10
-28.88329122366122
 20
39.57971353442048
 30
0.0
 11
-38.88329122366122
 21
39.57971353442048
 31
0.0
  0
LINE
  5
13A
330
1F
100
AcDbEntity
  8
0
  6
Continuous
 62
     7
370
    15
100
AcDbLine
 10
-38.88329122366122
 20
39.57971353442048
 30
0.0
 11
-38.88329122366122
 21
34.10224863012513
 31
0.0
  0
LINE
  5
13B
330
1F
100
AcDbEntity
  8
0
  6
Continuous
 62
     7
370
    15
100
AcDbLine
 10
-38.88329122366122
 20
34.10224863012513
 30
0.0
 11
-28.88329122366122
 21
34.10224863012513
 31
0.0
  0
LINE
  5
13C
330
1F
100
AcDbEntity
  8
0
  6
Continuous
 62
     7
370
    15
100
AcDbLine
 10
-28.88329122366122
 20
34.10224863012513
 30
0.0
 11
-28.88329122366122
 21
39.57971353442048
 31
0.0
  0
LINE
  5
13D
330
1F
100
AcDbEntity
  8
0
  6
Continuous
 62
     7
370
    15
100
AcDbLine
 10
1.116708776338754
 20
39.57971353442053
 30
0.0
 11
-8.883291223661245
 21
39.57971353442053
 31
0.0
  0
LINE
  5
13E
330
1F
100
AcDbEntity
  8
0
  6
Continuous
 62
     7
370
    15
100
AcDbLine
 10
-8.883291223661245
 20
39.57971353442053
 30
0.0
 11
-8.883291223661245
 21
34.10224863012525
 31
0.0
  0
LINE
  5
13F
330
1F
100
AcDbEntity
  8
0
  6
Continuous
 62
     7
370
    15
100
AcDbLine
 10
-8.883291223661245
 20
34.10224863012525
 30
0.0
 11
1.116708776338754
 21
34.10224863012525
 31
0.0
  0
LINE
  5
140
330
1F
100
AcDbEntity
  8
0
  6
Continuous
 62
     7
370
    15
100
AcDbLine
 10
1.116708776338754
 20
34.10224863012525
 30
0.0
 11
1.116708776338754
 21
39.57971353442053
 31
0.0
  0
LINE
  5
141
330
1F
100
AcDbEntity
  8
0
  6
Continuous
 62
     7
370
    15
100
AcDbLine
 10
31.11670877633879
 20
39.57971353442065
 30
0.0
 11
21.11670877633878
 21
39.57971353442065
 31
0.0
  0
LINE
  5
142
330
1F
100
AcDbEntity
  8
0
  6
Continuous
 62
     7
370
    15
100
AcDbLine
 10
21.11670877633878
 20
39.57971353442065
 30
0.0
 11
21.11670877633878
 21
34.10224863012533
 31
0.0
  0
LINE
  5
143
330
1F
100
AcDbEntity
  8
0
  6
Continuous
 62
     7
370
    15
100
AcDbLine
 10
21.11670877633878
 20
34.10224863012533
 30
0.0
 11
31.11670877633879
 21
34.10224863012533
 31
0.0
  0
LINE
  5
144
330
1F
100
AcDbEntity
  8
0
  6
Continuous
 62
     7
370
    15
100
AcDbLine
 10
31.11670877633879
 20
34.10224863012533
 30
0.0
 11
31.11670877633879
 21
39.57971353442065
 31
0.0
  0
LINE
  5
145
330
1F
100
AcDbEntity
  8
0
  6
Continuous
 62
     7
370
    15
100
AcDbLine
 10
61.11670877633875
 20
39.57971353442074
 30
0.0
 11
51.11670877633875
 21
39.57971353442074
 31
0.0
  0
LINE
  5
146
330
1F
100
AcDbEntity
  8
0
  6
Continuous
 62
     7
370
    15
100
AcDbLine
 10
51.11670877633875
 20
39.57971353442074
 30
0.0
 11
51.11670877633875
 21
34.10224863012542
 31
0.0
  0
LINE
  5
147
330
1F
100
AcDbEntity
  8
0
  6
Continuous
 62
     7
370
    15
100
AcDbLine
 10
51.11670877633875
 20
34.10224863012542
 30
0.0
 11
61.11670877633875
 21
34.10224863012542
 31
0.0
  0
LINE
  5
148
330
1F
100
AcDbEntity
  8
0
  6
Continuous
 62
     7
370
    15
100
AcDbLine
 10
61.11670877633875
 20
34.10224863012542
 30
0.0
 11
61.11670877633875
 21
39.57971353442074
 31
0.0
  0
LINE
  5
149
330
1F
100
AcDbEntity
  8
0
  6
Continuous
 62
     7
370
    15
100
AcDbLine
 10
91.11670877633878
 20
39.57971353442082
 30
0.0
 11
81.11670877633878
 21
39.57971353442082
 31
0.0
  0
LINE
  5
14A
330
1F
100
AcDbEntity
  8
0
  6
Continuous
 62
     7
370
    15
100
AcDbLine
 10
81.11670877633878
 20
39.57971353442082
 30
0.0
 11
81.11670877633878
 21
34.10224863012549
 31
0.0
  0
LINE
  5
14B
330
1F
100
AcDbEntity
  8
0
  6
Continuous
 62
     7
370
    15
100
AcDbLine
 10
81.11670877633878
 20
34.10224863012549
 30
0.0
 11
91.11670877633878
 21
34.10224863012549
 31
0.0
  0
LINE
  5
14C
330
1F
100
AcDbEntity
  8
0
  6
Continuous
 62
     7
370
    15
100
AcDbLine
 10
91.11670877633878
 20
34.10224863012549
 30
0.0
 11
91.11670877633878
 21
39.57971353442082
 31
0.0
  0
LINE
  5
14D
330
1F
100
AcDbEntity
  8
0
  6
Continuous
 62
     7
370
    15
100
AcDbLine
 10
121.1167087763387
 20
39.5797135344209
 30
0.0
 11
111.1167087763387
 21
39.5797135344209
 31
0.0
  0
LINE
  5
14E
330
1F
100
AcDbEntity
  8
0
  6
Continuous
 62
     7
370
    15
100
AcDbLine
 10
111.1167087763387
 20
39.5797135344209
 30
0.0
 11
111.1167087763387
 21
34.10224863012557
 31
0.0
  0
LINE
  5
14F
330
1F
100
AcDbEntity
  8
0
  6
Continuous
 62
     7
370
    15
100
AcDbLine
 10
111.1167087763387
 20
34.10224863012557
 30
0.0
 11
121.1167087763387
 21
34.10224863012557
 31
0.0
  0
LINE
  5
150
330
1F
100
AcDbEntity
  8
0
  6
Continuous
 62
     7
370
    15
100
AcDbLine
 10
121.1167087763387
 20
34.10224863012557
 30
0.0
 11
121.1167087763387
 21
39.5797135344209
 31
0.0
  0
LINE
  5
151
330
1F
100
AcDbEntity
  8
0
  6
Continuous
 62
     7
370
    15
100
AcDbLine
 10
151.1167087763387
 20
39.57971353442097
 30
0.0
 11
141.1167087763387
 21
39.57971353442097
 31
0.0
  0
LINE
  5
152
330
1F
100
AcDbEntity
  8
0
  6
Continuous
 62
     7
370
    15
100
AcDbLine
 10
141.1167087763387
 20
39.57971353442097
 30
0.0
 11
141.1167087763387
 21
34.10224863012566
 31
0.0
  0
LINE
  5
153
330
1F
100
AcDbEntity
  8
0
  6
Continuous
 62
     7
370
    15
100
AcDbLine
 10
141.1167087763387
 20
34.10224863012566
 30
0.0
 11
151.1167087763387
 21
34.10224863012566
 31
0.0
  0
LINE
  5
154
330
1F
100
AcDbEntity
  8
0
  6
Continuous
 62
     7
370
    15
100
AcDbLine
 10
151.1167087763387
 20
34.10224863012566
 30
0.0
 11
151.1167087763387
 21
39.57971353442097
 31
0.0
  0
LINE
  5
155
330
1F
100
AcDbEntity
  8
0
  6
Continuous
 62
     7
370
    15
100
AcDbLine
 10
181.1167087763388
 20
39.57971353442106
 30
0.0
 11
171.1167087763388
 21
39.57971353442106
 31
0.0
  0
LINE
  5
156
330
1F
100
AcDbEntity
  8
0
  6
Continuous
 62
     7
370
    15
100
AcDbLine
 10
171.1167087763388
 20
39.57971353442106
 30
0.0
 11
171.1167087763388
 21
34.10224863012575
 31
0.0
  0
LINE
  5
157
330
1F
100
AcDbEntity
  8
0
  6
Continuous
 62
     7
370
    15
100
AcDbLine
 10
171.1167087763388
 20
34.10224863012575
 30
0.0
 11
181.1167087763388
 21
34.10224863012575
 31
0.0
  0
LINE
  5
158
330
1F
100
AcDbEntity
  8
0
  6
Continuous
 62
     7
370
    15
100
AcDbLine
 10
181.1167087763388
 20
34.10224863012575
 30
0.0
 11
181.1167087763388
 21
39.57971353442106
 31
0.0
  0
LINE
  5
159
330
1F
100
AcDbEntity
  8
0
  6
Continuous
 62
     7
370
    15
100
AcDbLine
 10
211.1167087763388
 20
39.57971353442115
 30
0.0
 11
201.1167087763388
 21
39.57971353442115
 31
0.0
  0
LINE
  5
15A
330
1F
100
AcDbEntity
  8
0
  6
Continuous
 62
     7
370
    15
100
AcDbLine
 10
201.1167087763388
 20
39.57971353442115
 30
0.0
 11
201.1167087763388
 21
34.10224863012583
 31
0.0
  0
LINE
  5
15B
330
1F
100
AcDbEntity
  8
0
  6
Continuous
 62
     7
370
    15
100
AcDbLine
 10
201.1167087763388
 20
34.10224863012583
 30
0.0
 11
211.1167087763388
 21
34.10224863012586
 31
0.0
  0
LINE
  5
15C
330
1F
100
AcDbEntity
  8
0
  6
Continuous
 62
     7
370
    15
100
AcDbLine
 10
211.1167087763388
 20
34.10224863012586
 30
0.0
 11
211.1167087763388
 21
39.57971353442115
 31
0.0
  0
LINE
  5
15D
330
1F
100
AcDbEntity
  8
0
  6
Continuous
 62
     7
370
    15
100
AcDbLine
 10
241.1167087763387
 20
39.57971353442126
 30
0.0
 11
231.1167087763387
 21
39.57971353442126
 31
0.0
  0
LINE
  5
15E
330
1F
100
AcDbEntity
  8
0
  6
Continuous
 62
     7
370
    15
100
AcDbLine
 10
231.1167087763387
 20
39.57971353442126
 30
0.0
 11
231.1167087763387
 21
34.10224863012591
 31
0.0
  0
LINE
  5
15F
330
1F
100
AcDbEntity
  8
0
  6
Continuous
 62
     7
370
    15
100
AcDbLine
 10
231.1167087763387
 20
34.10224863012591
 30
0.0
 11
241.1167087763387
 21
34.10224863012591
 31
0.0
  0
LINE
  5
160
330
1F
100
AcDbEntity
  8
0
  6
Continuous
 62
     7
370
    15
100
AcDbLine
 10
241.1167087763387
 20
34.10224863012591
 30
0.0
 11
241.1167087763387
 21
39.57971353442126
 31
0.0
  0
LINE
  5
161
330
1F
100
AcDbEntity
  8
0
  6
Continuous
 62
     7
370
    15
100
AcDbLine
 10
271.1167087763387
 20
39.57971353442132
 30
0.0
 11
261.1167087763387
 21
39.57971353442132
 31
0.0
  0
LINE
  5
162
330
1F
100
AcDbEntity
  8
0
  6
Continuous
 62
     7
370
    15
100
AcDbLine
 10
261.1167087763387
 20
39.57971353442132
 30
0.0
 11
261.1167087763387
 21
34.10224863012603
 31
0.0
  0
LINE
  5
163
330
1F
100
AcDbEntity
  8
0
  6
Continuous
 62
     7
370
    15
100
AcDbLine
 10
261.1167087763387
 20
34.10224863012603
 30
0.0
 11
271.1167087763387
 21
34.10224863012603
 31
0.0
  0
LINE
  5
164
330
1F
100
AcDbEntity
  8
0
  6
Continuous
 62
     7
370
    15
100
AcDbLine
 10
271.1167087763387
 20
34.10224863012603
 30
0.0
 11
271.1167087763387
 21
39.57971353442132
 31
0.0
  0
LINE
  5
165
330
1F
100
AcDbEntity
  8
0
  6
Continuous
 62
     7
370
    15
100
AcDbLine
 10
301.1167087763388
 20
39.57971353442143
 30
0.0
 11
291.1167087763388
 21
39.57971353442143
 31
0.0
  0
LINE
  5
166
330
1F
100
AcDbEntity
  8
0
  6
Continuous
 62
     7
370
    15
100
AcDbLine
 10
291.1167087763388
 20
39.57971353442143
 30
0.0
 11
291.1167087763388
 21
34.1022486301261
 31
0.0
  0
LINE
  5
167
330
1F
100
AcDbEntity
  8
0
  6
Continuous
 62
     7
370
    15
100
AcDbLine
 10
291.1167087763388
 20
34.1022486301261
 30
0.0
 11
301.1167087763388
 21
34.1022486301261
 31
0.0
  0
LINE
  5
168
330
1F
100
AcDbEntity
  8
0
  6
Continuous
 62
     7
370
    15
100
AcDbLine
 10
301.1167087763388
 20
34.1022486301261
 30
0.0
 11
301.1167087763388
 21
39.57971353442143
 31
0.0
  0
LINE
  5
169
330
1F
100
AcDbEntity
  8
0
  6
Continuous
 62
     7
370
    15
100
AcDbLine
 10
-135.7246417142885
 20
87.21889513270898
 30
0.0
 11
-135.7246417142885
 21
40.83543063261117
 31
0.0
  0
LINE
  5
16A
330
1F
100
AcDbEntity
  8
0
  6
Continuous
 62
     7
370
    15
100
AcDbLine
 10
-135.7246417142885
 20
87.21889513270898
 30
0.0
 11
327.2753582857115
 21
87.21889513270898
 31
0.0
  0
LINE
  5
16B
330
1F
100
AcDbEntity
  8
0
  6
Continuous
 62
     7
370
    15
100
AcDbLine
 10
327.2753582857115
 20
87.21889513270898
 30
0.0
 11
327.2753582857115
 21
40.83543063261117
 31
0.0
  0
LINE
  5
16C
330
1F
100
AcDbEntity
  8
0
  6
Continuous
 62
     7
370
    15
100
AcDbLine
 10
306.1167087763388
 20
88.42555666839748
 30
0.0
 11
316.1167087763388
 21
88.42555666839748
 31
0.0
  0
LINE
  5
16D
330
1F
100
AcDbEntity
  8
0
  6
Continuous
 62
     7
370
    15
100
AcDbLine
 10
316.1167087763388
 20
88.42555666839748
 30
0.0
 11
316.1167087763388
 21
91.96303202494178
 31
0.0
  0
LINE
  5
16E
330
1F
100
AcDbEntity
  8
0
  6
Continuous
 62
     7
370
    15
100
AcDbLine
 10
316.1167087763388
 20
91.96303202494178
 30
0.0
 11
306.1167087763388
 21
91.96303202494178
 31
0.0
  0
LINE
  5
16F
330
1F
100
AcDbEntity
  8
0
  6
Continuous
 62
     7
370
    15
100
AcDbLine
 10
306.1167087763388
 20
91.96303202494178
 30
0.0
 11
306.1167087763388
 21
88.42555666839748
 31
0.0
  0
LINE
  5
170
330
1F
100
AcDbEntity
  8
0
  6
Continuous
 62
     7
370
    15
100
AcDbLine
 10
276.1167087763387
 20
88.42555666839752
 30
0.0
 11
286.1167087763388
 21
88.42555666839752
 31
0.0
  0
LINE
  5
171
330
1F
100
AcDbEntity
  8
0
  6
Continuous
 62
     7
370
    15
100
AcDbLine
 10
286.1167087763388
 20
88.42555666839752
 30
0.0
 11
286.1167087763388
 21
91.96303202494183
 31
0.0
  0
LINE
  5
172
330
1F
100
AcDbEntity
  8
0
  6
Continuous
 62
     7
370
    15
100
AcDbLine
 10
286.1167087763388
 20
91.96303202494183
 30
0.0
 11
276.1167087763387
 21
91.96303202494183
 31
0.0
  0
LINE
  5
173
330
1F
100
AcDbEntity
  8
0
  6
Continuous
 62
     7
370
    15
100
AcDbLine
 10
276.1167087763387
 20
91.96303202494183
 30
0.0
 11
276.1167087763387
 21
88.42555666839752
 31
0.0
  0
LINE
  5
174
330
1F
100
AcDbEntity
  8
0
  6
Continuous
 62
     7
370
    15
100
AcDbLine
 10
246.1167087763387
 20
88.42555666839757
 30
0.0
 11
256.1167087763387
 21
88.42555666839757
 31
0.0
  0
LINE
  5
175
330
1F
100
AcDbEntity
  8
0
  6
Continuous
 62
     7
370
    15
100
AcDbLine
 10
256.1167087763387
 20
88.42555666839757
 30
0.0
 11
256.1167087763387
 21
91.96303202494183
 31
0.0
  0
LINE
  5
176
330
1F
100
AcDbEntity
  8
0
  6
Continuous
 62
     7
370
    15
100
AcDbLine
 10
256.1167087763387
 20
91.96303202494183
 30
0.0
 11
246.1167087763387
 21
91.96303202494183
 31
0.0
  0
LINE
  5
177
330
1F
100
AcDbEntity
  8
0
  6
Continuous
 62
     7
370
    15
100
AcDbLine
 10
246.1167087763387
 20
91.96303202494183
 30
0.0
 11
246.1167087763387
 21
88.42555666839757
 31
0.0
  0
LINE
  5
178
330
1F
100
AcDbEntity
  8
0
  6
Continuous
 62
     7
370
    15
100
AcDbLine
 10
216.1167087763388
 20
88.4255566683977
 30
0.0
 11
226.1167087763388
 21
88.4255566683977
 31
0.0
  0
LINE
  5
179
330
1F
100
AcDbEntity
  8
0
  6
Continuous
 62
     7
370
    15
100
AcDbLine
 10
226.1167087763388
 20
88.4255566683977
 30
0.0
 11
226.1167087763388
 21
91.9630320249419
 31
0.0
  0
LINE
  5
17A
330
1F
100
AcDbEntity
  8
0
  6
Continuous
 62
     7
370
    15
100
AcDbLine
 10
226.1167087763388
 20
91.9630320249419
 30
0.0
 11
216.1167087763388
 21
91.9630320249419
 31
0.0
  0
LINE
  5
17B
330
1F
100
AcDbEntity
  8
0
  6
Continuous
 62
     7
370
    15
100
AcDbLine
 10
216.1167087763388
 20
91.9630320249419
 30
0.0
 11
216.1167087763388
 21
88.4255566683977
 31
0.0
  0
LINE
  5
17C
330
1F
100
AcDbEntity
  8
0
  6
Continuous
 62
     7
370
    15
100
AcDbLine
 10
186.1167087763388
 20
88.42555666839775
 30
0.0
 11
196.1167087763388
 21
88.42555666839775
 31
0.0
  0
LINE
  5
17D
330
1F
100
AcDbEntity
  8
0
  6
Continuous
 62
     7
370
    15
100
AcDbLine
 10
196.1167087763388
 20
88.42555666839775
 30
0.0
 11
196.1167087763388
 21
91.96303202494195
 31
0.0
  0
LINE
  5
17E
330
1F
100
AcDbEntity
  8
0
  6
Continuous
 62
     7
370
    15
100
AcDbLine
 10
196.1167087763388
 20
91.96303202494195
 30
0.0
 11
186.1167087763388
 21
91.96303202494195
 31
0.0
  0
LINE
  5
17F
330
1F
100
AcDbEntity
  8
0
  6
Continuous
 62
     7
370
    15
100
AcDbLine
 10
186.1167087763388
 20
91.96303202494195
 30
0.0
 11
186.1167087763388
 21
88.42555666839775
 31
0.0
  0
LINE
  5
180
330
1F
100
AcDbEntity
  8
0
  6
Continuous
 62
     7
370
    15
100
AcDbLine
 10
156.1167087763387
 20
88.4255566683978
 30
0.0
 11
166.1167087763388
 21
88.4255566683978
 31
0.0
  0
LINE
  5
181
330
1F
100
AcDbEntity
  8
0
  6
Continuous
 62
     7
370
    15
100
AcDbLine
 10
166.1167087763388
 20
88.4255566683978
 30
0.0
 11
166.1167087763388
 21
91.96303202494195
 31
0.0
  0
LINE
  5
182
330
1F
100
AcDbEntity
  8
0
  6
Continuous
 62
     7
370
    15
100
AcDbLine
 10
166.1167087763388
 20
91.96303202494195
 30
0.0
 11
156.1167087763387
 21
91.96303202494195
 31
0.0
  0
LINE
  5
183
330
1F
100
AcDbEntity
  8
0
  6
Continuous
 62
     7
370
    15
100
AcDbLine
 10
156.1167087763387
 20
91.96303202494195
 30
0.0
 11
156.1167087763387
 21
88.4255566683978
 31
0.0
  0
LINE
  5
184
330
1F
100
AcDbEntity
  8
0
  6
Continuous
 62
     7
370
    15
100
AcDbLine
 10
126.1167087763387
 20
88.42555666839791
 30
0.0
 11
136.1167087763387
 21
88.42555666839791
 31
0.0
  0
LINE
  5
185
330
1F
100
AcDbEntity
  8
0
  6
Continuous
 62
     7
370
    15
100
AcDbLine
 10
136.1167087763387
 20
88.42555666839791
 30
0.0
 11
136.1167087763387
 21
91.96303202494195
 31
0.0
  0
LINE
  5
186
330
1F
100
AcDbEntity
  8
0
  6
Continuous
 62
     7
370
    15
100
AcDbLine
 10
136.1167087763387
 20
91.96303202494195
 30
0.0
 11
126.1167087763387
 21
91.96303202494195
 31
0.0
  0
LINE
  5
187
330
1F
100
AcDbEntity
  8
0
  6
Continuous
 62
     7
370
    15
100
AcDbLine
 10
126.1167087763387
 20
91.96303202494195
 30
0.0
 11
126.1167087763387
 21
88.42555666839791
 31
0.0
  0
LINE
  5
188
330
1F
100
AcDbEntity
  8
0
  6
Continuous
 62
     7
370
    15
100
AcDbLine
 10
96.11670877633873
 20
88.42555666839803
 30
0.0
 11
106.1167087763387
 21
88.42555666839803
 31
0.0
  0
LINE
  5
189
330
1F
100
AcDbEntity
  8
0
  6
Continuous
 62
     7
370
    15
100
AcDbLine
 10
106.1167087763387
 20
88.42555666839803
 30
0.0
 11
106.1167087763387
 21
91.96303202494206
 31
0.0
  0
LINE
  5
18A
330
1F
100
AcDbEntity
  8
0
  6
Continuous
 62
     7
370
    15
100
AcDbLine
 10
106.1167087763387
 20
91.96303202494206
 30
0.0
 11
96.11670877633873
 21
91.96303202494206
 31
0.0
  0
LINE
  5
18B
330
1F
100
AcDbEntity
  8
0
  6
Continuous
 62
     7
370
    15
100
AcDbLine
 10
96.11670877633873
 20
91.96303202494206
 30
0.0
 11
96.11670877633873
 21
88.42555666839803
 31
0.0
  0
LINE
  5
18C
330
1F
100
AcDbEntity
  8
0
  6
Continuous
 62
     7
370
    15
100
AcDbLine
 10
66.11670877633878
 20
88.42555666839803
 30
0.0
 11
76.11670877633878
 21
88.42555666839803
 31
0.0
  0
LINE
  5
18D
330
1F
100
AcDbEntity
  8
0
  6
Continuous
 62
     7
370
    15
100
AcDbLine
 10
76.11670877633878
 20
88.42555666839803
 30
0.0
 11
76.11670877633867
 21
91.96303202494206
 31
0.0
  0
LINE
  5
18E
330
1F
100
AcDbEntity
  8
0
  6
Continuous
 62
     7
370
    15
100
AcDbLine
 10
76.11670877633867
 20
91.96303202494206
 30
0.0
 11
66.11670877633878
 21
91.96303202494206
 31
0.0
  0
LINE
  5
18F
330
1F
100
AcDbEntity
  8
0
  6
Continuous
 62
     7
370
    15
100
AcDbLine
 10
66.11670877633878
 20
91.96303202494206
 30
0.0
 11
66.11670877633878
 21
88.42555666839803
 31
0.0
  0
LINE
  5
190
330
1F
100
AcDbEntity
  8
0
  6
Continuous
 62
     7
370
    15
100
AcDbLine
 10
36.11670877633873
 20
88.42555666839814
 30
0.0
 11
46.11670877633872
 21
88.42555666839814
 31
0.0
  0
LINE
  5
191
330
1F
100
AcDbEntity
  8
0
  6
Continuous
 62
     7
370
    15
100
AcDbLine
 10
46.11670877633872
 20
88.42555666839814
 30
0.0
 11
46.11670877633867
 21
91.96303202494206
 31
0.0
  0
LINE
  5
192
330
1F
100
AcDbEntity
  8
0
  6
Continuous
 62
     7
370
    15
100
AcDbLine
 10
46.11670877633867
 20
91.96303202494206
 30
0.0
 11
36.11670877633873
 21
91.96303202494206
 31
0.0
  0
LINE
  5
193
330
1F
100
AcDbEntity
  8
0
  6
Continuous
 62
     7
370
    15
100
AcDbLine
 10
36.11670877633873
 20
91.96303202494206
 30
0.0
 11
36.11670877633873
 21
88.42555666839814
 31
0.0
  0
LINE
  5
194
330
1F
100
AcDbEntity
  8
0
  6
Continuous
 62
     7
370
    15
100
AcDbLine
 10
6.116708776338754
 20
88.42555666839826
 30
0.0
 11
16.11670877633875
 21
88.42555666839826
 31
0.0
  0
LINE
  5
195
330
1F
100
AcDbEntity
  8
0
  6
Continuous
 62
     7
370
    15
100
AcDbLine
 10
16.11670877633875
 20
88.42555666839826
 30
0.0
 11
16.11670877633875
 21
91.96303202494211
 31
0.0
  0
LINE
  5
196
330
1F
100
AcDbEntity
  8
0
  6
Continuous
 62
     7
370
    15
100
AcDbLine
 10
16.11670877633875
 20
91.96303202494211
 30
0.0
 11
6.116708776338754
 21
91.96303202494211
 31
0.0
  0
LINE
  5
197
330
1F
100
AcDbEntity
  8
0
  6
Continuous
 62
     7
370
    15
100
AcDbLine
 10
6.116708776338754
 20
91.96303202494211
 30
0.0
 11
6.116708776338754
 21
88.42555666839826
 31
0.0
  0
LINE
  5
198
330
1F
100
AcDbEntity
  8
0
  6
Continuous
 62
     7
370
    15
100
AcDbLine
 10
-23.88329122366122
 20
88.42555666839832
 30
0.0
 11
-13.88329122366122
 21
88.42555666839832
 31
0.0
  0
LINE
  5
199
330
1F
100
AcDbEntity
  8
0
  6
Continuous
 62
     7
370
    15
100
AcDbLine
 10
-13.88329122366122
 20
88.42555666839832
 30
0.0
 11
-13.88329122366127
 21
91.96303202494219
 31
0.0
  0
LINE
  5
19A
330
1F
100
AcDbEntity
  8
0
  6
Continuous
 62
     7
370
    15
100
AcDbLine
 10
-13.88329122366127
 20
91.96303202494219
 30
0.0
 11
-23.88329122366122
 21
91.96303202494219
 31
0.0
  0
LINE
  5
19B
330
1F
100
AcDbEntity
  8
0
  6
Continuous
 62
     7
370
    15
100
AcDbLine
 10
-23.88329122366122
 20
91.96303202494219
 30
0.0
 11
-23.88329122366122
 21
88.42555666839832
 31
0.0
  0
LINE
  5
19C
330
1F
100
AcDbEntity
  8
0
  6
Continuous
 62
     7
370
    15
100
AcDbLine
 10
-53.88329122366124
 20
88.42555666839837
 30
0.0
 11
-43.88329122366124
 21
88.42555666839837
 31
0.0
  0
LINE
  5
19D
330
1F
100
AcDbEntity
  8
0
  6
Continuous
 62
     7
370
    15
100
AcDbLine
 10
-43.88329122366124
 20
88.42555666839837
 30
0.0
 11
-43.88329122366127
 21
91.96303202494219
 31
0.0
  0
LINE
  5
19E
330
1F
100
AcDbEntity
  8
0
  6
Continuous
 62
     7
370
    15
100
AcDbLine
 10
-43.88329122366127
 20
91.96303202494219
 30
0.0
 11
-53.88329122366124
 21
91.96303202494219
 31
0.0
  0
LINE
  5
19F
330
1F
100
AcDbEntity
  8
0
  6
Continuous
 62
     7
370
    15
100
AcDbLine
 10
-53.88329122366124
 20
91.96303202494219
 30
0.0
 11
-53.88329122366124
 21
88.42555666839837
 31
0.0
  0
LINE
  5
1A0
330
1F
100
AcDbEntity
  8
0
  6
Continuous
 62
     7
370
    15
100
AcDbLine
 10
-83.88329122366128
 20
88.42555666839848
 30
0.0
 11
-73.88329122366126
 21
88.42555666839848
 31
0.0
  0
LINE
  5
1A1
330
1F
100
AcDbEntity
  8
0
  6
Continuous
 62
     7
370
    15
100
AcDbLine
 10
-73.88329122366126
 20
88.42555666839848
 30
0.0
 11
-73.88329122366132
 21
91.96303202494224
 31
0.0
  0
LINE
  5
1A2
330
1F
100
AcDbEntity
  8
0
  6
Continuous
 62
     7
370
    15
100
AcDbLine
 10
-73.88329122366132
 20
91.96303202494224
 30
0.0
 11
-83.88329122366128
 21
91.96303202494224
 31
0.0
  0
LINE
  5
1A3
330
1F
100
AcDbEntity
  8
0
  6
Continuous
 62
     7
370
    15
100
AcDbLine
 10
-83.88329122366128
 20
91.96303202494224
 30
0.0
 11
-83.88329122366128
 21
88.42555666839848
 31
0.0
  0
LINE
  5
1A4
330
1F
100
AcDbEntity
  8
0
  6
Continuous
 62
     7
370
    15
100
AcDbLine
 10
-113.8832912236612
 20
88.42555666839855
 30
0.0
 11
-103.8832912236612
 21
88.42555666839855
 31
0.0
  0
LINE
  5
1A5
330
1F
100
AcDbEntity
  8
0
  6
Continuous
 62
     7
370
    15
100
AcDbLine
 10
-103.8832912236612
 20
88.42555666839855
 30
0.0
 11
-103.8832912236612
 21
91.96303202494229
 31
0.0
  0
LINE
  5
1A6
330
1F
100
AcDbEntity
  8
0
  6
Continuous
 62
     7
370
    15
100
AcDbLine
 10
-103.8832912236612
 20
91.96303202494229
 30
0.0
 11
-113.8832912236612
 21
91.96303202494229
 31
0.0
  0
LINE
  5
1A7
330
1F
100
AcDbEntity
  8
0
  6
Continuous
 62
     7
370
    15
100
AcDbLine
 10
-113.8832912236612
 20
91.96303202494229
 30
0.0
 11
-113.8832912236612
 21
88.42555666839855
 31
0.0
  0
LINE
  5
1A8
330
1F
100
AcDbEntity
  8
0
  6
Continuous
 62
     7
370
    15
100
AcDbLine
 10
-135.7246417142885
 20
92.85565237235429
 30
0.0
 11
-34.53178264837536
 21
92.85565237235429
 31
0.0
  0
LINE
  5
1A9
330
1F
100
AcDbEntity
  8
0
  6
Continuous
 62
     7
370
    15
100
AcDbLine
 10
-34.53178264837536
 20
92.85565237235429
 30
0.0
 11
229.4682173516247
 21
92.85565237235429
 31
0.0
  0
LINE
  5
1AA
330
1F
100
AcDbEntity
  8
0
  6
Continuous
 62
     7
370
    15
100
AcDbLine
 10
229.4682173516247
 20
92.85565237235429
 30
0.0
 11
327.2753582857115
 21
92.85565237235429
 31
0.0
  0
LINE
  5
1AB
330
1F
100
AcDbEntity
  8
0
  6
Continuous
 62
     7
370
    15
100
AcDbLine
 10
327.2753582857115
 20
87.21889513270898
 30
0.0
 11
327.2753582857115
 21
92.85565237235429
 31
0.0
  0
LINE
  5
1AC
330
1F
100
AcDbEntity
  8
0
  6
Continuous
 62
     7
370
    15
100
AcDbLine
 10
-128.8832912236612
 20
88.4255566683986
 30
0.0
 11
-118.8832912236612
 21
88.4255566683986
 31
0.0
  0
LINE
  5
1AD
330
1F
100
AcDbEntity
  8
0
  6
Continuous
 62
     7
370
    15
100
AcDbLine
 10
-118.8832912236612
 20
88.4255566683986
 30
0.0
 11
-118.8832912236612
 21
91.96303202494229
 31
0.0
  0
LINE
  5
1AE
330
1F
100
AcDbEntity
  8
0
  6
Continuous
 62
     7
370
    15
100
AcDbLine
 10
-118.8832912236612
 20
91.96303202494229
 30
0.0
 11
-128.8832912236612
 21
91.96303202494229
 31
0.0
  0
LINE
  5
1AF
330
1F
100
AcDbEntity
  8
0
  6
Continuous
 62
     7
370
    15
100
AcDbLine
 10
-128.8832912236612
 20
91.96303202494229
 30
0.0
 11
-128.8832912236612
 21
88.4255566683986
 31
0.0
  0
LINE
  5
1B0
330
1F
100
AcDbEntity
  8
0
  6
Continuous
 62
     7
370
    15
100
AcDbLine
 10
-98.88329122366123
 20
88.42555666839848
 30
0.0
 11
-88.88329122366121
 21
88.42555666839848
 31
0.0
  0
LINE
  5
1B1
330
1F
100
AcDbEntity
  8
0
  6
Continuous
 62
     7
370
    15
100
AcDbLine
 10
-88.88329122366121
 20
88.42555666839848
 30
0.0
 11
-88.88329122366121
 21
91.96303202494229
 31
0.0
  0
LINE
  5
1B2
330
1F
100
AcDbEntity
  8
0
  6
Continuous
 62
     7
370
    15
100
AcDbLine
 10
-88.88329122366121
 20
91.96303202494229
 30
0.0
 11
-98.88329122366123
 21
91.96303202494229
 31
0.0
  0
LINE
  5
1B3
330
1F
100
AcDbEntity
  8
0
  6
Continuous
 62
     7
370
    15
100
AcDbLine
 10
-98.88329122366123
 20
91.96303202494229
 30
0.0
 11
-98.88329122366123
 21
88.42555666839848
 31
0.0
  0
LINE
  5
1B4
330
1F
100
AcDbEntity
  8
0
  6
Continuous
 62
     7
370
    15
100
AcDbLine
 10
-68.88329122366126
 20
88.42555666839842
 30
0.0
 11
-58.88329122366124
 21
88.42555666839842
 31
0.0
  0
LINE
  5
1B5
330
1F
100
AcDbEntity
  8
0
  6
Continuous
 62
     7
370
    15
100
AcDbLine
 10
-58.88329122366124
 20
88.42555666839842
 30
0.0
 11
-58.8832912236613
 21
91.96303202494224
 31
0.0
  0
LINE
  5
1B6
330
1F
100
AcDbEntity
  8
0
  6
Continuous
 62
     7
370
    15
100
AcDbLine
 10
-58.8832912236613
 20
91.96303202494224
 30
0.0
 11
-68.88329122366126
 21
91.96303202494224
 31
0.0
  0
LINE
  5
1B7
330
1F
100
AcDbEntity
  8
0
  6
Continuous
 62
     7
370
    15
100
AcDbLine
 10
-68.88329122366126
 20
91.96303202494224
 30
0.0
 11
-68.88329122366126
 21
88.42555666839842
 31
0.0
  0
LINE
  5
1B8
330
1F
100
AcDbEntity
  8
0
  6
Continuous
 62
     7
370
    15
100
AcDbLine
 10
-38.88329122366122
 20
88.42555666839837
 30
0.0
 11
-28.88329122366122
 21
88.42555666839837
 31
0.0
  0
LINE
  5
1B9
330
1F
100
AcDbEntity
  8
0
  6
Continuous
 62
     7
370
    15
100
AcDbLine
 10
-28.88329122366122
 20
88.42555666839837
 30
0.0
 11
-28.88329122366128
 21
91.96303202494219
 31
0.0
  0
LINE
  5
1BA
330
1F
100
AcDbEntity
  8
0
  6
Continuous
 62
     7
370
    15
100
AcDbLine
 10
-28.88329122366128
 20
91.96303202494219
 30
0.0
 11
-38.88329122366122
 21
91.96303202494219
 31
0.0
  0
LINE
  5
1BB
330
1F
100
AcDbEntity
  8
0
  6
Continuous
 62
     7
370
    15
100
AcDbLine
 10
-38.88329122366122
 20
91.96303202494219
 30
0.0
 11
-38.88329122366122
 21
88.42555666839837
 31
0.0
  0
LINE
  5
1BC
330
1F
100
AcDbEntity
  8
0
  6
Continuous
 62
     7
370
    15
100
AcDbLine
 10
-8.883291223661245
 20
88.42555666839826
 30
0.0
 11
1.116708776338754
 21
88.42555666839826
 31
0.0
  0
LINE
  5
1BD
330
1F
100
AcDbEntity
  8
0
  6
Continuous
 62
     7
370
    15
100
AcDbLine
 10
1.116708776338754
 20
88.42555666839826
 30
0.0
 11
1.116708776338754
 21
91.96303202494219
 31
0.0
  0
LINE
  5
1BE
330
1F
100
AcDbEntity
  8
0
  6
Continuous
 62
     7
370
    15
100
AcDbLine
 10
1.116708776338754
 20
91.96303202494219
 30
0.0
 11
-8.883291223661245
 21
91.96303202494219
 31
0.0
  0
LINE
  5
1BF
330
1F
100
AcDbEntity
  8
0
  6
Continuous
 62
     7
370
    15
100
AcDbLine
 10
-8.883291223661245
 20
91.96303202494219
 30
0.0
 11
-8.883291223661245
 21
88.42555666839826
 31
0.0
  0
LINE
  5
1C0
330
1F
100
AcDbEntity
  8
0
  6
Continuous
 62
     7
370
    15
100
AcDbLine
 10
21.11670877633878
 20
88.42555666839814
 30
0.0
 11
31.11670877633879
 21
88.42555666839814
 31
0.0
  0
LINE
  5
1C1
330
1F
100
AcDbEntity
  8
0
  6
Continuous
 62
     7
370
    15
100
AcDbLine
 10
31.11670877633879
 20
88.42555666839814
 30
0.0
 11
31.11670877633879
 21
91.96303202494211
 31
0.0
  0
LINE
  5
1C2
330
1F
100
AcDbEntity
  8
0
  6
Continuous
 62
     7
370
    15
100
AcDbLine
 10
31.11670877633879
 20
91.96303202494211
 30
0.0
 11
21.11670877633878
 21
91.96303202494211
 31
0.0
  0
LINE
  5
1C3
330
1F
100
AcDbEntity
  8
0
  6
Continuous
 62
     7
370
    15
100
AcDbLine
 10
21.11670877633878
 20
91.96303202494211
 30
0.0
 11
21.11670877633878
 21
88.42555666839814
 31
0.0
  0
LINE
  5
1C4
330
1F
100
AcDbEntity
  8
0
  6
Continuous
 62
     7
370
    15
100
AcDbLine
 10
51.11670877633875
 20
88.42555666839809
 30
0.0
 11
61.11670877633875
 21
88.42555666839809
 31
0.0
  0
LINE
  5
1C5
330
1F
100
AcDbEntity
  8
0
  6
Continuous
 62
     7
370
    15
100
AcDbLine
 10
61.11670877633875
 20
88.42555666839809
 30
0.0
 11
61.11670877633869
 21
91.96303202494206
 31
0.0
  0
LINE
  5
1C6
330
1F
100
AcDbEntity
  8
0
  6
Continuous
 62
     7
370
    15
100
AcDbLine
 10
61.11670877633869
 20
91.96303202494206
 30
0.0
 11
51.11670877633875
 21
91.96303202494206
 31
0.0
  0
LINE
  5
1C7
330
1F
100
AcDbEntity
  8
0
  6
Continuous
 62
     7
370
    15
100
AcDbLine
 10
51.11670877633875
 20
91.96303202494206
 30
0.0
 11
51.11670877633875
 21
88.42555666839809
 31
0.0
  0
LINE
  5
1C8
330
1F
100
AcDbEntity
  8
0
  6
Continuous
 62
     7
370
    15
100
AcDbLine
 10
81.11670877633878
 20
88.42555666839803
 30
0.0
 11
91.11670877633878
 21
88.42555666839803
 31
0.0
  0
LINE
  5
1C9
330
1F
100
AcDbEntity
  8
0
  6
Continuous
 62
     7
370
    15
100
AcDbLine
 10
91.11670877633878
 20
88.42555666839803
 30
0.0
 11
91.11670877633878
 21
91.96303202494206
 31
0.0
  0
LINE
  5
1CA
330
1F
100
AcDbEntity
  8
0
  6
Continuous
 62
     7
370
    15
100
AcDbLine
 10
91.11670877633878
 20
91.96303202494206
 30
0.0
 11
81.11670877633878
 21
91.96303202494206
 31
0.0
  0
LINE
  5
1CB
330
1F
100
AcDbEntity
  8
0
  6
Continuous
 62
     7
370
    15
100
AcDbLine
 10
81.11670877633878
 20
91.96303202494206
 30
0.0
 11
81.11670877633878
 21
88.42555666839803
 31
0.0
  0
LINE
  5
1CC
330
1F
100
AcDbEntity
  8
0
  6
Continuous
 62
     7
370
    15
100
AcDbLine
 10
111.1167087763387
 20
88.42555666839791
 30
0.0
 11
121.1167087763387
 21
88.42555666839791
 31
0.0
  0
LINE
  5
1CD
330
1F
100
AcDbEntity
  8
0
  6
Continuous
 62
     7
370
    15
100
AcDbLine
 10
121.1167087763387
 20
88.42555666839791
 30
0.0
 11
121.1167087763387
 21
91.96303202494201
 31
0.0
  0
LINE
  5
1CE
330
1F
100
AcDbEntity
  8
0
  6
Continuous
 62
     7
370
    15
100
AcDbLine
 10
121.1167087763387
 20
91.96303202494201
 30
0.0
 11
111.1167087763387
 21
91.96303202494201
 31
0.0
  0
LINE
  5
1CF
330
1F
100
AcDbEntity
  8
0
  6
Continuous
 62
     7
370
    15
100
AcDbLine
 10
111.1167087763387
 20
91.96303202494201
 30
0.0
 11
111.1167087763387
 21
88.42555666839791
 31
0.0
  0
LINE
  5
1D0
330
1F
100
AcDbEntity
  8
0
  6
Continuous
 62
     7
370
    15
100
AcDbLine
 10
141.1167087763387
 20
88.42555666839785
 30
0.0
 11
151.1167087763387
 21
88.42555666839785
 31
0.0
  0
LINE
  5
1D1
330
1F
100
AcDbEntity
  8
0
  6
Continuous
 62
     7
370
    15
100
AcDbLine
 10
151.1167087763387
 20
88.42555666839785
 30
0.0
 11
151.1167087763387
 21
91.96303202494195
 31
0.0
  0
LINE
  5
1D2
330
1F
100
AcDbEntity
  8
0
  6
Continuous
 62
     7
370
    15
100
AcDbLine
 10
151.1167087763387
 20
91.96303202494195
 30
0.0
 11
141.1167087763387
 21
91.96303202494195
 31
0.0
  0
LINE
  5
1D3
330
1F
100
AcDbEntity
  8
0
  6
Continuous
 62
     7
370
    15
100
AcDbLine
 10
141.1167087763387
 20
91.96303202494195
 30
0.0
 11
141.1167087763387
 21
88.42555666839785
 31
0.0
  0
LINE
  5
1D4
330
1F
100
AcDbEntity
  8
0
  6
Continuous
 62
     7
370
    15
100
AcDbLine
 10
171.1167087763388
 20
88.4255566683978
 30
0.0
 11
181.1167087763388
 21
88.4255566683978
 31
0.0
  0
LINE
  5
1D5
330
1F
100
AcDbEntity
  8
0
  6
Continuous
 62
     7
370
    15
100
AcDbLine
 10
181.1167087763388
 20
88.4255566683978
 30
0.0
 11
181.1167087763388
 21
91.96303202494195
 31
0.0
  0
LINE
  5
1D6
330
1F
100
AcDbEntity
  8
0
  6
Continuous
 62
     7
370
    15
100
AcDbLine
 10
181.1167087763388
 20
91.96303202494195
 30
0.0
 11
171.1167087763388
 21
91.96303202494195
 31
0.0
  0
LINE
  5
1D7
330
1F
100
AcDbEntity
  8
0
  6
Continuous
 62
     7
370
    15
100
AcDbLine
 10
171.1167087763388
 20
91.96303202494195
 30
0.0
 11
171.1167087763388
 21
88.4255566683978
 31
0.0
  0
LINE
  5
1D8
330
1F
100
AcDbEntity
  8
0
  6
Continuous
 62
     7
370
    15
100
AcDbLine
 10
201.1167087763388
 20
88.4255566683977
 30
0.0
 11
211.1167087763388
 21
88.4255566683977
 31
0.0
  0
LINE
  5
1D9
330
1F
100
AcDbEntity
  8
0
  6
Continuous
 62
     7
370
    15
100
AcDbLine
 10
211.1167087763388
 20
88.4255566683977
 30
0.0
 11
211.1167087763388
 21
91.96303202494195
 31
0.0
  0
LINE
  5
1DA
330
1F
100
AcDbEntity
  8
0
  6
Continuous
 62
     7
370
    15
100
AcDbLine
 10
211.1167087763388
 20
91.96303202494195
 30
0.0
 11
201.1167087763388
 21
91.96303202494195
 31
0.0
  0
LINE
  5
1DB
330
1F
100
AcDbEntity
  8
0
  6
Continuous
 62
     7
370
    15
100
AcDbLine
 10
201.1167087763388
 20
91.96303202494195
 30
0.0
 11
201.1167087763388
 21
88.4255566683977
 31
0.0
  0
LINE
  5
1DC
330
1F
100
AcDbEntity
  8
0
  6
Continuous
 62
     7
370
    15
100
AcDbLine
 10
231.1167087763388
 20
88.42555666839762
 30
0.0
 11
241.1167087763387
 21
88.42555666839762
 31
0.0
  0
LINE
  5
1DD
330
1F
100
AcDbEntity
  8
0
  6
Continuous
 62
     7
370
    15
100
AcDbLine
 10
241.1167087763387
 20
88.42555666839762
 30
0.0
 11
241.1167087763388
 21
91.96303202494183
 31
0.0
  0
LINE
  5
1DE
330
1F
100
AcDbEntity
  8
0
  6
Continuous
 62
     7
370
    15
100
AcDbLine
 10
241.1167087763388
 20
91.96303202494183
 30
0.0
 11
231.1167087763388
 21
91.96303202494183
 31
0.0
  0
LINE
  5
1DF
330
1F
100
AcDbEntity
  8
0
  6
Continuous
 62
     7
370
    15
100
AcDbLine
 10
231.1167087763388
 20
91.96303202494183
 30
0.0
 11
231.1167087763388
 21
88.42555666839762
 31
0.0
  0
LINE
  5
1E0
330
1F
100
AcDbEntity
  8
0
  6
Continuous
 62
     7
370
    15
100
AcDbLine
 10
261.1167087763387
 20
88.42555666839757
 30
0.0
 11
271.1167087763387
 21
88.42555666839757
 31
0.0
  0
LINE
  5
1E1
330
1F
100
AcDbEntity
  8
0
  6
Continuous
 62
     7
370
    15
100
AcDbLine
 10
271.1167087763387
 20
88.42555666839757
 30
0.0
 11
271.1167087763387
 21
91.96303202494183
 31
0.0
  0
LINE
  5
1E2
330
1F
100
AcDbEntity
  8
0
  6
Continuous
 62
     7
370
    15
100
AcDbLine
 10
271.1167087763387
 20
91.96303202494183
 30
0.0
 11
261.1167087763387
 21
91.96303202494183
 31
0.0
  0
LINE
  5
1E3
330
1F
100
AcDbEntity
  8
0
  6
Continuous
 62
     7
370
    15
100
AcDbLine
 10
261.1167087763387
 20
91.96303202494183
 30
0.0
 11
261.1167087763387
 21
88.42555666839757
 31
0.0
  0
LINE
  5
1E4
330
1F
100
AcDbEntity
  8
0
  6
Continuous
 62
     7
370
    15
100
AcDbLine
 10
291.1167087763388
 20
88.42555666839748
 30
0.0
 11
301.1167087763388
 21
88.42555666839748
 31
0.0
  0
LINE
  5
1E5
330
1F
100
AcDbEntity
  8
0
  6
Continuous
 62
     7
370
    15
100
AcDbLine
 10
301.1167087763388
 20
88.42555666839748
 30
0.0
 11
301.1167087763388
 21
91.96303202494183
 31
0.0
  0
LINE
  5
1E6
330
1F
100
AcDbEntity
  8
0
  6
Continuous
 62
     7
370
    15
100
AcDbLine
 10
301.1167087763388
 20
91.96303202494183
 30
0.0
 11
291.1167087763388
 21
91.96303202494183
 31
0.0
  0
LINE
  5
1E7
330
1F
100
AcDbEntity
  8
0
  6
Continuous
 62
     7
370
    15
100
AcDbLine
 10
291.1167087763388
 20
91.96303202494183
 30
0.0
 11
291.1167087763388
 21
88.42555666839748
 31
0.0
  0
LINE
  5
1E8
330
1F
100
AcDbEntity
  8
0
  6
Continuous
 62
     7
370
    15
100
AcDbLine
 10
-135.7246417142885
 20
87.21889513270898
 30
0.0
 11
-135.7246417142885
 21
92.85565237235429
 31
0.0
  0
LINE
  5
1E9
330
1F
100
AcDbEntity
  8
0
  6
Continuous
 62
     7
370
    15
100
AcDbLine
 10
-107.8550602131362
 20
30.85565237235426
 30
0.0
 11
-117.1982059636438
 21
30.85565237235426
 31
0.0
  0
ARC
  5
1EA
330
1F
100
AcDbEntity
  8
0
  6
Continuous
 62
     7
370
    15
100
AcDbCircle
 10
-107.8550602131362
 20
33.85565237235426
 30
0.0
 40
3.0
100
AcDbArc
 50
270.0000000000008
 51
340.52877936551
  0
ARC
  5
1EB
330
1F
100
AcDbEntity
  8
0
  6
Continuous
 62
     7
370
    15
100
AcDbCircle
 10
-117.1982059636438
 20
33.85565237235426
 30
0.0
 40
3.0
100
AcDbArc
 50
199.4712206344918
 51
270.0000000000008
  0
LINE
  5
1EC
330
1F
100
AcDbEntity
  8
0
  6
Continuous
 62
     7
370
    15
100
AcDbLine
 10
-87.85506021313626
 20
30.85565237235426
 30
0.0
 11
-97.19820596364392
 21
30.85565237235426
 31
0.0
  0
ARC
  5
1ED
330
1F
100
AcDbEntity
  8
0
  6
Continuous
 62
     7
370
    15
100
AcDbCircle
 10
-97.19820596364392
 20
33.85565237235426
 30
0.0
 40
3.0
100
AcDbArc
 50
199.4712206344918
 51
270.0000000000008
  0
ARC
  5
1EE
330
1F
100
AcDbEntity
  8
0
  6
Continuous
 62
     7
370
    15
100
AcDbCircle
 10
-87.85506021313626
 20
33.85565237235426
 30
0.0
 40
3.0
100
AcDbArc
 50
270.0000000000008
 51
340.52877936551
  0
LINE
  5
1EF
330
1F
100
AcDbEntity
  8
0
  6
Continuous
 62
     7
370
    15
100
AcDbLine
 10
-67.85506021313624
 20
30.85565237235426
 30
0.0
 11
-77.19820596364389
 21
30.85565237235426
 31
0.0
  0
ARC
  5
1F0
330
1F
100
AcDbEntity
  8
0
  6
Continuous
 62
     7
370
    15
100
AcDbCircle
 10
-67.85506021313624
 20
33.85565237235426
 30
0.0
 40
3.0
100
AcDbArc
 50
270.0000000000008
 51
340.52877936551
  0
ARC
  5
1F1
330
1F
100
AcDbEntity
  8
0
  6
Continuous
 62
     7
370
    15
100
AcDbCircle
 10
-77.19820596364389
 20
33.85565237235426
 30
0.0
 40
3.0
100
AcDbArc
 50
199.4712206344918
 51
270.0000000000008
  0
LINE
  5
1F2
330
1F
100
AcDbEntity
  8
0
  6
Continuous
 62
     7
370
    15
100
AcDbLine
 10
-47.85506021313622
 20
30.85565237235426
 30
0.0
 11
-57.19820596364389
 21
30.85565237235426
 31
0.0
  0
ARC
  5
1F3
330
1F
100
AcDbEntity
  8
0
  6
Continuous
 62
     7
370
    15
100
AcDbCircle
 10
-57.19820596364389
 20
33.85565237235426
 30
0.0
 40
3.0
100
AcDbArc
 50
199.4712206344918
 51
270.0000000000008
  0
ARC
  5
1F4
330
1F
100
AcDbEntity
  8
0
  6
Continuous
 62
     7
370
    15
100
AcDbCircle
 10
-47.85506021313622
 20
33.85565237235426
 30
0.0
 40
3.0
100
AcDbArc
 50
270.0000000000008
 51
340.52877936551
  0
LINE
  5
1F5
330
1F
100
AcDbEntity
  8
0
  6
Continuous
 62
     7
370
    15
100
AcDbLine
 10
-27.8550602131362
 20
30.85565237235426
 30
0.0
 11
-37.19820596364386
 21
30.85565237235426
 31
0.0
  0
ARC
  5
1F6
330
1F
100
AcDbEntity
  8
0
  6
Continuous
 62
     7
370
    15
100
AcDbCircle
 10
-37.19820596364386
 20
33.85565237235426
 30
0.0
 40
3.0
100
AcDbArc
 50
199.4712206344918
 51
270.0000000000008
  0
ARC
  5
1F7
330
1F
100
AcDbEntity
  8
0
  6
Continuous
 62
     7
370
    15
100
AcDbCircle
 10
-27.8550602131362
 20
33.85565237235426
 30
0.0
 40
3.0
100
AcDbArc
 50
270.0000000000008
 51
340.52877936551
  0
LINE
  5
1F8
330
1F
100
AcDbEntity
  8
0
  6
Continuous
 62
     7
370
    15
100
AcDbLine
 10
-7.855060213136198
 20
30.85565237235426
 30
0.0
 11
-17.19820596364383
 21
30.85565237235426
 31
0.0
  0
ARC
  5
1F9
330
1F
100
AcDbEntity
  8
0
  6
Continuous
 62
     7
370
    15
100
AcDbCircle
 10
-7.855060213136198
 20
33.85565237235426
 30
0.0
 40
3.0
100
AcDbArc
 50
270.0000000000008
 51
340.52877936551
  0
ARC
  5
1FA
330
1F
100
AcDbEntity
  8
0
  6
Continuous
 62
     7
370
    15
100
AcDbCircle
 10
-17.19820596364383
 20
33.85565237235426
 30
0.0
 40
3.0
100
AcDbArc
 50
199.4712206344918
 51
270.0000000000008
  0
LINE
  5
1FB
330
1F
100
AcDbEntity
  8
0
  6
Continuous
 62
     7
370
    15
100
AcDbLine
 10
12.14493978686371
 20
30.85565237235426
 30
0.0
 11
2.80179403635617
 21
30.85565237235426
 31
0.0
  0
ARC
  5
1FC
330
1F
100
AcDbEntity
  8
0
  6
Continuous
 62
     7
370
    15
100
AcDbCircle
 10
12.14493978686371
 20
33.85565237235426
 30
0.0
 40
3.0
100
AcDbArc
 50
270.0000000000008
 51
340.52877936551
  0
ARC
  5
1FD
330
1F
100
AcDbEntity
  8
0
  6
Continuous
 62
     7
370
    15
100
AcDbCircle
 10
2.80179403635617
 20
33.85565237235426
 30
0.0
 40
3.0
100
AcDbArc
 50
199.4712206344918
 51
270.0000000000008
  0
LINE
  5
1FE
330
1F
100
AcDbEntity
  8
0
  6
Continuous
 62
     7
370
    15
100
AcDbLine
 10
32.14493978686375
 20
30.85565237235426
 30
0.0
 11
22.80179403635608
 21
30.85565237235426
 31
0.0
  0
ARC
  5
1FF
330
1F
100
AcDbEntity
  8
0
  6
Continuous
 62
     7
370
    15
100
AcDbCircle
 10
32.14493978686375
 20
33.85565237235426
 30
0.0
 40
3.0
100
AcDbArc
 50
270.0000000000008
 51
340.52877936551
  0
ARC
  5
200
330
1F
100
AcDbEntity
  8
0
  6
Continuous
 62
     7
370
    15
100
AcDbCircle
 10
22.80179403635608
 20
33.85565237235426
 30
0.0
 40
3.0
100
AcDbArc
 50
199.4712206344918
 51
270.0000000000008
  0
LINE
  5
201
330
1F
100
AcDbEntity
  8
0
  6
Continuous
 62
     7
370
    15
100
AcDbLine
 10
52.14493978686374
 20
30.85565237235426
 30
0.0
 11
42.80179403635611
 21
30.85565237235426
 31
0.0
  0
ARC
  5
202
330
1F
100
AcDbEntity
  8
0
  6
Continuous
 62
     7
370
    15
100
AcDbCircle
 10
52.14493978686374
 20
33.85565237235426
 30
0.0
 40
3.0
100
AcDbArc
 50
270.0000000000008
 51
340.52877936551
  0
ARC
  5
203
330
1F
100
AcDbEntity
  8
0
  6
Continuous
 62
     7
370
    15
100
AcDbCircle
 10
42.80179403635611
 20
33.85565237235426
 30
0.0
 40
3.0
100
AcDbArc
 50
199.4712206344918
 51
270.0000000000008
  0
LINE
  5
204
330
1F
100
AcDbEntity
  8
0
  6
Continuous
 62
     7
370
    15
100
AcDbLine
 10
72.14493978686386
 20
30.85565237235426
 30
0.0
 11
62.80179403635608
 21
30.85565237235426
 31
0.0
  0
ARC
  5
205
330
1F
100
AcDbEntity
  8
0
  6
Continuous
 62
     7
370
    15
100
AcDbCircle
 10
72.14493978686386
 20
33.85565237235426
 30
0.0
 40
3.0
100
AcDbArc
 50
270.0000000000008
 51
340.52877936551
  0
ARC
  5
206
330
1F
100
AcDbEntity
  8
0
  6
Continuous
 62
     7
370
    15
100
AcDbCircle
 10
62.80179403635608
 20
33.85565237235426
 30
0.0
 40
3.0
100
AcDbArc
 50
199.4712206344918
 51
270.0000000000008
  0
LINE
  5
207
330
1F
100
AcDbEntity
  8
0
  6
Continuous
 62
     7
370
    15
100
AcDbLine
 10
128.4187564767536
 20
30.85565237235426
 30
0.0
 11
119.0756107262459
 21
30.85565237235426
 31
0.0
  0
ARC
  5
208
330
1F
100
AcDbEntity
  8
0
  6
Continuous
 62
     7
370
    15
100
AcDbCircle
 10
119.0756107262459
 20
33.85565237235426
 30
0.0
 40
3.0
100
AcDbArc
 50
199.4712206344918
 51
270.0000000000008
  0
ARC
  5
209
330
1F
100
AcDbEntity
  8
0
  6
Continuous
 62
     7
370
    15
100
AcDbCircle
 10
128.4187564767536
 20
33.85565237235426
 30
0.0
 40
3.000000000000021
100
AcDbArc
 50
270.0000000000008
 51
340.5287793655104
  0
LINE
  5
20A
330
1F
100
AcDbEntity
  8
0
  6
Continuous
 62
     7
370
    15
100
AcDbLine
 10
148.4187564767536
 20
30.85565237235426
 30
0.0
 11
139.0756107262459
 21
30.85565237235426
 31
0.0
  0
ARC
  5
20B
330
1F
100
AcDbEntity
  8
0
  6
Continuous
 62
     7
370
    15
100
AcDbCircle
 10
139.0756107262459
 20
33.85565237235426
 30
0.0
 40
3.0
100
AcDbArc
 50
199.4712206344918
 51
270.0000000000008
  0
ARC
  5
20C
330
1F
100
AcDbEntity
  8
0
  6
Continuous
 62
     7
370
    15
100
AcDbCircle
 10
148.4187564767536
 20
33.85565237235426
 30
0.0
 40
3.0
100
AcDbArc
 50
270.0000000000008
 51
340.52877936551
  0
LINE
  5
20D
330
1F
100
AcDbEntity
  8
0
  6
Continuous
 62
     7
370
    15
100
AcDbLine
 10
168.4187564767536
 20
30.85565237235426
 30
0.0
 11
159.075610726246
 21
30.85565237235426
 31
0.0
  0
ARC
  5
20E
330
1F
100
AcDbEntity
  8
0
  6
Continuous
 62
     7
370
    15
100
AcDbCircle
 10
159.075610726246
 20
33.85565237235426
 30
0.0
 40
3.000000000000021
100
AcDbArc
 50
199.4712206344911
 51
270.0000000000008
  0
ARC
  5
20F
330
1F
100
AcDbEntity
  8
0
  6
Continuous
 62
     7
370
    15
100
AcDbCircle
 10
168.4187564767536
 20
33.85565237235426
 30
0.0
 40
3.0
100
AcDbArc
 50
270.0000000000008
 51
340.52877936551
  0
LINE
  5
210
330
1F
100
AcDbEntity
  8
0
  6
Continuous
 62
     7
370
    15
100
AcDbLine
 10
188.4187564767536
 20
30.85565237235426
 30
0.0
 11
179.075610726246
 21
30.85565237235426
 31
0.0
  0
ARC
  5
211
330
1F
100
AcDbEntity
  8
0
  6
Continuous
 62
     7
370
    15
100
AcDbCircle
 10
188.4187564767536
 20
33.85565237235426
 30
0.0
 40
3.000000000000021
100
AcDbArc
 50
270.0000000000008
 51
340.5287793655104
  0
ARC
  5
212
330
1F
100
AcDbEntity
  8
0
  6
Continuous
 62
     7
370
    15
100
AcDbCircle
 10
179.075610726246
 20
33.85565237235426
 30
0.0
 40
3.000000000000021
100
AcDbArc
 50
199.4712206344911
 51
270.0000000000008
  0
LINE
  5
213
330
1F
100
AcDbEntity
  8
0
  6
Continuous
 62
     7
370
    15
100
AcDbLine
 10
208.4187564767536
 20
30.85565237235426
 30
0.0
 11
199.0756107262459
 21
30.85565237235426
 31
0.0
  0
ARC
  5
214
330
1F
100
AcDbEntity
  8
0
  6
Continuous
 62
     7
370
    15
100
AcDbCircle
 10
208.4187564767536
 20
33.85565237235426
 30
0.0
 40
3.0
100
AcDbArc
 50
270.0000000000008
 51
340.52877936551
  0
ARC
  5
215
330
1F
100
AcDbEntity
  8
0
  6
Continuous
 62
     7
370
    15
100
AcDbCircle
 10
199.0756107262459
 20
33.85565237235426
 30
0.0
 40
3.0
100
AcDbArc
 50
199.4712206344925
 51
270.0000000000008
  0
LINE
  5
216
330
1F
100
AcDbEntity
  8
0
  6
Continuous
 62
     7
370
    15
100
AcDbLine
 10
228.4187564767536
 20
30.85565237235426
 30
0.0
 11
219.0756107262459
 21
30.85565237235426
 31
0.0
  0
ARC
  5
217
330
1F
100
AcDbEntity
  8
0
  6
Continuous
 62
     7
370
    15
100
AcDbCircle
 10
219.0756107262459
 20
33.85565237235426
 30
0.0
 40
3.000000000000021
100
AcDbArc
 50
199.4712206344911
 51
270.0000000000008
  0
ARC
  5
218
330
1F
100
AcDbEntity
  8
0
  6
Continuous
 62
     7
370
    15
100
AcDbCircle
 10
228.4187564767536
 20
33.85565237235426
 30
0.0
 40
3.0
100
AcDbArc
 50
270.0000000000008
 51
340.52877936551
  0
LINE
  5
219
330
1F
100
AcDbEntity
  8
0
  6
Continuous
 62
     7
370
    15
100
AcDbLine
 10
248.4187564767536
 20
30.85565237235426
 30
0.0
 11
239.0756107262459
 21
30.85565237235426
 31
0.0
  0
ARC
  5
21A
330
1F
100
AcDbEntity
  8
0
  6
Continuous
 62
     7
370
    15
100
AcDbCircle
 10
239.0756107262459
 20
33.85565237235426
 30
0.0
 40
3.000000000000021
100
AcDbArc
 50
199.4712206344911
 51
270.0000000000008
  0
ARC
  5
21B
330
1F
100
AcDbEntity
  8
0
  6
Continuous
 62
     7
370
    15
100
AcDbCircle
 10
248.4187564767536
 20
33.85565237235426
 30
0.0
 40
3.000000000000021
100
AcDbArc
 50
270.0000000000008
 51
340.5287793655104
  0
LINE
  5
21C
330
1F
100
AcDbEntity
  8
0
  6
Continuous
 62
     7
370
    15
100
AcDbLine
 10
268.4187564767536
 20
30.85565237235426
 30
0.0
 11
259.075610726246
 21
30.85565237235426
 31
0.0
  0
ARC
  5
21D
330
1F
100
AcDbEntity
  8
0
  6
Continuous
 62
     7
370
    15
100
AcDbCircle
 10
259.075610726246
 20
33.85565237235426
 30
0.0
 40
3.0
100
AcDbArc
 50
199.4712206344918
 51
270.0000000000008
  0
ARC
  5
21E
330
1F
100
AcDbEntity
  8
0
  6
Continuous
 62
     7
370
    15
100
AcDbCircle
 10
268.4187564767536
 20
33.85565237235426
 30
0.0
 40
3.0
100
AcDbArc
 50
270.0000000000008
 51
340.52877936551
  0
LINE
  5
21F
330
1F
100
AcDbEntity
  8
0
  6
Continuous
 62
     7
370
    15
100
AcDbLine
 10
288.4187564767536
 20
30.85565237235426
 30
0.0
 11
279.0756107262459
 21
30.85565237235426
 31
0.0
  0
ARC
  5
220
330
1F
100
AcDbEntity
  8
0
  6
Continuous
 62
     7
370
    15
100
AcDbCircle
 10
288.4187564767536
 20
33.85565237235426
 30
0.0
 40
3.0
100
AcDbArc
 50
270.0000000000008
 51
340.52877936551
  0
ARC
  5
221
330
1F
100
AcDbEntity
  8
0
  6
Continuous
 62
     7
370
    15
100
AcDbCircle
 10
279.0756107262459
 20
33.85565237235426
 30
0.0
 40
3.0
100
AcDbArc
 50
199.4712206344918
 51
270.0000000000008
  0
LINE
  5
222
330
1F
100
AcDbEntity
  8
0
  6
Continuous
 62
     7
370
    15
100
AcDbLine
 10
308.4187564767536
 20
30.85565237235426
 30
0.0
 11
299.075610726246
 21
30.85565237235426
 31
0.0
  0
ARC
  5
223
330
1F
100
AcDbEntity
  8
0
  6
Continuous
 62
     7
370
    15
100
AcDbCircle
 10
299.075610726246
 20
33.85565237235426
 30
0.0
 40
3.000000000000021
100
AcDbArc
 50
199.4712206344911
 51
270.0000000000008
  0
ARC
  5
224
330
1F
100
AcDbEntity
  8
0
  6
Continuous
 62
     7
370
    15
100
AcDbCircle
 10
308.4187564767536
 20
33.85565237235426
 30
0.0
 40
3.000000000000021
100
AcDbArc
 50
270.0000000000008
 51
340.5287793655104
  0
LINE
  5
225
330
1F
100
AcDbEntity
  8
0
  6
Continuous
 62
     7
370
    15
100
AcDbLine
 10
-34.53178264837536
 20
152.8556523723542
 30
0.0
 11
-34.53178264837536
 21
92.85565237235429
 31
0.0
  0
LINE
  5
226
330
1F
100
AcDbEntity
  8
0
  6
Continuous
 62
     7
370
    15
100
AcDbLine
 10
-34.53178264837536
 20
152.8556523723542
 30
0.0
 11
229.4682173516247
 21
152.8556523723542
 31
0.0
  0
LINE
  5
227
330
1F
100
AcDbEntity
  8
0
  6
Continuous
 62
     7
370
    15
100
AcDbLine
 10
229.4682173516247
 20
152.8556523723542
 30
0.0
 11
229.4682173516247
 21
92.85565237235429
 31
0.0
  0
LINE
  5
228
330
1F
100
AcDbEntity
  8
0
  6
Continuous
 62
     7
370
    15
100
AcDbLine
 10
-26.23725237465533
 20
94.73307809345113
 30
0.0
 11
-26.23725237465533
 21
142.5824523767448
 31
0.0
  0
LINE
  5
229
330
1F
100
AcDbEntity
  8
0
  6
Continuous
 62
     7
370
    15
100
AcDbLine
 10
-26.23725237465533
 20
142.5824523767448
 30
0.0
 11
-29.30187293285545
 21
142.5824523767448
 31
0.0
  0
LINE
  5
22A
330
1F
100
AcDbEntity
  8
0
  6
Continuous
 62
     7
370
    15
100
AcDbLine
 10
-29.30187293285545
 20
142.5824523767448
 30
0.0
 11
-29.30187293285545
 21
94.73307809345113
 31
0.0
  0
LINE
  5
22B
330
1F
100
AcDbEntity
  8
0
  6
Continuous
 62
     7
370
    15
100
AcDbLine
 10
-29.30187293285545
 20
94.73307809345113
 30
0.0
 11
-26.23725237465533
 21
94.73307809345113
 31
0.0
  0
LINE
  5
22C
330
1F
100
AcDbEntity
  8
0
  6
Continuous
 62
     7
370
    15
100
AcDbLine
 10
-16.23725237465533
 20
94.73307809345113
 30
0.0
 11
-16.23725237465533
 21
142.5824523767448
 31
0.0
  0
LINE
  5
22D
330
1F
100
AcDbEntity
  8
0
  6
Continuous
 62
     7
370
    15
100
AcDbLine
 10
-16.23725237465533
 20
142.5824523767448
 30
0.0
 11
-19.30187293285544
 21
142.5824523767448
 31
0.0
  0
LINE
  5
22E
330
1F
100
AcDbEntity
  8
0
  6
Continuous
 62
     7
370
    15
100
AcDbLine
 10
-19.30187293285544
 20
142.5824523767448
 30
0.0
 11
-19.30187293285544
 21
94.73307809345113
 31
0.0
  0
LINE
  5
22F
330
1F
100
AcDbEntity
  8
0
  6
Continuous
 62
     7
370
    15
100
AcDbLine
 10
-19.30187293285544
 20
94.73307809345113
 30
0.0
 11
-16.23725237465533
 21
94.73307809345113
 31
0.0
  0
LINE
  5
230
330
1F
100
AcDbEntity
  8
0
  6
Continuous
 62
     7
370
    15
100
AcDbLine
 10
-6.237252374655327
 20
94.73307809345113
 30
0.0
 11
-6.237252374655327
 21
142.5824523767448
 31
0.0
  0
LINE
  5
231
330
1F
100
AcDbEntity
  8
0
  6
Continuous
 62
     7
370
    15
100
AcDbLine
 10
-6.237252374655327
 20
142.5824523767448
 30
0.0
 11
-9.301872932855445
 21
142.5824523767448
 31
0.0
  0
LINE
  5
232
330
1F
100
AcDbEntity
  8
0
  6
Continuous
 62
     7
370
    15
100
AcDbLine
 10
-9.301872932855445
 20
142.5824523767448
 30
0.0
 11
-9.301872932855445
 21
94.73307809345113
 31
0.0
  0
LINE
  5
233
330
1F
100
AcDbEntity
  8
0
  6
Continuous
 62
     7
370
    15
100
AcDbLine
 10
-9.301872932855445
 20
94.73307809345113
 30
0.0
 11
-6.237252374655327
 21
94.73307809345113
 31
0.0
  0
LINE
  5
234
330
1F
100
AcDbEntity
  8
0
  6
Continuous
 62
     7
370
    15
100
AcDbLine
 10
3.762747625344701
 20
94.73307809345113
 30
0.0
 11
3.762747625344644
 21
142.5824523767448
 31
0.0
  0
LINE
  5
235
330
1F
100
AcDbEntity
  8
0
  6
Continuous
 62
     7
370
    15
100
AcDbLine
 10
3.762747625344644
 20
142.5824523767448
 30
0.0
 11
0.6981270671445259
 21
142.5824523767448
 31
0.0
  0
LINE
  5
236
330
1F
100
AcDbEntity
  8
0
  6
Continuous
 62
     7
370
    15
100
AcDbLine
 10
0.6981270671445259
 20
142.5824523767448
 30
0.0
 11
0.6981270671445828
 21
94.73307809345113
 31
0.0
  0
LINE
  5
237
330
1F
100
AcDbEntity
  8
0
  6
Continuous
 62
     7
370
    15
100
AcDbLine
 10
0.6981270671445828
 20
94.73307809345113
 30
0.0
 11
3.762747625344701
 21
94.73307809345113
 31
0.0
  0
LINE
  5
238
330
1F
100
AcDbEntity
  8
0
  6
Continuous
 62
     7
370
    15
100
AcDbLine
 10
13.76274762534464
 20
94.73307809345113
 30
0.0
 11
13.76274762534464
 21
142.5824523767448
 31
0.0
  0
LINE
  5
239
330
1F
100
AcDbEntity
  8
0
  6
Continuous
 62
     7
370
    15
100
AcDbLine
 10
13.76274762534464
 20
142.5824523767448
 30
0.0
 11
10.69812706714452
 21
142.5824523767448
 31
0.0
  0
LINE
  5
23A
330
1F
100
AcDbEntity
  8
0
  6
Continuous
 62
     7
370
    15
100
AcDbLine
 10
10.69812706714452
 20
142.5824523767448
 30
0.0
 11
10.69812706714458
 21
94.73307809345113
 31
0.0
  0
LINE
  5
23B
330
1F
100
AcDbEntity
  8
0
  6
Continuous
 62
     7
370
    15
100
AcDbLine
 10
10.69812706714458
 20
94.73307809345113
 30
0.0
 11
13.76274762534464
 21
94.73307809345113
 31
0.0
  0
LINE
  5
23C
330
1F
100
AcDbEntity
  8
0
  6
Continuous
 62
     7
370
    15
100
AcDbLine
 10
23.76274762534464
 20
94.73307809345113
 30
0.0
 11
23.76274762534464
 21
142.5824523767448
 31
0.0
  0
LINE
  5
23D
330
1F
100
AcDbEntity
  8
0
  6
Continuous
 62
     7
370
    15
100
AcDbLine
 10
23.76274762534464
 20
142.5824523767448
 30
0.0
 11
20.69812706714452
 21
142.5824523767448
 31
0.0
  0
LINE
  5
23E
330
1F
100
AcDbEntity
  8
0
  6
Continuous
 62
     7
370
    15
100
AcDbLine
 10
20.69812706714452
 20
142.5824523767448
 30
0.0
 11
20.69812706714458
 21
94.73307809345113
 31
0.0
  0
LINE
  5
23F
330
1F
100
AcDbEntity
  8
0
  6
Continuous
 62
     7
370
    15
100
AcDbLine
 10
20.69812706714458
 20
94.73307809345113
 30
0.0
 11
23.76274762534464
 21
94.73307809345113
 31
0.0
  0
LINE
  5
240
330
1F
100
AcDbEntity
  8
0
  6
Continuous
 62
     7
370
    15
100
AcDbLine
 10
33.76274762534468
 20
94.73307809345113
 30
0.0
 11
33.76274762534462
 21
142.5824523767448
 31
0.0
  0
LINE
  5
241
330
1F
100
AcDbEntity
  8
0
  6
Continuous
 62
     7
370
    15
100
AcDbLine
 10
33.76274762534462
 20
142.5824523767448
 30
0.0
 11
30.6981270671445
 21
142.5824523767448
 31
0.0
  0
LINE
  5
242
330
1F
100
AcDbEntity
  8
0
  6
Continuous
 62
     7
370
    15
100
AcDbLine
 10
30.6981270671445
 20
142.5824523767448
 30
0.0
 11
30.69812706714461
 21
94.73307809345113
 31
0.0
  0
LINE
  5
243
330
1F
100
AcDbEntity
  8
0
  6
Continuous
 62
     7
370
    15
100
AcDbLine
 10
30.69812706714461
 20
94.73307809345113
 30
0.0
 11
33.76274762534468
 21
94.73307809345113
 31
0.0
  0
LINE
  5
244
330
1F
100
AcDbEntity
  8
0
  6
Continuous
 62
     7
370
    15
100
AcDbLine
 10
43.76274762534467
 20
94.73307809345113
 30
0.0
 11
43.76274762534461
 21
142.5824523767448
 31
0.0
  0
LINE
  5
245
330
1F
100
AcDbEntity
  8
0
  6
Continuous
 62
     7
370
    15
100
AcDbLine
 10
43.76274762534461
 20
142.5824523767448
 30
0.0
 11
40.6981270671445
 21
142.5824523767448
 31
0.0
  0
LINE
  5
246
330
1F
100
AcDbEntity
  8
0
  6
Continuous
 62
     7
370
    15
100
AcDbLine
 10
40.6981270671445
 20
142.5824523767448
 30
0.0
 11
40.6981270671446
 21
94.73307809345113
 31
0.0
  0
LINE
  5
247
330
1F
100
AcDbEntity
  8
0
  6
Continuous
 62
     7
370
    15
100
AcDbLine
 10
40.6981270671446
 20
94.73307809345113
 30
0.0
 11
43.76274762534467
 21
94.73307809345113
 31
0.0
  0
LINE
  5
248
330
1F
100
AcDbEntity
  8
0
  6
Continuous
 62
     7
370
    15
100
AcDbLine
 10
53.76274762534468
 20
94.73307809345113
 30
0.0
 11
53.76274762534461
 21
142.5824523767448
 31
0.0
  0
LINE
  5
249
330
1F
100
AcDbEntity
  8
0
  6
Continuous
 62
     7
370
    15
100
AcDbLine
 10
53.76274762534461
 20
142.5824523767448
 30
0.0
 11
50.6981270671445
 21
142.5824523767448
 31
0.0
  0
LINE
  5
24A
330
1F
100
AcDbEntity
  8
0
  6
Continuous
 62
     7
370
    15
100
AcDbLine
 10
50.6981270671445
 20
142.5824523767448
 30
0.0
 11
50.69812706714461
 21
94.73307809345113
 31
0.0
  0
LINE
  5
24B
330
1F
100
AcDbEntity
  8
0
  6
Continuous
 62
     7
370
    15
100
AcDbLine
 10
50.69812706714461
 20
94.73307809345113
 30
0.0
 11
53.76274762534468
 21
94.73307809345113
 31
0.0
  0
LINE
  5
24C
330
1F
100
AcDbEntity
  8
0
  6
Continuous
 62
     7
370
    15
100
AcDbLine
 10
63.76274762534461
 20
94.73307809345113
 30
0.0
 11
63.76274762534461
 21
142.5824523767448
 31
0.0
  0
LINE
  5
24D
330
1F
100
AcDbEntity
  8
0
  6
Continuous
 62
     7
370
    15
100
AcDbLine
 10
63.76274762534461
 20
142.5824523767448
 30
0.0
 11
60.69812706714452
 21
142.5824523767448
 31
0.0
  0
LINE
  5
24E
330
1F
100
AcDbEntity
  8
0
  6
Continuous
 62
     7
370
    15
100
AcDbLine
 10
60.69812706714452
 20
142.5824523767448
 30
0.0
 11
60.69812706714452
 21
94.73307809345113
 31
0.0
  0
LINE
  5
24F
330
1F
100
AcDbEntity
  8
0
  6
Continuous
 62
     7
370
    15
100
AcDbLine
 10
60.69812706714452
 20
94.73307809345113
 30
0.0
 11
63.76274762534461
 21
94.73307809345113
 31
0.0
  0
LINE
  5
250
330
1F
100
AcDbEntity
  8
0
  6
Continuous
 62
     7
370
    15
100
AcDbLine
 10
73.76274762534461
 20
94.73307809345113
 30
0.0
 11
73.76274762534461
 21
142.5824523767448
 31
0.0
  0
LINE
  5
251
330
1F
100
AcDbEntity
  8
0
  6
Continuous
 62
     7
370
    15
100
AcDbLine
 10
73.76274762534461
 20
142.5824523767448
 30
0.0
 11
70.69812706714452
 21
142.5824523767448
 31
0.0
  0
LINE
  5
252
330
1F
100
AcDbEntity
  8
0
  6
Continuous
 62
     7
370
    15
100
AcDbLine
 10
70.69812706714452
 20
142.5824523767448
 30
0.0
 11
70.69812706714452
 21
94.73307809345113
 31
0.0
  0
LINE
  5
253
330
1F
100
AcDbEntity
  8
0
  6
Continuous
 62
     7
370
    15
100
AcDbLine
 10
70.69812706714452
 20
94.73307809345113
 30
0.0
 11
73.76274762534461
 21
94.73307809345113
 31
0.0
  0
LINE
  5
254
330
1F
100
AcDbEntity
  8
0
  6
Continuous
 62
     7
370
    15
100
AcDbLine
 10
83.76274762534462
 20
94.73307809345113
 30
0.0
 11
83.76274762534462
 21
142.5824523767448
 31
0.0
  0
LINE
  5
255
330
1F
100
AcDbEntity
  8
0
  6
Continuous
 62
     7
370
    15
100
AcDbLine
 10
83.76274762534462
 20
142.5824523767448
 30
0.0
 11
80.69812706714452
 21
142.5824523767448
 31
0.0
  0
LINE
  5
256
330
1F
100
AcDbEntity
  8
0
  6
Continuous
 62
     7
370
    15
100
AcDbLine
 10
80.69812706714452
 20
142.5824523767448
 30
0.0
 11
80.69812706714452
 21
94.73307809345113
 31
0.0
  0
LINE
  5
257
330
1F
100
AcDbEntity
  8
0
  6
Continuous
 62
     7
370
    15
100
AcDbLine
 10
80.69812706714452
 20
94.73307809345113
 30
0.0
 11
83.76274762534462
 21
94.73307809345113
 31
0.0
  0
LINE
  5
258
330
1F
100
AcDbEntity
  8
0
  6
Continuous
 62
     7
370
    15
100
AcDbLine
 10
93.76274762534462
 20
94.73307809345113
 30
0.0
 11
93.76274762534462
 21
142.5824523767448
 31
0.0
  0
LINE
  5
259
330
1F
100
AcDbEntity
  8
0
  6
Continuous
 62
     7
370
    15
100
AcDbLine
 10
93.76274762534462
 20
142.5824523767448
 30
0.0
 11
90.69812706714452
 21
142.5824523767448
 31
0.0
  0
LINE
  5
25A
330
1F
100
AcDbEntity
  8
0
  6
Continuous
 62
     7
370
    15
100
AcDbLine
 10
90.69812706714452
 20
142.5824523767448
 30
0.0
 11
90.69812706714452
 21
94.73307809345113
 31
0.0
  0
LINE
  5
25B
330
1F
100
AcDbEntity
  8
0
  6
Continuous
 62
     7
370
    15
100
AcDbLine
 10
90.69812706714452
 20
94.73307809345113
 30
0.0
 11
93.76274762534462
 21
94.73307809345113
 31
0.0
  0
LINE
  5
25C
330
1F
100
AcDbEntity
  8
0
  6
Continuous
 62
     7
370
    15
100
AcDbLine
 10
103.7627476253446
 20
94.73307809345113
 30
0.0
 11
103.7627476253446
 21
142.5824523767448
 31
0.0
  0
LINE
  5
25D
330
1F
100
AcDbEntity
  8
0
  6
Continuous
 62
     7
370
    15
100
AcDbLine
 10
103.7627476253446
 20
142.5824523767448
 30
0.0
 11
100.6981270671445
 21
142.5824523767448
 31
0.0
  0
LINE
  5
25E
330
1F
100
AcDbEntity
  8
0
  6
Continuous
 62
     7
370
    15
100
AcDbLine
 10
100.6981270671445
 20
142.5824523767448
 30
0.0
 11
100.6981270671445
 21
94.73307809345113
 31
0.0
  0
LINE
  5
25F
330
1F
100
AcDbEntity
  8
0
  6
Continuous
 62
     7
370
    15
100
AcDbLine
 10
100.6981270671445
 20
94.73307809345113
 30
0.0
 11
103.7627476253446
 21
94.73307809345113
 31
0.0
  0
LINE
  5
260
330
1F
100
AcDbEntity
  8
0
  6
Continuous
 62
     7
370
    15
100
AcDbLine
 10
113.7627476253447
 20
94.73307809345113
 30
0.0
 11
113.7627476253445
 21
142.5824523767448
 31
0.0
  0
LINE
  5
261
330
1F
100
AcDbEntity
  8
0
  6
Continuous
 62
     7
370
    15
100
AcDbLine
 10
113.7627476253445
 20
142.5824523767448
 30
0.0
 11
110.6981270671444
 21
142.5824523767448
 31
0.0
  0
LINE
  5
262
330
1F
100
AcDbEntity
  8
0
  6
Continuous
 62
     7
370
    15
100
AcDbLine
 10
110.6981270671444
 20
142.5824523767448
 30
0.0
 11
110.6981270671445
 21
94.73307809345113
 31
0.0
  0
LINE
  5
263
330
1F
100
AcDbEntity
  8
0
  6
Continuous
 62
     7
370
    15
100
AcDbLine
 10
110.6981270671445
 20
94.73307809345113
 30
0.0
 11
113.7627476253447
 21
94.73307809345113
 31
0.0
  0
LINE
  5
264
330
1F
100
AcDbEntity
  8
0
  6
Continuous
 62
     7
370
    15
100
AcDbLine
 10
123.7627476253446
 20
94.73307809345113
 30
0.0
 11
123.7627476253445
 21
142.5824523767448
 31
0.0
  0
LINE
  5
265
330
1F
100
AcDbEntity
  8
0
  6
Continuous
 62
     7
370
    15
100
AcDbLine
 10
123.7627476253445
 20
142.5824523767448
 30
0.0
 11
120.6981270671444
 21
142.5824523767448
 31
0.0
  0
LINE
  5
266
330
1F
100
AcDbEntity
  8
0
  6
Continuous
 62
     7
370
    15
100
AcDbLine
 10
120.6981270671444
 20
142.5824523767448
 30
0.0
 11
120.6981270671445
 21
94.73307809345113
 31
0.0
  0
LINE
  5
267
330
1F
100
AcDbEntity
  8
0
  6
Continuous
 62
     7
370
    15
100
AcDbLine
 10
120.6981270671445
 20
94.73307809345113
 30
0.0
 11
123.7627476253446
 21
94.73307809345113
 31
0.0
  0
LINE
  5
268
330
1F
100
AcDbEntity
  8
0
  6
Continuous
 62
     7
370
    15
100
AcDbLine
 10
133.7627476253447
 20
94.73307809345113
 30
0.0
 11
133.7627476253445
 21
142.5824523767448
 31
0.0
  0
LINE
  5
269
330
1F
100
AcDbEntity
  8
0
  6
Continuous
 62
     7
370
    15
100
AcDbLine
 10
133.7627476253445
 20
142.5824523767448
 30
0.0
 11
130.6981270671444
 21
142.5824523767448
 31
0.0
  0
LINE
  5
26A
330
1F
100
AcDbEntity
  8
0
  6
Continuous
 62
     7
370
    15
100
AcDbLine
 10
130.6981270671444
 20
142.5824523767448
 30
0.0
 11
130.6981270671445
 21
94.73307809345113
 31
0.0
  0
LINE
  5
26B
330
1F
100
AcDbEntity
  8
0
  6
Continuous
 62
     7
370
    15
100
AcDbLine
 10
130.6981270671445
 20
94.73307809345113
 30
0.0
 11
133.7627476253447
 21
94.73307809345113
 31
0.0
  0
LINE
  5
26C
330
1F
100
AcDbEntity
  8
0
  6
Continuous
 62
     7
370
    15
100
AcDbLine
 10
143.7627476253446
 20
94.73307809345113
 30
0.0
 11
143.7627476253445
 21
142.5824523767448
 31
0.0
  0
LINE
  5
26D
330
1F
100
AcDbEntity
  8
0
  6
Continuous
 62
     7
370
    15
100
AcDbLine
 10
143.7627476253445
 20
142.5824523767448
 30
0.0
 11
140.6981270671444
 21
142.5824523767448
 31
0.0
  0
LINE
  5
26E
330
1F
100
AcDbEntity
  8
0
  6
Continuous
 62
     7
370
    15
100
AcDbLine
 10
140.6981270671444
 20
142.5824523767448
 30
0.0
 11
140.6981270671446
 21
94.73307809345113
 31
0.0
  0
LINE
  5
26F
330
1F
100
AcDbEntity
  8
0
  6
Continuous
 62
     7
370
    15
100
AcDbLine
 10
140.6981270671446
 20
94.73307809345113
 30
0.0
 11
143.7627476253446
 21
94.73307809345113
 31
0.0
  0
LINE
  5
270
330
1F
100
AcDbEntity
  8
0
  6
Continuous
 62
     7
370
    15
100
AcDbLine
 10
153.7627476253446
 20
94.73307809345113
 30
0.0
 11
153.7627476253445
 21
142.5824523767448
 31
0.0
  0
LINE
  5
271
330
1F
100
AcDbEntity
  8
0
  6
Continuous
 62
     7
370
    15
100
AcDbLine
 10
153.7627476253445
 20
142.5824523767448
 30
0.0
 11
150.6981270671444
 21
142.5824523767448
 31
0.0
  0
LINE
  5
272
330
1F
100
AcDbEntity
  8
0
  6
Continuous
 62
     7
370
    15
100
AcDbLine
 10
150.6981270671444
 20
142.5824523767448
 30
0.0
 11
150.6981270671446
 21
94.73307809345113
 31
0.0
  0
LINE
  5
273
330
1F
100
AcDbEntity
  8
0
  6
Continuous
 62
     7
370
    15
100
AcDbLine
 10
150.6981270671446
 20
94.73307809345113
 30
0.0
 11
153.7627476253446
 21
94.73307809345113
 31
0.0
  0
LINE
  5
274
330
1F
100
AcDbEntity
  8
0
  6
Continuous
 62
     7
370
    15
100
AcDbLine
 10
163.7627476253447
 20
94.73307809345113
 30
0.0
 11
163.7627476253445
 21
142.5824523767448
 31
0.0
  0
LINE
  5
275
330
1F
100
AcDbEntity
  8
0
  6
Continuous
 62
     7
370
    15
100
AcDbLine
 10
163.7627476253445
 20
142.5824523767448
 30
0.0
 11
160.6981270671445
 21
142.5824523767448
 31
0.0
  0
LINE
  5
276
330
1F
100
AcDbEntity
  8
0
  6
Continuous
 62
     7
370
    15
100
AcDbLine
 10
160.6981270671445
 20
142.5824523767448
 30
0.0
 11
160.6981270671446
 21
94.73307809345113
 31
0.0
  0
LINE
  5
277
330
1F
100
AcDbEntity
  8
0
  6
Continuous
 62
     7
370
    15
100
AcDbLine
 10
160.6981270671446
 20
94.73307809345113
 30
0.0
 11
163.7627476253447
 21
94.73307809345113
 31
0.0
  0
LINE
  5
278
330
1F
100
AcDbEntity
  8
0
  6
Continuous
 62
     7
370
    15
100
AcDbLine
 10
173.7627476253447
 20
94.73307809345113
 30
0.0
 11
173.7627476253446
 21
142.5824523767448
 31
0.0
  0
LINE
  5
279
330
1F
100
AcDbEntity
  8
0
  6
Continuous
 62
     7
370
    15
100
AcDbLine
 10
173.7627476253446
 20
142.5824523767448
 30
0.0
 11
170.6981270671444
 21
142.5824523767448
 31
0.0
  0
LINE
  5
27A
330
1F
100
AcDbEntity
  8
0
  6
Continuous
 62
     7
370
    15
100
AcDbLine
 10
170.6981270671444
 20
142.5824523767448
 30
0.0
 11
170.6981270671446
 21
94.73307809345113
 31
0.0
  0
LINE
  5
27B
330
1F
100
AcDbEntity
  8
0
  6
Continuous
 62
     7
370
    15
100
AcDbLine
 10
170.6981270671446
 20
94.73307809345113
 30
0.0
 11
173.7627476253447
 21
94.73307809345113
 31
0.0
  0
LINE
  5
27C
330
1F
100
AcDbEntity
  8
0
  6
Continuous
 62
     7
370
    15
100
AcDbLine
 10
183.7627476253446
 20
94.73307809345113
 30
0.0
 11
183.7627476253446
 21
142.5824523767448
 31
0.0
  0
LINE
  5
27D
330
1F
100
AcDbEntity
  8
0
  6
Continuous
 62
     7
370
    15
100
AcDbLine
 10
183.7627476253446
 20
142.5824523767448
 30
0.0
 11
180.6981270671444
 21
142.5824523767448
 31
0.0
  0
LINE
  5
27E
330
1F
100
AcDbEntity
  8
0
  6
Continuous
 62
     7
370
    15
100
AcDbLine
 10
180.6981270671444
 20
142.5824523767448
 30
0.0
 11
180.6981270671444
 21
94.73307809345113
 31
0.0
  0
LINE
  5
27F
330
1F
100
AcDbEntity
  8
0
  6
Continuous
 62
     7
370
    15
100
AcDbLine
 10
180.6981270671444
 20
94.73307809345113
 30
0.0
 11
183.7627476253446
 21
94.73307809345113
 31
0.0
  0
LINE
  5
280
330
1F
100
AcDbEntity
  8
0
  6
Continuous
 62
     7
370
    15
100
AcDbLine
 10
193.7627476253446
 20
94.73307809345113
 30
0.0
 11
193.7627476253445
 21
142.5824523767448
 31
0.0
  0
LINE
  5
281
330
1F
100
AcDbEntity
  8
0
  6
Continuous
 62
     7
370
    15
100
AcDbLine
 10
193.7627476253445
 20
142.5824523767448
 30
0.0
 11
190.6981270671443
 21
142.5824523767448
 31
0.0
  0
LINE
  5
282
330
1F
100
AcDbEntity
  8
0
  6
Continuous
 62
     7
370
    15
100
AcDbLine
 10
190.6981270671443
 20
142.5824523767448
 30
0.0
 11
190.6981270671444
 21
94.73307809345113
 31
0.0
  0
LINE
  5
283
330
1F
100
AcDbEntity
  8
0
  6
Continuous
 62
     7
370
    15
100
AcDbLine
 10
190.6981270671444
 20
94.73307809345113
 30
0.0
 11
193.7627476253446
 21
94.73307809345113
 31
0.0
  0
LINE
  5
284
330
1F
100
AcDbEntity
  8
0
  6
Continuous
 62
     7
370
    15
100
AcDbLine
 10
203.7627476253446
 20
94.73307809345113
 30
0.0
 11
203.7627476253445
 21
142.5824523767448
 31
0.0
  0
LINE
  5
285
330
1F
100
AcDbEntity
  8
0
  6
Continuous
 62
     7
370
    15
100
AcDbLine
 10
203.7627476253445
 20
142.5824523767448
 30
0.0
 11
200.6981270671444
 21
142.5824523767448
 31
0.0
  0
LINE
  5
286
330
1F
100
AcDbEntity
  8
0
  6
Continuous
 62
     7
370
    15
100
AcDbLine
 10
200.6981270671444
 20
142.5824523767448
 30
0.0
 11
200.6981270671445
 21
94.73307809345113
 31
0.0
  0
LINE
  5
287
330
1F
100
AcDbEntity
  8
0
  6
Continuous
 62
     7
370
    15
100
AcDbLine
 10
200.6981270671445
 20
94.73307809345113
 30
0.0
 11
203.7627476253446
 21
94.73307809345113
 31
0.0
  0
LINE
  5
288
330
1F
100
AcDbEntity
  8
0
  6
Continuous
 62
     7
370
    15
100
AcDbLine
 10
213.7627476253446
 20
94.73307809345113
 30
0.0
 11
213.7627476253445
 21
142.5824523767448
 31
0.0
  0
LINE
  5
289
330
1F
100
AcDbEntity
  8
0
  6
Continuous
 62
     7
370
    15
100
AcDbLine
 10
213.7627476253445
 20
142.5824523767448
 30
0.0
 11
210.6981270671444
 21
142.5824523767448
 31
0.0
  0
LINE
  5
28A
330
1F
100
AcDbEntity
  8
0
  6
Continuous
 62
     7
370
    15
100
AcDbLine
 10
210.6981270671444
 20
142.5824523767448
 30
0.0
 11
210.6981270671445
 21
94.73307809345113
 31
0.0
  0
LINE
  5
28B
330
1F
100
AcDbEntity
  8
0
  6
Continuous
 62
     7
370
    15
100
AcDbLine
 10
210.6981270671445
 20
94.73307809345113
 30
0.0
 11
213.7627476253446
 21
94.73307809345113
 31
0.0
  0
LINE
  5
28C
330
1F
100
AcDbEntity
  8
0
  6
Continuous
 62
     7
370
    15
100
AcDbLine
 10
223.7627476253446
 20
94.73307809345113
 30
0.0
 11
223.7627476253445
 21
142.5824523767448
 31
0.0
  0
LINE
  5
28D
330
1F
100
AcDbEntity
  8
0
  6
Continuous
 62
     7
370
    15
100
AcDbLine
 10
223.7627476253445
 20
142.5824523767448
 30
0.0
 11
220.6981270671444
 21
142.5824523767448
 31
0.0
  0
LINE
  5
28E
330
1F
100
AcDbEntity
  8
0
  6
Continuous
 62
     7
370
    15
100
AcDbLine
 10
220.6981270671444
 20
142.5824523767448
 30
0.0
 11
220.6981270671445
 21
94.73307809345113
 31
0.0
  0
LINE
  5
28F
330
1F
100
AcDbEntity
  8
0
  6
Continuous
 62
     7
370
    15
100
AcDbLine
 10
220.6981270671445
 20
94.73307809345113
 30
0.0
 11
223.7627476253446
 21
94.73307809345113
 31
0.0
  0
LINE
  5
290
330
1F
100
AcDbEntity
  8
0
  6
Continuous
 62
     7
370
    15
100
AcDbLine
 10
-34.53178264837533
 20
-160.4727162171552
 30
0.0
 11
-36.53178264837533
 21
-160.4727162171552
 31
0.0
  0
LINE
  5
291
330
1F
100
AcDbEntity
  8
0
  6
Continuous
 62
     7
370
    15
100
AcDbLine
 10
-34.53178264837533
 20
-290.5940253311649
 30
0.0
 11
-34.53178264837533
 21
-160.4727162171552
 31
0.0
  0
LINE
  5
292
330
1F
100
AcDbEntity
  8
0
  6
Continuous
 62
     7
370
    15
100
AcDbLine
 10
-36.53178264837535
 20
-290.5940253311649
 30
0.0
 11
-36.53178264837533
 21
-160.4727162171552
 31
0.0
  0
LINE
  5
293
330
1F
100
AcDbEntity
  8
0
  6
Continuous
 62
     7
370
    15
100
AcDbLine
 10
97.46821735162468
 20
-321.1300377896613
 30
0.0
 11
97.46821735162468
 21
-320.594025331165
 31
0.0
  0
LINE
  5
294
330
1F
100
AcDbEntity
  8
0
  6
Continuous
 62
     7
370
    15
100
AcDbLine
 10
-34.53178264837533
 20
-321.1300377896613
 30
0.0
 11
97.46821735162468
 21
-321.1300377896613
 31
0.0
  0
LINE
  5
295
330
1F
100
AcDbEntity
  8
0
  6
Continuous
 62
     7
370
    15
100
AcDbLine
 10
-34.53178264837533
 20
-321.1300377896613
 30
0.0
 11
-36.53178264837533
 21
-321.1300377896613
 31
0.0
  0
LINE
  5
296
330
1F
100
AcDbEntity
  8
0
  6
Continuous
 62
     7
370
    15
100
AcDbLine
 10
-36.53178264837533
 20
-320.5940253311649
 30
0.0
 11
-36.53178264837533
 21
-321.1300377896613
 31
0.0
  0
LINE
  5
297
330
1F
100
AcDbEntity
  8
0
  6
Continuous
 62
     7
370
    15
100
AcDbLine
 10
-34.53178264837533
 20
-451.66750855944
 30
0.0
 11
-36.53178264837533
 21
-451.66750855944
 31
0.0
  0
LINE
  5
298
330
1F
100
AcDbEntity
  8
0
  6
Continuous
 62
     7
370
    15
100
AcDbLine
 10
-34.53178264837533
 20
-321.1300377896613
 30
0.0
 11
-34.53178264837533
 21
-451.66750855944
 31
0.0
  0
LINE
  5
299
330
1F
100
AcDbEntity
  8
0
  6
Continuous
 62
     7
370
    15
100
AcDbLine
 10
-36.53178264837533
 20
-321.1300377896613
 30
0.0
 11
-36.53178264837533
 21
-451.66750855944
 31
0.0
  0
LINE
  5
29A
330
1F
100
AcDbEntity
  8
0
  6
Continuous
 62
     7
370
    15
100
AcDbLine
 10
229.4682173516247
 20
-160.4727162171552
 30
0.0
 11
231.4682173516247
 21
-160.4727162171552
 31
0.0
  0
LINE
  5
29B
330
1F
100
AcDbEntity
  8
0
  6
Continuous
 62
     7
370
    15
100
AcDbLine
 10
231.4682173516246
 20
-290.5940253311649
 30
0.0
 11
231.4682173516247
 21
-160.4727162171552
 31
0.0
  0
LINE
  5
29C
330
1F
100
AcDbEntity
  8
0
  6
Continuous
 62
     7
370
    15
100
AcDbLine
 10
229.4682173516247
 20
-290.5940253311649
 30
0.0
 11
229.4682173516247
 21
-160.4727162171552
 31
0.0
  0
LINE
  5
29D
330
1F
100
AcDbEntity
  8
0
  6
Continuous
 62
     7
370
    15
100
AcDbLine
 10
229.4682173516247
 20
-321.1300377896613
 30
0.0
 11
231.4682173516247
 21
-321.1300377896613
 31
0.0
  0
LINE
  5
29E
330
1F
100
AcDbEntity
  8
0
  6
Continuous
 62
     7
370
    15
100
AcDbLine
 10
97.46821735162468
 20
-321.1300377896613
 30
0.0
 11
229.4682173516247
 21
-321.1300377896613
 31
0.0
  0
LINE
  5
29F
330
1F
100
AcDbEntity
  8
0
  6
Continuous
 62
     7
370
    15
100
AcDbLine
 10
231.4682173516247
 20
-321.1300377896613
 30
0.0
 11
231.4682173516246
 21
-320.594025331165
 31
0.0
  0
LINE
  5
2A0
330
1F
100
AcDbEntity
  8
0
  6
Continuous
 62
     7
370
    15
100
AcDbLine
 10
229.4682173516247
 20
-451.6675085594399
 30
0.0
 11
231.4682173516247
 21
-451.6675085594399
 31
0.0
  0
LINE
  5
2A1
330
1F
100
AcDbEntity
  8
0
  6
Continuous
 62
     7
370
    15
100
AcDbLine
 10
231.4682173516247
 20
-321.1300377896613
 30
0.0
 11
231.4682173516247
 21
-451.6675085594399
 31
0.0
  0
LINE
  5
2A2
330
1F
100
AcDbEntity
  8
0
  6
Continuous
 62
     7
370
    15
100
AcDbLine
 10
229.4682173516247
 20
-321.1300377896613
 30
0.0
 11
229.4682173516247
 21
-451.6675085594399
 31
0.0
  0
LINE
  5
2A3
330
1F
100
AcDbEntity
  8
0
  6
Continuous
 62
     7
370
    15
100
AcDbLine
 10
-38.53178264837533
 20
-320.5940253311648
 30
0.0
 11
233.4682173516247
 21
-320.5940253311648
 31
0.0
  0
LINE
  5
2A4
330
1F
100
AcDbEntity
  8
0
  6
Continuous
 62
     7
370
    15
100
AcDbLine
 10
-38.53178264837533
 20
-290.5940253311647
 30
0.0
 11
-38.53178264837533
 21
-320.5940253311648
 31
0.0
  0
LINE
  5
2A5
330
1F
100
AcDbEntity
  8
0
  6
Continuous
 62
     7
370
    15
100
AcDbLine
 10
233.4682173516247
 20
-290.5940253311647
 30
0.0
 11
233.4682173516247
 21
-320.5940253311648
 31
0.0
  0
LINE
  5
2A6
330
1F
100
AcDbEntity
  8
0
  6
Continuous
 62
     7
370
    15
100
AcDbLine
 10
-38.53178264837533
 20
-290.5940253311647
 30
0.0
 11
233.4682173516247
 21
-290.5940253311647
 31
0.0
  0
LINE
  5
2A7
330
1F
100
AcDbEntity
  8
0
  6
Continuous
 62
     7
370
    15
100
AcDbLine
 10
-34.53178264837536
 20
-181.0266722993315
 30
0.0
 11
229.4682173516247
 21
-181.0266722993315
 31
0.0
  0
LINE
  5
2A8
330
1F
100
AcDbEntity
  8
0
  6
Continuous
 62
     7
370
    15
100
AcDbLine
 10
229.4682173516247
 20
-160.4727162171553
 30
0.0
 11
229.4682173516247
 21
-152.2313377674452
 31
0.0
  0
LINE
  5
2A9
330
1F
100
AcDbEntity
  8
0
  6
Continuous
 62
     7
370
    15
100
AcDbLine
 10
229.4682173516247
 20
-152.2313377674452
 30
0.0
 11
-34.53178264837536
 21
-152.2313377674452
 31
0.0
  0
LINE
  5
2AA
330
1F
100
AcDbEntity
  8
0
  6
Continuous
 62
     7
370
    15
100
AcDbLine
 10
-34.53178264837536
 20
-152.2313377674452
 30
0.0
 11
-34.53178264837536
 21
-160.4727162171553
 31
0.0
  0
LINE
  5
2AB
330
1F
100
AcDbEntity
  8
0
  6
Continuous
 62
     7
370
    15
100
AcDbLine
 10
316.1167087763388
 20
-117.0439748410269
 30
0.0
 11
316.1167087763388
 21
-137.0439748410269
 31
0.0
  0
LINE
  5
2AC
330
1F
100
AcDbEntity
  8
0
  6
Continuous
 62
     7
370
    15
100
AcDbLine
 10
306.1167087763388
 20
-117.0439748410269
 30
0.0
 11
316.1167087763388
 21
-117.0439748410269
 31
0.0
  0
LINE
  5
2AD
330
1F
100
AcDbEntity
  8
0
  6
Continuous
 62
     7
370
    15
100
AcDbLine
 10
306.1167087763388
 20
-137.0439748410269
 30
0.0
 11
306.1167087763388
 21
-117.0439748410269
 31
0.0
  0
LINE
  5
2AE
330
1F
100
AcDbEntity
  8
0
  6
Continuous
 62
     7
370
    15
100
AcDbLine
 10
316.1167087763388
 20
-137.0439748410269
 30
0.0
 11
306.1167087763388
 21
-137.0439748410269
 31
0.0
  0
LINE
  5
2AF
330
1F
100
AcDbEntity
  8
0
  6
Continuous
 62
     7
370
    15
100
AcDbLine
 10
286.1167087763388
 20
-117.0439748410267
 30
0.0
 11
286.1167087763388
 21
-137.0439748410267
 31
0.0
  0
LINE
  5
2B0
330
1F
100
AcDbEntity
  8
0
  6
Continuous
 62
     7
370
    15
100
AcDbLine
 10
276.1167087763387
 20
-117.0439748410267
 30
0.0
 11
286.1167087763388
 21
-117.0439748410267
 31
0.0
  0
LINE
  5
2B1
330
1F
100
AcDbEntity
  8
0
  6
Continuous
 62
     7
370
    15
100
AcDbLine
 10
276.1167087763387
 20
-137.0439748410267
 30
0.0
 11
276.1167087763387
 21
-117.0439748410267
 31
0.0
  0
LINE
  5
2B2
330
1F
100
AcDbEntity
  8
0
  6
Continuous
 62
     7
370
    15
100
AcDbLine
 10
286.1167087763388
 20
-137.0439748410267
 30
0.0
 11
276.1167087763387
 21
-137.0439748410267
 31
0.0
  0
LINE
  5
2B3
330
1F
100
AcDbEntity
  8
0
  6
Continuous
 62
     7
370
    15
100
AcDbLine
 10
256.1167087763387
 20
-117.0439748410262
 30
0.0
 11
256.1167087763387
 21
-137.0439748410262
 31
0.0
  0
LINE
  5
2B4
330
1F
100
AcDbEntity
  8
0
  6
Continuous
 62
     7
370
    15
100
AcDbLine
 10
246.1167087763387
 20
-117.0439748410262
 30
0.0
 11
256.1167087763387
 21
-117.0439748410262
 31
0.0
  0
LINE
  5
2B5
330
1F
100
AcDbEntity
  8
0
  6
Continuous
 62
     7
370
    15
100
AcDbLine
 10
246.1167087763387
 20
-137.0439748410262
 30
0.0
 11
246.1167087763387
 21
-117.0439748410262
 31
0.0
  0
LINE
  5
2B6
330
1F
100
AcDbEntity
  8
0
  6
Continuous
 62
     7
370
    15
100
AcDbLine
 10
256.1167087763387
 20
-137.0439748410262
 30
0.0
 11
246.1167087763387
 21
-137.0439748410262
 31
0.0
  0
LINE
  5
2B7
330
1F
100
AcDbEntity
  8
0
  6
Continuous
 62
     7
370
    15
100
AcDbLine
 10
226.1167087763388
 20
-117.043974841026
 30
0.0
 11
226.1167087763388
 21
-137.043974841026
 31
0.0
  0
LINE
  5
2B8
330
1F
100
AcDbEntity
  8
0
  6
Continuous
 62
     7
370
    15
100
AcDbLine
 10
216.1167087763388
 20
-117.043974841026
 30
0.0
 11
226.1167087763388
 21
-117.043974841026
 31
0.0
  0
LINE
  5
2B9
330
1F
100
AcDbEntity
  8
0
  6
Continuous
 62
     7
370
    15
100
AcDbLine
 10
216.1167087763388
 20
-137.043974841026
 30
0.0
 11
216.1167087763388
 21
-117.043974841026
 31
0.0
  0
LINE
  5
2BA
330
1F
100
AcDbEntity
  8
0
  6
Continuous
 62
     7
370
    15
100
AcDbLine
 10
226.1167087763388
 20
-137.043974841026
 30
0.0
 11
216.1167087763388
 21
-137.043974841026
 31
0.0
  0
LINE
  5
2BB
330
1F
100
AcDbEntity
  8
0
  6
Continuous
 62
     7
370
    15
100
AcDbLine
 10
196.1167087763388
 20
-117.0439748410257
 30
0.0
 11
196.1167087763388
 21
-137.0439748410256
 31
0.0
  0
LINE
  5
2BC
330
1F
100
AcDbEntity
  8
0
  6
Continuous
 62
     7
370
    15
100
AcDbLine
 10
186.1167087763388
 20
-117.0439748410257
 30
0.0
 11
196.1167087763388
 21
-117.0439748410257
 31
0.0
  0
LINE
  5
2BD
330
1F
100
AcDbEntity
  8
0
  6
Continuous
 62
     7
370
    15
100
AcDbLine
 10
186.1167087763388
 20
-137.0439748410256
 30
0.0
 11
186.1167087763388
 21
-117.0439748410257
 31
0.0
  0
LINE
  5
2BE
330
1F
100
AcDbEntity
  8
0
  6
Continuous
 62
     7
370
    15
100
AcDbLine
 10
196.1167087763388
 20
-137.0439748410256
 30
0.0
 11
186.1167087763388
 21
-137.0439748410256
 31
0.0
  0
LINE
  5
2BF
330
1F
100
AcDbEntity
  8
0
  6
Continuous
 62
     7
370
    15
100
AcDbLine
 10
166.1167087763388
 20
-117.0439748410253
 30
0.0
 11
166.1167087763388
 21
-137.0439748410253
 31
0.0
  0
LINE
  5
2C0
330
1F
100
AcDbEntity
  8
0
  6
Continuous
 62
     7
370
    15
100
AcDbLine
 10
156.1167087763387
 20
-117.0439748410253
 30
0.0
 11
166.1167087763388
 21
-117.0439748410253
 31
0.0
  0
LINE
  5
2C1
330
1F
100
AcDbEntity
  8
0
  6
Continuous
 62
     7
370
    15
100
AcDbLine
 10
156.1167087763387
 20
-137.0439748410253
 30
0.0
 11
156.1167087763387
 21
-117.0439748410253
 31
0.0
  0
LINE
  5
2C2
330
1F
100
AcDbEntity
  8
0
  6
Continuous
 62
     7
370
    15
100
AcDbLine
 10
166.1167087763388
 20
-137.0439748410253
 30
0.0
 11
156.1167087763387
 21
-137.0439748410253
 31
0.0
  0
LINE
  5
2C3
330
1F
100
AcDbEntity
  8
0
  6
Continuous
 62
     7
370
    15
100
AcDbLine
 10
136.1167087763387
 20
-117.0439748410251
 30
0.0
 11
136.1167087763387
 21
-137.043974841025
 31
0.0
  0
LINE
  5
2C4
330
1F
100
AcDbEntity
  8
0
  6
Continuous
 62
     7
370
    15
100
AcDbLine
 10
126.1167087763387
 20
-117.0439748410251
 30
0.0
 11
136.1167087763387
 21
-117.0439748410251
 31
0.0
  0
LINE
  5
2C5
330
1F
100
AcDbEntity
  8
0
  6
Continuous
 62
     7
370
    15
100
AcDbLine
 10
126.1167087763387
 20
-137.043974841025
 30
0.0
 11
126.1167087763387
 21
-117.0439748410251
 31
0.0
  0
LINE
  5
2C6
330
1F
100
AcDbEntity
  8
0
  6
Continuous
 62
     7
370
    15
100
AcDbLine
 10
136.1167087763387
 20
-137.043974841025
 30
0.0
 11
126.1167087763387
 21
-137.043974841025
 31
0.0
  0
LINE
  5
2C7
330
1F
100
AcDbEntity
  8
0
  6
Continuous
 62
     7
370
    15
100
AcDbLine
 10
106.1167087763387
 20
-117.0439748410247
 30
0.0
 11
106.1167087763387
 21
-137.0439748410247
 31
0.0
  0
LINE
  5
2C8
330
1F
100
AcDbEntity
  8
0
  6
Continuous
 62
     7
370
    15
100
AcDbLine
 10
96.11670877633873
 20
-117.0439748410247
 30
0.0
 11
106.1167087763387
 21
-117.0439748410247
 31
0.0
  0
LINE
  5
2C9
330
1F
100
AcDbEntity
  8
0
  6
Continuous
 62
     7
370
    15
100
AcDbLine
 10
96.11670877633873
 20
-137.0439748410247
 30
0.0
 11
96.11670877633873
 21
-117.0439748410247
 31
0.0
  0
LINE
  5
2CA
330
1F
100
AcDbEntity
  8
0
  6
Continuous
 62
     7
370
    15
100
AcDbLine
 10
106.1167087763387
 20
-137.0439748410247
 30
0.0
 11
96.11670877633873
 21
-137.0439748410247
 31
0.0
  0
LINE
  5
2CB
330
1F
100
AcDbEntity
  8
0
  6
Continuous
 62
     7
370
    15
100
AcDbLine
 10
76.11670877633867
 20
-117.0439748410244
 30
0.0
 11
76.11670877633878
 21
-137.0439748410244
 31
0.0
  0
LINE
  5
2CC
330
1F
100
AcDbEntity
  8
0
  6
Continuous
 62
     7
370
    15
100
AcDbLine
 10
66.11670877633878
 20
-117.0439748410244
 30
0.0
 11
76.11670877633867
 21
-117.0439748410244
 31
0.0
  0
LINE
  5
2CD
330
1F
100
AcDbEntity
  8
0
  6
Continuous
 62
     7
370
    15
100
AcDbLine
 10
66.11670877633878
 20
-137.0439748410244
 30
0.0
 11
66.11670877633878
 21
-117.0439748410244
 31
0.0
  0
LINE
  5
2CE
330
1F
100
AcDbEntity
  8
0
  6
Continuous
 62
     7
370
    15
100
AcDbLine
 10
76.11670877633878
 20
-137.0439748410244
 30
0.0
 11
66.11670877633878
 21
-137.0439748410244
 31
0.0
  0
LINE
  5
2CF
330
1F
100
AcDbEntity
  8
0
  6
Continuous
 62
     7
370
    15
100
AcDbLine
 10
46.11670877633867
 20
-117.0439748410241
 30
0.0
 11
46.11670877633872
 21
-137.043974841024
 31
0.0
  0
LINE
  5
2D0
330
1F
100
AcDbEntity
  8
0
  6
Continuous
 62
     7
370
    15
100
AcDbLine
 10
36.11670877633873
 20
-117.0439748410241
 30
0.0
 11
46.11670877633867
 21
-117.0439748410241
 31
0.0
  0
LINE
  5
2D1
330
1F
100
AcDbEntity
  8
0
  6
Continuous
 62
     7
370
    15
100
AcDbLine
 10
36.11670877633873
 20
-137.043974841024
 30
0.0
 11
36.11670877633873
 21
-117.0439748410241
 31
0.0
  0
LINE
  5
2D2
330
1F
100
AcDbEntity
  8
0
  6
Continuous
 62
     7
370
    15
100
AcDbLine
 10
46.11670877633872
 20
-137.043974841024
 30
0.0
 11
36.11670877633873
 21
-137.043974841024
 31
0.0
  0
LINE
  5
2D3
330
1F
100
AcDbEntity
  8
0
  6
Continuous
 62
     7
370
    15
100
AcDbLine
 10
16.11670877633875
 20
-117.0439748410238
 30
0.0
 11
16.11670877633875
 21
-137.0439748410238
 31
0.0
  0
LINE
  5
2D4
330
1F
100
AcDbEntity
  8
0
  6
Continuous
 62
     7
370
    15
100
AcDbLine
 10
6.116708776338754
 20
-117.0439748410238
 30
0.0
 11
16.11670877633875
 21
-117.0439748410238
 31
0.0
  0
LINE
  5
2D5
330
1F
100
AcDbEntity
  8
0
  6
Continuous
 62
     7
370
    15
100
AcDbLine
 10
6.116708776338754
 20
-137.0439748410238
 30
0.0
 11
6.116708776338754
 21
-117.0439748410238
 31
0.0
  0
LINE
  5
2D6
330
1F
100
AcDbEntity
  8
0
  6
Continuous
 62
     7
370
    15
100
AcDbLine
 10
16.11670877633875
 20
-137.0439748410238
 30
0.0
 11
6.116708776338754
 21
-137.0439748410238
 31
0.0
  0
LINE
  5
2D7
330
1F
100
AcDbEntity
  8
0
  6
Continuous
 62
     7
370
    15
100
AcDbLine
 10
-13.88329122366127
 20
-117.0439748410234
 30
0.0
 11
-13.88329122366122
 21
-137.0439748410234
 31
0.0
  0
LINE
  5
2D8
330
1F
100
AcDbEntity
  8
0
  6
Continuous
 62
     7
370
    15
100
AcDbLine
 10
-23.88329122366122
 20
-117.0439748410234
 30
0.0
 11
-13.88329122366127
 21
-117.0439748410234
 31
0.0
  0
LINE
  5
2D9
330
1F
100
AcDbEntity
  8
0
  6
Continuous
 62
     7
370
    15
100
AcDbLine
 10
-23.88329122366122
 20
-137.0439748410234
 30
0.0
 11
-23.88329122366122
 21
-117.0439748410234
 31
0.0
  0
LINE
  5
2DA
330
1F
100
AcDbEntity
  8
0
  6
Continuous
 62
     7
370
    15
100
AcDbLine
 10
-13.88329122366122
 20
-137.0439748410234
 30
0.0
 11
-23.88329122366122
 21
-137.0439748410234
 31
0.0
  0
LINE
  5
2DB
330
1F
100
AcDbEntity
  8
0
  6
Continuous
 62
     7
370
    15
100
AcDbLine
 10
-43.88329122366127
 20
-117.0439748410231
 30
0.0
 11
-43.88329122366124
 21
-137.0439748410231
 31
0.0
  0
LINE
  5
2DC
330
1F
100
AcDbEntity
  8
0
  6
Continuous
 62
     7
370
    15
100
AcDbLine
 10
-53.88329122366124
 20
-117.0439748410231
 30
0.0
 11
-43.88329122366127
 21
-117.0439748410231
 31
0.0
  0
LINE
  5
2DD
330
1F
100
AcDbEntity
  8
0
  6
Continuous
 62
     7
370
    15
100
AcDbLine
 10
-53.88329122366124
 20
-137.0439748410231
 30
0.0
 11
-53.88329122366124
 21
-117.0439748410231
 31
0.0
  0
LINE
  5
2DE
330
1F
100
AcDbEntity
  8
0
  6
Continuous
 62
     7
370
    15
100
AcDbLine
 10
-43.88329122366124
 20
-137.0439748410231
 30
0.0
 11
-53.88329122366124
 21
-137.0439748410231
 31
0.0
  0
LINE
  5
2DF
330
1F
100
AcDbEntity
  8
0
  6
Continuous
 62
     7
370
    15
100
AcDbLine
 10
-73.88329122366132
 20
-117.0439748410229
 30
0.0
 11
-73.88329122366126
 21
-137.0439748410229
 31
0.0
  0
LINE
  5
2E0
330
1F
100
AcDbEntity
  8
0
  6
Continuous
 62
     7
370
    15
100
AcDbLine
 10
-83.88329122366128
 20
-117.0439748410229
 30
0.0
 11
-73.88329122366132
 21
-117.0439748410229
 31
0.0
  0
LINE
  5
2E1
330
1F
100
AcDbEntity
  8
0
  6
Continuous
 62
     7
370
    15
100
AcDbLine
 10
-83.88329122366128
 20
-137.0439748410229
 30
0.0
 11
-83.88329122366128
 21
-117.0439748410229
 31
0.0
  0
LINE
  5
2E2
330
1F
100
AcDbEntity
  8
0
  6
Continuous
 62
     7
370
    15
100
AcDbLine
 10
-73.88329122366126
 20
-137.0439748410229
 30
0.0
 11
-83.88329122366128
 21
-137.0439748410229
 31
0.0
  0
LINE
  5
2E3
330
1F
100
AcDbEntity
  8
0
  6
Continuous
 62
     7
370
    15
100
AcDbLine
 10
-103.8832912236612
 20
-117.0439748410224
 30
0.0
 11
-103.8832912236612
 21
-137.0439748410225
 31
0.0
  0
LINE
  5
2E4
330
1F
100
AcDbEntity
  8
0
  6
Continuous
 62
     7
370
    15
100
AcDbLine
 10
-113.8832912236612
 20
-117.0439748410224
 30
0.0
 11
-103.8832912236612
 21
-117.0439748410224
 31
0.0
  0
LINE
  5
2E5
330
1F
100
AcDbEntity
  8
0
  6
Continuous
 62
     7
370
    15
100
AcDbLine
 10
-113.8832912236612
 20
-137.0439748410225
 30
0.0
 11
-113.8832912236612
 21
-117.0439748410224
 31
0.0
  0
LINE
  5
2E6
330
1F
100
AcDbEntity
  8
0
  6
Continuous
 62
     7
370
    15
100
AcDbLine
 10
-103.8832912236612
 20
-137.0439748410225
 30
0.0
 11
-113.8832912236612
 21
-137.0439748410225
 31
0.0
  0
LINE
  5
2E7
330
1F
100
AcDbEntity
  8
0
  6
Continuous
 62
     7
370
    15
100
AcDbLine
 10
229.4682173516247
 20
-152.2313377674452
 30
0.0
 11
327.2753582857115
 21
-152.2313377674452
 31
0.0
  0
LINE
  5
2E8
330
1F
100
AcDbEntity
  8
0
  6
Continuous
 62
     7
370
    15
100
AcDbLine
 10
-135.7246417142885
 20
-152.2313377674452
 30
0.0
 11
-34.53178264837536
 21
-152.2313377674452
 31
0.0
  0
LINE
  5
2E9
330
1F
100
AcDbEntity
  8
0
  6
Continuous
 62
     7
370
    15
100
AcDbLine
 10
-135.7246417142885
 20
-111.6290050333884
 30
0.0
 11
-135.7246417142885
 21
-152.2313377674452
 31
0.0
  0
LINE
  5
2EA
330
1F
100
AcDbEntity
  8
0
  6
Continuous
 62
     7
370
    15
100
AcDbLine
 10
-135.7246417142885
 20
-111.6290050333884
 30
0.0
 11
327.2753582857115
 21
-111.6290050333884
 31
0.0
  0
LINE
  5
2EB
330
1F
100
AcDbEntity
  8
0
  6
Continuous
 62
     7
370
    15
100
AcDbLine
 10
327.2753582857115
 20
-111.6290050333884
 30
0.0
 11
327.2753582857115
 21
-152.2313377674452
 31
0.0
  0
LINE
  5
2EC
330
1F
100
AcDbEntity
  8
0
  6
Continuous
 62
     7
370
    15
100
AcDbLine
 10
-118.8832912236612
 20
-117.0439748410224
 30
0.0
 11
-118.8832912236612
 21
-137.0439748410223
 31
0.0
  0
LINE
  5
2ED
330
1F
100
AcDbEntity
  8
0
  6
Continuous
 62
     7
370
    15
100
AcDbLine
 10
-128.8832912236612
 20
-117.0439748410224
 30
0.0
 11
-118.8832912236612
 21
-117.0439748410224
 31
0.0
  0
LINE
  5
2EE
330
1F
100
AcDbEntity
  8
0
  6
Continuous
 62
     7
370
    15
100
AcDbLine
 10
-128.8832912236612
 20
-137.0439748410223
 30
0.0
 11
-128.8832912236612
 21
-117.0439748410224
 31
0.0
  0
LINE
  5
2EF
330
1F
100
AcDbEntity
  8
0
  6
Continuous
 62
     7
370
    15
100
AcDbLine
 10
-118.8832912236612
 20
-137.0439748410223
 30
0.0
 11
-128.8832912236612
 21
-137.0439748410223
 31
0.0
  0
LINE
  5
2F0
330
1F
100
AcDbEntity
  8
0
  6
Continuous
 62
     7
370
    15
100
AcDbLine
 10
-88.88329122366121
 20
-117.0439748410226
 30
0.0
 11
-88.88329122366121
 21
-137.0439748410227
 31
0.0
  0
LINE
  5
2F1
330
1F
100
AcDbEntity
  8
0
  6
Continuous
 62
     7
370
    15
100
AcDbLine
 10
-98.88329122366123
 20
-117.0439748410226
 30
0.0
 11
-88.88329122366121
 21
-117.0439748410226
 31
0.0
  0
LINE
  5
2F2
330
1F
100
AcDbEntity
  8
0
  6
Continuous
 62
     7
370
    15
100
AcDbLine
 10
-98.88329122366123
 20
-137.0439748410227
 30
0.0
 11
-98.88329122366123
 21
-117.0439748410226
 31
0.0
  0
LINE
  5
2F3
330
1F
100
AcDbEntity
  8
0
  6
Continuous
 62
     7
370
    15
100
AcDbLine
 10
-88.88329122366121
 20
-137.0439748410227
 30
0.0
 11
-98.88329122366123
 21
-137.0439748410227
 31
0.0
  0
LINE
  5
2F4
330
1F
100
AcDbEntity
  8
0
  6
Continuous
 62
     7
370
    15
100
AcDbLine
 10
-58.8832912236613
 20
-117.043974841023
 30
0.0
 11
-58.88329122366124
 21
-137.0439748410229
 31
0.0
  0
LINE
  5
2F5
330
1F
100
AcDbEntity
  8
0
  6
Continuous
 62
     7
370
    15
100
AcDbLine
 10
-68.88329122366126
 20
-117.043974841023
 30
0.0
 11
-58.8832912236613
 21
-117.043974841023
 31
0.0
  0
LINE
  5
2F6
330
1F
100
AcDbEntity
  8
0
  6
Continuous
 62
     7
370
    15
100
AcDbLine
 10
-68.88329122366126
 20
-137.0439748410229
 30
0.0
 11
-68.88329122366126
 21
-117.043974841023
 31
0.0
  0
LINE
  5
2F7
330
1F
100
AcDbEntity
  8
0
  6
Continuous
 62
     7
370
    15
100
AcDbLine
 10
-58.88329122366124
 20
-137.0439748410229
 30
0.0
 11
-68.88329122366126
 21
-137.0439748410229
 31
0.0
  0
LINE
  5
2F8
330
1F
100
AcDbEntity
  8
0
  6
Continuous
 62
     7
370
    15
100
AcDbLine
 10
-28.88329122366128
 20
-117.0439748410233
 30
0.0
 11
-28.88329122366122
 21
-137.0439748410233
 31
0.0
  0
LINE
  5
2F9
330
1F
100
AcDbEntity
  8
0
  6
Continuous
 62
     7
370
    15
100
AcDbLine
 10
-38.88329122366122
 20
-117.0439748410233
 30
0.0
 11
-28.88329122366128
 21
-117.0439748410233
 31
0.0
  0
LINE
  5
2FA
330
1F
100
AcDbEntity
  8
0
  6
Continuous
 62
     7
370
    15
100
AcDbLine
 10
-38.88329122366122
 20
-137.0439748410233
 30
0.0
 11
-38.88329122366122
 21
-117.0439748410233
 31
0.0
  0
LINE
  5
2FB
330
1F
100
AcDbEntity
  8
0
  6
Continuous
 62
     7
370
    15
100
AcDbLine
 10
-28.88329122366122
 20
-137.0439748410233
 30
0.0
 11
-38.88329122366122
 21
-137.0439748410233
 31
0.0
  0
LINE
  5
2FC
330
1F
100
AcDbEntity
  8
0
  6
Continuous
 62
     7
370
    15
100
AcDbLine
 10
1.116708776338754
 20
-117.0439748410236
 30
0.0
 11
1.116708776338754
 21
-137.0439748410236
 31
0.0
  0
LINE
  5
2FD
330
1F
100
AcDbEntity
  8
0
  6
Continuous
 62
     7
370
    15
100
AcDbLine
 10
-8.883291223661245
 20
-117.0439748410236
 30
0.0
 11
1.116708776338754
 21
-117.0439748410236
 31
0.0
  0
LINE
  5
2FE
330
1F
100
AcDbEntity
  8
0
  6
Continuous
 62
     7
370
    15
100
AcDbLine
 10
-8.883291223661245
 20
-137.0439748410236
 30
0.0
 11
-8.883291223661245
 21
-117.0439748410236
 31
0.0
  0
LINE
  5
2FF
330
1F
100
AcDbEntity
  8
0
  6
Continuous
 62
     7
370
    15
100
AcDbLine
 10
1.116708776338754
 20
-137.0439748410236
 30
0.0
 11
-8.883291223661245
 21
-137.0439748410236
 31
0.0
  0
LINE
  5
300
330
1F
100
AcDbEntity
  8
0
  6
Continuous
 62
     7
370
    15
100
AcDbLine
 10
31.11670877633879
 20
-117.043974841024
 30
0.0
 11
31.11670877633879
 21
-137.043974841024
 31
0.0
  0
LINE
  5
301
330
1F
100
AcDbEntity
  8
0
  6
Continuous
 62
     7
370
    15
100
AcDbLine
 10
21.11670877633878
 20
-117.043974841024
 30
0.0
 11
31.11670877633879
 21
-117.043974841024
 31
0.0
  0
LINE
  5
302
330
1F
100
AcDbEntity
  8
0
  6
Continuous
 62
     7
370
    15
100
AcDbLine
 10
21.11670877633878
 20
-137.043974841024
 30
0.0
 11
21.11670877633878
 21
-117.043974841024
 31
0.0
  0
LINE
  5
303
330
1F
100
AcDbEntity
  8
0
  6
Continuous
 62
     7
370
    15
100
AcDbLine
 10
31.11670877633879
 20
-137.043974841024
 30
0.0
 11
21.11670877633878
 21
-137.043974841024
 31
0.0
  0
LINE
  5
304
330
1F
100
AcDbEntity
  8
0
  6
Continuous
 62
     7
370
    15
100
AcDbLine
 10
61.11670877633869
 20
-117.0439748410242
 30
0.0
 11
61.11670877633875
 21
-137.0439748410242
 31
0.0
  0
LINE
  5
305
330
1F
100
AcDbEntity
  8
0
  6
Continuous
 62
     7
370
    15
100
AcDbLine
 10
51.11670877633875
 20
-117.0439748410242
 30
0.0
 11
61.11670877633869
 21
-117.0439748410242
 31
0.0
  0
LINE
  5
306
330
1F
100
AcDbEntity
  8
0
  6
Continuous
 62
     7
370
    15
100
AcDbLine
 10
51.11670877633875
 20
-137.0439748410242
 30
0.0
 11
51.11670877633875
 21
-117.0439748410242
 31
0.0
  0
LINE
  5
307
330
1F
100
AcDbEntity
  8
0
  6
Continuous
 62
     7
370
    15
100
AcDbLine
 10
61.11670877633875
 20
-137.0439748410242
 30
0.0
 11
51.11670877633875
 21
-137.0439748410242
 31
0.0
  0
LINE
  5
308
330
1F
100
AcDbEntity
  8
0
  6
Continuous
 62
     7
370
    15
100
AcDbLine
 10
91.11670877633878
 20
-117.0439748410245
 30
0.0
 11
91.11670877633878
 21
-137.0439748410245
 31
0.0
  0
LINE
  5
309
330
1F
100
AcDbEntity
  8
0
  6
Continuous
 62
     7
370
    15
100
AcDbLine
 10
81.11670877633878
 20
-117.0439748410245
 30
0.0
 11
91.11670877633878
 21
-117.0439748410245
 31
0.0
  0
LINE
  5
30A
330
1F
100
AcDbEntity
  8
0
  6
Continuous
 62
     7
370
    15
100
AcDbLine
 10
81.11670877633878
 20
-137.0439748410245
 30
0.0
 11
81.11670877633878
 21
-117.0439748410245
 31
0.0
  0
LINE
  5
30B
330
1F
100
AcDbEntity
  8
0
  6
Continuous
 62
     7
370
    15
100
AcDbLine
 10
91.11670877633878
 20
-137.0439748410245
 30
0.0
 11
81.11670877633878
 21
-137.0439748410245
 31
0.0
  0
LINE
  5
30C
330
1F
100
AcDbEntity
  8
0
  6
Continuous
 62
     7
370
    15
100
AcDbLine
 10
121.1167087763387
 20
-117.0439748410249
 30
0.0
 11
121.1167087763387
 21
-137.0439748410249
 31
0.0
  0
LINE
  5
30D
330
1F
100
AcDbEntity
  8
0
  6
Continuous
 62
     7
370
    15
100
AcDbLine
 10
111.1167087763387
 20
-117.0439748410249
 30
0.0
 11
121.1167087763387
 21
-117.0439748410249
 31
0.0
  0
LINE
  5
30E
330
1F
100
AcDbEntity
  8
0
  6
Continuous
 62
     7
370
    15
100
AcDbLine
 10
111.1167087763387
 20
-137.0439748410249
 30
0.0
 11
111.1167087763387
 21
-117.0439748410249
 31
0.0
  0
LINE
  5
30F
330
1F
100
AcDbEntity
  8
0
  6
Continuous
 62
     7
370
    15
100
AcDbLine
 10
121.1167087763387
 20
-137.0439748410249
 30
0.0
 11
111.1167087763387
 21
-137.0439748410249
 31
0.0
  0
LINE
  5
310
330
1F
100
AcDbEntity
  8
0
  6
Continuous
 62
     7
370
    15
100
AcDbLine
 10
151.1167087763387
 20
-117.0439748410251
 30
0.0
 11
151.1167087763387
 21
-137.0439748410251
 31
0.0
  0
LINE
  5
311
330
1F
100
AcDbEntity
  8
0
  6
Continuous
 62
     7
370
    15
100
AcDbLine
 10
141.1167087763387
 20
-117.0439748410251
 30
0.0
 11
151.1167087763387
 21
-117.0439748410251
 31
0.0
  0
LINE
  5
312
330
1F
100
AcDbEntity
  8
0
  6
Continuous
 62
     7
370
    15
100
AcDbLine
 10
141.1167087763387
 20
-137.0439748410251
 30
0.0
 11
141.1167087763387
 21
-117.0439748410251
 31
0.0
  0
LINE
  5
313
330
1F
100
AcDbEntity
  8
0
  6
Continuous
 62
     7
370
    15
100
AcDbLine
 10
151.1167087763387
 20
-137.0439748410251
 30
0.0
 11
141.1167087763387
 21
-137.0439748410251
 31
0.0
  0
LINE
  5
314
330
1F
100
AcDbEntity
  8
0
  6
Continuous
 62
     7
370
    15
100
AcDbLine
 10
181.1167087763388
 20
-117.0439748410255
 30
0.0
 11
181.1167087763388
 21
-137.0439748410256
 31
0.0
  0
LINE
  5
315
330
1F
100
AcDbEntity
  8
0
  6
Continuous
 62
     7
370
    15
100
AcDbLine
 10
171.1167087763388
 20
-117.0439748410255
 30
0.0
 11
181.1167087763388
 21
-117.0439748410255
 31
0.0
  0
LINE
  5
316
330
1F
100
AcDbEntity
  8
0
  6
Continuous
 62
     7
370
    15
100
AcDbLine
 10
171.1167087763388
 20
-137.0439748410256
 30
0.0
 11
171.1167087763388
 21
-117.0439748410255
 31
0.0
  0
LINE
  5
317
330
1F
100
AcDbEntity
  8
0
  6
Continuous
 62
     7
370
    15
100
AcDbLine
 10
181.1167087763388
 20
-137.0439748410256
 30
0.0
 11
171.1167087763388
 21
-137.0439748410256
 31
0.0
  0
LINE
  5
318
330
1F
100
AcDbEntity
  8
0
  6
Continuous
 62
     7
370
    15
100
AcDbLine
 10
211.1167087763388
 20
-117.0439748410258
 30
0.0
 11
211.1167087763388
 21
-137.0439748410258
 31
0.0
  0
LINE
  5
319
330
1F
100
AcDbEntity
  8
0
  6
Continuous
 62
     7
370
    15
100
AcDbLine
 10
201.1167087763388
 20
-117.0439748410258
 30
0.0
 11
211.1167087763388
 21
-117.0439748410258
 31
0.0
  0
LINE
  5
31A
330
1F
100
AcDbEntity
  8
0
  6
Continuous
 62
     7
370
    15
100
AcDbLine
 10
201.1167087763388
 20
-137.0439748410258
 30
0.0
 11
201.1167087763388
 21
-117.0439748410258
 31
0.0
  0
LINE
  5
31B
330
1F
100
AcDbEntity
  8
0
  6
Continuous
 62
     7
370
    15
100
AcDbLine
 10
211.1167087763388
 20
-137.0439748410258
 30
0.0
 11
201.1167087763388
 21
-137.0439748410258
 31
0.0
  0
LINE
  5
31C
330
1F
100
AcDbEntity
  8
0
  6
Continuous
 62
     7
370
    15
100
AcDbLine
 10
241.1167087763388
 20
-117.0439748410261
 30
0.0
 11
241.1167087763387
 21
-137.0439748410261
 31
0.0
  0
LINE
  5
31D
330
1F
100
AcDbEntity
  8
0
  6
Continuous
 62
     7
370
    15
100
AcDbLine
 10
231.1167087763388
 20
-117.0439748410261
 30
0.0
 11
241.1167087763388
 21
-117.0439748410261
 31
0.0
  0
LINE
  5
31E
330
1F
100
AcDbEntity
  8
0
  6
Continuous
 62
     7
370
    15
100
AcDbLine
 10
231.1167087763388
 20
-137.0439748410261
 30
0.0
 11
231.1167087763388
 21
-117.0439748410261
 31
0.0
  0
LINE
  5
31F
330
1F
100
AcDbEntity
  8
0
  6
Continuous
 62
     7
370
    15
100
AcDbLine
 10
241.1167087763387
 20
-137.0439748410261
 30
0.0
 11
231.1167087763388
 21
-137.0439748410261
 31
0.0
  0
LINE
  5
320
330
1F
100
AcDbEntity
  8
0
  6
Continuous
 62
     7
370
    15
100
AcDbLine
 10
271.1167087763387
 20
-117.0439748410264
 30
0.0
 11
271.1167087763387
 21
-137.0439748410264
 31
0.0
  0
LINE
  5
321
330
1F
100
AcDbEntity
  8
0
  6
Continuous
 62
     7
370
    15
100
AcDbLine
 10
261.1167087763387
 20
-117.0439748410264
 30
0.0
 11
271.1167087763387
 21
-117.0439748410264
 31
0.0
  0
LINE
  5
322
330
1F
100
AcDbEntity
  8
0
  6
Continuous
 62
     7
370
    15
100
AcDbLine
 10
261.1167087763387
 20
-137.0439748410264
 30
0.0
 11
261.1167087763387
 21
-117.0439748410264
 31
0.0
  0
LINE
  5
323
330
1F
100
AcDbEntity
  8
0
  6
Continuous
 62
     7
370
    15
100
AcDbLine
 10
271.1167087763387
 20
-137.0439748410264
 30
0.0
 11
261.1167087763387
 21
-137.0439748410264
 31
0.0
  0
LINE
  5
324
330
1F
100
AcDbEntity
  8
0
  6
Continuous
 62
     7
370
    15
100
AcDbLine
 10
301.1167087763388
 20
-117.0439748410268
 30
0.0
 11
301.1167087763388
 21
-137.0439748410267
 31
0.0
  0
LINE
  5
325
330
1F
100
AcDbEntity
  8
0
  6
Continuous
 62
     7
370
    15
100
AcDbLine
 10
291.1167087763388
 20
-117.0439748410268
 30
0.0
 11
301.1167087763388
 21
-117.0439748410268
 31
0.0
  0
LINE
  5
326
330
1F
100
AcDbEntity
  8
0
  6
Continuous
 62
     7
370
    15
100
AcDbLine
 10
291.1167087763388
 20
-137.0439748410267
 30
0.0
 11
291.1167087763388
 21
-117.0439748410268
 31
0.0
  0
LINE
  5
327
330
1F
100
AcDbEntity
  8
0
  6
Continuous
 62
     7
370
    15
100
AcDbLine
 10
301.1167087763388
 20
-137.0439748410267
 30
0.0
 11
291.1167087763388
 21
-137.0439748410267
 31
0.0
  0
LINE
  5
328
330
1F
100
AcDbEntity
  8
0
  6
Continuous
 62
     7
370
    15
100
AcDbLine
 10
-135.7246417142885
 20
-152.2313377674452
 30
0.0
 11
-135.7246417142885
 21
-181.0266722993315
 31
0.0
  0
LINE
  5
329
330
1F
100
AcDbEntity
  8
0
  6
Continuous
 62
     7
370
    15
100
AcDbLine
 10
327.2753582857115
 20
-152.2313377674452
 30
0.0
 11
327.2753582857115
 21
-181.0266722993315
 31
0.0
  0
LINE
  5
32A
330
1F
100
AcDbEntity
  8
0
  6
Continuous
 62
     7
370
    15
100
AcDbLine
 10
306.1167087763388
 20
-217.0439748410269
 30
0.0
 11
316.1167087763388
 21
-217.0439748410269
 31
0.0
  0
LINE
  5
32B
330
1F
100
AcDbEntity
  8
0
  6
Continuous
 62
     7
370
    15
100
AcDbLine
 10
316.1167087763388
 20
-217.0439748410269
 30
0.0
 11
316.1167087763388
 21
-197.0439748410269
 31
0.0
  0
LINE
  5
32C
330
1F
100
AcDbEntity
  8
0
  6
Continuous
 62
     7
370
    15
100
AcDbLine
 10
316.1167087763388
 20
-197.0439748410269
 30
0.0
 11
306.1167087763388
 21
-197.0439748410269
 31
0.0
  0
LINE
  5
32D
330
1F
100
AcDbEntity
  8
0
  6
Continuous
 62
     7
370
    15
100
AcDbLine
 10
306.1167087763388
 20
-197.0439748410269
 30
0.0
 11
306.1167087763388
 21
-217.0439748410269
 31
0.0
  0
LINE
  5
32E
330
1F
100
AcDbEntity
  8
0
  6
Continuous
 62
     7
370
    15
100
AcDbLine
 10
276.1167087763387
 20
-217.0439748410266
 30
0.0
 11
286.1167087763388
 21
-217.0439748410266
 31
0.0
  0
LINE
  5
32F
330
1F
100
AcDbEntity
  8
0
  6
Continuous
 62
     7
370
    15
100
AcDbLine
 10
286.1167087763388
 20
-217.0439748410266
 30
0.0
 11
286.1167087763388
 21
-197.0439748410265
 31
0.0
  0
LINE
  5
330
330
1F
100
AcDbEntity
  8
0
  6
Continuous
 62
     7
370
    15
100
AcDbLine
 10
286.1167087763388
 20
-197.0439748410265
 30
0.0
 11
276.1167087763387
 21
-197.0439748410265
 31
0.0
  0
LINE
  5
331
330
1F
100
AcDbEntity
  8
0
  6
Continuous
 62
     7
370
    15
100
AcDbLine
 10
276.1167087763387
 20
-197.0439748410265
 30
0.0
 11
276.1167087763387
 21
-217.0439748410266
 31
0.0
  0
LINE
  5
332
330
1F
100
AcDbEntity
  8
0
  6
Continuous
 62
     7
370
    15
100
AcDbLine
 10
246.1167087763387
 20
-217.0439748410263
 30
0.0
 11
256.1167087763387
 21
-217.0439748410263
 31
0.0
  0
LINE
  5
333
330
1F
100
AcDbEntity
  8
0
  6
Continuous
 62
     7
370
    15
100
AcDbLine
 10
256.1167087763387
 20
-217.0439748410263
 30
0.0
 11
256.1167087763387
 21
-197.0439748410263
 31
0.0
  0
LINE
  5
334
330
1F
100
AcDbEntity
  8
0
  6
Continuous
 62
     7
370
    15
100
AcDbLine
 10
256.1167087763387
 20
-197.0439748410263
 30
0.0
 11
246.1167087763387
 21
-197.0439748410263
 31
0.0
  0
LINE
  5
335
330
1F
100
AcDbEntity
  8
0
  6
Continuous
 62
     7
370
    15
100
AcDbLine
 10
246.1167087763387
 20
-197.0439748410263
 30
0.0
 11
246.1167087763387
 21
-217.0439748410263
 31
0.0
  0
LINE
  5
336
330
1F
100
AcDbEntity
  8
0
  6
Continuous
 62
     7
370
    15
100
AcDbLine
 10
216.1167087763388
 20
-217.043974841026
 30
0.0
 11
226.1167087763388
 21
-217.043974841026
 31
0.0
  0
LINE
  5
337
330
1F
100
AcDbEntity
  8
0
  6
Continuous
 62
     7
370
    15
100
AcDbLine
 10
226.1167087763388
 20
-217.043974841026
 30
0.0
 11
226.1167087763388
 21
-197.0439748410259
 31
0.0
  0
LINE
  5
338
330
1F
100
AcDbEntity
  8
0
  6
Continuous
 62
     7
370
    15
100
AcDbLine
 10
226.1167087763388
 20
-197.0439748410259
 30
0.0
 11
216.1167087763388
 21
-197.0439748410259
 31
0.0
  0
LINE
  5
339
330
1F
100
AcDbEntity
  8
0
  6
Continuous
 62
     7
370
    15
100
AcDbLine
 10
216.1167087763388
 20
-197.0439748410259
 30
0.0
 11
216.1167087763388
 21
-217.043974841026
 31
0.0
  0
LINE
  5
33A
330
1F
100
AcDbEntity
  8
0
  6
Continuous
 62
     7
370
    15
100
AcDbLine
 10
186.1167087763388
 20
-217.0439748410256
 30
0.0
 11
196.1167087763388
 21
-217.0439748410256
 31
0.0
  0
LINE
  5
33B
330
1F
100
AcDbEntity
  8
0
  6
Continuous
 62
     7
370
    15
100
AcDbLine
 10
196.1167087763388
 20
-217.0439748410256
 30
0.0
 11
196.1167087763388
 21
-197.0439748410256
 31
0.0
  0
LINE
  5
33C
330
1F
100
AcDbEntity
  8
0
  6
Continuous
 62
     7
370
    15
100
AcDbLine
 10
196.1167087763388
 20
-197.0439748410256
 30
0.0
 11
186.1167087763388
 21
-197.0439748410256
 31
0.0
  0
LINE
  5
33D
330
1F
100
AcDbEntity
  8
0
  6
Continuous
 62
     7
370
    15
100
AcDbLine
 10
186.1167087763388
 20
-197.0439748410256
 30
0.0
 11
186.1167087763388
 21
-217.0439748410256
 31
0.0
  0
LINE
  5
33E
330
1F
100
AcDbEntity
  8
0
  6
Continuous
 62
     7
370
    15
100
AcDbLine
 10
156.1167087763387
 20
-217.0439748410254
 30
0.0
 11
166.1167087763388
 21
-217.0439748410254
 31
0.0
  0
LINE
  5
33F
330
1F
100
AcDbEntity
  8
0
  6
Continuous
 62
     7
370
    15
100
AcDbLine
 10
166.1167087763388
 20
-217.0439748410254
 30
0.0
 11
166.1167087763388
 21
-197.0439748410254
 31
0.0
  0
LINE
  5
340
330
1F
100
AcDbEntity
  8
0
  6
Continuous
 62
     7
370
    15
100
AcDbLine
 10
166.1167087763388
 20
-197.0439748410254
 30
0.0
 11
156.1167087763387
 21
-197.0439748410254
 31
0.0
  0
LINE
  5
341
330
1F
100
AcDbEntity
  8
0
  6
Continuous
 62
     7
370
    15
100
AcDbLine
 10
156.1167087763387
 20
-197.0439748410254
 30
0.0
 11
156.1167087763387
 21
-217.0439748410254
 31
0.0
  0
LINE
  5
342
330
1F
100
AcDbEntity
  8
0
  6
Continuous
 62
     7
370
    15
100
AcDbLine
 10
126.1167087763387
 20
-217.043974841025
 30
0.0
 11
136.1167087763387
 21
-217.043974841025
 31
0.0
  0
LINE
  5
343
330
1F
100
AcDbEntity
  8
0
  6
Continuous
 62
     7
370
    15
100
AcDbLine
 10
136.1167087763387
 20
-217.043974841025
 30
0.0
 11
136.1167087763387
 21
-197.043974841025
 31
0.0
  0
LINE
  5
344
330
1F
100
AcDbEntity
  8
0
  6
Continuous
 62
     7
370
    15
100
AcDbLine
 10
136.1167087763387
 20
-197.043974841025
 30
0.0
 11
126.1167087763387
 21
-197.043974841025
 31
0.0
  0
LINE
  5
345
330
1F
100
AcDbEntity
  8
0
  6
Continuous
 62
     7
370
    15
100
AcDbLine
 10
126.1167087763387
 20
-197.043974841025
 30
0.0
 11
126.1167087763387
 21
-217.043974841025
 31
0.0
  0
LINE
  5
346
330
1F
100
AcDbEntity
  8
0
  6
Continuous
 62
     7
370
    15
100
AcDbLine
 10
96.11670877633873
 20
-217.0439748410247
 30
0.0
 11
106.1167087763387
 21
-217.0439748410247
 31
0.0
  0
LINE
  5
347
330
1F
100
AcDbEntity
  8
0
  6
Continuous
 62
     7
370
    15
100
AcDbLine
 10
106.1167087763387
 20
-217.0439748410247
 30
0.0
 11
106.1167087763387
 21
-197.0439748410247
 31
0.0
  0
LINE
  5
348
330
1F
100
AcDbEntity
  8
0
  6
Continuous
 62
     7
370
    15
100
AcDbLine
 10
106.1167087763387
 20
-197.0439748410247
 30
0.0
 11
96.11670877633873
 21
-197.0439748410247
 31
0.0
  0
LINE
  5
349
330
1F
100
AcDbEntity
  8
0
  6
Continuous
 62
     7
370
    15
100
AcDbLine
 10
96.11670877633873
 20
-197.0439748410247
 30
0.0
 11
96.11670877633873
 21
-217.0439748410247
 31
0.0
  0
LINE
  5
34A
330
1F
100
AcDbEntity
  8
0
  6
Continuous
 62
     7
370
    15
100
AcDbLine
 10
66.11670877633878
 20
-217.0439748410244
 30
0.0
 11
76.11670877633878
 21
-217.0439748410244
 31
0.0
  0
LINE
  5
34B
330
1F
100
AcDbEntity
  8
0
  6
Continuous
 62
     7
370
    15
100
AcDbLine
 10
76.11670877633878
 20
-217.0439748410244
 30
0.0
 11
76.11670877633867
 21
-197.0439748410244
 31
0.0
  0
LINE
  5
34C
330
1F
100
AcDbEntity
  8
0
  6
Continuous
 62
     7
370
    15
100
AcDbLine
 10
76.11670877633867
 20
-197.0439748410244
 30
0.0
 11
66.11670877633878
 21
-197.0439748410244
 31
0.0
  0
LINE
  5
34D
330
1F
100
AcDbEntity
  8
0
  6
Continuous
 62
     7
370
    15
100
AcDbLine
 10
66.11670877633878
 20
-197.0439748410244
 30
0.0
 11
66.11670877633878
 21
-217.0439748410244
 31
0.0
  0
LINE
  5
34E
330
1F
100
AcDbEntity
  8
0
  6
Continuous
 62
     7
370
    15
100
AcDbLine
 10
36.11670877633873
 20
-217.0439748410241
 30
0.0
 11
46.11670877633872
 21
-217.0439748410241
 31
0.0
  0
LINE
  5
34F
330
1F
100
AcDbEntity
  8
0
  6
Continuous
 62
     7
370
    15
100
AcDbLine
 10
46.11670877633872
 20
-217.0439748410241
 30
0.0
 11
46.11670877633867
 21
-197.0439748410241
 31
0.0
  0
LINE
  5
350
330
1F
100
AcDbEntity
  8
0
  6
Continuous
 62
     7
370
    15
100
AcDbLine
 10
46.11670877633867
 20
-197.0439748410241
 30
0.0
 11
36.11670877633873
 21
-197.0439748410241
 31
0.0
  0
LINE
  5
351
330
1F
100
AcDbEntity
  8
0
  6
Continuous
 62
     7
370
    15
100
AcDbLine
 10
36.11670877633873
 20
-197.0439748410241
 30
0.0
 11
36.11670877633873
 21
-217.0439748410241
 31
0.0
  0
LINE
  5
352
330
1F
100
AcDbEntity
  8
0
  6
Continuous
 62
     7
370
    15
100
AcDbLine
 10
6.116708776338754
 20
-217.0439748410238
 30
0.0
 11
16.11670877633875
 21
-217.0439748410238
 31
0.0
  0
LINE
  5
353
330
1F
100
AcDbEntity
  8
0
  6
Continuous
 62
     7
370
    15
100
AcDbLine
 10
16.11670877633875
 20
-217.0439748410238
 30
0.0
 11
16.11670877633875
 21
-197.0439748410239
 31
0.0
  0
LINE
  5
354
330
1F
100
AcDbEntity
  8
0
  6
Continuous
 62
     7
370
    15
100
AcDbLine
 10
16.11670877633875
 20
-197.0439748410239
 30
0.0
 11
6.116708776338754
 21
-197.0439748410239
 31
0.0
  0
LINE
  5
355
330
1F
100
AcDbEntity
  8
0
  6
Continuous
 62
     7
370
    15
100
AcDbLine
 10
6.116708776338754
 20
-197.0439748410239
 30
0.0
 11
6.116708776338754
 21
-217.0439748410238
 31
0.0
  0
LINE
  5
356
330
1F
100
AcDbEntity
  8
0
  6
Continuous
 62
     7
370
    15
100
AcDbLine
 10
-23.88329122366122
 20
-217.0439748410235
 30
0.0
 11
-13.88329122366122
 21
-217.0439748410235
 31
0.0
  0
LINE
  5
357
330
1F
100
AcDbEntity
  8
0
  6
Continuous
 62
     7
370
    15
100
AcDbLine
 10
-13.88329122366122
 20
-217.0439748410235
 30
0.0
 11
-13.88329122366127
 21
-197.0439748410234
 31
0.0
  0
LINE
  5
358
330
1F
100
AcDbEntity
  8
0
  6
Continuous
 62
     7
370
    15
100
AcDbLine
 10
-13.88329122366127
 20
-197.0439748410234
 30
0.0
 11
-23.88329122366122
 21
-197.0439748410234
 31
0.0
  0
LINE
  5
359
330
1F
100
AcDbEntity
  8
0
  6
Continuous
 62
     7
370
    15
100
AcDbLine
 10
-23.88329122366122
 20
-197.0439748410234
 30
0.0
 11
-23.88329122366122
 21
-217.0439748410235
 31
0.0
  0
LINE
  5
35A
330
1F
100
AcDbEntity
  8
0
  6
Continuous
 62
     7
370
    15
100
AcDbLine
 10
-53.88329122366124
 20
-217.0439748410232
 30
0.0
 11
-43.88329122366124
 21
-217.0439748410232
 31
0.0
  0
LINE
  5
35B
330
1F
100
AcDbEntity
  8
0
  6
Continuous
 62
     7
370
    15
100
AcDbLine
 10
-43.88329122366124
 20
-217.0439748410232
 30
0.0
 11
-43.88329122366127
 21
-197.0439748410232
 31
0.0
  0
LINE
  5
35C
330
1F
100
AcDbEntity
  8
0
  6
Continuous
 62
     7
370
    15
100
AcDbLine
 10
-43.88329122366127
 20
-197.0439748410232
 30
0.0
 11
-53.88329122366124
 21
-197.0439748410232
 31
0.0
  0
LINE
  5
35D
330
1F
100
AcDbEntity
  8
0
  6
Continuous
 62
     7
370
    15
100
AcDbLine
 10
-53.88329122366124
 20
-197.0439748410232
 30
0.0
 11
-53.88329122366124
 21
-217.0439748410232
 31
0.0
  0
LINE
  5
35E
330
1F
100
AcDbEntity
  8
0
  6
Continuous
 62
     7
370
    15
100
AcDbLine
 10
-83.88329122366128
 20
-217.0439748410228
 30
0.0
 11
-73.88329122366126
 21
-217.0439748410228
 31
0.0
  0
LINE
  5
35F
330
1F
100
AcDbEntity
  8
0
  6
Continuous
 62
     7
370
    15
100
AcDbLine
 10
-73.88329122366126
 20
-217.0439748410228
 30
0.0
 11
-73.88329122366132
 21
-197.0439748410228
 31
0.0
  0
LINE
  5
360
330
1F
100
AcDbEntity
  8
0
  6
Continuous
 62
     7
370
    15
100
AcDbLine
 10
-73.88329122366132
 20
-197.0439748410228
 30
0.0
 11
-83.88329122366128
 21
-197.0439748410228
 31
0.0
  0
LINE
  5
361
330
1F
100
AcDbEntity
  8
0
  6
Continuous
 62
     7
370
    15
100
AcDbLine
 10
-83.88329122366128
 20
-197.0439748410228
 30
0.0
 11
-83.88329122366128
 21
-217.0439748410228
 31
0.0
  0
LINE
  5
362
330
1F
100
AcDbEntity
  8
0
  6
Continuous
 62
     7
370
    15
100
AcDbLine
 10
-113.8832912236612
 20
-217.0439748410225
 30
0.0
 11
-103.8832912236612
 21
-217.0439748410225
 31
0.0
  0
LINE
  5
363
330
1F
100
AcDbEntity
  8
0
  6
Continuous
 62
     7
370
    15
100
AcDbLine
 10
-103.8832912236612
 20
-217.0439748410225
 30
0.0
 11
-103.8832912236612
 21
-197.0439748410225
 31
0.0
  0
LINE
  5
364
330
1F
100
AcDbEntity
  8
0
  6
Continuous
 62
     7
370
    15
100
AcDbLine
 10
-103.8832912236612
 20
-197.0439748410225
 30
0.0
 11
-113.8832912236612
 21
-197.0439748410225
 31
0.0
  0
LINE
  5
365
330
1F
100
AcDbEntity
  8
0
  6
Continuous
 62
     7
370
    15
100
AcDbLine
 10
-113.8832912236612
 20
-197.0439748410225
 30
0.0
 11
-113.8832912236612
 21
-217.0439748410225
 31
0.0
  0
LINE
  5
366
330
1F
100
AcDbEntity
  8
0
  6
Continuous
 62
     7
370
    15
100
AcDbLine
 10
-135.7246417142885
 20
-221.6290050333884
 30
0.0
 11
-36.53178264837533
 21
-221.6290050333884
 31
0.0
  0
LINE
  5
367
330
1F
100
AcDbEntity
  8
0
  6
Continuous
 62
     7
370
    15
100
AcDbLine
 10
-34.53178264837533
 20
-221.6290050333883
 30
0.0
 11
229.4682173516247
 21
-221.6290050333884
 31
0.0
  0
LINE
  5
368
330
1F
100
AcDbEntity
  8
0
  6
Continuous
 62
     7
370
    15
100
AcDbLine
 10
231.4682173516246
 20
-221.6290050333884
 30
0.0
 11
327.2753582857115
 21
-221.6290050333884
 31
0.0
  0
LINE
  5
369
330
1F
100
AcDbEntity
  8
0
  6
Continuous
 62
     7
370
    15
100
AcDbLine
 10
-135.7246417142885
 20
-221.6290050333884
 30
0.0
 11
-135.7246417142885
 21
-181.0266722993315
 31
0.0
  0
LINE
  5
36A
330
1F
100
AcDbEntity
  8
0
  6
Continuous
 62
     7
370
    15
100
AcDbLine
 10
327.2753582857115
 20
-221.6290050333884
 30
0.0
 11
327.2753582857115
 21
-181.0266722993315
 31
0.0
  0
LINE
  5
36B
330
1F
100
AcDbEntity
  8
0
  6
Continuous
 62
     7
370
    15
100
AcDbLine
 10
-128.8832912236612
 20
-217.0439748410224
 30
0.0
 11
-118.8832912236612
 21
-217.0439748410224
 31
0.0
  0
LINE
  5
36C
330
1F
100
AcDbEntity
  8
0
  6
Continuous
 62
     7
370
    15
100
AcDbLine
 10
-118.8832912236612
 20
-217.0439748410224
 30
0.0
 11
-118.8832912236612
 21
-197.0439748410223
 31
0.0
  0
LINE
  5
36D
330
1F
100
AcDbEntity
  8
0
  6
Continuous
 62
     7
370
    15
100
AcDbLine
 10
-118.8832912236612
 20
-197.0439748410223
 30
0.0
 11
-128.8832912236612
 21
-197.0439748410223
 31
0.0
  0
LINE
  5
36E
330
1F
100
AcDbEntity
  8
0
  6
Continuous
 62
     7
370
    15
100
AcDbLine
 10
-128.8832912236612
 20
-197.0439748410223
 30
0.0
 11
-128.8832912236612
 21
-217.0439748410224
 31
0.0
  0
LINE
  5
36F
330
1F
100
AcDbEntity
  8
0
  6
Continuous
 62
     7
370
    15
100
AcDbLine
 10
-98.88329122366123
 20
-217.0439748410227
 30
0.0
 11
-88.88329122366121
 21
-217.0439748410227
 31
0.0
  0
LINE
  5
370
330
1F
100
AcDbEntity
  8
0
  6
Continuous
 62
     7
370
    15
100
AcDbLine
 10
-88.88329122366121
 20
-217.0439748410227
 30
0.0
 11
-88.88329122366121
 21
-197.0439748410227
 31
0.0
  0
LINE
  5
371
330
1F
100
AcDbEntity
  8
0
  6
Continuous
 62
     7
370
    15
100
AcDbLine
 10
-88.88329122366121
 20
-197.0439748410227
 30
0.0
 11
-98.88329122366123
 21
-197.0439748410227
 31
0.0
  0
LINE
  5
372
330
1F
100
AcDbEntity
  8
0
  6
Continuous
 62
     7
370
    15
100
AcDbLine
 10
-98.88329122366123
 20
-197.0439748410227
 30
0.0
 11
-98.88329122366123
 21
-217.0439748410227
 31
0.0
  0
LINE
  5
373
330
1F
100
AcDbEntity
  8
0
  6
Continuous
 62
     7
370
    15
100
AcDbLine
 10
-68.88329122366126
 20
-217.043974841023
 30
0.0
 11
-58.88329122366124
 21
-217.043974841023
 31
0.0
  0
LINE
  5
374
330
1F
100
AcDbEntity
  8
0
  6
Continuous
 62
     7
370
    15
100
AcDbLine
 10
-58.88329122366124
 20
-217.043974841023
 30
0.0
 11
-58.8832912236613
 21
-197.0439748410229
 31
0.0
  0
LINE
  5
375
330
1F
100
AcDbEntity
  8
0
  6
Continuous
 62
     7
370
    15
100
AcDbLine
 10
-58.8832912236613
 20
-197.0439748410229
 30
0.0
 11
-68.88329122366126
 21
-197.0439748410229
 31
0.0
  0
LINE
  5
376
330
1F
100
AcDbEntity
  8
0
  6
Continuous
 62
     7
370
    15
100
AcDbLine
 10
-68.88329122366126
 20
-197.0439748410229
 30
0.0
 11
-68.88329122366126
 21
-217.043974841023
 31
0.0
  0
LINE
  5
377
330
1F
100
AcDbEntity
  8
0
  6
Continuous
 62
     7
370
    15
100
AcDbLine
 10
-38.88329122366122
 20
-217.0439748410233
 30
0.0
 11
-36.53178264837533
 21
-217.0439748410233
 31
0.0
  0
LINE
  5
378
330
1F
100
AcDbEntity
  8
0
  6
Continuous
 62
     7
370
    15
100
AcDbLine
 10
-34.53178264837533
 20
-217.0439748410233
 30
0.0
 11
-28.88329122366122
 21
-217.0439748410233
 31
0.0
  0
LINE
  5
379
330
1F
100
AcDbEntity
  8
0
  6
Continuous
 62
     7
370
    15
100
AcDbLine
 10
-28.88329122366122
 20
-217.0439748410233
 30
0.0
 11
-28.88329122366128
 21
-197.0439748410233
 31
0.0
  0
LINE
  5
37A
330
1F
100
AcDbEntity
  8
0
  6
Continuous
 62
     7
370
    15
100
AcDbLine
 10
-28.88329122366128
 20
-197.0439748410233
 30
0.0
 11
-34.53178264837533
 21
-197.0439748410233
 31
0.0
  0
LINE
  5
37B
330
1F
100
AcDbEntity
  8
0
  6
Continuous
 62
     7
370
    15
100
AcDbLine
 10
-36.53178264837535
 20
-197.0439748410233
 30
0.0
 11
-38.88329122366122
 21
-197.0439748410233
 31
0.0
  0
LINE
  5
37C
330
1F
100
AcDbEntity
  8
0
  6
Continuous
 62
     7
370
    15
100
AcDbLine
 10
-38.88329122366122
 20
-197.0439748410233
 30
0.0
 11
-38.88329122366122
 21
-217.0439748410233
 31
0.0
  0
LINE
  5
37D
330
1F
100
AcDbEntity
  8
0
  6
Continuous
 62
     7
370
    15
100
AcDbLine
 10
-8.883291223661245
 20
-217.0439748410236
 30
0.0
 11
1.116708776338754
 21
-217.0439748410236
 31
0.0
  0
LINE
  5
37E
330
1F
100
AcDbEntity
  8
0
  6
Continuous
 62
     7
370
    15
100
AcDbLine
 10
1.116708776338754
 20
-217.0439748410236
 30
0.0
 11
1.116708776338754
 21
-197.0439748410236
 31
0.0
  0
LINE
  5
37F
330
1F
100
AcDbEntity
  8
0
  6
Continuous
 62
     7
370
    15
100
AcDbLine
 10
1.116708776338754
 20
-197.0439748410236
 30
0.0
 11
-8.883291223661245
 21
-197.0439748410236
 31
0.0
  0
LINE
  5
380
330
1F
100
AcDbEntity
  8
0
  6
Continuous
 62
     7
370
    15
100
AcDbLine
 10
-8.883291223661245
 20
-197.0439748410236
 30
0.0
 11
-8.883291223661245
 21
-217.0439748410236
 31
0.0
  0
LINE
  5
381
330
1F
100
AcDbEntity
  8
0
  6
Continuous
 62
     7
370
    15
100
AcDbLine
 10
21.11670877633878
 20
-217.0439748410239
 30
0.0
 11
31.11670877633879
 21
-217.0439748410239
 31
0.0
  0
LINE
  5
382
330
1F
100
AcDbEntity
  8
0
  6
Continuous
 62
     7
370
    15
100
AcDbLine
 10
31.11670877633879
 20
-217.0439748410239
 30
0.0
 11
31.11670877633879
 21
-197.0439748410239
 31
0.0
  0
LINE
  5
383
330
1F
100
AcDbEntity
  8
0
  6
Continuous
 62
     7
370
    15
100
AcDbLine
 10
31.11670877633879
 20
-197.0439748410239
 30
0.0
 11
21.11670877633878
 21
-197.0439748410239
 31
0.0
  0
LINE
  5
384
330
1F
100
AcDbEntity
  8
0
  6
Continuous
 62
     7
370
    15
100
AcDbLine
 10
21.11670877633878
 20
-197.0439748410239
 30
0.0
 11
21.11670877633878
 21
-217.0439748410239
 31
0.0
  0
LINE
  5
385
330
1F
100
AcDbEntity
  8
0
  6
Continuous
 62
     7
370
    15
100
AcDbLine
 10
51.11670877633875
 20
-217.0439748410243
 30
0.0
 11
61.11670877633875
 21
-217.0439748410243
 31
0.0
  0
LINE
  5
386
330
1F
100
AcDbEntity
  8
0
  6
Continuous
 62
     7
370
    15
100
AcDbLine
 10
61.11670877633875
 20
-217.0439748410243
 30
0.0
 11
61.11670877633869
 21
-197.0439748410243
 31
0.0
  0
LINE
  5
387
330
1F
100
AcDbEntity
  8
0
  6
Continuous
 62
     7
370
    15
100
AcDbLine
 10
61.11670877633869
 20
-197.0439748410243
 30
0.0
 11
51.11670877633875
 21
-197.0439748410243
 31
0.0
  0
LINE
  5
388
330
1F
100
AcDbEntity
  8
0
  6
Continuous
 62
     7
370
    15
100
AcDbLine
 10
51.11670877633875
 20
-197.0439748410243
 30
0.0
 11
51.11670877633875
 21
-217.0439748410243
 31
0.0
  0
LINE
  5
389
330
1F
100
AcDbEntity
  8
0
  6
Continuous
 62
     7
370
    15
100
AcDbLine
 10
81.11670877633878
 20
-217.0439748410246
 30
0.0
 11
91.11670877633878
 21
-217.0439748410246
 31
0.0
  0
LINE
  5
38A
330
1F
100
AcDbEntity
  8
0
  6
Continuous
 62
     7
370
    15
100
AcDbLine
 10
91.11670877633878
 20
-217.0439748410246
 30
0.0
 11
91.11670877633878
 21
-197.0439748410245
 31
0.0
  0
LINE
  5
38B
330
1F
100
AcDbEntity
  8
0
  6
Continuous
 62
     7
370
    15
100
AcDbLine
 10
91.11670877633878
 20
-197.0439748410245
 30
0.0
 11
81.11670877633878
 21
-197.0439748410245
 31
0.0
  0
LINE
  5
38C
330
1F
100
AcDbEntity
  8
0
  6
Continuous
 62
     7
370
    15
100
AcDbLine
 10
81.11670877633878
 20
-197.0439748410245
 30
0.0
 11
81.11670877633878
 21
-217.0439748410246
 31
0.0
  0
LINE
  5
38D
330
1F
100
AcDbEntity
  8
0
  6
Continuous
 62
     7
370
    15
100
AcDbLine
 10
111.1167087763387
 20
-217.0439748410249
 30
0.0
 11
121.1167087763387
 21
-217.0439748410249
 31
0.0
  0
LINE
  5
38E
330
1F
100
AcDbEntity
  8
0
  6
Continuous
 62
     7
370
    15
100
AcDbLine
 10
121.1167087763387
 20
-217.0439748410249
 30
0.0
 11
121.1167087763387
 21
-197.043974841025
 31
0.0
  0
LINE
  5
38F
330
1F
100
AcDbEntity
  8
0
  6
Continuous
 62
     7
370
    15
100
AcDbLine
 10
121.1167087763387
 20
-197.043974841025
 30
0.0
 11
111.1167087763387
 21
-197.043974841025
 31
0.0
  0
LINE
  5
390
330
1F
100
AcDbEntity
  8
0
  6
Continuous
 62
     7
370
    15
100
AcDbLine
 10
111.1167087763387
 20
-197.043974841025
 30
0.0
 11
111.1167087763387
 21
-217.0439748410249
 31
0.0
  0
LINE
  5
391
330
1F
100
AcDbEntity
  8
0
  6
Continuous
 62
     7
370
    15
100
AcDbLine
 10
141.1167087763387
 20
-217.0439748410252
 30
0.0
 11
151.1167087763387
 21
-217.0439748410252
 31
0.0
  0
LINE
  5
392
330
1F
100
AcDbEntity
  8
0
  6
Continuous
 62
     7
370
    15
100
AcDbLine
 10
151.1167087763387
 20
-217.0439748410252
 30
0.0
 11
151.1167087763387
 21
-197.0439748410252
 31
0.0
  0
LINE
  5
393
330
1F
100
AcDbEntity
  8
0
  6
Continuous
 62
     7
370
    15
100
AcDbLine
 10
151.1167087763387
 20
-197.0439748410252
 30
0.0
 11
141.1167087763387
 21
-197.0439748410252
 31
0.0
  0
LINE
  5
394
330
1F
100
AcDbEntity
  8
0
  6
Continuous
 62
     7
370
    15
100
AcDbLine
 10
141.1167087763387
 20
-197.0439748410252
 30
0.0
 11
141.1167087763387
 21
-217.0439748410252
 31
0.0
  0
LINE
  5
395
330
1F
100
AcDbEntity
  8
0
  6
Continuous
 62
     7
370
    15
100
AcDbLine
 10
171.1167087763388
 20
-217.0439748410255
 30
0.0
 11
181.1167087763388
 21
-217.0439748410255
 31
0.0
  0
LINE
  5
396
330
1F
100
AcDbEntity
  8
0
  6
Continuous
 62
     7
370
    15
100
AcDbLine
 10
181.1167087763388
 20
-217.0439748410255
 30
0.0
 11
181.1167087763388
 21
-197.0439748410255
 31
0.0
  0
LINE
  5
397
330
1F
100
AcDbEntity
  8
0
  6
Continuous
 62
     7
370
    15
100
AcDbLine
 10
181.1167087763388
 20
-197.0439748410255
 30
0.0
 11
171.1167087763388
 21
-197.0439748410255
 31
0.0
  0
LINE
  5
398
330
1F
100
AcDbEntity
  8
0
  6
Continuous
 62
     7
370
    15
100
AcDbLine
 10
171.1167087763388
 20
-197.0439748410255
 30
0.0
 11
171.1167087763388
 21
-217.0439748410255
 31
0.0
  0
LINE
  5
399
330
1F
100
AcDbEntity
  8
0
  6
Continuous
 62
     7
370
    15
100
AcDbLine
 10
201.1167087763388
 20
-217.0439748410258
 30
0.0
 11
211.1167087763388
 21
-217.0439748410258
 31
0.0
  0
LINE
  5
39A
330
1F
100
AcDbEntity
  8
0
  6
Continuous
 62
     7
370
    15
100
AcDbLine
 10
211.1167087763388
 20
-217.0439748410258
 30
0.0
 11
211.1167087763388
 21
-197.0439748410258
 31
0.0
  0
LINE
  5
39B
330
1F
100
AcDbEntity
  8
0
  6
Continuous
 62
     7
370
    15
100
AcDbLine
 10
211.1167087763388
 20
-197.0439748410258
 30
0.0
 11
201.1167087763388
 21
-197.0439748410258
 31
0.0
  0
LINE
  5
39C
330
1F
100
AcDbEntity
  8
0
  6
Continuous
 62
     7
370
    15
100
AcDbLine
 10
201.1167087763388
 20
-197.0439748410258
 30
0.0
 11
201.1167087763388
 21
-217.0439748410258
 31
0.0
  0
LINE
  5
39D
330
1F
100
AcDbEntity
  8
0
  6
Continuous
 62
     7
370
    15
100
AcDbLine
 10
231.4682173516246
 20
-217.0439748410262
 30
0.0
 11
241.1167087763387
 21
-217.0439748410261
 31
0.0
  0
LINE
  5
39E
330
1F
100
AcDbEntity
  8
0
  6
Continuous
 62
     7
370
    15
100
AcDbLine
 10
241.1167087763387
 20
-217.0439748410261
 30
0.0
 11
241.1167087763388
 21
-197.0439748410261
 31
0.0
  0
LINE
  5
39F
330
1F
100
AcDbEntity
  8
0
  6
Continuous
 62
     7
370
    15
100
AcDbLine
 10
241.1167087763388
 20
-197.0439748410261
 30
0.0
 11
231.4682173516247
 21
-197.0439748410261
 31
0.0
  0
LINE
  5
3A0
330
1F
100
AcDbEntity
  8
0
  6
Continuous
 62
     7
370
    15
100
AcDbLine
 10
261.1167087763387
 20
-217.0439748410265
 30
0.0
 11
271.1167087763387
 21
-217.0439748410265
 31
0.0
  0
LINE
  5
3A1
330
1F
100
AcDbEntity
  8
0
  6
Continuous
 62
     7
370
    15
100
AcDbLine
 10
271.1167087763387
 20
-217.0439748410265
 30
0.0
 11
271.1167087763387
 21
-197.0439748410265
 31
0.0
  0
LINE
  5
3A2
330
1F
100
AcDbEntity
  8
0
  6
Continuous
 62
     7
370
    15
100
AcDbLine
 10
271.1167087763387
 20
-197.0439748410265
 30
0.0
 11
261.1167087763387
 21
-197.0439748410265
 31
0.0
  0
LINE
  5
3A3
330
1F
100
AcDbEntity
  8
0
  6
Continuous
 62
     7
370
    15
100
AcDbLine
 10
261.1167087763387
 20
-197.0439748410265
 30
0.0
 11
261.1167087763387
 21
-217.0439748410265
 31
0.0
  0
LINE
  5
3A4
330
1F
100
AcDbEntity
  8
0
  6
Continuous
 62
     7
370
    15
100
AcDbLine
 10
291.1167087763388
 20
-217.0439748410267
 30
0.0
 11
301.1167087763388
 21
-217.0439748410267
 31
0.0
  0
LINE
  5
3A5
330
1F
100
AcDbEntity
  8
0
  6
Continuous
 62
     7
370
    15
100
AcDbLine
 10
301.1167087763388
 20
-217.0439748410267
 30
0.0
 11
301.1167087763388
 21
-197.0439748410267
 31
0.0
  0
LINE
  5
3A6
330
1F
100
AcDbEntity
  8
0
  6
Continuous
 62
     7
370
    15
100
AcDbLine
 10
301.1167087763388
 20
-197.0439748410267
 30
0.0
 11
291.1167087763388
 21
-197.0439748410267
 31
0.0
  0
LINE
  5
3A7
330
1F
100
AcDbEntity
  8
0
  6
Continuous
 62
     7
370
    15
100
AcDbLine
 10
291.1167087763388
 20
-197.0439748410267
 30
0.0
 11
291.1167087763388
 21
-217.0439748410267
 31
0.0
  0
LINE
  5
3A8
330
1F
100
AcDbEntity
  8
0
  6
Continuous
 62
     7
370
    15
100
AcDbLine
 10
229.4682173516247
 20
-290.2542801227154
 30
0.0
 11
-34.53178264837536
 21
-290.2542801227154
 31
0.0
  0
LINE
  5
3A9
330
1F
100
AcDbEntity
  8
0
  6
Continuous
 62
     7
370
    15
100
AcDbLine
 10
316.1167087763388
 20
-255.0669171962971
 30
0.0
 11
316.1167087763388
 21
-275.0669171962972
 31
0.0
  0
LINE
  5
3AA
330
1F
100
AcDbEntity
  8
0
  6
Continuous
 62
     7
370
    15
100
AcDbLine
 10
306.1167087763388
 20
-255.0669171962971
 30
0.0
 11
316.1167087763388
 21
-255.0669171962971
 31
0.0
  0
LINE
  5
3AB
330
1F
100
AcDbEntity
  8
0
  6
Continuous
 62
     7
370
    15
100
AcDbLine
 10
306.1167087763388
 20
-275.0669171962972
 30
0.0
 11
306.1167087763388
 21
-255.0669171962971
 31
0.0
  0
LINE
  5
3AC
330
1F
100
AcDbEntity
  8
0
  6
Continuous
 62
     7
370
    15
100
AcDbLine
 10
316.1167087763388
 20
-275.0669171962972
 30
0.0
 11
306.1167087763388
 21
-275.0669171962972
 31
0.0
  0
LINE
  5
3AD
330
1F
100
AcDbEntity
  8
0
  6
Continuous
 62
     7
370
    15
100
AcDbLine
 10
286.1167087763388
 20
-255.0669171962969
 30
0.0
 11
286.1167087763388
 21
-275.0669171962969
 31
0.0
  0
LINE
  5
3AE
330
1F
100
AcDbEntity
  8
0
  6
Continuous
 62
     7
370
    15
100
AcDbLine
 10
276.1167087763387
 20
-255.0669171962969
 30
0.0
 11
286.1167087763388
 21
-255.0669171962969
 31
0.0
  0
LINE
  5
3AF
330
1F
100
AcDbEntity
  8
0
  6
Continuous
 62
     7
370
    15
100
AcDbLine
 10
276.1167087763387
 20
-275.0669171962969
 30
0.0
 11
276.1167087763387
 21
-255.0669171962969
 31
0.0
  0
LINE
  5
3B0
330
1F
100
AcDbEntity
  8
0
  6
Continuous
 62
     7
370
    15
100
AcDbLine
 10
286.1167087763388
 20
-275.0669171962969
 30
0.0
 11
276.1167087763387
 21
-275.0669171962969
 31
0.0
  0
LINE
  5
3B1
330
1F
100
AcDbEntity
  8
0
  6
Continuous
 62
     7
370
    15
100
AcDbLine
 10
256.1167087763387
 20
-255.0669171962964
 30
0.0
 11
256.1167087763387
 21
-275.0669171962965
 31
0.0
  0
LINE
  5
3B2
330
1F
100
AcDbEntity
  8
0
  6
Continuous
 62
     7
370
    15
100
AcDbLine
 10
246.1167087763387
 20
-255.0669171962964
 30
0.0
 11
256.1167087763387
 21
-255.0669171962964
 31
0.0
  0
LINE
  5
3B3
330
1F
100
AcDbEntity
  8
0
  6
Continuous
 62
     7
370
    15
100
AcDbLine
 10
246.1167087763387
 20
-275.0669171962965
 30
0.0
 11
246.1167087763387
 21
-255.0669171962964
 31
0.0
  0
LINE
  5
3B4
330
1F
100
AcDbEntity
  8
0
  6
Continuous
 62
     7
370
    15
100
AcDbLine
 10
256.1167087763387
 20
-275.0669171962965
 30
0.0
 11
246.1167087763387
 21
-275.0669171962965
 31
0.0
  0
LINE
  5
3B5
330
1F
100
AcDbEntity
  8
0
  6
Continuous
 62
     7
370
    15
100
AcDbLine
 10
226.1167087763388
 20
-255.0669171962962
 30
0.0
 11
226.1167087763388
 21
-275.0669171962962
 31
0.0
  0
LINE
  5
3B6
330
1F
100
AcDbEntity
  8
0
  6
Continuous
 62
     7
370
    15
100
AcDbLine
 10
216.1167087763388
 20
-255.0669171962962
 30
0.0
 11
226.1167087763388
 21
-255.0669171962962
 31
0.0
  0
LINE
  5
3B7
330
1F
100
AcDbEntity
  8
0
  6
Continuous
 62
     7
370
    15
100
AcDbLine
 10
216.1167087763388
 20
-275.0669171962962
 30
0.0
 11
216.1167087763388
 21
-255.0669171962962
 31
0.0
  0
LINE
  5
3B8
330
1F
100
AcDbEntity
  8
0
  6
Continuous
 62
     7
370
    15
100
AcDbLine
 10
226.1167087763388
 20
-275.0669171962962
 30
0.0
 11
216.1167087763388
 21
-275.0669171962962
 31
0.0
  0
LINE
  5
3B9
330
1F
100
AcDbEntity
  8
0
  6
Continuous
 62
     7
370
    15
100
AcDbLine
 10
196.1167087763388
 20
-255.0669171962959
 30
0.0
 11
196.1167087763388
 21
-275.0669171962958
 31
0.0
  0
LINE
  5
3BA
330
1F
100
AcDbEntity
  8
0
  6
Continuous
 62
     7
370
    15
100
AcDbLine
 10
186.1167087763388
 20
-255.0669171962959
 30
0.0
 11
196.1167087763388
 21
-255.0669171962959
 31
0.0
  0
LINE
  5
3BB
330
1F
100
AcDbEntity
  8
0
  6
Continuous
 62
     7
370
    15
100
AcDbLine
 10
186.1167087763388
 20
-275.0669171962958
 30
0.0
 11
186.1167087763388
 21
-255.0669171962959
 31
0.0
  0
LINE
  5
3BC
330
1F
100
AcDbEntity
  8
0
  6
Continuous
 62
     7
370
    15
100
AcDbLine
 10
196.1167087763388
 20
-275.0669171962958
 30
0.0
 11
186.1167087763388
 21
-275.0669171962958
 31
0.0
  0
LINE
  5
3BD
330
1F
100
AcDbEntity
  8
0
  6
Continuous
 62
     7
370
    15
100
AcDbLine
 10
166.1167087763388
 20
-255.0669171962955
 30
0.0
 11
166.1167087763388
 21
-275.0669171962956
 31
0.0
  0
LINE
  5
3BE
330
1F
100
AcDbEntity
  8
0
  6
Continuous
 62
     7
370
    15
100
AcDbLine
 10
156.1167087763387
 20
-255.0669171962955
 30
0.0
 11
166.1167087763388
 21
-255.0669171962955
 31
0.0
  0
LINE
  5
3BF
330
1F
100
AcDbEntity
  8
0
  6
Continuous
 62
     7
370
    15
100
AcDbLine
 10
156.1167087763387
 20
-275.0669171962956
 30
0.0
 11
156.1167087763387
 21
-255.0669171962955
 31
0.0
  0
LINE
  5
3C0
330
1F
100
AcDbEntity
  8
0
  6
Continuous
 62
     7
370
    15
100
AcDbLine
 10
166.1167087763388
 20
-275.0669171962956
 30
0.0
 11
156.1167087763387
 21
-275.0669171962956
 31
0.0
  0
LINE
  5
3C1
330
1F
100
AcDbEntity
  8
0
  6
Continuous
 62
     7
370
    15
100
AcDbLine
 10
136.1167087763387
 20
-255.0669171962953
 30
0.0
 11
136.1167087763387
 21
-275.0669171962952
 31
0.0
  0
LINE
  5
3C2
330
1F
100
AcDbEntity
  8
0
  6
Continuous
 62
     7
370
    15
100
AcDbLine
 10
126.1167087763387
 20
-255.0669171962953
 30
0.0
 11
136.1167087763387
 21
-255.0669171962953
 31
0.0
  0
LINE
  5
3C3
330
1F
100
AcDbEntity
  8
0
  6
Continuous
 62
     7
370
    15
100
AcDbLine
 10
126.1167087763387
 20
-275.0669171962952
 30
0.0
 11
126.1167087763387
 21
-255.0669171962953
 31
0.0
  0
LINE
  5
3C4
330
1F
100
AcDbEntity
  8
0
  6
Continuous
 62
     7
370
    15
100
AcDbLine
 10
136.1167087763387
 20
-275.0669171962952
 30
0.0
 11
126.1167087763387
 21
-275.0669171962952
 31
0.0
  0
LINE
  5
3C5
330
1F
100
AcDbEntity
  8
0
  6
Continuous
 62
     7
370
    15
100
AcDbLine
 10
106.1167087763387
 20
-255.0669171962949
 30
0.0
 11
106.1167087763387
 21
-275.0669171962949
 31
0.0
  0
LINE
  5
3C6
330
1F
100
AcDbEntity
  8
0
  6
Continuous
 62
     7
370
    15
100
AcDbLine
 10
96.11670877633873
 20
-255.0669171962949
 30
0.0
 11
106.1167087763387
 21
-255.0669171962949
 31
0.0
  0
LINE
  5
3C7
330
1F
100
AcDbEntity
  8
0
  6
Continuous
 62
     7
370
    15
100
AcDbLine
 10
96.11670877633873
 20
-275.0669171962949
 30
0.0
 11
96.11670877633873
 21
-255.0669171962949
 31
0.0
  0
LINE
  5
3C8
330
1F
100
AcDbEntity
  8
0
  6
Continuous
 62
     7
370
    15
100
AcDbLine
 10
106.1167087763387
 20
-275.0669171962949
 30
0.0
 11
96.11670877633873
 21
-275.0669171962949
 31
0.0
  0
LINE
  5
3C9
330
1F
100
AcDbEntity
  8
0
  6
Continuous
 62
     7
370
    15
100
AcDbLine
 10
76.11670877633867
 20
-255.0669171962947
 30
0.0
 11
76.11670877633878
 21
-275.0669171962946
 31
0.0
  0
LINE
  5
3CA
330
1F
100
AcDbEntity
  8
0
  6
Continuous
 62
     7
370
    15
100
AcDbLine
 10
66.11670877633878
 20
-255.0669171962947
 30
0.0
 11
76.11670877633867
 21
-255.0669171962947
 31
0.0
  0
LINE
  5
3CB
330
1F
100
AcDbEntity
  8
0
  6
Continuous
 62
     7
370
    15
100
AcDbLine
 10
66.11670877633878
 20
-275.0669171962946
 30
0.0
 11
66.11670877633878
 21
-255.0669171962947
 31
0.0
  0
LINE
  5
3CC
330
1F
100
AcDbEntity
  8
0
  6
Continuous
 62
     7
370
    15
100
AcDbLine
 10
76.11670877633878
 20
-275.0669171962946
 30
0.0
 11
66.11670877633878
 21
-275.0669171962946
 31
0.0
  0
LINE
  5
3CD
330
1F
100
AcDbEntity
  8
0
  6
Continuous
 62
     7
370
    15
100
AcDbLine
 10
46.11670877633867
 20
-255.0669171962943
 30
0.0
 11
46.11670877633872
 21
-275.0669171962942
 31
0.0
  0
LINE
  5
3CE
330
1F
100
AcDbEntity
  8
0
  6
Continuous
 62
     7
370
    15
100
AcDbLine
 10
36.11670877633873
 20
-255.0669171962943
 30
0.0
 11
46.11670877633867
 21
-255.0669171962943
 31
0.0
  0
LINE
  5
3CF
330
1F
100
AcDbEntity
  8
0
  6
Continuous
 62
     7
370
    15
100
AcDbLine
 10
36.11670877633873
 20
-275.0669171962942
 30
0.0
 11
36.11670877633873
 21
-255.0669171962943
 31
0.0
  0
LINE
  5
3D0
330
1F
100
AcDbEntity
  8
0
  6
Continuous
 62
     7
370
    15
100
AcDbLine
 10
46.11670877633872
 20
-275.0669171962942
 30
0.0
 11
36.11670877633873
 21
-275.0669171962942
 31
0.0
  0
LINE
  5
3D1
330
1F
100
AcDbEntity
  8
0
  6
Continuous
 62
     7
370
    15
100
AcDbLine
 10
16.11670877633875
 20
-255.066917196294
 30
0.0
 11
16.11670877633875
 21
-275.066917196294
 31
0.0
  0
LINE
  5
3D2
330
1F
100
AcDbEntity
  8
0
  6
Continuous
 62
     7
370
    15
100
AcDbLine
 10
6.116708776338754
 20
-255.066917196294
 30
0.0
 11
16.11670877633875
 21
-255.066917196294
 31
0.0
  0
LINE
  5
3D3
330
1F
100
AcDbEntity
  8
0
  6
Continuous
 62
     7
370
    15
100
AcDbLine
 10
6.116708776338754
 20
-275.066917196294
 30
0.0
 11
6.116708776338754
 21
-255.066917196294
 31
0.0
  0
LINE
  5
3D4
330
1F
100
AcDbEntity
  8
0
  6
Continuous
 62
     7
370
    15
100
AcDbLine
 10
16.11670877633875
 20
-275.066917196294
 30
0.0
 11
6.116708776338754
 21
-275.066917196294
 31
0.0
  0
LINE
  5
3D5
330
1F
100
AcDbEntity
  8
0
  6
Continuous
 62
     7
370
    15
100
AcDbLine
 10
-13.88329122366127
 20
-255.0669171962936
 30
0.0
 11
-13.88329122366122
 21
-275.0669171962936
 31
0.0
  0
LINE
  5
3D6
330
1F
100
AcDbEntity
  8
0
  6
Continuous
 62
     7
370
    15
100
AcDbLine
 10
-23.88329122366122
 20
-255.0669171962936
 30
0.0
 11
-13.88329122366127
 21
-255.0669171962936
 31
0.0
  0
LINE
  5
3D7
330
1F
100
AcDbEntity
  8
0
  6
Continuous
 62
     7
370
    15
100
AcDbLine
 10
-23.88329122366122
 20
-275.0669171962936
 30
0.0
 11
-23.88329122366122
 21
-255.0669171962936
 31
0.0
  0
LINE
  5
3D8
330
1F
100
AcDbEntity
  8
0
  6
Continuous
 62
     7
370
    15
100
AcDbLine
 10
-13.88329122366122
 20
-275.0669171962936
 30
0.0
 11
-23.88329122366122
 21
-275.0669171962936
 31
0.0
  0
LINE
  5
3D9
330
1F
100
AcDbEntity
  8
0
  6
Continuous
 62
     7
370
    15
100
AcDbLine
 10
-43.88329122366127
 20
-255.0669171962933
 30
0.0
 11
-43.88329122366124
 21
-275.0669171962933
 31
0.0
  0
LINE
  5
3DA
330
1F
100
AcDbEntity
  8
0
  6
Continuous
 62
     7
370
    15
100
AcDbLine
 10
-53.88329122366124
 20
-255.0669171962933
 30
0.0
 11
-43.88329122366127
 21
-255.0669171962933
 31
0.0
  0
LINE
  5
3DB
330
1F
100
AcDbEntity
  8
0
  6
Continuous
 62
     7
370
    15
100
AcDbLine
 10
-53.88329122366124
 20
-275.0669171962933
 30
0.0
 11
-53.88329122366124
 21
-255.0669171962933
 31
0.0
  0
LINE
  5
3DC
330
1F
100
AcDbEntity
  8
0
  6
Continuous
 62
     7
370
    15
100
AcDbLine
 10
-43.88329122366124
 20
-275.0669171962933
 30
0.0
 11
-53.88329122366124
 21
-275.0669171962933
 31
0.0
  0
LINE
  5
3DD
330
1F
100
AcDbEntity
  8
0
  6
Continuous
 62
     7
370
    15
100
AcDbLine
 10
-73.88329122366132
 20
-255.0669171962931
 30
0.0
 11
-73.88329122366126
 21
-275.0669171962931
 31
0.0
  0
LINE
  5
3DE
330
1F
100
AcDbEntity
  8
0
  6
Continuous
 62
     7
370
    15
100
AcDbLine
 10
-83.88329122366128
 20
-255.0669171962931
 30
0.0
 11
-73.88329122366132
 21
-255.0669171962931
 31
0.0
  0
LINE
  5
3DF
330
1F
100
AcDbEntity
  8
0
  6
Continuous
 62
     7
370
    15
100
AcDbLine
 10
-83.88329122366128
 20
-275.0669171962931
 30
0.0
 11
-83.88329122366128
 21
-255.0669171962931
 31
0.0
  0
LINE
  5
3E0
330
1F
100
AcDbEntity
  8
0
  6
Continuous
 62
     7
370
    15
100
AcDbLine
 10
-73.88329122366126
 20
-275.0669171962931
 30
0.0
 11
-83.88329122366128
 21
-275.0669171962931
 31
0.0
  0
LINE
  5
3E1
330
1F
100
AcDbEntity
  8
0
  6
Continuous
 62
     7
370
    15
100
AcDbLine
 10
-103.8832912236612
 20
-255.0669171962927
 30
0.0
 11
-103.8832912236612
 21
-275.0669171962926
 31
0.0
  0
LINE
  5
3E2
330
1F
100
AcDbEntity
  8
0
  6
Continuous
 62
     7
370
    15
100
AcDbLine
 10
-113.8832912236612
 20
-255.0669171962927
 30
0.0
 11
-103.8832912236612
 21
-255.0669171962927
 31
0.0
  0
LINE
  5
3E3
330
1F
100
AcDbEntity
  8
0
  6
Continuous
 62
     7
370
    15
100
AcDbLine
 10
-113.8832912236612
 20
-275.0669171962926
 30
0.0
 11
-113.8832912236612
 21
-255.0669171962927
 31
0.0
  0
LINE
  5
3E4
330
1F
100
AcDbEntity
  8
0
  6
Continuous
 62
     7
370
    15
100
AcDbLine
 10
-103.8832912236612
 20
-275.0669171962926
 30
0.0
 11
-113.8832912236612
 21
-275.0669171962926
 31
0.0
  0
LINE
  5
3E5
330
1F
100
AcDbEntity
  8
0
  6
Continuous
 62
     7
370
    15
100
AcDbLine
 10
-135.7246417142885
 20
-249.6519473886587
 30
0.0
 11
-135.7246417142885
 21
-290.2542801227154
 31
0.0
  0
LINE
  5
3E6
330
1F
100
AcDbEntity
  8
0
  6
Continuous
 62
     7
370
    15
100
AcDbLine
 10
-135.7246417142885
 20
-249.6519473886587
 30
0.0
 11
-36.53178264837533
 21
-249.6519473886587
 31
0.0
  0
LINE
  5
3E7
330
1F
100
AcDbEntity
  8
0
  6
Continuous
 62
     7
370
    15
100
AcDbLine
 10
-34.53178264837533
 20
-249.6519473886587
 30
0.0
 11
229.4682173516247
 21
-249.6519473886587
 31
0.0
  0
LINE
  5
3E8
330
1F
100
AcDbEntity
  8
0
  6
Continuous
 62
     7
370
    15
100
AcDbLine
 10
231.4682173516246
 20
-249.6519473886587
 30
0.0
 11
327.2753582857115
 21
-249.6519473886587
 31
0.0
  0
LINE
  5
3E9
330
1F
100
AcDbEntity
  8
0
  6
Continuous
 62
     7
370
    15
100
AcDbLine
 10
327.2753582857115
 20
-249.6519473886587
 30
0.0
 11
327.2753582857115
 21
-290.2542801227154
 31
0.0
  0
LINE
  5
3EA
330
1F
100
AcDbEntity
  8
0
  6
Continuous
 62
     7
370
    15
100
AcDbLine
 10
-118.8832912236612
 20
-255.0669171962927
 30
0.0
 11
-118.8832912236612
 21
-275.0669171962925
 31
0.0
  0
LINE
  5
3EB
330
1F
100
AcDbEntity
  8
0
  6
Continuous
 62
     7
370
    15
100
AcDbLine
 10
-128.8832912236612
 20
-255.0669171962927
 30
0.0
 11
-118.8832912236612
 21
-255.0669171962927
 31
0.0
  0
LINE
  5
3EC
330
1F
100
AcDbEntity
  8
0
  6
Continuous
 62
     7
370
    15
100
AcDbLine
 10
-128.8832912236612
 20
-275.0669171962925
 30
0.0
 11
-128.8832912236612
 21
-255.0669171962927
 31
0.0
  0
LINE
  5
3ED
330
1F
100
AcDbEntity
  8
0
  6
Continuous
 62
     7
370
    15
100
AcDbLine
 10
-118.8832912236612
 20
-275.0669171962925
 30
0.0
 11
-128.8832912236612
 21
-275.0669171962925
 31
0.0
  0
LINE
  5
3EE
330
1F
100
AcDbEntity
  8
0
  6
Continuous
 62
     7
370
    15
100
AcDbLine
 10
-88.88329122366121
 20
-255.0669171962929
 30
0.0
 11
-88.88329122366121
 21
-275.0669171962929
 31
0.0
  0
LINE
  5
3EF
330
1F
100
AcDbEntity
  8
0
  6
Continuous
 62
     7
370
    15
100
AcDbLine
 10
-98.88329122366123
 20
-255.0669171962929
 30
0.0
 11
-88.88329122366121
 21
-255.0669171962929
 31
0.0
  0
LINE
  5
3F0
330
1F
100
AcDbEntity
  8
0
  6
Continuous
 62
     7
370
    15
100
AcDbLine
 10
-98.88329122366123
 20
-275.0669171962929
 30
0.0
 11
-98.88329122366123
 21
-255.0669171962929
 31
0.0
  0
LINE
  5
3F1
330
1F
100
AcDbEntity
  8
0
  6
Continuous
 62
     7
370
    15
100
AcDbLine
 10
-88.88329122366121
 20
-275.0669171962929
 30
0.0
 11
-98.88329122366123
 21
-275.0669171962929
 31
0.0
  0
LINE
  5
3F2
330
1F
100
AcDbEntity
  8
0
  6
Continuous
 62
     7
370
    15
100
AcDbLine
 10
-58.8832912236613
 20
-255.0669171962932
 30
0.0
 11
-58.88329122366124
 21
-275.0669171962931
 31
0.0
  0
LINE
  5
3F3
330
1F
100
AcDbEntity
  8
0
  6
Continuous
 62
     7
370
    15
100
AcDbLine
 10
-68.88329122366126
 20
-255.0669171962932
 30
0.0
 11
-58.8832912236613
 21
-255.0669171962932
 31
0.0
  0
LINE
  5
3F4
330
1F
100
AcDbEntity
  8
0
  6
Continuous
 62
     7
370
    15
100
AcDbLine
 10
-68.88329122366126
 20
-275.0669171962931
 30
0.0
 11
-68.88329122366126
 21
-255.0669171962932
 31
0.0
  0
LINE
  5
3F5
330
1F
100
AcDbEntity
  8
0
  6
Continuous
 62
     7
370
    15
100
AcDbLine
 10
-58.88329122366124
 20
-275.0669171962931
 30
0.0
 11
-68.88329122366126
 21
-275.0669171962931
 31
0.0
  0
LINE
  5
3F6
330
1F
100
AcDbEntity
  8
0
  6
Continuous
 62
     7
370
    15
100
AcDbLine
 10
-28.88329122366128
 20
-255.0669171962935
 30
0.0
 11
-28.88329122366122
 21
-275.0669171962936
 31
0.0
  0
LINE
  5
3F7
330
1F
100
AcDbEntity
  8
0
  6
Continuous
 62
     7
370
    15
100
AcDbLine
 10
-38.88329122366122
 20
-255.0669171962935
 30
0.0
 11
-36.53178264837533
 21
-255.0669171962935
 31
0.0
  0
LINE
  5
3F8
330
1F
100
AcDbEntity
  8
0
  6
Continuous
 62
     7
370
    15
100
AcDbLine
 10
-34.53178264837533
 20
-255.0669171962935
 30
0.0
 11
-28.88329122366128
 21
-255.0669171962935
 31
0.0
  0
LINE
  5
3F9
330
1F
100
AcDbEntity
  8
0
  6
Continuous
 62
     7
370
    15
100
AcDbLine
 10
-38.88329122366122
 20
-275.0669171962936
 30
0.0
 11
-38.88329122366122
 21
-255.0669171962935
 31
0.0
  0
LINE
  5
3FA
330
1F
100
AcDbEntity
  8
0
  6
Continuous
 62
     7
370
    15
100
AcDbLine
 10
-28.88329122366122
 20
-275.0669171962936
 30
0.0
 11
-34.53178264837533
 21
-275.0669171962936
 31
0.0
  0
LINE
  5
3FB
330
1F
100
AcDbEntity
  8
0
  6
Continuous
 62
     7
370
    15
100
AcDbLine
 10
-36.53178264837533
 20
-275.0669171962935
 30
0.0
 11
-38.88329122366122
 21
-275.0669171962936
 31
0.0
  0
LINE
  5
3FC
330
1F
100
AcDbEntity
  8
0
  6
Continuous
 62
     7
370
    15
100
AcDbLine
 10
1.116708776338754
 20
-255.0669171962938
 30
0.0
 11
1.116708776338754
 21
-275.0669171962937
 31
0.0
  0
LINE
  5
3FD
330
1F
100
AcDbEntity
  8
0
  6
Continuous
 62
     7
370
    15
100
AcDbLine
 10
-8.883291223661245
 20
-255.0669171962938
 30
0.0
 11
1.116708776338754
 21
-255.0669171962938
 31
0.0
  0
LINE
  5
3FE
330
1F
100
AcDbEntity
  8
0
  6
Continuous
 62
     7
370
    15
100
AcDbLine
 10
-8.883291223661245
 20
-275.0669171962937
 30
0.0
 11
-8.883291223661245
 21
-255.0669171962938
 31
0.0
  0
LINE
  5
3FF
330
1F
100
AcDbEntity
  8
0
  6
Continuous
 62
     7
370
    15
100
AcDbLine
 10
1.116708776338754
 20
-275.0669171962937
 30
0.0
 11
-8.883291223661245
 21
-275.0669171962937
 31
0.0
  0
LINE
  5
400
330
1F
100
AcDbEntity
  8
0
  6
Continuous
 62
     7
370
    15
100
AcDbLine
 10
31.11670877633879
 20
-255.0669171962942
 30
0.0
 11
31.11670877633879
 21
-275.0669171962942
 31
0.0
  0
LINE
  5
401
330
1F
100
AcDbEntity
  8
0
  6
Continuous
 62
     7
370
    15
100
AcDbLine
 10
21.11670877633878
 20
-255.0669171962942
 30
0.0
 11
31.11670877633879
 21
-255.0669171962942
 31
0.0
  0
LINE
  5
402
330
1F
100
AcDbEntity
  8
0
  6
Continuous
 62
     7
370
    15
100
AcDbLine
 10
21.11670877633878
 20
-275.0669171962942
 30
0.0
 11
21.11670877633878
 21
-255.0669171962942
 31
0.0
  0
LINE
  5
403
330
1F
100
AcDbEntity
  8
0
  6
Continuous
 62
     7
370
    15
100
AcDbLine
 10
31.11670877633879
 20
-275.0669171962942
 30
0.0
 11
21.11670877633878
 21
-275.0669171962942
 31
0.0
  0
LINE
  5
404
330
1F
100
AcDbEntity
  8
0
  6
Continuous
 62
     7
370
    15
100
AcDbLine
 10
61.11670877633869
 20
-255.0669171962944
 30
0.0
 11
61.11670877633875
 21
-275.0669171962944
 31
0.0
  0
LINE
  5
405
330
1F
100
AcDbEntity
  8
0
  6
Continuous
 62
     7
370
    15
100
AcDbLine
 10
51.11670877633875
 20
-255.0669171962944
 30
0.0
 11
61.11670877633869
 21
-255.0669171962944
 31
0.0
  0
LINE
  5
406
330
1F
100
AcDbEntity
  8
0
  6
Continuous
 62
     7
370
    15
100
AcDbLine
 10
51.11670877633875
 20
-275.0669171962944
 30
0.0
 11
51.11670877633875
 21
-255.0669171962944
 31
0.0
  0
LINE
  5
407
330
1F
100
AcDbEntity
  8
0
  6
Continuous
 62
     7
370
    15
100
AcDbLine
 10
61.11670877633875
 20
-275.0669171962944
 30
0.0
 11
51.11670877633875
 21
-275.0669171962944
 31
0.0
  0
LINE
  5
408
330
1F
100
AcDbEntity
  8
0
  6
Continuous
 62
     7
370
    15
100
AcDbLine
 10
91.11670877633878
 20
-255.0669171962947
 30
0.0
 11
91.11670877633878
 21
-275.0669171962948
 31
0.0
  0
LINE
  5
409
330
1F
100
AcDbEntity
  8
0
  6
Continuous
 62
     7
370
    15
100
AcDbLine
 10
81.11670877633878
 20
-255.0669171962947
 30
0.0
 11
91.11670877633878
 21
-255.0669171962947
 31
0.0
  0
LINE
  5
40A
330
1F
100
AcDbEntity
  8
0
  6
Continuous
 62
     7
370
    15
100
AcDbLine
 10
81.11670877633878
 20
-275.0669171962948
 30
0.0
 11
81.11670877633878
 21
-255.0669171962947
 31
0.0
  0
LINE
  5
40B
330
1F
100
AcDbEntity
  8
0
  6
Continuous
 62
     7
370
    15
100
AcDbLine
 10
91.11670877633878
 20
-275.0669171962948
 30
0.0
 11
81.11670877633878
 21
-275.0669171962948
 31
0.0
  0
LINE
  5
40C
330
1F
100
AcDbEntity
  8
0
  6
Continuous
 62
     7
370
    15
100
AcDbLine
 10
121.1167087763387
 20
-255.0669171962951
 30
0.0
 11
121.1167087763387
 21
-275.0669171962951
 31
0.0
  0
LINE
  5
40D
330
1F
100
AcDbEntity
  8
0
  6
Continuous
 62
     7
370
    15
100
AcDbLine
 10
111.1167087763387
 20
-255.0669171962951
 30
0.0
 11
121.1167087763387
 21
-255.0669171962951
 31
0.0
  0
LINE
  5
40E
330
1F
100
AcDbEntity
  8
0
  6
Continuous
 62
     7
370
    15
100
AcDbLine
 10
111.1167087763387
 20
-275.0669171962951
 30
0.0
 11
111.1167087763387
 21
-255.0669171962951
 31
0.0
  0
LINE
  5
40F
330
1F
100
AcDbEntity
  8
0
  6
Continuous
 62
     7
370
    15
100
AcDbLine
 10
121.1167087763387
 20
-275.0669171962951
 30
0.0
 11
111.1167087763387
 21
-275.0669171962951
 31
0.0
  0
LINE
  5
410
330
1F
100
AcDbEntity
  8
0
  6
Continuous
 62
     7
370
    15
100
AcDbLine
 10
151.1167087763387
 20
-255.0669171962953
 30
0.0
 11
151.1167087763387
 21
-275.0669171962953
 31
0.0
  0
LINE
  5
411
330
1F
100
AcDbEntity
  8
0
  6
Continuous
 62
     7
370
    15
100
AcDbLine
 10
141.1167087763387
 20
-255.0669171962953
 30
0.0
 11
151.1167087763387
 21
-255.0669171962953
 31
0.0
  0
LINE
  5
412
330
1F
100
AcDbEntity
  8
0
  6
Continuous
 62
     7
370
    15
100
AcDbLine
 10
141.1167087763387
 20
-275.0669171962953
 30
0.0
 11
141.1167087763387
 21
-255.0669171962953
 31
0.0
  0
LINE
  5
413
330
1F
100
AcDbEntity
  8
0
  6
Continuous
 62
     7
370
    15
100
AcDbLine
 10
151.1167087763387
 20
-275.0669171962953
 30
0.0
 11
141.1167087763387
 21
-275.0669171962953
 31
0.0
  0
LINE
  5
414
330
1F
100
AcDbEntity
  8
0
  6
Continuous
 62
     7
370
    15
100
AcDbLine
 10
181.1167087763388
 20
-255.0669171962958
 30
0.0
 11
181.1167087763388
 21
-275.0669171962958
 31
0.0
  0
LINE
  5
415
330
1F
100
AcDbEntity
  8
0
  6
Continuous
 62
     7
370
    15
100
AcDbLine
 10
171.1167087763388
 20
-255.0669171962958
 30
0.0
 11
181.1167087763388
 21
-255.0669171962958
 31
0.0
  0
LINE
  5
416
330
1F
100
AcDbEntity
  8
0
  6
Continuous
 62
     7
370
    15
100
AcDbLine
 10
171.1167087763388
 20
-275.0669171962958
 30
0.0
 11
171.1167087763388
 21
-255.0669171962958
 31
0.0
  0
LINE
  5
417
330
1F
100
AcDbEntity
  8
0
  6
Continuous
 62
     7
370
    15
100
AcDbLine
 10
181.1167087763388
 20
-275.0669171962958
 30
0.0
 11
171.1167087763388
 21
-275.0669171962958
 31
0.0
  0
LINE
  5
418
330
1F
100
AcDbEntity
  8
0
  6
Continuous
 62
     7
370
    15
100
AcDbLine
 10
211.1167087763388
 20
-255.066917196296
 30
0.0
 11
211.1167087763388
 21
-275.066917196296
 31
0.0
  0
LINE
  5
419
330
1F
100
AcDbEntity
  8
0
  6
Continuous
 62
     7
370
    15
100
AcDbLine
 10
201.1167087763388
 20
-255.066917196296
 30
0.0
 11
211.1167087763388
 21
-255.066917196296
 31
0.0
  0
LINE
  5
41A
330
1F
100
AcDbEntity
  8
0
  6
Continuous
 62
     7
370
    15
100
AcDbLine
 10
201.1167087763388
 20
-275.066917196296
 30
0.0
 11
201.1167087763388
 21
-255.066917196296
 31
0.0
  0
LINE
  5
41B
330
1F
100
AcDbEntity
  8
0
  6
Continuous
 62
     7
370
    15
100
AcDbLine
 10
211.1167087763388
 20
-275.066917196296
 30
0.0
 11
201.1167087763388
 21
-275.066917196296
 31
0.0
  0
LINE
  5
41C
330
1F
100
AcDbEntity
  8
0
  6
Continuous
 62
     7
370
    15
100
AcDbLine
 10
241.1167087763388
 20
-255.0669171962963
 30
0.0
 11
241.1167087763387
 21
-275.0669171962964
 31
0.0
  0
LINE
  5
41D
330
1F
100
AcDbEntity
  8
0
  6
Continuous
 62
     7
370
    15
100
AcDbLine
 10
231.4682173516247
 20
-255.0669171962964
 30
0.0
 11
241.1167087763388
 21
-255.0669171962963
 31
0.0
  0
LINE
  5
41E
330
1F
100
AcDbEntity
  8
0
  6
Continuous
 62
     7
370
    15
100
AcDbLine
 10
241.1167087763387
 20
-275.0669171962964
 30
0.0
 11
231.4682173516247
 21
-275.0669171962964
 31
0.0
  0
LINE
  5
41F
330
1F
100
AcDbEntity
  8
0
  6
Continuous
 62
     7
370
    15
100
AcDbLine
 10
271.1167087763387
 20
-255.0669171962966
 30
0.0
 11
271.1167087763387
 21
-275.0669171962967
 31
0.0
  0
LINE
  5
420
330
1F
100
AcDbEntity
  8
0
  6
Continuous
 62
     7
370
    15
100
AcDbLine
 10
261.1167087763387
 20
-255.0669171962966
 30
0.0
 11
271.1167087763387
 21
-255.0669171962966
 31
0.0
  0
LINE
  5
421
330
1F
100
AcDbEntity
  8
0
  6
Continuous
 62
     7
370
    15
100
AcDbLine
 10
261.1167087763387
 20
-275.0669171962967
 30
0.0
 11
261.1167087763387
 21
-255.0669171962966
 31
0.0
  0
LINE
  5
422
330
1F
100
AcDbEntity
  8
0
  6
Continuous
 62
     7
370
    15
100
AcDbLine
 10
271.1167087763387
 20
-275.0669171962967
 30
0.0
 11
261.1167087763387
 21
-275.0669171962967
 31
0.0
  0
LINE
  5
423
330
1F
100
AcDbEntity
  8
0
  6
Continuous
 62
     7
370
    15
100
AcDbLine
 10
301.1167087763388
 20
-255.066917196297
 30
0.0
 11
301.1167087763388
 21
-275.0669171962969
 31
0.0
  0
LINE
  5
424
330
1F
100
AcDbEntity
  8
0
  6
Continuous
 62
     7
370
    15
100
AcDbLine
 10
291.1167087763388
 20
-255.066917196297
 30
0.0
 11
301.1167087763388
 21
-255.066917196297
 31
0.0
  0
LINE
  5
425
330
1F
100
AcDbEntity
  8
0
  6
Continuous
 62
     7
370
    15
100
AcDbLine
 10
291.1167087763388
 20
-275.0669171962969
 30
0.0
 11
291.1167087763388
 21
-255.066917196297
 31
0.0
  0
LINE
  5
426
330
1F
100
AcDbEntity
  8
0
  6
Continuous
 62
     7
370
    15
100
AcDbLine
 10
301.1167087763388
 20
-275.0669171962969
 30
0.0
 11
291.1167087763388
 21
-275.0669171962969
 31
0.0
  0
LINE
  5
427
330
1F
100
AcDbEntity
  8
0
  6
Continuous
 62
     7
370
    15
100
AcDbLine
 10
-135.7246417142885
 20
-290.2542801227154
 30
0.0
 11
-135.7246417142885
 21
-319.0496146546017
 31
0.0
  0
LINE
  5
428
330
1F
100
AcDbEntity
  8
0
  6
Continuous
 62
     7
370
    15
100
AcDbLine
 10
327.2753582857115
 20
-290.2542801227154
 30
0.0
 11
327.2753582857115
 21
-319.0496146546017
 31
0.0
  0
LINE
  5
429
330
1F
100
AcDbEntity
  8
0
  6
Continuous
 62
     7
370
    15
100
AcDbLine
 10
306.1167087763388
 20
-355.0669171962971
 30
0.0
 11
316.1167087763388
 21
-355.0669171962971
 31
0.0
  0
LINE
  5
42A
330
1F
100
AcDbEntity
  8
0
  6
Continuous
 62
     7
370
    15
100
AcDbLine
 10
316.1167087763388
 20
-355.0669171962971
 30
0.0
 11
316.1167087763388
 21
-335.0669171962971
 31
0.0
  0
LINE
  5
42B
330
1F
100
AcDbEntity
  8
0
  6
Continuous
 62
     7
370
    15
100
AcDbLine
 10
316.1167087763388
 20
-335.0669171962971
 30
0.0
 11
306.1167087763388
 21
-335.0669171962971
 31
0.0
  0
LINE
  5
42C
330
1F
100
AcDbEntity
  8
0
  6
Continuous
 62
     7
370
    15
100
AcDbLine
 10
306.1167087763388
 20
-335.0669171962971
 30
0.0
 11
306.1167087763388
 21
-355.0669171962971
 31
0.0
  0
LINE
  5
42D
330
1F
100
AcDbEntity
  8
0
  6
Continuous
 62
     7
370
    15
100
AcDbLine
 10
276.1167087763387
 20
-355.0669171962968
 30
0.0
 11
286.1167087763388
 21
-355.0669171962968
 31
0.0
  0
LINE
  5
42E
330
1F
100
AcDbEntity
  8
0
  6
Continuous
 62
     7
370
    15
100
AcDbLine
 10
286.1167087763388
 20
-355.0669171962968
 30
0.0
 11
286.1167087763388
 21
-335.0669171962967
 31
0.0
  0
LINE
  5
42F
330
1F
100
AcDbEntity
  8
0
  6
Continuous
 62
     7
370
    15
100
AcDbLine
 10
286.1167087763388
 20
-335.0669171962967
 30
0.0
 11
276.1167087763387
 21
-335.0669171962967
 31
0.0
  0
LINE
  5
430
330
1F
100
AcDbEntity
  8
0
  6
Continuous
 62
     7
370
    15
100
AcDbLine
 10
276.1167087763387
 20
-335.0669171962967
 30
0.0
 11
276.1167087763387
 21
-355.0669171962968
 31
0.0
  0
LINE
  5
431
330
1F
100
AcDbEntity
  8
0
  6
Continuous
 62
     7
370
    15
100
AcDbLine
 10
246.1167087763387
 20
-355.0669171962965
 30
0.0
 11
256.1167087763387
 21
-355.0669171962965
 31
0.0
  0
LINE
  5
432
330
1F
100
AcDbEntity
  8
0
  6
Continuous
 62
     7
370
    15
100
AcDbLine
 10
256.1167087763387
 20
-355.0669171962965
 30
0.0
 11
256.1167087763387
 21
-335.0669171962965
 31
0.0
  0
LINE
  5
433
330
1F
100
AcDbEntity
  8
0
  6
Continuous
 62
     7
370
    15
100
AcDbLine
 10
256.1167087763387
 20
-335.0669171962965
 30
0.0
 11
246.1167087763387
 21
-335.0669171962965
 31
0.0
  0
LINE
  5
434
330
1F
100
AcDbEntity
  8
0
  6
Continuous
 62
     7
370
    15
100
AcDbLine
 10
246.1167087763387
 20
-335.0669171962965
 30
0.0
 11
246.1167087763387
 21
-355.0669171962965
 31
0.0
  0
LINE
  5
435
330
1F
100
AcDbEntity
  8
0
  6
Continuous
 62
     7
370
    15
100
AcDbLine
 10
216.1167087763388
 20
-355.0669171962962
 30
0.0
 11
226.1167087763388
 21
-355.0669171962962
 31
0.0
  0
LINE
  5
436
330
1F
100
AcDbEntity
  8
0
  6
Continuous
 62
     7
370
    15
100
AcDbLine
 10
226.1167087763388
 20
-355.0669171962962
 30
0.0
 11
226.1167087763388
 21
-335.0669171962962
 31
0.0
  0
LINE
  5
437
330
1F
100
AcDbEntity
  8
0
  6
Continuous
 62
     7
370
    15
100
AcDbLine
 10
226.1167087763388
 20
-335.0669171962962
 30
0.0
 11
216.1167087763388
 21
-335.0669171962962
 31
0.0
  0
LINE
  5
438
330
1F
100
AcDbEntity
  8
0
  6
Continuous
 62
     7
370
    15
100
AcDbLine
 10
216.1167087763388
 20
-335.0669171962962
 30
0.0
 11
216.1167087763388
 21
-355.0669171962962
 31
0.0
  0
LINE
  5
439
330
1F
100
AcDbEntity
  8
0
  6
Continuous
 62
     7
370
    15
100
AcDbLine
 10
186.1167087763388
 20
-355.0669171962959
 30
0.0
 11
196.1167087763388
 21
-355.0669171962959
 31
0.0
  0
LINE
  5
43A
330
1F
100
AcDbEntity
  8
0
  6
Continuous
 62
     7
370
    15
100
AcDbLine
 10
196.1167087763388
 20
-355.0669171962959
 30
0.0
 11
196.1167087763388
 21
-335.0669171962958
 31
0.0
  0
LINE
  5
43B
330
1F
100
AcDbEntity
  8
0
  6
Continuous
 62
     7
370
    15
100
AcDbLine
 10
196.1167087763388
 20
-335.0669171962958
 30
0.0
 11
186.1167087763388
 21
-335.0669171962958
 31
0.0
  0
LINE
  5
43C
330
1F
100
AcDbEntity
  8
0
  6
Continuous
 62
     7
370
    15
100
AcDbLine
 10
186.1167087763388
 20
-335.0669171962958
 30
0.0
 11
186.1167087763388
 21
-355.0669171962959
 31
0.0
  0
LINE
  5
43D
330
1F
100
AcDbEntity
  8
0
  6
Continuous
 62
     7
370
    15
100
AcDbLine
 10
156.1167087763387
 20
-355.0669171962955
 30
0.0
 11
166.1167087763388
 21
-355.0669171962955
 31
0.0
  0
LINE
  5
43E
330
1F
100
AcDbEntity
  8
0
  6
Continuous
 62
     7
370
    15
100
AcDbLine
 10
166.1167087763388
 20
-355.0669171962955
 30
0.0
 11
166.1167087763388
 21
-335.0669171962956
 31
0.0
  0
LINE
  5
43F
330
1F
100
AcDbEntity
  8
0
  6
Continuous
 62
     7
370
    15
100
AcDbLine
 10
166.1167087763388
 20
-335.0669171962956
 30
0.0
 11
156.1167087763387
 21
-335.0669171962956
 31
0.0
  0
LINE
  5
440
330
1F
100
AcDbEntity
  8
0
  6
Continuous
 62
     7
370
    15
100
AcDbLine
 10
156.1167087763387
 20
-335.0669171962956
 30
0.0
 11
156.1167087763387
 21
-355.0669171962955
 31
0.0
  0
LINE
  5
441
330
1F
100
AcDbEntity
  8
0
  6
Continuous
 62
     7
370
    15
100
AcDbLine
 10
126.1167087763387
 20
-355.0669171962952
 30
0.0
 11
136.1167087763387
 21
-355.0669171962952
 31
0.0
  0
LINE
  5
442
330
1F
100
AcDbEntity
  8
0
  6
Continuous
 62
     7
370
    15
100
AcDbLine
 10
136.1167087763387
 20
-355.0669171962952
 30
0.0
 11
136.1167087763387
 21
-335.0669171962952
 31
0.0
  0
LINE
  5
443
330
1F
100
AcDbEntity
  8
0
  6
Continuous
 62
     7
370
    15
100
AcDbLine
 10
136.1167087763387
 20
-335.0669171962952
 30
0.0
 11
126.1167087763387
 21
-335.0669171962952
 31
0.0
  0
LINE
  5
444
330
1F
100
AcDbEntity
  8
0
  6
Continuous
 62
     7
370
    15
100
AcDbLine
 10
126.1167087763387
 20
-335.0669171962952
 30
0.0
 11
126.1167087763387
 21
-355.0669171962952
 31
0.0
  0
LINE
  5
445
330
1F
100
AcDbEntity
  8
0
  6
Continuous
 62
     7
370
    15
100
AcDbLine
 10
96.11670877633873
 20
-355.0669171962949
 30
0.0
 11
106.1167087763387
 21
-355.0669171962949
 31
0.0
  0
LINE
  5
446
330
1F
100
AcDbEntity
  8
0
  6
Continuous
 62
     7
370
    15
100
AcDbLine
 10
106.1167087763387
 20
-355.0669171962949
 30
0.0
 11
106.1167087763387
 21
-335.0669171962949
 31
0.0
  0
LINE
  5
447
330
1F
100
AcDbEntity
  8
0
  6
Continuous
 62
     7
370
    15
100
AcDbLine
 10
106.1167087763387
 20
-335.0669171962949
 30
0.0
 11
96.11670877633873
 21
-335.0669171962949
 31
0.0
  0
LINE
  5
448
330
1F
100
AcDbEntity
  8
0
  6
Continuous
 62
     7
370
    15
100
AcDbLine
 10
96.11670877633873
 20
-335.0669171962949
 30
0.0
 11
96.11670877633873
 21
-355.0669171962949
 31
0.0
  0
LINE
  5
449
330
1F
100
AcDbEntity
  8
0
  6
Continuous
 62
     7
370
    15
100
AcDbLine
 10
66.11670877633878
 20
-355.0669171962947
 30
0.0
 11
76.11670877633878
 21
-355.0669171962947
 31
0.0
  0
LINE
  5
44A
330
1F
100
AcDbEntity
  8
0
  6
Continuous
 62
     7
370
    15
100
AcDbLine
 10
76.11670877633878
 20
-355.0669171962947
 30
0.0
 11
76.11670877633867
 21
-335.0669171962946
 31
0.0
  0
LINE
  5
44B
330
1F
100
AcDbEntity
  8
0
  6
Continuous
 62
     7
370
    15
100
AcDbLine
 10
76.11670877633867
 20
-335.0669171962946
 30
0.0
 11
66.11670877633878
 21
-335.0669171962946
 31
0.0
  0
LINE
  5
44C
330
1F
100
AcDbEntity
  8
0
  6
Continuous
 62
     7
370
    15
100
AcDbLine
 10
66.11670877633878
 20
-335.0669171962946
 30
0.0
 11
66.11670877633878
 21
-355.0669171962947
 31
0.0
  0
LINE
  5
44D
330
1F
100
AcDbEntity
  8
0
  6
Continuous
 62
     7
370
    15
100
AcDbLine
 10
36.11670877633873
 20
-355.0669171962943
 30
0.0
 11
46.11670877633872
 21
-355.0669171962943
 31
0.0
  0
LINE
  5
44E
330
1F
100
AcDbEntity
  8
0
  6
Continuous
 62
     7
370
    15
100
AcDbLine
 10
46.11670877633872
 20
-355.0669171962943
 30
0.0
 11
46.11670877633867
 21
-335.0669171962942
 31
0.0
  0
LINE
  5
44F
330
1F
100
AcDbEntity
  8
0
  6
Continuous
 62
     7
370
    15
100
AcDbLine
 10
46.11670877633867
 20
-335.0669171962942
 30
0.0
 11
36.11670877633873
 21
-335.0669171962942
 31
0.0
  0
LINE
  5
450
330
1F
100
AcDbEntity
  8
0
  6
Continuous
 62
     7
370
    15
100
AcDbLine
 10
36.11670877633873
 20
-335.0669171962942
 30
0.0
 11
36.11670877633873
 21
-355.0669171962943
 31
0.0
  0
LINE
  5
451
330
1F
100
AcDbEntity
  8
0
  6
Continuous
 62
     7
370
    15
100
AcDbLine
 10
6.116708776338754
 20
-355.066917196294
 30
0.0
 11
16.11670877633875
 21
-355.066917196294
 31
0.0
  0
LINE
  5
452
330
1F
100
AcDbEntity
  8
0
  6
Continuous
 62
     7
370
    15
100
AcDbLine
 10
16.11670877633875
 20
-355.066917196294
 30
0.0
 11
16.11670877633875
 21
-335.0669171962941
 31
0.0
  0
LINE
  5
453
330
1F
100
AcDbEntity
  8
0
  6
Continuous
 62
     7
370
    15
100
AcDbLine
 10
16.11670877633875
 20
-335.0669171962941
 30
0.0
 11
6.116708776338754
 21
-335.0669171962941
 31
0.0
  0
LINE
  5
454
330
1F
100
AcDbEntity
  8
0
  6
Continuous
 62
     7
370
    15
100
AcDbLine
 10
6.116708776338754
 20
-335.0669171962941
 30
0.0
 11
6.116708776338754
 21
-355.066917196294
 31
0.0
  0
LINE
  5
455
330
1F
100
AcDbEntity
  8
0
  6
Continuous
 62
     7
370
    15
100
AcDbLine
 10
-23.88329122366122
 20
-355.0669171962937
 30
0.0
 11
-13.88329122366122
 21
-355.0669171962937
 31
0.0
  0
LINE
  5
456
330
1F
100
AcDbEntity
  8
0
  6
Continuous
 62
     7
370
    15
100
AcDbLine
 10
-13.88329122366122
 20
-355.0669171962937
 30
0.0
 11
-13.88329122366127
 21
-335.0669171962936
 31
0.0
  0
LINE
  5
457
330
1F
100
AcDbEntity
  8
0
  6
Continuous
 62
     7
370
    15
100
AcDbLine
 10
-13.88329122366127
 20
-335.0669171962936
 30
0.0
 11
-23.88329122366122
 21
-335.0669171962936
 31
0.0
  0
LINE
  5
458
330
1F
100
AcDbEntity
  8
0
  6
Continuous
 62
     7
370
    15
100
AcDbLine
 10
-23.88329122366122
 20
-335.0669171962936
 30
0.0
 11
-23.88329122366122
 21
-355.0669171962937
 31
0.0
  0
LINE
  5
459
330
1F
100
AcDbEntity
  8
0
  6
Continuous
 62
     7
370
    15
100
AcDbLine
 10
-53.88329122366124
 20
-355.0669171962933
 30
0.0
 11
-43.88329122366124
 21
-355.0669171962933
 31
0.0
  0
LINE
  5
45A
330
1F
100
AcDbEntity
  8
0
  6
Continuous
 62
     7
370
    15
100
AcDbLine
 10
-43.88329122366124
 20
-355.0669171962933
 30
0.0
 11
-43.88329122366127
 21
-335.0669171962934
 31
0.0
  0
LINE
  5
45B
330
1F
100
AcDbEntity
  8
0
  6
Continuous
 62
     7
370
    15
100
AcDbLine
 10
-43.88329122366127
 20
-335.0669171962934
 30
0.0
 11
-53.88329122366124
 21
-335.0669171962934
 31
0.0
  0
LINE
  5
45C
330
1F
100
AcDbEntity
  8
0
  6
Continuous
 62
     7
370
    15
100
AcDbLine
 10
-53.88329122366124
 20
-335.0669171962934
 30
0.0
 11
-53.88329122366124
 21
-355.0669171962933
 31
0.0
  0
LINE
  5
45D
330
1F
100
AcDbEntity
  8
0
  6
Continuous
 62
     7
370
    15
100
AcDbLine
 10
-83.88329122366128
 20
-355.066917196293
 30
0.0
 11
-73.88329122366126
 21
-355.066917196293
 31
0.0
  0
LINE
  5
45E
330
1F
100
AcDbEntity
  8
0
  6
Continuous
 62
     7
370
    15
100
AcDbLine
 10
-73.88329122366126
 20
-355.066917196293
 30
0.0
 11
-73.88329122366132
 21
-335.066917196293
 31
0.0
  0
LINE
  5
45F
330
1F
100
AcDbEntity
  8
0
  6
Continuous
 62
     7
370
    15
100
AcDbLine
 10
-73.88329122366132
 20
-335.066917196293
 30
0.0
 11
-83.88329122366128
 21
-335.066917196293
 31
0.0
  0
LINE
  5
460
330
1F
100
AcDbEntity
  8
0
  6
Continuous
 62
     7
370
    15
100
AcDbLine
 10
-83.88329122366128
 20
-335.066917196293
 30
0.0
 11
-83.88329122366128
 21
-355.066917196293
 31
0.0
  0
LINE
  5
461
330
1F
100
AcDbEntity
  8
0
  6
Continuous
 62
     7
370
    15
100
AcDbLine
 10
-113.8832912236612
 20
-355.0669171962927
 30
0.0
 11
-103.8832912236612
 21
-355.0669171962927
 31
0.0
  0
LINE
  5
462
330
1F
100
AcDbEntity
  8
0
  6
Continuous
 62
     7
370
    15
100
AcDbLine
 10
-103.8832912236612
 20
-355.0669171962927
 30
0.0
 11
-103.8832912236612
 21
-335.0669171962927
 31
0.0
  0
LINE
  5
463
330
1F
100
AcDbEntity
  8
0
  6
Continuous
 62
     7
370
    15
100
AcDbLine
 10
-103.8832912236612
 20
-335.0669171962927
 30
0.0
 11
-113.8832912236612
 21
-335.0669171962927
 31
0.0
  0
LINE
  5
464
330
1F
100
AcDbEntity
  8
0
  6
Continuous
 62
     7
370
    15
100
AcDbLine
 10
-113.8832912236612
 20
-335.0669171962927
 30
0.0
 11
-113.8832912236612
 21
-355.0669171962927
 31
0.0
  0
LINE
  5
465
330
1F
100
AcDbEntity
  8
0
  6
Continuous
 62
     7
370
    15
100
AcDbLine
 10
-135.7246417142885
 20
-359.6519473886586
 30
0.0
 11
-36.53178264837533
 21
-359.6519473886586
 31
0.0
  0
LINE
  5
466
330
1F
100
AcDbEntity
  8
0
  6
Continuous
 62
     7
370
    15
100
AcDbLine
 10
-34.53178264837533
 20
-359.6519473886586
 30
0.0
 11
229.4682173516247
 21
-359.6519473886586
 31
0.0
  0
LINE
  5
467
330
1F
100
AcDbEntity
  8
0
  6
Continuous
 62
     7
370
    15
100
AcDbLine
 10
231.4682173516246
 20
-359.6519473886586
 30
0.0
 11
327.2753582857115
 21
-359.6519473886586
 31
0.0
  0
LINE
  5
468
330
1F
100
AcDbEntity
  8
0
  6
Continuous
 62
     7
370
    15
100
AcDbLine
 10
-135.7246417142885
 20
-359.6519473886586
 30
0.0
 11
-135.7246417142885
 21
-319.0496146546017
 31
0.0
  0
LINE
  5
469
330
1F
100
AcDbEntity
  8
0
  6
Continuous
 62
     7
370
    15
100
AcDbLine
 10
327.2753582857115
 20
-359.6519473886586
 30
0.0
 11
327.2753582857115
 21
-319.0496146546017
 31
0.0
  0
LINE
  5
46A
330
1F
100
AcDbEntity
  8
0
  6
Continuous
 62
     7
370
    15
100
AcDbLine
 10
-128.8832912236612
 20
-355.0669171962925
 30
0.0
 11
-118.8832912236612
 21
-355.0669171962925
 31
0.0
  0
LINE
  5
46B
330
1F
100
AcDbEntity
  8
0
  6
Continuous
 62
     7
370
    15
100
AcDbLine
 10
-118.8832912236612
 20
-355.0669171962925
 30
0.0
 11
-118.8832912236612
 21
-335.0669171962925
 31
0.0
  0
LINE
  5
46C
330
1F
100
AcDbEntity
  8
0
  6
Continuous
 62
     7
370
    15
100
AcDbLine
 10
-118.8832912236612
 20
-335.0669171962925
 30
0.0
 11
-128.8832912236612
 21
-335.0669171962925
 31
0.0
  0
LINE
  5
46D
330
1F
100
AcDbEntity
  8
0
  6
Continuous
 62
     7
370
    15
100
AcDbLine
 10
-128.8832912236612
 20
-335.0669171962925
 30
0.0
 11
-128.8832912236612
 21
-355.0669171962925
 31
0.0
  0
LINE
  5
46E
330
1F
100
AcDbEntity
  8
0
  6
Continuous
 62
     7
370
    15
100
AcDbLine
 10
-98.88329122366123
 20
-355.0669171962929
 30
0.0
 11
-88.88329122366121
 21
-355.0669171962929
 31
0.0
  0
LINE
  5
46F
330
1F
100
AcDbEntity
  8
0
  6
Continuous
 62
     7
370
    15
100
AcDbLine
 10
-88.88329122366121
 20
-355.0669171962929
 30
0.0
 11
-88.88329122366121
 21
-335.066917196293
 31
0.0
  0
LINE
  5
470
330
1F
100
AcDbEntity
  8
0
  6
Continuous
 62
     7
370
    15
100
AcDbLine
 10
-88.88329122366121
 20
-335.066917196293
 30
0.0
 11
-98.88329122366123
 21
-335.066917196293
 31
0.0
  0
LINE
  5
471
330
1F
100
AcDbEntity
  8
0
  6
Continuous
 62
     7
370
    15
100
AcDbLine
 10
-98.88329122366123
 20
-335.066917196293
 30
0.0
 11
-98.88329122366123
 21
-355.0669171962929
 31
0.0
  0
LINE
  5
472
330
1F
100
AcDbEntity
  8
0
  6
Continuous
 62
     7
370
    15
100
AcDbLine
 10
-68.88329122366126
 20
-355.0669171962931
 30
0.0
 11
-58.88329122366124
 21
-355.0669171962931
 31
0.0
  0
LINE
  5
473
330
1F
100
AcDbEntity
  8
0
  6
Continuous
 62
     7
370
    15
100
AcDbLine
 10
-58.88329122366124
 20
-355.0669171962931
 30
0.0
 11
-58.8832912236613
 21
-335.0669171962932
 31
0.0
  0
LINE
  5
474
330
1F
100
AcDbEntity
  8
0
  6
Continuous
 62
     7
370
    15
100
AcDbLine
 10
-58.8832912236613
 20
-335.0669171962932
 30
0.0
 11
-68.88329122366126
 21
-335.0669171962932
 31
0.0
  0
LINE
  5
475
330
1F
100
AcDbEntity
  8
0
  6
Continuous
 62
     7
370
    15
100
AcDbLine
 10
-68.88329122366126
 20
-335.0669171962932
 30
0.0
 11
-68.88329122366126
 21
-355.0669171962931
 31
0.0
  0
LINE
  5
476
330
1F
100
AcDbEntity
  8
0
  6
Continuous
 62
     7
370
    15
100
AcDbLine
 10
-38.88329122366122
 20
-355.0669171962935
 30
0.0
 11
-36.53178264837533
 21
-355.0669171962935
 31
0.0
  0
LINE
  5
477
330
1F
100
AcDbEntity
  8
0
  6
Continuous
 62
     7
370
    15
100
AcDbLine
 10
-34.53178264837533
 20
-355.0669171962935
 30
0.0
 11
-28.88329122366122
 21
-355.0669171962935
 31
0.0
  0
LINE
  5
478
330
1F
100
AcDbEntity
  8
0
  6
Continuous
 62
     7
370
    15
100
AcDbLine
 10
-28.88329122366122
 20
-355.0669171962935
 30
0.0
 11
-28.88329122366128
 21
-335.0669171962935
 31
0.0
  0
LINE
  5
479
330
1F
100
AcDbEntity
  8
0
  6
Continuous
 62
     7
370
    15
100
AcDbLine
 10
-28.88329122366128
 20
-335.0669171962935
 30
0.0
 11
-34.53178264837533
 21
-335.0669171962935
 31
0.0
  0
LINE
  5
47A
330
1F
100
AcDbEntity
  8
0
  6
Continuous
 62
     7
370
    15
100
AcDbLine
 10
-36.53178264837535
 20
-335.0669171962935
 30
0.0
 11
-38.88329122366122
 21
-335.0669171962935
 31
0.0
  0
LINE
  5
47B
330
1F
100
AcDbEntity
  8
0
  6
Continuous
 62
     7
370
    15
100
AcDbLine
 10
-38.88329122366122
 20
-335.0669171962935
 30
0.0
 11
-38.88329122366122
 21
-355.0669171962935
 31
0.0
  0
LINE
  5
47C
330
1F
100
AcDbEntity
  8
0
  6
Continuous
 62
     7
370
    15
100
AcDbLine
 10
-8.883291223661245
 20
-355.0669171962938
 30
0.0
 11
1.116708776338754
 21
-355.0669171962938
 31
0.0
  0
LINE
  5
47D
330
1F
100
AcDbEntity
  8
0
  6
Continuous
 62
     7
370
    15
100
AcDbLine
 10
1.116708776338754
 20
-355.0669171962938
 30
0.0
 11
1.116708776338754
 21
-335.0669171962938
 31
0.0
  0
LINE
  5
47E
330
1F
100
AcDbEntity
  8
0
  6
Continuous
 62
     7
370
    15
100
AcDbLine
 10
1.116708776338754
 20
-335.0669171962938
 30
0.0
 11
-8.883291223661245
 21
-335.0669171962938
 31
0.0
  0
LINE
  5
47F
330
1F
100
AcDbEntity
  8
0
  6
Continuous
 62
     7
370
    15
100
AcDbLine
 10
-8.883291223661245
 20
-335.0669171962938
 30
0.0
 11
-8.883291223661245
 21
-355.0669171962938
 31
0.0
  0
LINE
  5
480
330
1F
100
AcDbEntity
  8
0
  6
Continuous
 62
     7
370
    15
100
AcDbLine
 10
21.11670877633878
 20
-355.0669171962941
 30
0.0
 11
31.11670877633879
 21
-355.0669171962941
 31
0.0
  0
LINE
  5
481
330
1F
100
AcDbEntity
  8
0
  6
Continuous
 62
     7
370
    15
100
AcDbLine
 10
31.11670877633879
 20
-355.0669171962941
 30
0.0
 11
31.11670877633879
 21
-335.0669171962941
 31
0.0
  0
LINE
  5
482
330
1F
100
AcDbEntity
  8
0
  6
Continuous
 62
     7
370
    15
100
AcDbLine
 10
31.11670877633879
 20
-335.0669171962941
 30
0.0
 11
21.11670877633878
 21
-335.0669171962941
 31
0.0
  0
LINE
  5
483
330
1F
100
AcDbEntity
  8
0
  6
Continuous
 62
     7
370
    15
100
AcDbLine
 10
21.11670877633878
 20
-335.0669171962941
 30
0.0
 11
21.11670877633878
 21
-355.0669171962941
 31
0.0
  0
LINE
  5
484
330
1F
100
AcDbEntity
  8
0
  6
Continuous
 62
     7
370
    15
100
AcDbLine
 10
51.11670877633875
 20
-355.0669171962945
 30
0.0
 11
61.11670877633875
 21
-355.0669171962945
 31
0.0
  0
LINE
  5
485
330
1F
100
AcDbEntity
  8
0
  6
Continuous
 62
     7
370
    15
100
AcDbLine
 10
61.11670877633875
 20
-355.0669171962945
 30
0.0
 11
61.11670877633869
 21
-335.0669171962945
 31
0.0
  0
LINE
  5
486
330
1F
100
AcDbEntity
  8
0
  6
Continuous
 62
     7
370
    15
100
AcDbLine
 10
61.11670877633869
 20
-335.0669171962945
 30
0.0
 11
51.11670877633875
 21
-335.0669171962945
 31
0.0
  0
LINE
  5
487
330
1F
100
AcDbEntity
  8
0
  6
Continuous
 62
     7
370
    15
100
AcDbLine
 10
51.11670877633875
 20
-335.0669171962945
 30
0.0
 11
51.11670877633875
 21
-355.0669171962945
 31
0.0
  0
LINE
  5
488
330
1F
100
AcDbEntity
  8
0
  6
Continuous
 62
     7
370
    15
100
AcDbLine
 10
81.11670877633878
 20
-355.0669171962948
 30
0.0
 11
91.11670877633878
 21
-355.0669171962948
 31
0.0
  0
LINE
  5
489
330
1F
100
AcDbEntity
  8
0
  6
Continuous
 62
     7
370
    15
100
AcDbLine
 10
91.11670877633878
 20
-355.0669171962948
 30
0.0
 11
91.11670877633878
 21
-335.0669171962947
 31
0.0
  0
LINE
  5
48A
330
1F
100
AcDbEntity
  8
0
  6
Continuous
 62
     7
370
    15
100
AcDbLine
 10
91.11670877633878
 20
-335.0669171962947
 30
0.0
 11
81.11670877633878
 21
-335.0669171962947
 31
0.0
  0
LINE
  5
48B
330
1F
100
AcDbEntity
  8
0
  6
Continuous
 62
     7
370
    15
100
AcDbLine
 10
81.11670877633878
 20
-335.0669171962947
 30
0.0
 11
81.11670877633878
 21
-355.0669171962948
 31
0.0
  0
LINE
  5
48C
330
1F
100
AcDbEntity
  8
0
  6
Continuous
 62
     7
370
    15
100
AcDbLine
 10
111.1167087763387
 20
-355.0669171962951
 30
0.0
 11
121.1167087763387
 21
-355.0669171962951
 31
0.0
  0
LINE
  5
48D
330
1F
100
AcDbEntity
  8
0
  6
Continuous
 62
     7
370
    15
100
AcDbLine
 10
121.1167087763387
 20
-355.0669171962951
 30
0.0
 11
121.1167087763387
 21
-335.0669171962952
 31
0.0
  0
LINE
  5
48E
330
1F
100
AcDbEntity
  8
0
  6
Continuous
 62
     7
370
    15
100
AcDbLine
 10
121.1167087763387
 20
-335.0669171962952
 30
0.0
 11
111.1167087763387
 21
-335.0669171962952
 31
0.0
  0
LINE
  5
48F
330
1F
100
AcDbEntity
  8
0
  6
Continuous
 62
     7
370
    15
100
AcDbLine
 10
111.1167087763387
 20
-335.0669171962952
 30
0.0
 11
111.1167087763387
 21
-355.0669171962951
 31
0.0
  0
LINE
  5
490
330
1F
100
AcDbEntity
  8
0
  6
Continuous
 62
     7
370
    15
100
AcDbLine
 10
141.1167087763387
 20
-355.0669171962954
 30
0.0
 11
151.1167087763387
 21
-355.0669171962954
 31
0.0
  0
LINE
  5
491
330
1F
100
AcDbEntity
  8
0
  6
Continuous
 62
     7
370
    15
100
AcDbLine
 10
151.1167087763387
 20
-355.0669171962954
 30
0.0
 11
151.1167087763387
 21
-335.0669171962954
 31
0.0
  0
LINE
  5
492
330
1F
100
AcDbEntity
  8
0
  6
Continuous
 62
     7
370
    15
100
AcDbLine
 10
151.1167087763387
 20
-335.0669171962954
 30
0.0
 11
141.1167087763387
 21
-335.0669171962954
 31
0.0
  0
LINE
  5
493
330
1F
100
AcDbEntity
  8
0
  6
Continuous
 62
     7
370
    15
100
AcDbLine
 10
141.1167087763387
 20
-335.0669171962954
 30
0.0
 11
141.1167087763387
 21
-355.0669171962954
 31
0.0
  0
LINE
  5
494
330
1F
100
AcDbEntity
  8
0
  6
Continuous
 62
     7
370
    15
100
AcDbLine
 10
171.1167087763388
 20
-355.0669171962957
 30
0.0
 11
181.1167087763388
 21
-355.0669171962957
 31
0.0
  0
LINE
  5
495
330
1F
100
AcDbEntity
  8
0
  6
Continuous
 62
     7
370
    15
100
AcDbLine
 10
181.1167087763388
 20
-355.0669171962957
 30
0.0
 11
181.1167087763388
 21
-335.0669171962957
 31
0.0
  0
LINE
  5
496
330
1F
100
AcDbEntity
  8
0
  6
Continuous
 62
     7
370
    15
100
AcDbLine
 10
181.1167087763388
 20
-335.0669171962957
 30
0.0
 11
171.1167087763388
 21
-335.0669171962957
 31
0.0
  0
LINE
  5
497
330
1F
100
AcDbEntity
  8
0
  6
Continuous
 62
     7
370
    15
100
AcDbLine
 10
171.1167087763388
 20
-335.0669171962957
 30
0.0
 11
171.1167087763388
 21
-355.0669171962957
 31
0.0
  0
LINE
  5
498
330
1F
100
AcDbEntity
  8
0
  6
Continuous
 62
     7
370
    15
100
AcDbLine
 10
201.1167087763388
 20
-355.066917196296
 30
0.0
 11
211.1167087763388
 21
-355.066917196296
 31
0.0
  0
LINE
  5
499
330
1F
100
AcDbEntity
  8
0
  6
Continuous
 62
     7
370
    15
100
AcDbLine
 10
211.1167087763388
 20
-355.066917196296
 30
0.0
 11
211.1167087763388
 21
-335.0669171962961
 31
0.0
  0
LINE
  5
49A
330
1F
100
AcDbEntity
  8
0
  6
Continuous
 62
     7
370
    15
100
AcDbLine
 10
211.1167087763388
 20
-335.0669171962961
 30
0.0
 11
201.1167087763388
 21
-335.0669171962961
 31
0.0
  0
LINE
  5
49B
330
1F
100
AcDbEntity
  8
0
  6
Continuous
 62
     7
370
    15
100
AcDbLine
 10
201.1167087763388
 20
-335.0669171962961
 30
0.0
 11
201.1167087763388
 21
-355.066917196296
 31
0.0
  0
LINE
  5
49C
330
1F
100
AcDbEntity
  8
0
  6
Continuous
 62
     7
370
    15
100
AcDbLine
 10
231.4682173516246
 20
-355.0669171962963
 30
0.0
 11
241.1167087763387
 21
-355.0669171962963
 31
0.0
  0
LINE
  5
49D
330
1F
100
AcDbEntity
  8
0
  6
Continuous
 62
     7
370
    15
100
AcDbLine
 10
241.1167087763387
 20
-355.0669171962963
 30
0.0
 11
241.1167087763388
 21
-335.0669171962963
 31
0.0
  0
LINE
  5
49E
330
1F
100
AcDbEntity
  8
0
  6
Continuous
 62
     7
370
    15
100
AcDbLine
 10
241.1167087763388
 20
-335.0669171962963
 30
0.0
 11
231.4682173516247
 21
-335.0669171962963
 31
0.0
  0
LINE
  5
49F
330
1F
100
AcDbEntity
  8
0
  6
Continuous
 62
     7
370
    15
100
AcDbLine
 10
261.1167087763387
 20
-355.0669171962967
 30
0.0
 11
271.1167087763387
 21
-355.0669171962967
 31
0.0
  0
LINE
  5
4A0
330
1F
100
AcDbEntity
  8
0
  6
Continuous
 62
     7
370
    15
100
AcDbLine
 10
271.1167087763387
 20
-355.0669171962967
 30
0.0
 11
271.1167087763387
 21
-335.0669171962967
 31
0.0
  0
LINE
  5
4A1
330
1F
100
AcDbEntity
  8
0
  6
Continuous
 62
     7
370
    15
100
AcDbLine
 10
271.1167087763387
 20
-335.0669171962967
 30
0.0
 11
261.1167087763387
 21
-335.0669171962967
 31
0.0
  0
LINE
  5
4A2
330
1F
100
AcDbEntity
  8
0
  6
Continuous
 62
     7
370
    15
100
AcDbLine
 10
261.1167087763387
 20
-335.0669171962967
 30
0.0
 11
261.1167087763387
 21
-355.0669171962967
 31
0.0
  0
LINE
  5
4A3
330
1F
100
AcDbEntity
  8
0
  6
Continuous
 62
     7
370
    15
100
AcDbLine
 10
291.1167087763388
 20
-355.066917196297
 30
0.0
 11
301.1167087763388
 21
-355.066917196297
 31
0.0
  0
LINE
  5
4A4
330
1F
100
AcDbEntity
  8
0
  6
Continuous
 62
     7
370
    15
100
AcDbLine
 10
301.1167087763388
 20
-355.066917196297
 30
0.0
 11
301.1167087763388
 21
-335.0669171962969
 31
0.0
  0
LINE
  5
4A5
330
1F
100
AcDbEntity
  8
0
  6
Continuous
 62
     7
370
    15
100
AcDbLine
 10
301.1167087763388
 20
-335.0669171962969
 30
0.0
 11
291.1167087763388
 21
-335.0669171962969
 31
0.0
  0
LINE
  5
4A6
330
1F
100
AcDbEntity
  8
0
  6
Continuous
 62
     7
370
    15
100
AcDbLine
 10
291.1167087763388
 20
-335.0669171962969
 30
0.0
 11
291.1167087763388
 21
-355.066917196297
 31
0.0
  0
LINE
  5
4A7
330
1F
100
AcDbEntity
  8
0
  6
Continuous
 62
     7
370
    15
100
AcDbLine
 10
-34.53178264837536
 20
-460.0266722993316
 30
0.0
 11
229.4682173516247
 21
-460.0266722993316
 31
0.0
  0
LINE
  5
4A8
330
1F
100
AcDbEntity
  8
0
  6
Continuous
 62
     7
370
    15
100
AcDbLine
 10
229.4682173516247
 20
-460.0266722993316
 30
0.0
 11
229.4682173516247
 21
-451.6675085594401
 31
0.0
  0
LINE
  5
4A9
330
1F
100
AcDbEntity
  8
0
  6
Continuous
 62
     7
370
    15
100
AcDbLine
 10
229.4682173516247
 20
-431.2313377674453
 30
0.0
 11
-34.53178264837536
 21
-431.2313377674453
 31
0.0
  0
LINE
  5
4AA
330
1F
100
AcDbEntity
  8
0
  6
Continuous
 62
     7
370
    15
100
AcDbLine
 10
-34.53178264837536
 20
-451.6675085594401
 30
0.0
 11
-34.53178264837536
 21
-460.0266722993316
 31
0.0
  0
LINE
  5
4AB
330
1F
100
AcDbEntity
  8
0
  6
Continuous
 62
     7
370
    15
100
AcDbLine
 10
316.1167087763388
 20
-396.043974841027
 30
0.0
 11
316.1167087763388
 21
-416.0439748410269
 31
0.0
  0
LINE
  5
4AC
330
1F
100
AcDbEntity
  8
0
  6
Continuous
 62
     7
370
    15
100
AcDbLine
 10
306.1167087763388
 20
-396.043974841027
 30
0.0
 11
316.1167087763388
 21
-396.043974841027
 31
0.0
  0
LINE
  5
4AD
330
1F
100
AcDbEntity
  8
0
  6
Continuous
 62
     7
370
    15
100
AcDbLine
 10
306.1167087763388
 20
-416.0439748410269
 30
0.0
 11
306.1167087763388
 21
-396.043974841027
 31
0.0
  0
LINE
  5
4AE
330
1F
100
AcDbEntity
  8
0
  6
Continuous
 62
     7
370
    15
100
AcDbLine
 10
316.1167087763388
 20
-416.0439748410269
 30
0.0
 11
306.1167087763388
 21
-416.0439748410269
 31
0.0
  0
LINE
  5
4AF
330
1F
100
AcDbEntity
  8
0
  6
Continuous
 62
     7
370
    15
100
AcDbLine
 10
286.1167087763388
 20
-396.0439748410268
 30
0.0
 11
286.1167087763388
 21
-416.0439748410268
 31
0.0
  0
LINE
  5
4B0
330
1F
100
AcDbEntity
  8
0
  6
Continuous
 62
     7
370
    15
100
AcDbLine
 10
276.1167087763387
 20
-396.0439748410268
 30
0.0
 11
286.1167087763388
 21
-396.0439748410268
 31
0.0
  0
LINE
  5
4B1
330
1F
100
AcDbEntity
  8
0
  6
Continuous
 62
     7
370
    15
100
AcDbLine
 10
276.1167087763387
 20
-416.0439748410268
 30
0.0
 11
276.1167087763387
 21
-396.0439748410268
 31
0.0
  0
LINE
  5
4B2
330
1F
100
AcDbEntity
  8
0
  6
Continuous
 62
     7
370
    15
100
AcDbLine
 10
286.1167087763388
 20
-416.0439748410268
 30
0.0
 11
276.1167087763387
 21
-416.0439748410268
 31
0.0
  0
LINE
  5
4B3
330
1F
100
AcDbEntity
  8
0
  6
Continuous
 62
     7
370
    15
100
AcDbLine
 10
256.1167087763387
 20
-396.0439748410264
 30
0.0
 11
256.1167087763387
 21
-416.0439748410263
 31
0.0
  0
LINE
  5
4B4
330
1F
100
AcDbEntity
  8
0
  6
Continuous
 62
     7
370
    15
100
AcDbLine
 10
246.1167087763387
 20
-396.0439748410264
 30
0.0
 11
256.1167087763387
 21
-396.0439748410264
 31
0.0
  0
LINE
  5
4B5
330
1F
100
AcDbEntity
  8
0
  6
Continuous
 62
     7
370
    15
100
AcDbLine
 10
246.1167087763387
 20
-416.0439748410263
 30
0.0
 11
246.1167087763387
 21
-396.0439748410264
 31
0.0
  0
LINE
  5
4B6
330
1F
100
AcDbEntity
  8
0
  6
Continuous
 62
     7
370
    15
100
AcDbLine
 10
256.1167087763387
 20
-416.0439748410263
 30
0.0
 11
246.1167087763387
 21
-416.0439748410263
 31
0.0
  0
LINE
  5
4B7
330
1F
100
AcDbEntity
  8
0
  6
Continuous
 62
     7
370
    15
100
AcDbLine
 10
226.1167087763388
 20
-396.0439748410261
 30
0.0
 11
226.1167087763388
 21
-416.0439748410261
 31
0.0
  0
LINE
  5
4B8
330
1F
100
AcDbEntity
  8
0
  6
Continuous
 62
     7
370
    15
100
AcDbLine
 10
216.1167087763388
 20
-396.0439748410261
 30
0.0
 11
226.1167087763388
 21
-396.0439748410261
 31
0.0
  0
LINE
  5
4B9
330
1F
100
AcDbEntity
  8
0
  6
Continuous
 62
     7
370
    15
100
AcDbLine
 10
216.1167087763388
 20
-416.0439748410261
 30
0.0
 11
216.1167087763388
 21
-396.0439748410261
 31
0.0
  0
LINE
  5
4BA
330
1F
100
AcDbEntity
  8
0
  6
Continuous
 62
     7
370
    15
100
AcDbLine
 10
226.1167087763388
 20
-416.0439748410261
 30
0.0
 11
216.1167087763388
 21
-416.0439748410261
 31
0.0
  0
LINE
  5
4BB
330
1F
100
AcDbEntity
  8
0
  6
Continuous
 62
     7
370
    15
100
AcDbLine
 10
196.1167087763388
 20
-396.0439748410258
 30
0.0
 11
196.1167087763388
 21
-416.0439748410256
 31
0.0
  0
LINE
  5
4BC
330
1F
100
AcDbEntity
  8
0
  6
Continuous
 62
     7
370
    15
100
AcDbLine
 10
186.1167087763388
 20
-396.0439748410258
 30
0.0
 11
196.1167087763388
 21
-396.0439748410258
 31
0.0
  0
LINE
  5
4BD
330
1F
100
AcDbEntity
  8
0
  6
Continuous
 62
     7
370
    15
100
AcDbLine
 10
186.1167087763388
 20
-416.0439748410256
 30
0.0
 11
186.1167087763388
 21
-396.0439748410258
 31
0.0
  0
LINE
  5
4BE
330
1F
100
AcDbEntity
  8
0
  6
Continuous
 62
     7
370
    15
100
AcDbLine
 10
196.1167087763388
 20
-416.0439748410256
 30
0.0
 11
186.1167087763388
 21
-416.0439748410256
 31
0.0
  0
LINE
  5
4BF
330
1F
100
AcDbEntity
  8
0
  6
Continuous
 62
     7
370
    15
100
AcDbLine
 10
166.1167087763388
 20
-396.0439748410254
 30
0.0
 11
166.1167087763388
 21
-416.0439748410253
 31
0.0
  0
LINE
  5
4C0
330
1F
100
AcDbEntity
  8
0
  6
Continuous
 62
     7
370
    15
100
AcDbLine
 10
156.1167087763387
 20
-396.0439748410254
 30
0.0
 11
166.1167087763388
 21
-396.0439748410254
 31
0.0
  0
LINE
  5
4C1
330
1F
100
AcDbEntity
  8
0
  6
Continuous
 62
     7
370
    15
100
AcDbLine
 10
156.1167087763387
 20
-416.0439748410253
 30
0.0
 11
156.1167087763387
 21
-396.0439748410254
 31
0.0
  0
LINE
  5
4C2
330
1F
100
AcDbEntity
  8
0
  6
Continuous
 62
     7
370
    15
100
AcDbLine
 10
166.1167087763388
 20
-416.0439748410253
 30
0.0
 11
156.1167087763387
 21
-416.0439748410253
 31
0.0
  0
LINE
  5
4C3
330
1F
100
AcDbEntity
  8
0
  6
Continuous
 62
     7
370
    15
100
AcDbLine
 10
136.1167087763387
 20
-396.0439748410252
 30
0.0
 11
136.1167087763387
 21
-416.0439748410251
 31
0.0
  0
LINE
  5
4C4
330
1F
100
AcDbEntity
  8
0
  6
Continuous
 62
     7
370
    15
100
AcDbLine
 10
126.1167087763387
 20
-396.0439748410252
 30
0.0
 11
136.1167087763387
 21
-396.0439748410252
 31
0.0
  0
LINE
  5
4C5
330
1F
100
AcDbEntity
  8
0
  6
Continuous
 62
     7
370
    15
100
AcDbLine
 10
126.1167087763387
 20
-416.0439748410251
 30
0.0
 11
126.1167087763387
 21
-396.0439748410252
 31
0.0
  0
LINE
  5
4C6
330
1F
100
AcDbEntity
  8
0
  6
Continuous
 62
     7
370
    15
100
AcDbLine
 10
136.1167087763387
 20
-416.0439748410251
 30
0.0
 11
126.1167087763387
 21
-416.0439748410251
 31
0.0
  0
LINE
  5
4C7
330
1F
100
AcDbEntity
  8
0
  6
Continuous
 62
     7
370
    15
100
AcDbLine
 10
106.1167087763387
 20
-396.0439748410248
 30
0.0
 11
106.1167087763387
 21
-416.0439748410247
 31
0.0
  0
LINE
  5
4C8
330
1F
100
AcDbEntity
  8
0
  6
Continuous
 62
     7
370
    15
100
AcDbLine
 10
96.11670877633873
 20
-396.0439748410248
 30
0.0
 11
106.1167087763387
 21
-396.0439748410248
 31
0.0
  0
LINE
  5
4C9
330
1F
100
AcDbEntity
  8
0
  6
Continuous
 62
     7
370
    15
100
AcDbLine
 10
96.11670877633873
 20
-416.0439748410247
 30
0.0
 11
96.11670877633873
 21
-396.0439748410248
 31
0.0
  0
LINE
  5
4CA
330
1F
100
AcDbEntity
  8
0
  6
Continuous
 62
     7
370
    15
100
AcDbLine
 10
106.1167087763387
 20
-416.0439748410247
 30
0.0
 11
96.11670877633873
 21
-416.0439748410247
 31
0.0
  0
LINE
  5
4CB
330
1F
100
AcDbEntity
  8
0
  6
Continuous
 62
     7
370
    15
100
AcDbLine
 10
76.11670877633867
 20
-396.0439748410245
 30
0.0
 11
76.11670877633878
 21
-416.0439748410245
 31
0.0
  0
LINE
  5
4CC
330
1F
100
AcDbEntity
  8
0
  6
Continuous
 62
     7
370
    15
100
AcDbLine
 10
66.11670877633878
 20
-396.0439748410245
 30
0.0
 11
76.11670877633867
 21
-396.0439748410245
 31
0.0
  0
LINE
  5
4CD
330
1F
100
AcDbEntity
  8
0
  6
Continuous
 62
     7
370
    15
100
AcDbLine
 10
66.11670877633878
 20
-416.0439748410245
 30
0.0
 11
66.11670877633878
 21
-396.0439748410245
 31
0.0
  0
LINE
  5
4CE
330
1F
100
AcDbEntity
  8
0
  6
Continuous
 62
     7
370
    15
100
AcDbLine
 10
76.11670877633878
 20
-416.0439748410245
 30
0.0
 11
66.11670877633878
 21
-416.0439748410245
 31
0.0
  0
LINE
  5
4CF
330
1F
100
AcDbEntity
  8
0
  6
Continuous
 62
     7
370
    15
100
AcDbLine
 10
46.11670877633867
 20
-396.0439748410242
 30
0.0
 11
46.11670877633872
 21
-416.0439748410241
 31
0.0
  0
LINE
  5
4D0
330
1F
100
AcDbEntity
  8
0
  6
Continuous
 62
     7
370
    15
100
AcDbLine
 10
36.11670877633873
 20
-396.0439748410242
 30
0.0
 11
46.11670877633867
 21
-396.0439748410242
 31
0.0
  0
LINE
  5
4D1
330
1F
100
AcDbEntity
  8
0
  6
Continuous
 62
     7
370
    15
100
AcDbLine
 10
36.11670877633873
 20
-416.0439748410241
 30
0.0
 11
36.11670877633873
 21
-396.0439748410242
 31
0.0
  0
LINE
  5
4D2
330
1F
100
AcDbEntity
  8
0
  6
Continuous
 62
     7
370
    15
100
AcDbLine
 10
46.11670877633872
 20
-416.0439748410241
 30
0.0
 11
36.11670877633873
 21
-416.0439748410241
 31
0.0
  0
LINE
  5
4D3
330
1F
100
AcDbEntity
  8
0
  6
Continuous
 62
     7
370
    15
100
AcDbLine
 10
16.11670877633875
 20
-396.0439748410239
 30
0.0
 11
16.11670877633875
 21
-416.0439748410238
 31
0.0
  0
LINE
  5
4D4
330
1F
100
AcDbEntity
  8
0
  6
Continuous
 62
     7
370
    15
100
AcDbLine
 10
6.116708776338754
 20
-396.0439748410239
 30
0.0
 11
16.11670877633875
 21
-396.0439748410239
 31
0.0
  0
LINE
  5
4D5
330
1F
100
AcDbEntity
  8
0
  6
Continuous
 62
     7
370
    15
100
AcDbLine
 10
6.116708776338754
 20
-416.0439748410238
 30
0.0
 11
6.116708776338754
 21
-396.0439748410239
 31
0.0
  0
LINE
  5
4D6
330
1F
100
AcDbEntity
  8
0
  6
Continuous
 62
     7
370
    15
100
AcDbLine
 10
16.11670877633875
 20
-416.0439748410238
 30
0.0
 11
6.116708776338754
 21
-416.0439748410238
 31
0.0
  0
LINE
  5
4D7
330
1F
100
AcDbEntity
  8
0
  6
Continuous
 62
     7
370
    15
100
AcDbLine
 10
-13.88329122366127
 20
-396.0439748410236
 30
0.0
 11
-13.88329122366122
 21
-416.0439748410235
 31
0.0
  0
LINE
  5
4D8
330
1F
100
AcDbEntity
  8
0
  6
Continuous
 62
     7
370
    15
100
AcDbLine
 10
-23.88329122366122
 20
-396.0439748410236
 30
0.0
 11
-13.88329122366127
 21
-396.0439748410236
 31
0.0
  0
LINE
  5
4D9
330
1F
100
AcDbEntity
  8
0
  6
Continuous
 62
     7
370
    15
100
AcDbLine
 10
-23.88329122366122
 20
-416.0439748410235
 30
0.0
 11
-23.88329122366122
 21
-396.0439748410236
 31
0.0
  0
LINE
  5
4DA
330
1F
100
AcDbEntity
  8
0
  6
Continuous
 62
     7
370
    15
100
AcDbLine
 10
-13.88329122366122
 20
-416.0439748410235
 30
0.0
 11
-23.88329122366122
 21
-416.0439748410235
 31
0.0
  0
LINE
  5
4DB
330
1F
100
AcDbEntity
  8
0
  6
Continuous
 62
     7
370
    15
100
AcDbLine
 10
-43.88329122366127
 20
-396.0439748410232
 30
0.0
 11
-43.88329122366124
 21
-416.0439748410231
 31
0.0
  0
LINE
  5
4DC
330
1F
100
AcDbEntity
  8
0
  6
Continuous
 62
     7
370
    15
100
AcDbLine
 10
-53.88329122366124
 20
-396.0439748410232
 30
0.0
 11
-43.88329122366127
 21
-396.0439748410232
 31
0.0
  0
LINE
  5
4DD
330
1F
100
AcDbEntity
  8
0
  6
Continuous
 62
     7
370
    15
100
AcDbLine
 10
-53.88329122366124
 20
-416.0439748410231
 30
0.0
 11
-53.88329122366124
 21
-396.0439748410232
 31
0.0
  0
LINE
  5
4DE
330
1F
100
AcDbEntity
  8
0
  6
Continuous
 62
     7
370
    15
100
AcDbLine
 10
-43.88329122366124
 20
-416.0439748410231
 30
0.0
 11
-53.88329122366124
 21
-416.0439748410231
 31
0.0
  0
LINE
  5
4DF
330
1F
100
AcDbEntity
  8
0
  6
Continuous
 62
     7
370
    15
100
AcDbLine
 10
-73.88329122366132
 20
-396.043974841023
 30
0.0
 11
-73.88329122366126
 21
-416.043974841023
 31
0.0
  0
LINE
  5
4E0
330
1F
100
AcDbEntity
  8
0
  6
Continuous
 62
     7
370
    15
100
AcDbLine
 10
-83.88329122366128
 20
-396.043974841023
 30
0.0
 11
-73.88329122366132
 21
-396.043974841023
 31
0.0
  0
LINE
  5
4E1
330
1F
100
AcDbEntity
  8
0
  6
Continuous
 62
     7
370
    15
100
AcDbLine
 10
-83.88329122366128
 20
-416.043974841023
 30
0.0
 11
-83.88329122366128
 21
-396.043974841023
 31
0.0
  0
LINE
  5
4E2
330
1F
100
AcDbEntity
  8
0
  6
Continuous
 62
     7
370
    15
100
AcDbLine
 10
-73.88329122366126
 20
-416.043974841023
 30
0.0
 11
-83.88329122366128
 21
-416.043974841023
 31
0.0
  0
LINE
  5
4E3
330
1F
100
AcDbEntity
  8
0
  6
Continuous
 62
     7
370
    15
100
AcDbLine
 10
-103.8832912236612
 20
-396.0439748410225
 30
0.0
 11
-103.8832912236612
 21
-416.0439748410225
 31
0.0
  0
LINE
  5
4E4
330
1F
100
AcDbEntity
  8
0
  6
Continuous
 62
     7
370
    15
100
AcDbLine
 10
-113.8832912236612
 20
-396.0439748410225
 30
0.0
 11
-103.8832912236612
 21
-396.0439748410225
 31
0.0
  0
LINE
  5
4E5
330
1F
100
AcDbEntity
  8
0
  6
Continuous
 62
     7
370
    15
100
AcDbLine
 10
-113.8832912236612
 20
-416.0439748410225
 30
0.0
 11
-113.8832912236612
 21
-396.0439748410225
 31
0.0
  0
LINE
  5
4E6
330
1F
100
AcDbEntity
  8
0
  6
Continuous
 62
     7
370
    15
100
AcDbLine
 10
-103.8832912236612
 20
-416.0439748410225
 30
0.0
 11
-113.8832912236612
 21
-416.0439748410225
 31
0.0
  0
LINE
  5
4E7
330
1F
100
AcDbEntity
  8
0
  6
Continuous
 62
     7
370
    15
100
AcDbLine
 10
-135.7246417142885
 20
-390.6290050333885
 30
0.0
 11
-135.7246417142885
 21
-431.2313377674453
 31
0.0
  0
LINE
  5
4E8
330
1F
100
AcDbEntity
  8
0
  6
Continuous
 62
     7
370
    15
100
AcDbLine
 10
-135.7246417142885
 20
-390.6290050333885
 30
0.0
 11
-36.53178264837533
 21
-390.6290050333886
 31
0.0
  0
LINE
  5
4E9
330
1F
100
AcDbEntity
  8
0
  6
Continuous
 62
     7
370
    15
100
AcDbLine
 10
-34.53178264837533
 20
-390.6290050333885
 30
0.0
 11
229.4682173516247
 21
-390.6290050333885
 31
0.0
  0
LINE
  5
4EA
330
1F
100
AcDbEntity
  8
0
  6
Continuous
 62
     7
370
    15
100
AcDbLine
 10
231.4682173516246
 20
-390.6290050333885
 30
0.0
 11
327.2753582857115
 21
-390.6290050333885
 31
0.0
  0
LINE
  5
4EB
330
1F
100
AcDbEntity
  8
0
  6
Continuous
 62
     7
370
    15
100
AcDbLine
 10
327.2753582857115
 20
-390.6290050333885
 30
0.0
 11
327.2753582857115
 21
-431.2313377674453
 31
0.0
  0
LINE
  5
4EC
330
1F
100
AcDbEntity
  8
0
  6
Continuous
 62
     7
370
    15
100
AcDbLine
 10
-118.8832912236612
 20
-396.0439748410225
 30
0.0
 11
-118.8832912236612
 21
-416.0439748410224
 31
0.0
  0
LINE
  5
4ED
330
1F
100
AcDbEntity
  8
0
  6
Continuous
 62
     7
370
    15
100
AcDbLine
 10
-128.8832912236612
 20
-396.0439748410225
 30
0.0
 11
-118.8832912236612
 21
-396.0439748410225
 31
0.0
  0
LINE
  5
4EE
330
1F
100
AcDbEntity
  8
0
  6
Continuous
 62
     7
370
    15
100
AcDbLine
 10
-128.8832912236612
 20
-416.0439748410224
 30
0.0
 11
-128.8832912236612
 21
-396.0439748410225
 31
0.0
  0
LINE
  5
4EF
330
1F
100
AcDbEntity
  8
0
  6
Continuous
 62
     7
370
    15
100
AcDbLine
 10
-118.8832912236612
 20
-416.0439748410224
 30
0.0
 11
-128.8832912236612
 21
-416.0439748410224
 31
0.0
  0
LINE
  5
4F0
330
1F
100
AcDbEntity
  8
0
  6
Continuous
 62
     7
370
    15
100
AcDbLine
 10
-88.88329122366121
 20
-396.0439748410228
 30
0.0
 11
-88.88329122366121
 21
-416.0439748410227
 31
0.0
  0
LINE
  5
4F1
330
1F
100
AcDbEntity
  8
0
  6
Continuous
 62
     7
370
    15
100
AcDbLine
 10
-98.88329122366123
 20
-396.0439748410228
 30
0.0
 11
-88.88329122366121
 21
-396.0439748410228
 31
0.0
  0
LINE
  5
4F2
330
1F
100
AcDbEntity
  8
0
  6
Continuous
 62
     7
370
    15
100
AcDbLine
 10
-98.88329122366123
 20
-416.0439748410227
 30
0.0
 11
-98.88329122366123
 21
-396.0439748410228
 31
0.0
  0
LINE
  5
4F3
330
1F
100
AcDbEntity
  8
0
  6
Continuous
 62
     7
370
    15
100
AcDbLine
 10
-88.88329122366121
 20
-416.0439748410227
 30
0.0
 11
-98.88329122366123
 21
-416.0439748410227
 31
0.0
  0
LINE
  5
4F4
330
1F
100
AcDbEntity
  8
0
  6
Continuous
 62
     7
370
    15
100
AcDbLine
 10
-58.8832912236613
 20
-396.0439748410231
 30
0.0
 11
-58.88329122366124
 21
-416.043974841023
 31
0.0
  0
LINE
  5
4F5
330
1F
100
AcDbEntity
  8
0
  6
Continuous
 62
     7
370
    15
100
AcDbLine
 10
-68.88329122366126
 20
-396.0439748410231
 30
0.0
 11
-58.8832912236613
 21
-396.0439748410231
 31
0.0
  0
LINE
  5
4F6
330
1F
100
AcDbEntity
  8
0
  6
Continuous
 62
     7
370
    15
100
AcDbLine
 10
-68.88329122366126
 20
-416.043974841023
 30
0.0
 11
-68.88329122366126
 21
-396.0439748410231
 31
0.0
  0
LINE
  5
4F7
330
1F
100
AcDbEntity
  8
0
  6
Continuous
 62
     7
370
    15
100
AcDbLine
 10
-58.88329122366124
 20
-416.043974841023
 30
0.0
 11
-68.88329122366126
 21
-416.043974841023
 31
0.0
  0
LINE
  5
4F8
330
1F
100
AcDbEntity
  8
0
  6
Continuous
 62
     7
370
    15
100
AcDbLine
 10
-28.88329122366128
 20
-396.0439748410235
 30
0.0
 11
-28.88329122366122
 21
-416.0439748410234
 31
0.0
  0
LINE
  5
4F9
330
1F
100
AcDbEntity
  8
0
  6
Continuous
 62
     7
370
    15
100
AcDbLine
 10
-38.88329122366122
 20
-396.0439748410235
 30
0.0
 11
-36.53178264837533
 21
-396.0439748410234
 31
0.0
  0
LINE
  5
4FA
330
1F
100
AcDbEntity
  8
0
  6
Continuous
 62
     7
370
    15
100
AcDbLine
 10
-34.53178264837533
 20
-396.0439748410235
 30
0.0
 11
-28.88329122366128
 21
-396.0439748410235
 31
0.0
  0
LINE
  5
4FB
330
1F
100
AcDbEntity
  8
0
  6
Continuous
 62
     7
370
    15
100
AcDbLine
 10
-38.88329122366122
 20
-416.0439748410234
 30
0.0
 11
-38.88329122366122
 21
-396.0439748410235
 31
0.0
  0
LINE
  5
4FC
330
1F
100
AcDbEntity
  8
0
  6
Continuous
 62
     7
370
    15
100
AcDbLine
 10
-28.88329122366122
 20
-416.0439748410234
 30
0.0
 11
-34.53178264837533
 21
-416.0439748410234
 31
0.0
  0
LINE
  5
4FD
330
1F
100
AcDbEntity
  8
0
  6
Continuous
 62
     7
370
    15
100
AcDbLine
 10
-36.53178264837533
 20
-416.0439748410234
 30
0.0
 11
-38.88329122366122
 21
-416.0439748410234
 31
0.0
  0
LINE
  5
4FE
330
1F
100
AcDbEntity
  8
0
  6
Continuous
 62
     7
370
    15
100
AcDbLine
 10
1.116708776338754
 20
-396.0439748410237
 30
0.0
 11
1.116708776338754
 21
-416.0439748410237
 31
0.0
  0
LINE
  5
4FF
330
1F
100
AcDbEntity
  8
0
  6
Continuous
 62
     7
370
    15
100
AcDbLine
 10
-8.883291223661245
 20
-396.0439748410237
 30
0.0
 11
1.116708776338754
 21
-396.0439748410237
 31
0.0
  0
LINE
  5
500
330
1F
100
AcDbEntity
  8
0
  6
Continuous
 62
     7
370
    15
100
AcDbLine
 10
-8.883291223661245
 20
-416.0439748410237
 30
0.0
 11
-8.883291223661245
 21
-396.0439748410237
 31
0.0
  0
LINE
  5
501
330
1F
100
AcDbEntity
  8
0
  6
Continuous
 62
     7
370
    15
100
AcDbLine
 10
1.116708776338754
 20
-416.0439748410237
 30
0.0
 11
-8.883291223661245
 21
-416.0439748410237
 31
0.0
  0
LINE
  5
502
330
1F
100
AcDbEntity
  8
0
  6
Continuous
 62
     7
370
    15
100
AcDbLine
 10
31.11670877633879
 20
-396.0439748410241
 30
0.0
 11
31.11670877633879
 21
-416.0439748410241
 31
0.0
  0
LINE
  5
503
330
1F
100
AcDbEntity
  8
0
  6
Continuous
 62
     7
370
    15
100
AcDbLine
 10
21.11670877633878
 20
-396.0439748410241
 30
0.0
 11
31.11670877633879
 21
-396.0439748410241
 31
0.0
  0
LINE
  5
504
330
1F
100
AcDbEntity
  8
0
  6
Continuous
 62
     7
370
    15
100
AcDbLine
 10
21.11670877633878
 20
-416.0439748410241
 30
0.0
 11
21.11670877633878
 21
-396.0439748410241
 31
0.0
  0
LINE
  5
505
330
1F
100
AcDbEntity
  8
0
  6
Continuous
 62
     7
370
    15
100
AcDbLine
 10
31.11670877633879
 20
-416.0439748410241
 30
0.0
 11
21.11670877633878
 21
-416.0439748410241
 31
0.0
  0
LINE
  5
506
330
1F
100
AcDbEntity
  8
0
  6
Continuous
 62
     7
370
    15
100
AcDbLine
 10
61.11670877633869
 20
-396.0439748410243
 30
0.0
 11
61.11670877633875
 21
-416.0439748410243
 31
0.0
  0
LINE
  5
507
330
1F
100
AcDbEntity
  8
0
  6
Continuous
 62
     7
370
    15
100
AcDbLine
 10
51.11670877633875
 20
-396.0439748410243
 30
0.0
 11
61.11670877633869
 21
-396.0439748410243
 31
0.0
  0
LINE
  5
508
330
1F
100
AcDbEntity
  8
0
  6
Continuous
 62
     7
370
    15
100
AcDbLine
 10
51.11670877633875
 20
-416.0439748410243
 30
0.0
 11
51.11670877633875
 21
-396.0439748410243
 31
0.0
  0
LINE
  5
509
330
1F
100
AcDbEntity
  8
0
  6
Continuous
 62
     7
370
    15
100
AcDbLine
 10
61.11670877633875
 20
-416.0439748410243
 30
0.0
 11
51.11670877633875
 21
-416.0439748410243
 31
0.0
  0
LINE
  5
50A
330
1F
100
AcDbEntity
  8
0
  6
Continuous
 62
     7
370
    15
100
AcDbLine
 10
91.11670877633878
 20
-396.0439748410246
 30
0.0
 11
91.11670877633878
 21
-416.0439748410246
 31
0.0
  0
LINE
  5
50B
330
1F
100
AcDbEntity
  8
0
  6
Continuous
 62
     7
370
    15
100
AcDbLine
 10
81.11670877633878
 20
-396.0439748410246
 30
0.0
 11
91.11670877633878
 21
-396.0439748410246
 31
0.0
  0
LINE
  5
50C
330
1F
100
AcDbEntity
  8
0
  6
Continuous
 62
     7
370
    15
100
AcDbLine
 10
81.11670877633878
 20
-416.0439748410246
 30
0.0
 11
81.11670877633878
 21
-396.0439748410246
 31
0.0
  0
LINE
  5
50D
330
1F
100
AcDbEntity
  8
0
  6
Continuous
 62
     7
370
    15
100
AcDbLine
 10
91.11670877633878
 20
-416.0439748410246
 30
0.0
 11
81.11670877633878
 21
-416.0439748410246
 31
0.0
  0
LINE
  5
50E
330
1F
100
AcDbEntity
  8
0
  6
Continuous
 62
     7
370
    15
100
AcDbLine
 10
121.1167087763387
 20
-396.043974841025
 30
0.0
 11
121.1167087763387
 21
-416.0439748410249
 31
0.0
  0
LINE
  5
50F
330
1F
100
AcDbEntity
  8
0
  6
Continuous
 62
     7
370
    15
100
AcDbLine
 10
111.1167087763387
 20
-396.043974841025
 30
0.0
 11
121.1167087763387
 21
-396.043974841025
 31
0.0
  0
LINE
  5
510
330
1F
100
AcDbEntity
  8
0
  6
Continuous
 62
     7
370
    15
100
AcDbLine
 10
111.1167087763387
 20
-416.0439748410249
 30
0.0
 11
111.1167087763387
 21
-396.043974841025
 31
0.0
  0
LINE
  5
511
330
1F
100
AcDbEntity
  8
0
  6
Continuous
 62
     7
370
    15
100
AcDbLine
 10
121.1167087763387
 20
-416.0439748410249
 30
0.0
 11
111.1167087763387
 21
-416.0439748410249
 31
0.0
  0
LINE
  5
512
330
1F
100
AcDbEntity
  8
0
  6
Continuous
 62
     7
370
    15
100
AcDbLine
 10
151.1167087763387
 20
-396.0439748410252
 30
0.0
 11
151.1167087763387
 21
-416.0439748410252
 31
0.0
  0
LINE
  5
513
330
1F
100
AcDbEntity
  8
0
  6
Continuous
 62
     7
370
    15
100
AcDbLine
 10
141.1167087763387
 20
-396.0439748410252
 30
0.0
 11
151.1167087763387
 21
-396.0439748410252
 31
0.0
  0
LINE
  5
514
330
1F
100
AcDbEntity
  8
0
  6
Continuous
 62
     7
370
    15
100
AcDbLine
 10
141.1167087763387
 20
-416.0439748410252
 30
0.0
 11
141.1167087763387
 21
-396.0439748410252
 31
0.0
  0
LINE
  5
515
330
1F
100
AcDbEntity
  8
0
  6
Continuous
 62
     7
370
    15
100
AcDbLine
 10
151.1167087763387
 20
-416.0439748410252
 30
0.0
 11
141.1167087763387
 21
-416.0439748410252
 31
0.0
  0
LINE
  5
516
330
1F
100
AcDbEntity
  8
0
  6
Continuous
 62
     7
370
    15
100
AcDbLine
 10
181.1167087763388
 20
-396.0439748410257
 30
0.0
 11
181.1167087763388
 21
-416.0439748410256
 31
0.0
  0
LINE
  5
517
330
1F
100
AcDbEntity
  8
0
  6
Continuous
 62
     7
370
    15
100
AcDbLine
 10
171.1167087763388
 20
-396.0439748410257
 30
0.0
 11
181.1167087763388
 21
-396.0439748410257
 31
0.0
  0
LINE
  5
518
330
1F
100
AcDbEntity
  8
0
  6
Continuous
 62
     7
370
    15
100
AcDbLine
 10
171.1167087763388
 20
-416.0439748410256
 30
0.0
 11
171.1167087763388
 21
-396.0439748410257
 31
0.0
  0
LINE
  5
519
330
1F
100
AcDbEntity
  8
0
  6
Continuous
 62
     7
370
    15
100
AcDbLine
 10
181.1167087763388
 20
-416.0439748410256
 30
0.0
 11
171.1167087763388
 21
-416.0439748410256
 31
0.0
  0
LINE
  5
51A
330
1F
100
AcDbEntity
  8
0
  6
Continuous
 62
     7
370
    15
100
AcDbLine
 10
211.1167087763388
 20
-396.0439748410259
 30
0.0
 11
211.1167087763388
 21
-416.0439748410259
 31
0.0
  0
LINE
  5
51B
330
1F
100
AcDbEntity
  8
0
  6
Continuous
 62
     7
370
    15
100
AcDbLine
 10
201.1167087763388
 20
-396.0439748410259
 30
0.0
 11
211.1167087763388
 21
-396.0439748410259
 31
0.0
  0
LINE
  5
51C
330
1F
100
AcDbEntity
  8
0
  6
Continuous
 62
     7
370
    15
100
AcDbLine
 10
201.1167087763388
 20
-416.0439748410259
 30
0.0
 11
201.1167087763388
 21
-396.0439748410259
 31
0.0
  0
LINE
  5
51D
330
1F
100
AcDbEntity
  8
0
  6
Continuous
 62
     7
370
    15
100
AcDbLine
 10
211.1167087763388
 20
-416.0439748410259
 30
0.0
 11
201.1167087763388
 21
-416.0439748410259
 31
0.0
  0
LINE
  5
51E
330
1F
100
AcDbEntity
  8
0
  6
Continuous
 62
     7
370
    15
100
AcDbLine
 10
241.1167087763388
 20
-396.0439748410262
 30
0.0
 11
241.1167087763387
 21
-416.0439748410261
 31
0.0
  0
LINE
  5
51F
330
1F
100
AcDbEntity
  8
0
  6
Continuous
 62
     7
370
    15
100
AcDbLine
 10
231.4682173516247
 20
-396.0439748410262
 30
0.0
 11
241.1167087763388
 21
-396.0439748410262
 31
0.0
  0
LINE
  5
520
330
1F
100
AcDbEntity
  8
0
  6
Continuous
 62
     7
370
    15
100
AcDbLine
 10
241.1167087763387
 20
-416.0439748410261
 30
0.0
 11
231.4682173516247
 21
-416.0439748410261
 31
0.0
  0
LINE
  5
521
330
1F
100
AcDbEntity
  8
0
  6
Continuous
 62
     7
370
    15
100
AcDbLine
 10
271.1167087763387
 20
-396.0439748410265
 30
0.0
 11
271.1167087763387
 21
-416.0439748410265
 31
0.0
  0
LINE
  5
522
330
1F
100
AcDbEntity
  8
0
  6
Continuous
 62
     7
370
    15
100
AcDbLine
 10
261.1167087763387
 20
-396.0439748410265
 30
0.0
 11
271.1167087763387
 21
-396.0439748410265
 31
0.0
  0
LINE
  5
523
330
1F
100
AcDbEntity
  8
0
  6
Continuous
 62
     7
370
    15
100
AcDbLine
 10
261.1167087763387
 20
-416.0439748410265
 30
0.0
 11
261.1167087763387
 21
-396.0439748410265
 31
0.0
  0
LINE
  5
524
330
1F
100
AcDbEntity
  8
0
  6
Continuous
 62
     7
370
    15
100
AcDbLine
 10
271.1167087763387
 20
-416.0439748410265
 30
0.0
 11
261.1167087763387
 21
-416.0439748410265
 31
0.0
  0
LINE
  5
525
330
1F
100
AcDbEntity
  8
0
  6
Continuous
 62
     7
370
    15
100
AcDbLine
 10
301.1167087763388
 20
-396.0439748410268
 30
0.0
 11
301.1167087763388
 21
-416.0439748410268
 31
0.0
  0
LINE
  5
526
330
1F
100
AcDbEntity
  8
0
  6
Continuous
 62
     7
370
    15
100
AcDbLine
 10
291.1167087763388
 20
-396.0439748410268
 30
0.0
 11
301.1167087763388
 21
-396.0439748410268
 31
0.0
  0
LINE
  5
527
330
1F
100
AcDbEntity
  8
0
  6
Continuous
 62
     7
370
    15
100
AcDbLine
 10
291.1167087763388
 20
-416.0439748410268
 30
0.0
 11
291.1167087763388
 21
-396.0439748410268
 31
0.0
  0
LINE
  5
528
330
1F
100
AcDbEntity
  8
0
  6
Continuous
 62
     7
370
    15
100
AcDbLine
 10
301.1167087763388
 20
-416.0439748410268
 30
0.0
 11
291.1167087763388
 21
-416.0439748410268
 31
0.0
  0
LINE
  5
529
330
1F
100
AcDbEntity
  8
0
  6
Continuous
 62
     7
370
    15
100
AcDbLine
 10
-135.7246417142885
 20
-460.0266722993316
 30
0.0
 11
-34.53178264837536
 21
-460.0266722993316
 31
0.0
  0
LINE
  5
52A
330
1F
100
AcDbEntity
  8
0
  6
Continuous
 62
     7
370
    15
100
AcDbLine
 10
-135.7246417142885
 20
-431.2313377674453
 30
0.0
 11
-135.7246417142885
 21
-460.0266722993316
 31
0.0
  0
LINE
  5
52B
330
1F
100
AcDbEntity
  8
0
  6
Continuous
 62
     7
370
    15
100
AcDbLine
 10
327.2753582857115
 20
-431.2313377674453
 30
0.0
 11
327.2753582857115
 21
-460.0266722993316
 31
0.0
  0
LINE
  5
52C
330
1F
100
AcDbEntity
  8
0
  6
Continuous
 62
     7
370
    15
100
AcDbLine
 10
229.4682173516247
 20
-460.0266722993316
 30
0.0
 11
327.2753582857115
 21
-460.0266722993316
 31
0.0
  0
LINE
  5
52D
330
1F
100
AcDbEntity
  8
0
  6
Continuous
 62
     7
370
    15
100
AcDbLine
 10
306.1167087763388
 20
-496.043974841027
 30
0.0
 11
316.1167087763388
 21
-496.043974841027
 31
0.0
  0
LINE
  5
52E
330
1F
100
AcDbEntity
  8
0
  6
Continuous
 62
     7
370
    15
100
AcDbLine
 10
316.1167087763388
 20
-496.043974841027
 30
0.0
 11
316.1167087763388
 21
-476.043974841027
 31
0.0
  0
LINE
  5
52F
330
1F
100
AcDbEntity
  8
0
  6
Continuous
 62
     7
370
    15
100
AcDbLine
 10
316.1167087763388
 20
-476.043974841027
 30
0.0
 11
306.1167087763388
 21
-476.043974841027
 31
0.0
  0
LINE
  5
530
330
1F
100
AcDbEntity
  8
0
  6
Continuous
 62
     7
370
    15
100
AcDbLine
 10
306.1167087763388
 20
-476.043974841027
 30
0.0
 11
306.1167087763388
 21
-496.043974841027
 31
0.0
  0
LINE
  5
531
330
1F
100
AcDbEntity
  8
0
  6
Continuous
 62
     7
370
    15
100
AcDbLine
 10
276.1167087763387
 20
-496.0439748410267
 30
0.0
 11
286.1167087763388
 21
-496.0439748410267
 31
0.0
  0
LINE
  5
532
330
1F
100
AcDbEntity
  8
0
  6
Continuous
 62
     7
370
    15
100
AcDbLine
 10
286.1167087763388
 20
-496.0439748410267
 30
0.0
 11
286.1167087763388
 21
-476.0439748410266
 31
0.0
  0
LINE
  5
533
330
1F
100
AcDbEntity
  8
0
  6
Continuous
 62
     7
370
    15
100
AcDbLine
 10
286.1167087763388
 20
-476.0439748410266
 30
0.0
 11
276.1167087763387
 21
-476.0439748410266
 31
0.0
  0
LINE
  5
534
330
1F
100
AcDbEntity
  8
0
  6
Continuous
 62
     7
370
    15
100
AcDbLine
 10
276.1167087763387
 20
-476.0439748410266
 30
0.0
 11
276.1167087763387
 21
-496.0439748410267
 31
0.0
  0
LINE
  5
535
330
1F
100
AcDbEntity
  8
0
  6
Continuous
 62
     7
370
    15
100
AcDbLine
 10
246.1167087763387
 20
-496.0439748410264
 30
0.0
 11
256.1167087763387
 21
-496.0439748410264
 31
0.0
  0
LINE
  5
536
330
1F
100
AcDbEntity
  8
0
  6
Continuous
 62
     7
370
    15
100
AcDbLine
 10
256.1167087763387
 20
-496.0439748410264
 30
0.0
 11
256.1167087763387
 21
-476.0439748410264
 31
0.0
  0
LINE
  5
537
330
1F
100
AcDbEntity
  8
0
  6
Continuous
 62
     7
370
    15
100
AcDbLine
 10
256.1167087763387
 20
-476.0439748410264
 30
0.0
 11
246.1167087763387
 21
-476.0439748410264
 31
0.0
  0
LINE
  5
538
330
1F
100
AcDbEntity
  8
0
  6
Continuous
 62
     7
370
    15
100
AcDbLine
 10
246.1167087763387
 20
-476.0439748410264
 30
0.0
 11
246.1167087763387
 21
-496.0439748410264
 31
0.0
  0
LINE
  5
539
330
1F
100
AcDbEntity
  8
0
  6
Continuous
 62
     7
370
    15
100
AcDbLine
 10
216.1167087763388
 20
-496.043974841026
 30
0.0
 11
226.1167087763388
 21
-496.043974841026
 31
0.0
  0
LINE
  5
53A
330
1F
100
AcDbEntity
  8
0
  6
Continuous
 62
     7
370
    15
100
AcDbLine
 10
226.1167087763388
 20
-496.043974841026
 30
0.0
 11
226.1167087763388
 21
-476.043974841026
 31
0.0
  0
LINE
  5
53B
330
1F
100
AcDbEntity
  8
0
  6
Continuous
 62
     7
370
    15
100
AcDbLine
 10
226.1167087763388
 20
-476.043974841026
 30
0.0
 11
216.1167087763388
 21
-476.043974841026
 31
0.0
  0
LINE
  5
53C
330
1F
100
AcDbEntity
  8
0
  6
Continuous
 62
     7
370
    15
100
AcDbLine
 10
216.1167087763388
 20
-476.043974841026
 30
0.0
 11
216.1167087763388
 21
-496.043974841026
 31
0.0
  0
LINE
  5
53D
330
1F
100
AcDbEntity
  8
0
  6
Continuous
 62
     7
370
    15
100
AcDbLine
 10
186.1167087763388
 20
-496.0439748410257
 30
0.0
 11
196.1167087763388
 21
-496.0439748410257
 31
0.0
  0
LINE
  5
53E
330
1F
100
AcDbEntity
  8
0
  6
Continuous
 62
     7
370
    15
100
AcDbLine
 10
196.1167087763388
 20
-496.0439748410257
 30
0.0
 11
196.1167087763388
 21
-476.0439748410257
 31
0.0
  0
LINE
  5
53F
330
1F
100
AcDbEntity
  8
0
  6
Continuous
 62
     7
370
    15
100
AcDbLine
 10
196.1167087763388
 20
-476.0439748410257
 30
0.0
 11
186.1167087763388
 21
-476.0439748410257
 31
0.0
  0
LINE
  5
540
330
1F
100
AcDbEntity
  8
0
  6
Continuous
 62
     7
370
    15
100
AcDbLine
 10
186.1167087763388
 20
-476.0439748410257
 30
0.0
 11
186.1167087763388
 21
-496.0439748410257
 31
0.0
  0
LINE
  5
541
330
1F
100
AcDbEntity
  8
0
  6
Continuous
 62
     7
370
    15
100
AcDbLine
 10
156.1167087763387
 20
-496.0439748410254
 30
0.0
 11
166.1167087763388
 21
-496.0439748410254
 31
0.0
  0
LINE
  5
542
330
1F
100
AcDbEntity
  8
0
  6
Continuous
 62
     7
370
    15
100
AcDbLine
 10
166.1167087763388
 20
-496.0439748410254
 30
0.0
 11
166.1167087763388
 21
-476.0439748410255
 31
0.0
  0
LINE
  5
543
330
1F
100
AcDbEntity
  8
0
  6
Continuous
 62
     7
370
    15
100
AcDbLine
 10
166.1167087763388
 20
-476.0439748410255
 30
0.0
 11
156.1167087763387
 21
-476.0439748410255
 31
0.0
  0
LINE
  5
544
330
1F
100
AcDbEntity
  8
0
  6
Continuous
 62
     7
370
    15
100
AcDbLine
 10
156.1167087763387
 20
-476.0439748410255
 30
0.0
 11
156.1167087763387
 21
-496.0439748410254
 31
0.0
  0
LINE
  5
545
330
1F
100
AcDbEntity
  8
0
  6
Continuous
 62
     7
370
    15
100
AcDbLine
 10
126.1167087763387
 20
-496.0439748410251
 30
0.0
 11
136.1167087763387
 21
-496.0439748410251
 31
0.0
  0
LINE
  5
546
330
1F
100
AcDbEntity
  8
0
  6
Continuous
 62
     7
370
    15
100
AcDbLine
 10
136.1167087763387
 20
-496.0439748410251
 30
0.0
 11
136.1167087763387
 21
-476.043974841025
 31
0.0
  0
LINE
  5
547
330
1F
100
AcDbEntity
  8
0
  6
Continuous
 62
     7
370
    15
100
AcDbLine
 10
136.1167087763387
 20
-476.043974841025
 30
0.0
 11
126.1167087763387
 21
-476.043974841025
 31
0.0
  0
LINE
  5
548
330
1F
100
AcDbEntity
  8
0
  6
Continuous
 62
     7
370
    15
100
AcDbLine
 10
126.1167087763387
 20
-476.043974841025
 30
0.0
 11
126.1167087763387
 21
-496.0439748410251
 31
0.0
  0
LINE
  5
549
330
1F
100
AcDbEntity
  8
0
  6
Continuous
 62
     7
370
    15
100
AcDbLine
 10
96.11670877633873
 20
-496.0439748410248
 30
0.0
 11
106.1167087763387
 21
-496.0439748410248
 31
0.0
  0
LINE
  5
54A
330
1F
100
AcDbEntity
  8
0
  6
Continuous
 62
     7
370
    15
100
AcDbLine
 10
106.1167087763387
 20
-496.0439748410248
 30
0.0
 11
106.1167087763387
 21
-476.0439748410248
 31
0.0
  0
LINE
  5
54B
330
1F
100
AcDbEntity
  8
0
  6
Continuous
 62
     7
370
    15
100
AcDbLine
 10
106.1167087763387
 20
-476.0439748410248
 30
0.0
 11
96.11670877633873
 21
-476.0439748410248
 31
0.0
  0
LINE
  5
54C
330
1F
100
AcDbEntity
  8
0
  6
Continuous
 62
     7
370
    15
100
AcDbLine
 10
96.11670877633873
 20
-476.0439748410248
 30
0.0
 11
96.11670877633873
 21
-496.0439748410248
 31
0.0
  0
LINE
  5
54D
330
1F
100
AcDbEntity
  8
0
  6
Continuous
 62
     7
370
    15
100
AcDbLine
 10
66.11670877633878
 20
-496.0439748410244
 30
0.0
 11
76.11670877633878
 21
-496.0439748410244
 31
0.0
  0
LINE
  5
54E
330
1F
100
AcDbEntity
  8
0
  6
Continuous
 62
     7
370
    15
100
AcDbLine
 10
76.11670877633878
 20
-496.0439748410244
 30
0.0
 11
76.11670877633867
 21
-476.0439748410245
 31
0.0
  0
LINE
  5
54F
330
1F
100
AcDbEntity
  8
0
  6
Continuous
 62
     7
370
    15
100
AcDbLine
 10
76.11670877633867
 20
-476.0439748410245
 30
0.0
 11
66.11670877633878
 21
-476.0439748410245
 31
0.0
  0
LINE
  5
550
330
1F
100
AcDbEntity
  8
0
  6
Continuous
 62
     7
370
    15
100
AcDbLine
 10
66.11670877633878
 20
-476.0439748410245
 30
0.0
 11
66.11670877633878
 21
-496.0439748410244
 31
0.0
  0
LINE
  5
551
330
1F
100
AcDbEntity
  8
0
  6
Continuous
 62
     7
370
    15
100
AcDbLine
 10
36.11670877633873
 20
-496.0439748410242
 30
0.0
 11
46.11670877633872
 21
-496.0439748410242
 31
0.0
  0
LINE
  5
552
330
1F
100
AcDbEntity
  8
0
  6
Continuous
 62
     7
370
    15
100
AcDbLine
 10
46.11670877633872
 20
-496.0439748410242
 30
0.0
 11
46.11670877633867
 21
-476.0439748410242
 31
0.0
  0
LINE
  5
553
330
1F
100
AcDbEntity
  8
0
  6
Continuous
 62
     7
370
    15
100
AcDbLine
 10
46.11670877633867
 20
-476.0439748410242
 30
0.0
 11
36.11670877633873
 21
-476.0439748410242
 31
0.0
  0
LINE
  5
554
330
1F
100
AcDbEntity
  8
0
  6
Continuous
 62
     7
370
    15
100
AcDbLine
 10
36.11670877633873
 20
-476.0439748410242
 30
0.0
 11
36.11670877633873
 21
-496.0439748410242
 31
0.0
  0
LINE
  5
555
330
1F
100
AcDbEntity
  8
0
  6
Continuous
 62
     7
370
    15
100
AcDbLine
 10
6.116708776338754
 20
-496.0439748410238
 30
0.0
 11
16.11670877633875
 21
-496.0439748410238
 31
0.0
  0
LINE
  5
556
330
1F
100
AcDbEntity
  8
0
  6
Continuous
 62
     7
370
    15
100
AcDbLine
 10
16.11670877633875
 20
-496.0439748410238
 30
0.0
 11
16.11670877633875
 21
-476.0439748410239
 31
0.0
  0
LINE
  5
557
330
1F
100
AcDbEntity
  8
0
  6
Continuous
 62
     7
370
    15
100
AcDbLine
 10
16.11670877633875
 20
-476.0439748410239
 30
0.0
 11
6.116708776338754
 21
-476.0439748410239
 31
0.0
  0
LINE
  5
558
330
1F
100
AcDbEntity
  8
0
  6
Continuous
 62
     7
370
    15
100
AcDbLine
 10
6.116708776338754
 20
-476.0439748410239
 30
0.0
 11
6.116708776338754
 21
-496.0439748410238
 31
0.0
  0
LINE
  5
559
330
1F
100
AcDbEntity
  8
0
  6
Continuous
 62
     7
370
    15
100
AcDbLine
 10
-23.88329122366122
 20
-496.0439748410236
 30
0.0
 11
-13.88329122366122
 21
-496.0439748410236
 31
0.0
  0
LINE
  5
55A
330
1F
100
AcDbEntity
  8
0
  6
Continuous
 62
     7
370
    15
100
AcDbLine
 10
-13.88329122366122
 20
-496.0439748410236
 30
0.0
 11
-13.88329122366127
 21
-476.0439748410234
 31
0.0
  0
LINE
  5
55B
330
1F
100
AcDbEntity
  8
0
  6
Continuous
 62
     7
370
    15
100
AcDbLine
 10
-13.88329122366127
 20
-476.0439748410234
 30
0.0
 11
-23.88329122366122
 21
-476.0439748410234
 31
0.0
  0
LINE
  5
55C
330
1F
100
AcDbEntity
  8
0
  6
Continuous
 62
     7
370
    15
100
AcDbLine
 10
-23.88329122366122
 20
-476.0439748410234
 30
0.0
 11
-23.88329122366122
 21
-496.0439748410236
 31
0.0
  0
LINE
  5
55D
330
1F
100
AcDbEntity
  8
0
  6
Continuous
 62
     7
370
    15
100
AcDbLine
 10
-53.88329122366124
 20
-496.0439748410232
 30
0.0
 11
-43.88329122366124
 21
-496.0439748410232
 31
0.0
  0
LINE
  5
55E
330
1F
100
AcDbEntity
  8
0
  6
Continuous
 62
     7
370
    15
100
AcDbLine
 10
-43.88329122366124
 20
-496.0439748410232
 30
0.0
 11
-43.88329122366127
 21
-476.0439748410233
 31
0.0
  0
LINE
  5
55F
330
1F
100
AcDbEntity
  8
0
  6
Continuous
 62
     7
370
    15
100
AcDbLine
 10
-43.88329122366127
 20
-476.0439748410233
 30
0.0
 11
-53.88329122366124
 21
-476.0439748410233
 31
0.0
  0
LINE
  5
560
330
1F
100
AcDbEntity
  8
0
  6
Continuous
 62
     7
370
    15
100
AcDbLine
 10
-53.88329122366124
 20
-476.0439748410233
 30
0.0
 11
-53.88329122366124
 21
-496.0439748410232
 31
0.0
  0
LINE
  5
561
330
1F
100
AcDbEntity
  8
0
  6
Continuous
 62
     7
370
    15
100
AcDbLine
 10
-83.88329122366128
 20
-496.0439748410229
 30
0.0
 11
-73.88329122366126
 21
-496.0439748410229
 31
0.0
  0
LINE
  5
562
330
1F
100
AcDbEntity
  8
0
  6
Continuous
 62
     7
370
    15
100
AcDbLine
 10
-73.88329122366126
 20
-496.0439748410229
 30
0.0
 11
-73.88329122366132
 21
-476.0439748410229
 31
0.0
  0
LINE
  5
563
330
1F
100
AcDbEntity
  8
0
  6
Continuous
 62
     7
370
    15
100
AcDbLine
 10
-73.88329122366132
 20
-476.0439748410229
 30
0.0
 11
-83.88329122366128
 21
-476.0439748410229
 31
0.0
  0
LINE
  5
564
330
1F
100
AcDbEntity
  8
0
  6
Continuous
 62
     7
370
    15
100
AcDbLine
 10
-83.88329122366128
 20
-476.0439748410229
 30
0.0
 11
-83.88329122366128
 21
-496.0439748410229
 31
0.0
  0
LINE
  5
565
330
1F
100
AcDbEntity
  8
0
  6
Continuous
 62
     7
370
    15
100
AcDbLine
 10
-113.8832912236612
 20
-496.0439748410226
 30
0.0
 11
-103.8832912236612
 21
-496.0439748410226
 31
0.0
  0
LINE
  5
566
330
1F
100
AcDbEntity
  8
0
  6
Continuous
 62
     7
370
    15
100
AcDbLine
 10
-103.8832912236612
 20
-496.0439748410226
 30
0.0
 11
-103.8832912236612
 21
-476.0439748410226
 31
0.0
  0
LINE
  5
567
330
1F
100
AcDbEntity
  8
0
  6
Continuous
 62
     7
370
    15
100
AcDbLine
 10
-103.8832912236612
 20
-476.0439748410226
 30
0.0
 11
-113.8832912236612
 21
-476.0439748410226
 31
0.0
  0
LINE
  5
568
330
1F
100
AcDbEntity
  8
0
  6
Continuous
 62
     7
370
    15
100
AcDbLine
 10
-113.8832912236612
 20
-476.0439748410226
 30
0.0
 11
-113.8832912236612
 21
-496.0439748410226
 31
0.0
  0
LINE
  5
569
330
1F
100
AcDbEntity
  8
0
  6
Continuous
 62
     7
370
    15
100
AcDbLine
 10
-135.7246417142885
 20
-500.6290050333884
 30
0.0
 11
327.2753582857115
 21
-500.6290050333884
 31
0.0
  0
LINE
  5
56A
330
1F
100
AcDbEntity
  8
0
  6
Continuous
 62
     7
370
    15
100
AcDbLine
 10
-135.7246417142885
 20
-500.6290050333884
 30
0.0
 11
-135.7246417142885
 21
-460.0266722993316
 31
0.0
  0
LINE
  5
56B
330
1F
100
AcDbEntity
  8
0
  6
Continuous
 62
     7
370
    15
100
AcDbLine
 10
327.2753582857115
 20
-500.6290050333884
 30
0.0
 11
327.2753582857115
 21
-460.0266722993316
 31
0.0
  0
LINE
  5
56C
330
1F
100
AcDbEntity
  8
0
  6
Continuous
 62
     7
370
    15
100
AcDbLine
 10
-128.8832912236612
 20
-496.0439748410224
 30
0.0
 11
-118.8832912236612
 21
-496.0439748410224
 31
0.0
  0
LINE
  5
56D
330
1F
100
AcDbEntity
  8
0
  6
Continuous
 62
     7
370
    15
100
AcDbLine
 10
-118.8832912236612
 20
-496.0439748410224
 30
0.0
 11
-118.8832912236612
 21
-476.0439748410223
 31
0.0
  0
LINE
  5
56E
330
1F
100
AcDbEntity
  8
0
  6
Continuous
 62
     7
370
    15
100
AcDbLine
 10
-118.8832912236612
 20
-476.0439748410223
 30
0.0
 11
-128.8832912236612
 21
-476.0439748410223
 31
0.0
  0
LINE
  5
56F
330
1F
100
AcDbEntity
  8
0
  6
Continuous
 62
     7
370
    15
100
AcDbLine
 10
-128.8832912236612
 20
-476.0439748410223
 30
0.0
 11
-128.8832912236612
 21
-496.0439748410224
 31
0.0
  0
LINE
  5
570
330
1F
100
AcDbEntity
  8
0
  6
Continuous
 62
     7
370
    15
100
AcDbLine
 10
-98.88329122366123
 20
-496.0439748410228
 30
0.0
 11
-88.88329122366121
 21
-496.0439748410228
 31
0.0
  0
LINE
  5
571
330
1F
100
AcDbEntity
  8
0
  6
Continuous
 62
     7
370
    15
100
AcDbLine
 10
-88.88329122366121
 20
-496.0439748410228
 30
0.0
 11
-88.88329122366121
 21
-476.0439748410227
 31
0.0
  0
LINE
  5
572
330
1F
100
AcDbEntity
  8
0
  6
Continuous
 62
     7
370
    15
100
AcDbLine
 10
-88.88329122366121
 20
-476.0439748410227
 30
0.0
 11
-98.88329122366123
 21
-476.0439748410227
 31
0.0
  0
LINE
  5
573
330
1F
100
AcDbEntity
  8
0
  6
Continuous
 62
     7
370
    15
100
AcDbLine
 10
-98.88329122366123
 20
-476.0439748410227
 30
0.0
 11
-98.88329122366123
 21
-496.0439748410228
 31
0.0
  0
LINE
  5
574
330
1F
100
AcDbEntity
  8
0
  6
Continuous
 62
     7
370
    15
100
AcDbLine
 10
-68.88329122366126
 20
-496.043974841023
 30
0.0
 11
-58.88329122366124
 21
-496.043974841023
 31
0.0
  0
LINE
  5
575
330
1F
100
AcDbEntity
  8
0
  6
Continuous
 62
     7
370
    15
100
AcDbLine
 10
-58.88329122366124
 20
-496.043974841023
 30
0.0
 11
-58.8832912236613
 21
-476.043974841023
 31
0.0
  0
LINE
  5
576
330
1F
100
AcDbEntity
  8
0
  6
Continuous
 62
     7
370
    15
100
AcDbLine
 10
-58.8832912236613
 20
-476.043974841023
 30
0.0
 11
-68.88329122366126
 21
-476.043974841023
 31
0.0
  0
LINE
  5
577
330
1F
100
AcDbEntity
  8
0
  6
Continuous
 62
     7
370
    15
100
AcDbLine
 10
-68.88329122366126
 20
-476.043974841023
 30
0.0
 11
-68.88329122366126
 21
-496.043974841023
 31
0.0
  0
LINE
  5
578
330
1F
100
AcDbEntity
  8
0
  6
Continuous
 62
     7
370
    15
100
AcDbLine
 10
-38.88329122366122
 20
-496.0439748410234
 30
0.0
 11
-28.88329122366122
 21
-496.0439748410234
 31
0.0
  0
LINE
  5
579
330
1F
100
AcDbEntity
  8
0
  6
Continuous
 62
     7
370
    15
100
AcDbLine
 10
-28.88329122366122
 20
-496.0439748410234
 30
0.0
 11
-28.88329122366128
 21
-476.0439748410234
 31
0.0
  0
LINE
  5
57A
330
1F
100
AcDbEntity
  8
0
  6
Continuous
 62
     7
370
    15
100
AcDbLine
 10
-28.88329122366128
 20
-476.0439748410234
 30
0.0
 11
-38.88329122366122
 21
-476.0439748410234
 31
0.0
  0
LINE
  5
57B
330
1F
100
AcDbEntity
  8
0
  6
Continuous
 62
     7
370
    15
100
AcDbLine
 10
-38.88329122366122
 20
-476.0439748410234
 30
0.0
 11
-38.88329122366122
 21
-496.0439748410234
 31
0.0
  0
LINE
  5
57C
330
1F
100
AcDbEntity
  8
0
  6
Continuous
 62
     7
370
    15
100
AcDbLine
 10
-8.883291223661245
 20
-496.0439748410236
 30
0.0
 11
1.116708776338754
 21
-496.0439748410236
 31
0.0
  0
LINE
  5
57D
330
1F
100
AcDbEntity
  8
0
  6
Continuous
 62
     7
370
    15
100
AcDbLine
 10
1.116708776338754
 20
-496.0439748410236
 30
0.0
 11
1.116708776338754
 21
-476.0439748410237
 31
0.0
  0
LINE
  5
57E
330
1F
100
AcDbEntity
  8
0
  6
Continuous
 62
     7
370
    15
100
AcDbLine
 10
1.116708776338754
 20
-476.0439748410237
 30
0.0
 11
-8.883291223661245
 21
-476.0439748410237
 31
0.0
  0
LINE
  5
57F
330
1F
100
AcDbEntity
  8
0
  6
Continuous
 62
     7
370
    15
100
AcDbLine
 10
-8.883291223661245
 20
-476.0439748410237
 30
0.0
 11
-8.883291223661245
 21
-496.0439748410236
 31
0.0
  0
LINE
  5
580
330
1F
100
AcDbEntity
  8
0
  6
Continuous
 62
     7
370
    15
100
AcDbLine
 10
21.11670877633878
 20
-496.043974841024
 30
0.0
 11
31.11670877633879
 21
-496.043974841024
 31
0.0
  0
LINE
  5
581
330
1F
100
AcDbEntity
  8
0
  6
Continuous
 62
     7
370
    15
100
AcDbLine
 10
31.11670877633879
 20
-496.043974841024
 30
0.0
 11
31.11670877633879
 21
-476.0439748410239
 31
0.0
  0
LINE
  5
582
330
1F
100
AcDbEntity
  8
0
  6
Continuous
 62
     7
370
    15
100
AcDbLine
 10
31.11670877633879
 20
-476.0439748410239
 30
0.0
 11
21.11670877633878
 21
-476.0439748410239
 31
0.0
  0
LINE
  5
583
330
1F
100
AcDbEntity
  8
0
  6
Continuous
 62
     7
370
    15
100
AcDbLine
 10
21.11670877633878
 20
-476.0439748410239
 30
0.0
 11
21.11670877633878
 21
-496.043974841024
 31
0.0
  0
LINE
  5
584
330
1F
100
AcDbEntity
  8
0
  6
Continuous
 62
     7
370
    15
100
AcDbLine
 10
51.11670877633875
 20
-496.0439748410244
 30
0.0
 11
61.11670877633875
 21
-496.0439748410244
 31
0.0
  0
LINE
  5
585
330
1F
100
AcDbEntity
  8
0
  6
Continuous
 62
     7
370
    15
100
AcDbLine
 10
61.11670877633875
 20
-496.0439748410244
 30
0.0
 11
61.11670877633869
 21
-476.0439748410243
 31
0.0
  0
LINE
  5
586
330
1F
100
AcDbEntity
  8
0
  6
Continuous
 62
     7
370
    15
100
AcDbLine
 10
61.11670877633869
 20
-476.0439748410243
 30
0.0
 11
51.11670877633875
 21
-476.0439748410243
 31
0.0
  0
LINE
  5
587
330
1F
100
AcDbEntity
  8
0
  6
Continuous
 62
     7
370
    15
100
AcDbLine
 10
51.11670877633875
 20
-476.0439748410243
 30
0.0
 11
51.11670877633875
 21
-496.0439748410244
 31
0.0
  0
LINE
  5
588
330
1F
100
AcDbEntity
  8
0
  6
Continuous
 62
     7
370
    15
100
AcDbLine
 10
81.11670877633878
 20
-496.0439748410246
 30
0.0
 11
91.11670877633878
 21
-496.0439748410246
 31
0.0
  0
LINE
  5
589
330
1F
100
AcDbEntity
  8
0
  6
Continuous
 62
     7
370
    15
100
AcDbLine
 10
91.11670877633878
 20
-496.0439748410246
 30
0.0
 11
91.11670877633878
 21
-476.0439748410246
 31
0.0
  0
LINE
  5
58A
330
1F
100
AcDbEntity
  8
0
  6
Continuous
 62
     7
370
    15
100
AcDbLine
 10
91.11670877633878
 20
-476.0439748410246
 30
0.0
 11
81.11670877633878
 21
-476.0439748410246
 31
0.0
  0
LINE
  5
58B
330
1F
100
AcDbEntity
  8
0
  6
Continuous
 62
     7
370
    15
100
AcDbLine
 10
81.11670877633878
 20
-476.0439748410246
 30
0.0
 11
81.11670877633878
 21
-496.0439748410246
 31
0.0
  0
LINE
  5
58C
330
1F
100
AcDbEntity
  8
0
  6
Continuous
 62
     7
370
    15
100
AcDbLine
 10
111.1167087763387
 20
-496.043974841025
 30
0.0
 11
121.1167087763387
 21
-496.043974841025
 31
0.0
  0
LINE
  5
58D
330
1F
100
AcDbEntity
  8
0
  6
Continuous
 62
     7
370
    15
100
AcDbLine
 10
121.1167087763387
 20
-496.043974841025
 30
0.0
 11
121.1167087763387
 21
-476.043974841025
 31
0.0
  0
LINE
  5
58E
330
1F
100
AcDbEntity
  8
0
  6
Continuous
 62
     7
370
    15
100
AcDbLine
 10
121.1167087763387
 20
-476.043974841025
 30
0.0
 11
111.1167087763387
 21
-476.043974841025
 31
0.0
  0
LINE
  5
58F
330
1F
100
AcDbEntity
  8
0
  6
Continuous
 62
     7
370
    15
100
AcDbLine
 10
111.1167087763387
 20
-476.043974841025
 30
0.0
 11
111.1167087763387
 21
-496.043974841025
 31
0.0
  0
LINE
  5
590
330
1F
100
AcDbEntity
  8
0
  6
Continuous
 62
     7
370
    15
100
AcDbLine
 10
141.1167087763387
 20
-496.0439748410252
 30
0.0
 11
151.1167087763387
 21
-496.0439748410252
 31
0.0
  0
LINE
  5
591
330
1F
100
AcDbEntity
  8
0
  6
Continuous
 62
     7
370
    15
100
AcDbLine
 10
151.1167087763387
 20
-496.0439748410252
 30
0.0
 11
151.1167087763387
 21
-476.0439748410252
 31
0.0
  0
LINE
  5
592
330
1F
100
AcDbEntity
  8
0
  6
Continuous
 62
     7
370
    15
100
AcDbLine
 10
151.1167087763387
 20
-476.0439748410252
 30
0.0
 11
141.1167087763387
 21
-476.0439748410252
 31
0.0
  0
LINE
  5
593
330
1F
100
AcDbEntity
  8
0
  6
Continuous
 62
     7
370
    15
100
AcDbLine
 10
141.1167087763387
 20
-476.0439748410252
 30
0.0
 11
141.1167087763387
 21
-496.0439748410252
 31
0.0
  0
LINE
  5
594
330
1F
100
AcDbEntity
  8
0
  6
Continuous
 62
     7
370
    15
100
AcDbLine
 10
171.1167087763388
 20
-496.0439748410255
 30
0.0
 11
181.1167087763388
 21
-496.0439748410255
 31
0.0
  0
LINE
  5
595
330
1F
100
AcDbEntity
  8
0
  6
Continuous
 62
     7
370
    15
100
AcDbLine
 10
181.1167087763388
 20
-496.0439748410255
 30
0.0
 11
181.1167087763388
 21
-476.0439748410256
 31
0.0
  0
LINE
  5
596
330
1F
100
AcDbEntity
  8
0
  6
Continuous
 62
     7
370
    15
100
AcDbLine
 10
181.1167087763388
 20
-476.0439748410256
 30
0.0
 11
171.1167087763388
 21
-476.0439748410256
 31
0.0
  0
LINE
  5
597
330
1F
100
AcDbEntity
  8
0
  6
Continuous
 62
     7
370
    15
100
AcDbLine
 10
171.1167087763388
 20
-476.0439748410256
 30
0.0
 11
171.1167087763388
 21
-496.0439748410255
 31
0.0
  0
LINE
  5
598
330
1F
100
AcDbEntity
  8
0
  6
Continuous
 62
     7
370
    15
100
AcDbLine
 10
201.1167087763388
 20
-496.0439748410259
 30
0.0
 11
211.1167087763388
 21
-496.0439748410259
 31
0.0
  0
LINE
  5
599
330
1F
100
AcDbEntity
  8
0
  6
Continuous
 62
     7
370
    15
100
AcDbLine
 10
211.1167087763388
 20
-496.0439748410259
 30
0.0
 11
211.1167087763388
 21
-476.0439748410259
 31
0.0
  0
LINE
  5
59A
330
1F
100
AcDbEntity
  8
0
  6
Continuous
 62
     7
370
    15
100
AcDbLine
 10
211.1167087763388
 20
-476.0439748410259
 30
0.0
 11
201.1167087763388
 21
-476.0439748410259
 31
0.0
  0
LINE
  5
59B
330
1F
100
AcDbEntity
  8
0
  6
Continuous
 62
     7
370
    15
100
AcDbLine
 10
201.1167087763388
 20
-476.0439748410259
 30
0.0
 11
201.1167087763388
 21
-496.0439748410259
 31
0.0
  0
LINE
  5
59C
330
1F
100
AcDbEntity
  8
0
  6
Continuous
 62
     7
370
    15
100
AcDbLine
 10
231.1167087763388
 20
-496.0439748410262
 30
0.0
 11
241.1167087763387
 21
-496.0439748410262
 31
0.0
  0
LINE
  5
59D
330
1F
100
AcDbEntity
  8
0
  6
Continuous
 62
     7
370
    15
100
AcDbLine
 10
241.1167087763387
 20
-496.0439748410262
 30
0.0
 11
241.1167087763388
 21
-476.0439748410261
 31
0.0
  0
LINE
  5
59E
330
1F
100
AcDbEntity
  8
0
  6
Continuous
 62
     7
370
    15
100
AcDbLine
 10
241.1167087763388
 20
-476.0439748410261
 30
0.0
 11
231.1167087763388
 21
-476.0439748410261
 31
0.0
  0
LINE
  5
59F
330
1F
100
AcDbEntity
  8
0
  6
Continuous
 62
     7
370
    15
100
AcDbLine
 10
231.1167087763388
 20
-476.0439748410261
 30
0.0
 11
231.1167087763388
 21
-496.0439748410262
 31
0.0
  0
LINE
  5
5A0
330
1F
100
AcDbEntity
  8
0
  6
Continuous
 62
     7
370
    15
100
AcDbLine
 10
261.1167087763387
 20
-496.0439748410265
 30
0.0
 11
271.1167087763387
 21
-496.0439748410265
 31
0.0
  0
LINE
  5
5A1
330
1F
100
AcDbEntity
  8
0
  6
Continuous
 62
     7
370
    15
100
AcDbLine
 10
271.1167087763387
 20
-496.0439748410265
 30
0.0
 11
271.1167087763387
 21
-476.0439748410266
 31
0.0
  0
LINE
  5
5A2
330
1F
100
AcDbEntity
  8
0
  6
Continuous
 62
     7
370
    15
100
AcDbLine
 10
271.1167087763387
 20
-476.0439748410266
 30
0.0
 11
261.1167087763387
 21
-476.0439748410266
 31
0.0
  0
LINE
  5
5A3
330
1F
100
AcDbEntity
  8
0
  6
Continuous
 62
     7
370
    15
100
AcDbLine
 10
261.1167087763387
 20
-476.0439748410266
 30
0.0
 11
261.1167087763387
 21
-496.0439748410265
 31
0.0
  0
LINE
  5
5A4
330
1F
100
AcDbEntity
  8
0
  6
Continuous
 62
     7
370
    15
100
AcDbLine
 10
291.1167087763388
 20
-496.0439748410268
 30
0.0
 11
301.1167087763388
 21
-496.0439748410268
 31
0.0
  0
LINE
  5
5A5
330
1F
100
AcDbEntity
  8
0
  6
Continuous
 62
     7
370
    15
100
AcDbLine
 10
301.1167087763388
 20
-496.0439748410268
 30
0.0
 11
301.1167087763388
 21
-476.0439748410268
 31
0.0
  0
LINE
  5
5A6
330
1F
100
AcDbEntity
  8
0
  6
Continuous
 62
     7
370
    15
100
AcDbLine
 10
301.1167087763388
 20
-476.0439748410268
 30
0.0
 11
291.1167087763388
 21
-476.0439748410268
 31
0.0
  0
LINE
  5
5A7
330
1F
100
AcDbEntity
  8
0
  6
Continuous
 62
     7
370
    15
100
AcDbLine
 10
291.1167087763388
 20
-476.0439748410268
 30
0.0
 11
291.1167087763388
 21
-496.0439748410268
 31
0.0
  0
LINE
  5
5A8
330
1F
100
AcDbEntity
  8
0
  6
Continuous
 62
     8
370
    15
100
AcDbLine
 10
-135.7246417142885
 20
-181.0266722993315
 30
0.0
 11
-36.53178264837533
 21
-181.0266722993315
 31
0.0
  0
LINE
  5
5A9
330
1F
100
AcDbEntity
  8
0
  6
Continuous
 62
     8
370
    15
100
AcDbLine
 10
231.4682173516247
 20
-181.0266722993315
 30
0.0
 11
327.2753582857115
 21
-181.0266722993315
 31
0.0
  0
LINE
  5
5AA
330
1F
100
AcDbEntity
  8
0
  6
Continuous
 62
     8
370
    15
100
AcDbLine
 10
231.4682173516247
 20
-290.2542801227154
 30
0.0
 11
327.2753582857115
 21
-290.2542801227154
 31
0.0
  0
LINE
  5
5AB
330
1F
100
AcDbEntity
  8
0
  6
Continuous
 62
     8
370
    15
100
AcDbLine
 10
-135.7246417142885
 20
-290.2542801227154
 30
0.0
 11
-36.53178264837533
 21
-290.2542801227154
 31
0.0
  0
LINE
  5
5AC
330
1F
100
AcDbEntity
  8
0
  6
Continuous
 62
     8
370
    15
100
AcDbLine
 10
-135.7246417142885
 20
-319.0496146546017
 30
0.0
 11
-38.53178264837533
 21
-319.0496146546017
 31
0.0
  0
LINE
  5
5AD
330
1F
100
AcDbEntity
  8
0
  6
Continuous
 62
     8
370
    15
100
AcDbLine
 10
233.4682173516247
 20
-319.0496146546017
 30
0.0
 11
327.2753582857115
 21
-319.0496146546017
 31
0.0
  0
LINE
  5
5AE
330
1F
100
AcDbEntity
  8
0
  6
Continuous
 62
     8
370
    15
100
AcDbLine
 10
231.4682173516247
 20
-431.2313377674453
 30
0.0
 11
327.2753582857115
 21
-431.2313377674453
 31
0.0
  0
LINE
  5
5AF
330
1F
100
AcDbEntity
  8
0
  6
Continuous
 62
     8
370
    15
100
AcDbLine
 10
-135.7246417142885
 20
-431.2313377674453
 30
0.0
 11
-36.53178264837533
 21
-431.2313377674453
 31
0.0
  0
ENDSEC
  0
SECTION
  2
OBJECTS
  0
DICTIONARY
  5
C
330
0
100
AcDbDictionary
281
     1
  3
ACAD_COLOR
350
5DB
  3
ACAD_GROUP
350
D
  3
ACAD_LAYOUT
350
1A
  3
ACAD_MATERIAL
350
5B1
  3
ACAD_MLEADERSTYLE
350
5F0
  3
ACAD_MLINESTYLE
350
17
  3
ACAD_PLOTSETTINGS
350
19
  3
ACAD_PLOTSTYLENAME
350
E
  3
ACAD_SCALELIST
350
5DE
  3
ACAD_TABLESTYLE
350
5DC
  3
ACAD_VISUALSTYLE
350
5CA
  3
ACDB_RECOMPOSE_DATA
350
621
  3
AcDbVariableDictionary
350
61B
  0
DICTIONARY
  5
619
330
10
100
AcDbDictionary
280
     1
281
     1
  3
ADSK_XREC_LAYER_RECONCILED
360
61A
  0
DICTIONARY
  5
5DB
102
{ACAD_REACTORS
330
C
102
}
330
C
100
AcDbDictionary
281
     1
  0
DICTIONARY
  5
D
102
{ACAD_REACTORS
330
C
102
}
330
C
100
AcDbDictionary
281
     1
  0
DICTIONARY
  5
1A
102
{ACAD_REACTORS
330
C
102
}
330
C
100
AcDbDictionary
281
     1
  3
Layout1
350
1E
  3
Layout2
350
26
  3
Model
350
22
  0
DICTIONARY
  5
5B1
102
{ACAD_REACTORS
330
C
102
}
330
C
100
AcDbDictionary
281
     1
  3
ByBlock
350
5BA
  3
ByLayer
350
5B2
  3
Global
350
5C2
  0
DICTIONARY
  5
5F0
102
{ACAD_REACTORS
330
C
102
}
330
C
100
AcDbDictionary
281
     1
  3
Standard
350
5F1
  0
DICTIONARY
  5
17
102
{ACAD_REACTORS
330
C
102
}
330
C
100
AcDbDictionary
281
     1
  3
Standard
350
18
  0
DICTIONARY
  5
19
102
{ACAD_REACTORS
330
C
102
}
330
C
100
AcDbDictionary
281
     1
  0
ACDBDICTIONARYWDFLT
  5
E
102
{ACAD_REACTORS
330
C
102
}
330
C
100
AcDbDictionary
281
     1
  3
Normal
350
F
100
AcDbDictionaryWithDefault
340
F
  0
DICTIONARY
  5
5DE
102
{ACAD_REACTORS
330
C
102
}
330
C
100
AcDbDictionary
281
     1
  3
A0
350
5DF
  3
A1
350
5E0
  3
A2
350
5E1
  3
A3
350
5E2
  3
A4
350
5E3
  3
A5
350
5E4
  3
A6
350
5E5
  3
A7
350
5E6
  3
A8
350
5E7
  3
A9
350
5E8
  3
B0
350
5E9
  3
B1
350
5EA
  3
B2
350
5EB
  3
B3
350
5EC
  3
B4
350
5ED
  3
B5
350
5EE
  3
B6
350
5EF
  0
DICTIONARY
  5
5DC
102
{ACAD_REACTORS
330
C
102
}
330
C
100
AcDbDictionary
281
     1
  3
Standard
350
5DD
  0
DICTIONARY
  5
5CA
102
{ACAD_REACTORS
330
C
102
}
330
C
100
AcDbDictionary
281
     1
  3
2dWireframe
350
5D0
  3
3D Hidden
350
5D2
  3
3dWireframe
350
5D1
  3
Basic
350
5CF
  3
Brighten
350
5D6
  3
ColorChange
350
5DA
  3
Conceptual
350
5D3
  3
Dim
350
5D5
  3
Facepattern
350
5D9
  3
Flat
350
5CB
  3
FlatWithEdges
350
5CC
  3
Gouraud
350
5CD
  3
GouraudWithEdges
350
5CE
  3
Linepattern
350
5D8
  3
Realistic
350
5D4
  3
Thicken
350
5D7
  0
XRECORD
  5
621
102
{ACAD_REACTORS
330
C
102
}
330
C
100
AcDbXrecord
280
     1
 90
        1
330
5DD
  0
DICTIONARY
  5
61B
102
{ACAD_REACTORS
330
C
102
}
330
C
100
AcDbDictionary
281
     1
  3
CANNOSCALE
350
61E
  3
CMLEADERSTYLE
350
61D
  3
CTABLESTYLE
350
61C
  0
XRECORD
  5
61A
102
{ACAD_REACTORS
330
619
102
}
330
619
100
AcDbXrecord
280
     1
290
     1
  0
LAYOUT
  5
1E
102
{ACAD_REACTORS
330
1A
102
}
330
1A
100
AcDbPlotSettings
  1

  2
none_device
  4

  6

 40
0.0
 41
0.0
 42
0.0
 43
0.0
 44
0.0
 45
0.0
 46
0.0
 47
0.0
 48
0.0
 49
0.0
140
0.0
141
0.0
142
1.0
143
1.0
 70
   688
 72
     0
 73
     0
 74
     5
  7

 75
    16
147
1.0
 76
     0
 77
     2
 78
   300
148
0.0
149
0.0
100
AcDbLayout
  1
Layout1
 70
     1
 71
     1
 10
0.0
 20
0.0
 11
420.0
 21
297.0
 12
0.0
 22
0.0
 32
0.0
 14
1.000000000000000E+20
 24
1.000000000000000E+20
 34
1.000000000000000E+20
 15
-1.000000000000000E+20
 25
-1.000000000000000E+20
 35
-1.000000000000000E+20
146
0.0
 13
0.0
 23
0.0
 33
0.0
 16
1.0
 26
0.0
 36
0.0
 17
0.0
 27
1.0
 37
0.0
 76
     0
330
1B
  0
LAYOUT
  5
26
102
{ACAD_REACTORS
330
1A
102
}
330
1A
100
AcDbPlotSettings
  1

  2
none_device
  4

  6

 40
0.0
 41
0.0
 42
0.0
 43
0.0
 44
0.0
 45
0.0
 46
0.0
 47
0.0
 48
0.0
 49
0.0
140
0.0
141
0.0
142
1.0
143
1.0
 70
   688
 72
     0
 73
     0
 74
     5
  7

 75
    16
147
1.0
 76
     0
 77
     2
 78
   300
148
0.0
149
0.0
100
AcDbLayout
  1
Layout2
 70
     1
 71
     2
 10
0.0
 20
0.0
 11
0.0
 21
0.0
 12
0.0
 22
0.0
 32
0.0
 14
0.0
 24
0.0
 34
0.0
 15
0.0
 25
0.0
 35
0.0
146
0.0
 13
0.0
 23
0.0
 33
0.0
 16
1.0
 26
0.0
 36
0.0
 17
0.0
 27
1.0
 37
0.0
 76
     0
330
23
  0
LAYOUT
  5
22
102
{ACAD_REACTORS
330
1A
102
}
330
1A
100
AcDbPlotSettings
  1

  2
none_device
  4

  6

 40
0.0
 41
0.0
 42
0.0
 43
0.0
 44
0.0
 45
0.0
 46
0.0
 47
0.0
 48
0.0
 49
0.0
140
0.0
141
0.0
142
1.0
143
1.0
 70
  1712
 72
     0
 73
     0
 74
     0
  7

 75
     0
147
1.0
 76
     0
 77
     2
 78
   300
148
0.0
149
0.0
100
AcDbLayout
  1
Model
 70
     1
 71
     0
 10
0.0
 20
0.0
 11
279.4
 21
215.9
 12
0.0
 22
0.0
 32
0.0
 14
0.0
 24
0.0
 34
0.0
 15
279.4
 25
215.9
 35
0.0
146
0.0
 13
0.0
 23
0.0
 33
0.0
 16
1.0
 26
0.0
 36
0.0
 17
0.0
 27
1.0
 37
0.0
 76
     0
330
1F
331
29
  0
MATERIAL
  5
5BA
102
{ACAD_XDICTIONARY
360
5BB
102
}
102
{ACAD_REACTORS
330
5B1
102
}
330
5B1
100
AcDbMaterial
  1
ByBlock
 72
     0
 43
0.0008202099737533
 43
0.0
 43
0.0
 43
0.0
 43
0.0
 43
0.0008202099737533
 43
0.0
 43
0.0
 43
0.0
 43
0.0
 43
1.0
 43
0.0
 43
0.0
 43
0.0
 43
0.0
 43
1.0
 77
     0
 47
0.0008202099737533
 47
0.0
 47
0.0
 47
0.0
 47
0.0
 47
0.0008202099737533
 47
0.0
 47
0.0
 47
0.0
 47
0.0
 47
1.0
 47
0.0
 47
0.0
 47
0.0
 47
0.0
 47
1.0
171
     0
 49
0.0008202099737533
 49
0.0
 49
0.0
 49
0.0
 49
0.0
 49
0.0008202099737533
 49
0.0
 49
0.0
 49
0.0
 49
0.0
 49
1.0
 49
0.0
 49
0.0
 49
0.0
 49
0.0
 49
1.0
175
     0
142
0.0008202099737533
142
0.0
142
0.0
142
0.0
142
0.0
142
0.0008202099737533
142
0.0
142
0.0
142
0.0
142
0.0
142
1.0
142
0.0
142
0.0
142
0.0
142
0.0
142
1.0
179
     0
144
0.0008202099737533
144
0.0
144
0.0
144
0.0
144
0.0
144
0.0008202099737533
144
0.0
144
0.0
144
0.0
144
0.0
144
1.0
144
0.0
144
0.0
144
0.0
144
0.0
144
1.0
147
0.0008202099737533
147
0.0
147
0.0
147
0.0
147
0.0
147
0.0008202099737533
147
0.0
147
0.0
147
0.0
147
0.0
147
1.0
147
0.0
147
0.0
147
0.0
147
0.0
147
1.0
  0
MATERIAL
  5
5B2
102
{ACAD_XDICTIONARY
360
5B3
102
}
102
{ACAD_REACTORS
330
5B1
102
}
330
5B1
100
AcDbMaterial
  1
ByLayer
 72
     0
 43
0.0008202099737533
 43
0.0
 43
0.0
 43
0.0
 43
0.0
 43
0.0008202099737533
 43
0.0
 43
0.0
 43
0.0
 43
0.0
 43
1.0
 43
0.0
 43
0.0
 43
0.0
 43
0.0
 43
1.0
 77
     0
 47
0.0008202099737533
 47
0.0
 47
0.0
 47
0.0
 47
0.0
 47
0.0008202099737533
 47
0.0
 47
0.0
 47
0.0
 47
0.0
 47
1.0
 47
0.0
 47
0.0
 47
0.0
 47
0.0
 47
1.0
171
     0
 49
0.0008202099737533
 49
0.0
 49
0.0
 49
0.0
 49
0.0
 49
0.0008202099737533
 49
0.0
 49
0.0
 49
0.0
 49
0.0
 49
1.0
 49
0.0
 49
0.0
 49
0.0
 49
0.0
 49
1.0
175
     0
142
0.0008202099737533
142
0.0
142
0.0
142
0.0
142
0.0
142
0.0008202099737533
142
0.0
142
0.0
142
0.0
142
0.0
142
1.0
142
0.0
142
0.0
142
0.0
142
0.0
142
1.0
179
     0
144
0.0008202099737533
144
0.0
144
0.0
144
0.0
144
0.0
144
0.0008202099737533
144
0.0
144
0.0
144
0.0
144
0.0
144
1.0
144
0.0
144
0.0
144
0.0
144
0.0
144
1.0
147
0.0008202099737533
147
0.0
147
0.0
147
0.0
147
0.0
147
0.0008202099737533
147
0.0
147
0.0
147
0.0
147
0.0
147
1.0
147
0.0
147
0.0
147
0.0
147
0.0
147
1.0
  0
MATERIAL
  5
5C2
102
{ACAD_XDICTIONARY
360
5C3
102
}
102
{ACAD_REACTORS
330
5B1
102
}
330
5B1
100
AcDbMaterial
  1
Global
 72
     0
 43
0.0008202099737533
 43
0.0
 43
0.0
 43
0.0
 43
0.0
 43
0.0008202099737533
 43
0.0
 43
0.0
 43
0.0
 43
0.0
 43
1.0
 43
0.0
 43
0.0
 43
0.0
 43
0.0
 43
1.0
 77
     0
 47
0.0008202099737533
 47
0.0
 47
0.0
 47
0.0
 47
0.0
 47
0.0008202099737533
 47
0.0
 47
0.0
 47
0.0
 47
0.0
 47
1.0
 47
0.0
 47
0.0
 47
0.0
 47
0.0
 47
1.0
171
     0
 49
0.0008202099737533
 49
0.0
 49
0.0
 49
0.0
 49
0.0
 49
0.0008202099737533
 49
0.0
 49
0.0
 49
0.0
 49
0.0
 49
1.0
 49
0.0
 49
0.0
 49
0.0
 49
0.0
 49
1.0
175
     0
142
0.0008202099737533
142
0.0
142
0.0
142
0.0
142
0.0
142
0.0008202099737533
142
0.0
142
0.0
142
0.0
142
0.0
142
1.0
142
0.0
142
0.0
142
0.0
142
0.0
142
1.0
179
     0
144
0.0008202099737533
144
0.0
144
0.0
144
0.0
144
0.0
144
0.0008202099737533
144
0.0
144
0.0
144
0.0
144
0.0
144
1.0
144
0.0
144
0.0
144
0.0
144
0.0
144
1.0
147
0.0008202099737533
147
0.0
147
0.0
147
0.0
147
0.0
147
0.0008202099737533
147
0.0
147
0.0
147
0.0
147
0.0
147
1.0
147
0.0
147
0.0
147
0.0
147
0.0
147
1.0
  0
MLEADERSTYLE
  5
5F1
102
{ACAD_REACTORS
330
5F0
102
}
330
5F0
100
AcDbMLeaderStyle
170
     2
171
     1
172
     0
 90
        2
 40
0.0
 41
0.0
173
     1
 91
-1056964608
340
14
 92
       -2
290
     1
 42
2.0
291
     1
 43
0.36
  3
Standard
 44
4.0
300

342
11
174
     1
178
     6
175
     1
176
     0
 93
-1056964608
 45
4.0
292
     0
297
     0
 46
4.0
 94
-1056964608
 47
1.0
 49
1.0
140
1.0
293
     1
141
0.0
294
     1
177
     0
142
1.0
295
     0
296
     0
143
0.125
1001
ACAD_MLEADERVER
1070
     2
  0
MLINESTYLE
  5
18
102
{ACAD_REACTORS
330
17
102
}
330
17
100
AcDbMlineStyle
  2
STANDARD
 70
     0
  3

 62
   256
 51
90.0
 52
90.0
 71
     2
 49
0.5
 62
   256
  6
BYLAYER
 49
-0.5
 62
   256
  6
BYLAYER
  0
ACDBPLACEHOLDER
  5
F
102
{ACAD_REACTORS
330
E
102
}
330
E
  0
SCALE
  5
5DF
102
{ACAD_REACTORS
330
5DE
102
}
330
5DE
100
AcDbScale
 70
     0
300
1:1
140
1.0
141
1.0
290
     1
  0
SCALE
  5
5E0
102
{ACAD_REACTORS
330
5DE
102
}
330
5DE
100
AcDbScale
 70
     0
300
1:2
140
1.0
141
2.0
290
     0
  0
SCALE
  5
5E1
102
{ACAD_REACTORS
330
5DE
102
}
330
5DE
100
AcDbScale
 70
     0
300
1:4
140
1.0
141
4.0
290
     0
  0
SCALE
  5
5E2
102
{ACAD_REACTORS
330
5DE
102
}
330
5DE
100
AcDbScale
 70
     0
300
1:5
140
1.0
141
5.0
290
     0
  0
SCALE
  5
5E3
102
{ACAD_REACTORS
330
5DE
102
}
330
5DE
100
AcDbScale
 70
     0
300
1:8
140
1.0
141
8.0
290
     0
  0
SCALE
  5
5E4
102
{ACAD_REACTORS
330
5DE
102
}
330
5DE
100
AcDbScale
 70
     0
300
1:10
140
1.0
141
10.0
290
     0
  0
SCALE
  5
5E5
102
{ACAD_REACTORS
330
5DE
102
}
330
5DE
100
AcDbScale
 70
     0
300
1:16
140
1.0
141
16.0
290
     0
  0
SCALE
  5
5E6
102
{ACAD_REACTORS
330
5DE
102
}
330
5DE
100
AcDbScale
 70
     0
300
1:20
140
1.0
141
20.0
290
     0
  0
SCALE
  5
5E7
102
{ACAD_REACTORS
330
5DE
102
}
330
5DE
100
AcDbScale
 70
     0
300
1:30
140
1.0
141
30.0
290
     0
  0
SCALE
  5
5E8
102
{ACAD_REACTORS
330
5DE
102
}
330
5DE
100
AcDbScale
 70
     0
300
1:40
140
1.0
141
40.0
290
     0
  0
SCALE
  5
5E9
102
{ACAD_REACTORS
330
5DE
102
}
330
5DE
100
AcDbScale
 70
     0
300
1:50
140
1.0
141
50.0
290
     0
  0
SCALE
  5
5EA
102
{ACAD_REACTORS
330
5DE
102
}
330
5DE
100
AcDbScale
 70
     0
300
1:100
140
1.0
141
100.0
290
     0
  0
SCALE
  5
5EB
102
{ACAD_REACTORS
330
5DE
102
}
330
5DE
100
AcDbScale
 70
     0
300
2:1
140
2.0
141
1.0
290
     0
  0
SCALE
  5
5EC
102
{ACAD_REACTORS
330
5DE
102
}
330
5DE
100
AcDbScale
 70
     0
300
4:1
140
4.0
141
1.0
290
     0
  0
SCALE
  5
5ED
102
{ACAD_REACTORS
330
5DE
102
}
330
5DE
100
AcDbScale
 70
     0
300
8:1
140
8.0
141
1.0
290
     0
  0
SCALE
  5
5EE
102
{ACAD_REACTORS
330
5DE
102
}
330
5DE
100
AcDbScale
 70
     0
300
10:1
140
10.0
141
1.0
290
     0
  0
SCALE
  5
5EF
102
{ACAD_REACTORS
330
5DE
102
}
330
5DE
100
AcDbScale
 70
     0
300
100:1
140
100.0
141
1.0
290
     0
  0
TABLESTYLE
  5
5DD
102
{ACAD_XDICTIONARY
360
61F
102
}
102
{ACAD_REACTORS
330
5DC
102
}
330
5DC
100
AcDbTableStyle
  3
Standard
 70
     0
 71
     0
 40
1.5
 41
1.5
280
     0
281
     0
  7
Standard
140
4.5
170
     2
 62
     0
 63
     7
283
     0
274
    -2
284
     1
 64
     0
275
    -2
285
     1
 65
     0
276
    -2
286
     1
 66
     0
277
    -2
287
     1
 67
     0
278
    -2
288
     1
 68
     0
279
    -2
289
     1
 69
     0
  7
Standard
140
6.0
170
     5
 62
     0
 63
     7
283
     0
274
    -2
284
     1
 64
     0
275
    -2
285
     1
 65
     0
276
    -2
286
     1
 66
     0
277
    -2
287
     1
 67
     0
278
    -2
288
     1
 68
     0
279
    -2
289
     1
 69
     0
  7
Standard
140
4.5
170
     5
 62
     0
 63
     7
283
     0
274
    -2
284
     1
 64
     0
275
    -2
285
     1
 65
     0
276
    -2
286
     1
 66
     0
277
    -2
287
     1
 67
     0
278
    -2
288
     1
 68
     0
279
    -2
289
     1
 69
     0
  0
VISUALSTYLE
  5
5D0
102
{ACAD_REACTORS
330
5CA
102
}
330
5CA
100
AcDbVisualStyle
  2
2dWireframe
 70
     4
 71
     0
 72
     2
 73
     0
 90
        0
 40
-0.6
 41
-30.0
 62
     5
 63
     7
421
 16777215
 74
     1
 91
        4
 64
     7
 65
   257
 75
     1
175
     1
 42
1.0
 92
        0
 66
   257
 43
1.0
 76
     1
 77
     6
 78
     2
 67
     7
 79
     5
170
     0
171
     0
290
     0
174
     0
 93
        1
 44
0.0
173
     0
291
     0
 45
0.0
1001
ACAD
1000
AcDbSavedByObjectVersion
1070
     0
  0
VISUALSTYLE
  5
5D2
102
{ACAD_REACTORS
330
5CA
102
}
330
5CA
100
AcDbVisualStyle
  2
3D Hidden
 70
     6
 71
     1
 72
     2
 73
     2
 90
        0
 40
-0.6
 41
-30.0
 62
     5
 63
     7
421
 16777215
 74
     2
 91
        2
 64
     7
 65
   257
 75
     2
175
     1
 42
40.0
 92
        0
 66
   257
 43
1.0
 76
     1
 77
     6
 78
     2
 67
     7
 79
     3
170
     0
171
     0
290
     0
174
     0
 93
        1
 44
0.0
173
     0
291
     0
 45
0.0
1001
ACAD
1000
AcDbSavedByObjectVersion
1070
     0
  0
VISUALSTYLE
  5
5D1
102
{ACAD_REACTORS
330
5CA
102
}
330
5CA
100
AcDbVisualStyle
  2
3dWireframe
 70
     5
 71
     0
 72
     2
 73
     0
 90
        0
 40
-0.6
 41
-30.0
 62
     5
 63
     7
421
 16777215
 74
     1
 91
        4
 64
     7
 65
   257
 75
     1
175
     1
 42
1.0
 92
        0
 66
   257
 43
1.0
 76
     1
 77
     6
 78
     2
 67
     7
 79
     5
170
     0
171
     0
290
     0
174
     0
 93
        1
 44
0.0
173
     0
291
     0
 45
0.0
1001
ACAD
1000
AcDbSavedByObjectVersion
1070
     0
  0
VISUALSTYLE
  5
5CF
102
{ACAD_REACTORS
330
5CA
102
}
330
5CA
100
AcDbVisualStyle
  2
Basic
 70
     7
 71
     1
 72
     0
 73
     1
 90
        0
 40
-0.6
 41
-30.0
 62
     5
 63
     7
421
 16777215
 74
     0
 91
        4
 64
     7
 65
   257
 75
     1
175
     1
 42
1.0
 92
        8
 66
     7
 43
1.0
 76
     1
 77
     6
 78
     2
 67
     7
 79
     5
170
     0
171
     0
290
     0
174
     0
 93
        1
 44
0.0
173
     0
291
     1
 45
0.0
1001
ACAD
1000
AcDbSavedByObjectVersion
1070
     0
  0
VISUALSTYLE
  5
5D6
102
{ACAD_REACTORS
330
5CA
102
}
330
5CA
100
AcDbVisualStyle
  2
Brighten
 70
    12
 71
     2
 72
     2
 73
     0
 90
        0
 40
-0.6
 41
-30.0
 62
     5
 63
     7
421
 16777215
 74
     1
 91
        4
 64
     7
 65
   257
 75
     1
175
     1
 42
1.0
 92
        8
 66
     7
 43
1.0
 76
     1
 77
     6
 78
     2
 67
     7
 79
     5
170
     0
171
     0
290
     0
174
     0
 93
        1
 44
50.0
173
     0
291
     1
 45
0.0
1001
ACAD
1000
AcDbSavedByObjectVersion
1070
     0
  0
VISUALSTYLE
  5
5DA
102
{ACAD_REACTORS
330
5CA
102
}
330
5CA
100
AcDbVisualStyle
  2
ColorChange
 70
    16
 71
     2
 72
     2
 73
     3
 90
        0
 40
-0.6
 41
-30.0
 62
     5
 63
     8
421
  8421504
 74
     1
 91
        4
 64
     7
 65
   257
 75
     1
175
     1
 42
1.0
 92
        8
 66
     8
424
  8421504
 43
1.0
 76
     1
 77
     6
 78
     2
 67
     7
 79
     5
170
     0
171
     0
290
     0
174
     0
 93
        1
 44
0.0
173
     0
291
     1
 45
0.0
1001
ACAD
1000
AcDbSavedByObjectVersion
1070
     0
  0
VISUALSTYLE
  5
5D3
102
{ACAD_REACTORS
330
5CA
102
}
330
5CA
100
AcDbVisualStyle
  2
Conceptual
 70
     9
 71
     3
 72
     2
 73
     0
 90
        0
 40
-0.6
 41
-30.0
 62
     5
 63
     7
421
 16777215
 74
     2
 91
        2
 64
     7
 65
   257
 75
     1
175
     1
 42
40.0
 92
        8
 66
     7
 43
1.0
 76
     1
 77
     6
 78
     2
 67
     7
 79
     3
170
     0
171
     0
290
     0
174
     0
 93
        1
 44
0.0
173
     0
291
     0
 45
0.0
1001
ACAD
1000
AcDbSavedByObjectVersion
1070
     0
  0
VISUALSTYLE
  5
5D5
102
{ACAD_REACTORS
330
5CA
102
}
330
5CA
100
AcDbVisualStyle
  2
Dim
 70
    11
 71
     2
 72
     2
 73
     0
 90
        0
 40
-0.6
 41
-30.0
 62
     5
 63
     7
421
 16777215
 74
     1
 91
        4
 64
     7
 65
   257
 75
     1
175
     1
 42
1.0
 92
        8
 66
     7
 43
1.0
 76
     1
 77
     6
 78
     2
 67
     7
 79
     5
170
     0
171
     0
290
     0
174
     0
 93
        1
 44
-50.0
173
     0
291
     1
 45
0.0
1001
ACAD
1000
AcDbSavedByObjectVersion
1070
     0
  0
VISUALSTYLE
  5
5D9
102
{ACAD_REACTORS
330
5CA
102
}
330
5CA
100
AcDbVisualStyle
  2
Facepattern
 70
    15
 71
     2
 72
     2
 73
     0
 90
        0
 40
-0.6
 41
-30.0
 62
     5
 63
     7
421
 16777215
 74
     1
 91
        4
 64
     7
 65
   257
 75
     1
175
     1
 42
1.0
 92
        8
 66
     7
 43
1.0
 76
     1
 77
     6
 78
     2
 67
     7
 79
     5
170
     0
171
     0
290
     0
174
     0
 93
        1
 44
0.0
173
     0
291
     1
 45
0.0
1001
ACAD
1000
AcDbSavedByObjectVersion
1070
     0
  0
VISUALSTYLE
  5
5CB
102
{ACAD_REACTORS
330
5CA
102
}
330
5CA
100
AcDbVisualStyle
  2
Flat
 70
     0
 71
     2
 72
     1
 73
     1
 90
        2
 40
-0.6
 41
30.0
 62
     5
 63
     7
421
 16777215
 74
     0
 91
        4
 64
     7
 65
   257
 75
     1
175
     1
 42
1.0
 92
        8
 66
     7
 43
1.0
 76
     1
 77
     6
 78
     2
 67
     7
 79
     5
170
     0
171
     0
290
     0
174
     0
 93
       13
 44
0.0
173
     0
291
     1
 45
0.0
1001
ACAD
1000
AcDbSavedByObjectVersion
1070
     0
  0
VISUALSTYLE
  5
5CC
102
{ACAD_REACTORS
330
5CA
102
}
330
5CA
100
AcDbVisualStyle
  2
FlatWithEdges
 70
     1
 71
     2
 72
     1
 73
     1
 90
        2
 40
-0.6
 41
30.0
 62
     5
 63
     7
421
 16777215
 74
     1
 91
        4
 64
     7
 65
   257
 75
     1
175
     1
 42
1.0
 92
        0
 66
   257
 43
1.0
 76
     1
 77
     6
 78
     2
 67
     7
 79
     5
170
     0
171
     0
290
     0
174
     0
 93
       13
 44
0.0
173
     0
291
     1
 45
0.0
1001
ACAD
1000
AcDbSavedByObjectVersion
1070
     0
  0
VISUALSTYLE
  5
5CD
102
{ACAD_REACTORS
330
5CA
102
}
330
5CA
100
AcDbVisualStyle
  2
Gouraud
 70
     2
 71
     2
 72
     2
 73
     1
 90
        2
 40
-0.6
 41
30.0
 62
     5
 63
     7
421
 16777215
 74
     0
 91
        4
 64
     7
 65
   257
 75
     1
175
     1
 42
1.0
 92
        0
 66
     7
 43
1.0
 76
     1
 77
     6
 78
     2
 67
     7
 79
     5
170
     0
171
     0
290
     0
174
     0
 93
       13
 44
0.0
173
     0
291
     1
 45
0.0
1001
ACAD
1000
AcDbSavedByObjectVersion
1070
     0
  0
VISUALSTYLE
  5
5CE
102
{ACAD_REACTORS
330
5CA
102
}
330
5CA
100
AcDbVisualStyle
  2
GouraudWithEdges
 70
     3
 71
     2
 72
     2
 73
     1
 90
        2
 40
-0.6
 41
30.0
 62
     5
 63
     7
421
 16777215
 74
     1
 91
        4
 64
     7
 65
   257
 75
     1
175
     1
 42
1.0
 92
        0
 66
   257
 43
1.0
 76
     1
 77
     6
 78
     2
 67
     7
 79
     5
170
     0
171
     0
290
     0
174
     0
 93
       13
 44
0.0
173
     0
291
     1
 45
0.0
1001
ACAD
1000
AcDbSavedByObjectVersion
1070
     0
  0
VISUALSTYLE
  5
5D8
102
{ACAD_REACTORS
330
5CA
102
}
330
5CA
100
AcDbVisualStyle
  2
Linepattern
 70
    14
 71
     2
 72
     2
 73
     0
 90
        0
 40
-0.6
 41
-30.0
 62
     5
 63
     7
421
 16777215
 74
     1
 91
        4
 64
     7
 65
   257
 75
     7
175
     7
 42
1.0
 92
        8
 66
     7
 43
1.0
 76
     1
 77
     6
 78
     2
 67
     7
 79
     5
170
     0
171
     0
290
     0
174
     0
 93
        1
 44
0.0
173
     0
291
     1
 45
0.0
1001
ACAD
1000
AcDbSavedByObjectVersion
1070
     0
  0
VISUALSTYLE
  5
5D4
102
{ACAD_REACTORS
330
5CA
102
}
330
5CA
100
AcDbVisualStyle
  2
Realistic
 70
     8
 71
     2
 72
     2
 73
     0
 90
        0
 40
-0.6
 41
-30.0
 62
     5
 63
     7
421
 16777215
 74
     1
 91
        0
 64
     7
 65
   257
 75
     1
175
     1
 42
1.0
 92
        8
 66
     8
424
  7895160
 43
1.0
 76
     1
 77
     6
 78
     2
 67
     7
 79
     5
170
     0
171
     0
290
     0
174
     0
 93
       13
 44
0.0
173
     0
291
     0
 45
0.0
1001
ACAD
1000
AcDbSavedByObjectVersion
1070
     0
  0
VISUALSTYLE
  5
5D7
102
{ACAD_REACTORS
330
5CA
102
}
330
5CA
100
AcDbVisualStyle
  2
Thicken
 70
    13
 71
     2
 72
     2
 73
     0
 90
        0
 40
-0.6
 41
-30.0
 62
     5
 63
     7
421
 16777215
 74
     1
 91
        4
 64
     7
 65
   257
 75
     1
175
     1
 42
1.0
 92
       12
 66
     7
 43
1.0
 76
     1
 77
     6
 78
     2
 67
     7
 79
     5
170
     0
171
     0
290
     0
174
     0
 93
        1
 44
0.0
173
     0
291
     1
 45
0.0
1001
ACAD
1000
AcDbSavedByObjectVersion
1070
     0
  0
DICTIONARYVAR
  5
61E
102
{ACAD_REACTORS
330
61B
102
}
330
61B
100
DictionaryVariables
280
     0
  1
1:1
  0
DICTIONARYVAR
  5
61D
102
{ACAD_REACTORS
330
61B
102
}
330
61B
100
DictionaryVariables
280
     0
  1
STANDARD
  0
DICTIONARYVAR
  5
61C
102
{ACAD_REACTORS
330
61B
102
}
330
61B
100
DictionaryVariables
280
     0
  1
STANDARD
  0
DICTIONARY
  5
5BB
330
5BA
100
AcDbDictionary
280
     1
281
     1
  3
ACAD_XREC_ROUNDTRIP
360
623
  3
BUMPTILE
360
5BD
  3
DIFFUSETILE
360
5BC
  3
OPACITYTILE
360
5C0
  3
REFLECTIONTILE
360
5BF
  3
REFRACTIONTILE
360
5C1
  3
SPECULARTILE
360
5BE
  0
DICTIONARY
  5
5B3
330
5B2
100
AcDbDictionary
280
     1
281
     1
  3
ACAD_XREC_ROUNDTRIP
360
622
  3
BUMPTILE
360
5B5
  3
DIFFUSETILE
360
5B4
  3
OPACITYTILE
360
5B8
  3
REFLECTIONTILE
360
5B7
  3
REFRACTIONTILE
360
5B9
  3
SPECULARTILE
360
5B6
  0
DICTIONARY
  5
5C3
330
5C2
100
AcDbDictionary
280
     1
281
     1
  3
ACAD_XREC_ROUNDTRIP
360
624
  3
BUMPTILE
360
5C5
  3
DIFFUSETILE
360
5C4
  3
OPACITYTILE
360
5C8
  3
REFLECTIONTILE
360
5C7
  3
REFRACTIONTILE
360
5C9
  3
SPECULARTILE
360
5C6
  0
DICTIONARY
  5
61F
330
5DD
100
AcDbDictionary
280
     1
281
     1
  3
ACAD_ROUNDTRIP_2008_TABLESTYLE_CELLSTYLEMAP
360
620
  3
ACAD_XREC_ROUNDTRIP
360
625
  0
XRECORD
  5
623
102
{ACAD_REACTORS
330
5BB
102
}
330
5BB
100
AcDbXrecord
280
     1
102
MATERIAL
148
0.0
149
0.0
149
0.0
 93
        0
 94
      127
282
     0
 72
     0
 77
     0
171
     0
175
     0
179
     0
273
     0
  0
XRECORD
  5
5BD
102
{ACAD_REACTORS
330
5BB
102
}
330
5BB
100
AcDbXrecord
280
     1
270
     1
271
     1
  0
XRECORD
  5
5BC
102
{ACAD_REACTORS
330
5BB
102
}
330
5BB
100
AcDbXrecord
280
     1
270
     1
271
     1
  0
XRECORD
  5
5C0
102
{ACAD_REACTORS
330
5BB
102
}
330
5BB
100
AcDbXrecord
280
     1
270
     1
271
     1
  0
XRECORD
  5
5BF
102
{ACAD_REACTORS
330
5BB
102
}
330
5BB
100
AcDbXrecord
280
     1
270
     1
271
     1
  0
XRECORD
  5
5C1
102
{ACAD_REACTORS
330
5BB
102
}
330
5BB
100
AcDbXrecord
280
     1
270
     1
271
     1
  0
XRECORD
  5
5BE
102
{ACAD_REACTORS
330
5BB
102
}
330
5BB
100
AcDbXrecord
280
     1
270
     1
271
     1
  0
XRECORD
  5
622
102
{ACAD_REACTORS
330
5B3
102
}
330
5B3
100
AcDbXrecord
280
     1
102
MATERIAL
148
0.0
149
0.0
149
0.0
 93
        0
 94
      127
282
     0
 72
     0
 77
     0
171
     0
175
     0
179
     0
273
     0
  0
XRECORD
  5
5B5
102
{ACAD_REACTORS
330
5B3
102
}
330
5B3
100
AcDbXrecord
280
     1
270
     1
271
     1
  0
XRECORD
  5
5B4
102
{ACAD_REACTORS
330
5B3
102
}
330
5B3
100
AcDbXrecord
280
     1
270
     1
271
     1
  0
XRECORD
  5
5B8
102
{ACAD_REACTORS
330
5B3
102
}
330
5B3
100
AcDbXrecord
280
     1
270
     1
271
     1
  0
XRECORD
  5
5B7
102
{ACAD_REACTORS
330
5B3
102
}
330
5B3
100
AcDbXrecord
280
     1
270
     1
271
     1
  0
XRECORD
  5
5B9
102
{ACAD_REACTORS
330
5B3
102
}
330
5B3
100
AcDbXrecord
280
     1
270
     1
271
     1
  0
XRECORD
  5
5B6
102
{ACAD_REACTORS
330
5B3
102
}
330
5B3
100
AcDbXrecord
280
     1
270
     1
271
     1
  0
XRECORD
  5
624
102
{ACAD_REACTORS
330
5C3
102
}
330
5C3
100
AcDbXrecord
280
     1
102
MATERIAL
148
0.0
149
0.0
149
0.0
 93
        0
 94
      127
282
     0
 72
     0
 77
     0
171
     0
175
     0
179
     0
273
     0
  0
XRECORD
  5
5C5
102
{ACAD_REACTORS
330
5C3
102
}
330
5C3
100
AcDbXrecord
280
     1
270
     1
271
     1
  0
XRECORD
  5
5C4
102
{ACAD_REACTORS
330
5C3
102
}
330
5C3
100
AcDbXrecord
280
     1
270
     1
271
     1
  0
XRECORD
  5
5C8
102
{ACAD_REACTORS
330
5C3
102
}
330
5C3
100
AcDbXrecord
280
     1
270
     1
271
     1
  0
XRECORD
  5
5C7
102
{ACAD_REACTORS
330
5C3
102
}
330
5C3
100
AcDbXrecord
280
     1
270
     1
271
     1
  0
XRECORD
  5
5C9
102
{ACAD_REACTORS
330
5C3
102
}
330
5C3
100
AcDbXrecord
280
     1
270
     1
271
     1
  0
XRECORD
  5
5C6
102
{ACAD_REACTORS
330
5C3
102
}
330
5C3
100
AcDbXrecord
280
     1
270
     1
271
     1
  0
CELLSTYLEMAP
  5
620
102
{ACAD_REACTORS
330
61F
102
}
330
61F
100
AcDbCellStyleMap
 90
        3
300
CELLSTYLE
  1
TABLEFORMAT_BEGIN
 90
        5
170
     1
 91
        0
 92
    32768
 62
   257
 93
        1
300
CONTENTFORMAT
  1
CONTENTFORMAT_BEGIN
 90
        0
 91
        0
 92
      512
 93
        0
300

 40
0.0
140
1.0
 94
        5
 62
     0
340
11
144
6.0
309
CONTENTFORMAT_END
171
     1
301
MARGIN
  1
CELLMARGIN_BEGIN
 40
1.5
 40
1.5
 40
1.5
 40
1.5
 40
4.5
 40
4.5
309
CELLMARGIN_END
 94
        6
 95
        1
302
GRIDFORMAT
  1
GRIDFORMAT_BEGIN
 90
        0
 91
        1
 62
     0
 92
       -2
340
0
 93
        0
 40
1.125
309
GRIDFORMAT_END
 95
        2
302
GRIDFORMAT
  1
GRIDFORMAT_BEGIN
 90
        0
 91
        1
 62
     0
 92
       -2
340
0
 93
        0
 40
1.125
309
GRIDFORMAT_END
 95
        4
302
GRIDFORMAT
  1
GRIDFORMAT_BEGIN
 90
        0
 91
        1
 62
     0
 92
       -2
340
0
 93
        0
 40
1.125
309
GRIDFORMAT_END
 95
        8
302
GRIDFORMAT
  1
GRIDFORMAT_BEGIN
 90
        0
 91
        1
 62
     0
 92
       -2
340
0
 93
        0
 40
1.125
309
GRIDFORMAT_END
 95
       16
302
GRIDFORMAT
  1
GRIDFORMAT_BEGIN
 90
        0
 91
        1
 62
     0
 92
       -2
340
0
 93
        0
 40
1.125
309
GRIDFORMAT_END
 95
       32
302
GRIDFORMAT
  1
GRIDFORMAT_BEGIN
 90
        0
 91
        1
 62
     0
 92
       -2
340
0
 93
        0
 40
1.125
309
GRIDFORMAT_END
309
TABLEFORMAT_END
  1
CELLSTYLE_BEGIN
 90
        1
 91
        1
300
_TITLE
309
CELLSTYLE_END
300
CELLSTYLE
  1
TABLEFORMAT_BEGIN
 90
        5
170
     1
 91
        0
 92
        0
 62
   257
 93
        1
300
CONTENTFORMAT
  1
CONTENTFORMAT_BEGIN
 90
        0
 91
        0
 92
      512
 93
        0
300

 40
0.0
140
1.0
 94
        5
 62
     0
340
11
144
4.5
309
CONTENTFORMAT_END
171
     1
301
MARGIN
  1
CELLMARGIN_BEGIN
 40
1.5
 40
1.5
 40
1.5
 40
1.5
 40
4.5
 40
4.5
309
CELLMARGIN_END
 94
        6
 95
        1
302
GRIDFORMAT
  1
GRIDFORMAT_BEGIN
 90
        0
 91
        1
 62
     0
 92
       -2
340
0
 93
        0
 40
1.125
309
GRIDFORMAT_END
 95
        2
302
GRIDFORMAT
  1
GRIDFORMAT_BEGIN
 90
        0
 91
        1
 62
     0
 92
       -2
340
0
 93
        0
 40
1.125
309
GRIDFORMAT_END
 95
        4
302
GRIDFORMAT
  1
GRIDFORMAT_BEGIN
 90
        0
 91
        1
 62
     0
 92
       -2
340
0
 93
        0
 40
1.125
309
GRIDFORMAT_END
 95
        8
302
GRIDFORMAT
  1
GRIDFORMAT_BEGIN
 90
        0
 91
        1
 62
     0
 92
       -2
340
0
 93
        0
 40
1.125
309
GRIDFORMAT_END
 95
       16
302
GRIDFORMAT
  1
GRIDFORMAT_BEGIN
 90
        0
 91
        1
 62
     0
 92
       -2
340
0
 93
        0
 40
1.125
309
GRIDFORMAT_END
 95
       32
302
GRIDFORMAT
  1
GRIDFORMAT_BEGIN
 90
        0
 91
        1
 62
     0
 92
       -2
340
0
 93
        0
 40
1.125
309
GRIDFORMAT_END
309
TABLEFORMAT_END
  1
CELLSTYLE_BEGIN
 90
        2
 91
        1
300
_HEADER
309
CELLSTYLE_END
300
CELLSTYLE
  1
TABLEFORMAT_BEGIN
 90
        5
170
     1
 91
        0
 92
        0
 62
   257
 93
        1
300
CONTENTFORMAT
  1
CONTENTFORMAT_BEGIN
 90
        0
 91
        0
 92
      512
 93
        0
300

 40
0.0
140
1.0
 94
        2
 62
     0
340
11
144
4.5
309
CONTENTFORMAT_END
171
     1
301
MARGIN
  1
CELLMARGIN_BEGIN
 40
1.5
 40
1.5
 40
1.5
 40
1.5
 40
4.5
 40
4.5
309
CELLMARGIN_END
 94
        6
 95
        1
302
GRIDFORMAT
  1
GRIDFORMAT_BEGIN
 90
        0
 91
        1
 62
     0
 92
       -2
340
0
 93
        0
 40
1.125
309
GRIDFORMAT_END
 95
        2
302
GRIDFORMAT
  1
GRIDFORMAT_BEGIN
 90
        0
 91
        1
 62
     0
 92
       -2
340
0
 93
        0
 40
1.125
309
GRIDFORMAT_END
 95
        4
302
GRIDFORMAT
  1
GRIDFORMAT_BEGIN
 90
        0
 91
        1
 62
     0
 92
       -2
340
0
 93
        0
 40
1.125
309
GRIDFORMAT_END
 95
        8
302
GRIDFORMAT
  1
GRIDFORMAT_BEGIN
 90
        0
 91
        1
 62
     0
 92
       -2
340
0
 93
        0
 40
1.125
309
GRIDFORMAT_END
 95
       16
302
GRIDFORMAT
  1
GRIDFORMAT_BEGIN
 90
        0
 91
        1
 62
     0
 92
       -2
340
0
 93
        0
 40
1.125
309
GRIDFORMAT_END
 95
       32
302
GRIDFORMAT
  1
GRIDFORMAT_BEGIN
 90
        0
 91
        1
 62
     0
 92
       -2
340
0
 93
        0
 40
1.125
309
GRIDFORMAT_END
309
TABLEFORMAT_END
  1
CELLSTYLE_BEGIN
 90
        3
 91
        2
300
_DATA
309
CELLSTYLE_END
  0
XRECORD
  5
625
102
{ACAD_REACTORS
330
61F
102
}
330
61F
100
AcDbXrecord
280
     1
102
ACAD_ROUNDTRIP_PRE2007_TABLESTYLE
 90
      512
 91
        0
  1

 92
      512
 93
        0
  2

 94
      512
 95
        0
  3

  0
ENDSEC
  0
EOF
