  0
SECTION
  2
HEADER
  9
$ACADVER
  1
AC1021
  9
$ACADMAINTVER
 70
    50
  9
$DWGCODEPAGE
  3
ANSI_1251
  9
$LASTSAVEDBY
  1
Игорь
  9
$INSBASE
 10
0.0
 20
0.0
 30
0.0
  9
$EXTMIN
 10
655.3979870045996
 20
339.9133660182279
 30
-0.0015258207003583
  9
$EXTMAX
 10
801.6293681995357
 20
738.3677249305974
 30
0.0000000349246037
  9
$LIMMIN
 10
0.0
 20
0.0
  9
$LIMMAX
 10
2794.0
 20
2159.0
  9
$ORTHOMODE
 70
     0
  9
$REGENMODE
 70
     1
  9
$FILLMODE
 70
     1
  9
$QTEXTMODE
 70
     0
  9
$MIRRTEXT
 70
     1
  9
$LTSCALE
 40
10.0
  9
$ATTMODE
 70
     1
  9
$TEXTSIZE
 40
35.0
  9
$TRACEWID
 40
1.0
  9
$TEXTSTYLE
  7
Standard
  9
$CLAYER
  8
0
  9
$CELTYPE
  6
ByLayer
  9
$CECOLOR
 62
   256
  9
$CELTSCALE
 40
1.0
  9
$DISPSILH
 70
     0
  9
$DIMSCALE
 40
1.0
  9
$DIMASZ
 40
35.0
  9
$DIMEXO
 40
0.1
  9
$DIMDLI
 40
3.75
  9
$DIMRND
 40
0.0
  9
$DIMDLE
 40
0.0
  9
$DIMEXE
 40
10.0
  9
$DIMTP
 40
0.0
  9
$DIMTM
 40
0.0
  9
$DIMTXT
 40
35.0
  9
$DIMCEN
 40
2.5
  9
$DIMTSZ
 40
0.0
  9
$DIMTOL
 70
     0
  9
$DIMLIM
 70
     0
  9
$DIMTIH
 70
     1
  9
$DIMTOH
 70
     1
  9
$DIMSE1
 70
     0
  9
$DIMSE2
 70
     0
  9
$DIMTAD
 70
     1
  9
$DIMZIN
 70
     0
  9
$DIMBLK
  1

  9
$DIMASO
 70
     1
  9
$DIMSHO
 70
     1
  9
$DIMPOST
  1

  9
$DIMAPOST
  1

  9
$DIMALT
 70
     0
  9
$DIMALTD
 70
     3
  9
$DIMALTF
 40
0.0393700787401575
  9
$DIMLFAC
 40
1.0
  9
$DIMTOFL
 70
     1
  9
$DIMTVP
 40
0.0
  9
$DIMTIX
 70
     0
  9
$DIMSOXD
 70
     0
  9
$DIMSAH
 70
     0
  9
$DIMBLK1
  1

  9
$DIMBLK2
  1

  9
$DIMSTYLE
  2
ISO-25
  9
$DIMCLRD
 70
     0
  9
$DIMCLRE
 70
     0
  9
$DIMCLRT
 70
     0
  9
$DIMTFAC
 40
1.0
  9
$DIMGAP
 40
30.0
  9
$DIMJUST
 70
     0
  9
$DIMSD1
 70
     0
  9
$DIMSD2
 70
     0
  9
$DIMTOLJ
 70
     0
  9
$DIMTZIN
 70
     0
  9
$DIMALTZ
 70
     0
  9
$DIMALTTZ
 70
     0
  9
$DIMUPT
 70
     0
  9
$DIMDEC
 70
     2
  9
$DIMTDEC
 70
     3
  9
$DIMALTU
 70
     2
  9
$DIMALTTD
 70
     3
  9
$DIMTXSTY
  7
Standard
  9
$DIMAUNIT
 70
     0
  9
$DIMADEC
 70
     2
  9
$DIMALTRND
 40
0.0
  9
$DIMAZIN
 70
     0
  9
$DIMDSEP
 70
    44
  9
$DIMATFIT
 70
     3
  9
$DIMFRAC
 70
     0
  9
$DIMLDRBLK
  1

  9
$DIMLUNIT
 70
     2
  9
$DIMLWD
 70
    -2
  9
$DIMLWE
 70
    -2
  9
$DIMTMOVE
 70
     0
  9
$DIMFXL
 40
1.0
  9
$DIMFXLON
 70
     0
  9
$DIMJOGANG
 40
0.7853981633974483
  9
$DIMTFILL
 70
     0
  9
$DIMTFILLCLR
 70
     0
  9
$DIMARCSYM
 70
     0
  9
$DIMLTYPE
  6

  9
$DIMLTEX1
  6

  9
$DIMLTEX2
  6

  9
$LUNITS
 70
     2
  9
$LUPREC
 70
     2
  9
$SKETCHINC
 40
1.0
  9
$FILLETRAD
 40
10.0
  9
$AUNITS
 70
     0
  9
$AUPREC
 70
     2
  9
$MENU
  1
.
  9
$ELEVATION
 40
0.0
  9
$PELEVATION
 40
0.0
  9
$THICKNESS
 40
0.0
  9
$LIMCHECK
 70
     0
  9
$CHAMFERA
 40
10.0
  9
$CHAMFERB
 40
10.0
  9
$CHAMFERC
 40
20.0
  9
$CHAMFERD
 40
0.0
  9
$SKPOLY
 70
     0
  9
$TDCREATE
 40
2458085.985634641
  9
$TDUCREATE
 40
2458085.902301308
  9
$TDUPDATE
 40
2458085.986564109
  9
$TDUUPDATE
 40
2458085.903230776
  9
$TDINDWG
 40
0.0008657523
  9
$TDUSRTIMER
 40
0.0008657523
  9
$USRTIMER
 70
     1
  9
$ANGBASE
 50
0.0
  9
$ANGDIR
 70
     0
  9
$PDMODE
 70
     0
  9
$PDSIZE
 40
-1.0
  9
$PLINEWID
 40
0.0
  9
$SPLFRAME
 70
     0
  9
$SPLINETYPE
 70
     6
  9
$SPLINESEGS
 70
     8
  9
$HANDSEED
  5
1E0
  9
$SURFTAB1
 70
     6
  9
$SURFTAB2
 70
     6
  9
$SURFTYPE
 70
     6
  9
$SURFU
 70
     6
  9
$SURFV
 70
     6
  9
$UCSBASE
  2

  9
$UCSNAME
  2

  9
$UCSORG
 10
0.0
 20
0.0
 30
0.0
  9
$UCSXDIR
 10
1.0
 20
0.0
 30
0.0
  9
$UCSYDIR
 10
0.0
 20
1.0
 30
0.0
  9
$UCSORTHOREF
  2

  9
$UCSORTHOVIEW
 70
     0
  9
$UCSORGTOP
 10
0.0
 20
0.0
 30
0.0
  9
$UCSORGBOTTOM
 10
0.0
 20
0.0
 30
0.0
  9
$UCSORGLEFT
 10
0.0
 20
0.0
 30
0.0
  9
$UCSORGRIGHT
 10
0.0
 20
0.0
 30
0.0
  9
$UCSORGFRONT
 10
0.0
 20
0.0
 30
0.0
  9
$UCSORGBACK
 10
0.0
 20
0.0
 30
0.0
  9
$PUCSBASE
  2

  9
$PUCSNAME
  2

  9
$PUCSORG
 10
0.0
 20
0.0
 30
0.0
  9
$PUCSXDIR
 10
1.0
 20
0.0
 30
0.0
  9
$PUCSYDIR
 10
0.0
 20
1.0
 30
0.0
  9
$PUCSORTHOREF
  2

  9
$PUCSORTHOVIEW
 70
     0
  9
$PUCSORGTOP
 10
0.0
 20
0.0
 30
0.0
  9
$PUCSORGBOTTOM
 10
0.0
 20
0.0
 30
0.0
  9
$PUCSORGLEFT
 10
0.0
 20
0.0
 30
0.0
  9
$PUCSORGRIGHT
 10
0.0
 20
0.0
 30
0.0
  9
$PUCSORGFRONT
 10
0.0
 20
0.0
 30
0.0
  9
$PUCSORGBACK
 10
0.0
 20
0.0
 30
0.0
  9
$USERI1
 70
     0
  9
$USERI2
 70
     0
  9
$USERI3
 70
     0
  9
$USERI4
 70
     0
  9
$USERI5
 70
     0
  9
$USERR1
 40
0.0
  9
$USERR2
 40
0.0
  9
$USERR3
 40
0.0
  9
$USERR4
 40
0.0
  9
$USERR5
 40
0.0
  9
$WORLDVIEW
 70
     1
  9
$SHADEDGE
 70
     3
  9
$SHADEDIF
 70
    70
  9
$TILEMODE
 70
     1
  9
$MAXACTVP
 70
    64
  9
$PINSBASE
 10
0.0
 20
0.0
 30
0.0
  9
$PLIMCHECK
 70
     0
  9
$PEXTMIN
 10
1.000000000000000E+20
 20
1.000000000000000E+20
 30
1.000000000000000E+20
  9
$PEXTMAX
 10
-1.000000000000000E+20
 20
-1.000000000000000E+20
 30
-1.000000000000000E+20
  9
$PLIMMIN
 10
0.0
 20
0.0
  9
$PLIMMAX
 10
420.0
 20
297.0
  9
$UNITMODE
 70
     0
  9
$VISRETAIN
 70
     1
  9
$PLINEGEN
 70
     0
  9
$PSLTSCALE
 70
     1
  9
$TREEDEPTH
 70
  3020
  9
$CMLSTYLE
  2
Standard
  9
$CMLJUST
 70
     0
  9
$CMLSCALE
 40
20.0
  9
$PROXYGRAPHICS
 70
     1
  9
$MEASUREMENT
 70
     1
  9
$CELWEIGHT
370
    -1
  9
$ENDCAPS
280
     0
  9
$JOINSTYLE
280
     0
  9
$LWDISPLAY
290
     1
  9
$INSUNITS
 70
     4
  9
$HYPERLINKBASE
  1

  9
$STYLESHEET
  1

  9
$XEDIT
290
     1
  9
$CEPSNTYPE
380
     0
  9
$PSTYLEMODE
290
     1
  9
$FINGERPRINTGUID
  2
{F0351088-5467-4150-A3B8-72A4A4464926}
  9
$VERSIONGUID
  2
{06B4D31B-1F99-4D24-BCC1-F1B4EFA5199F}
  9
$EXTNAMES
290
     1
  9
$PSVPSCALE
 40
0.0
  9
$OLESTARTUP
290
     0
  9
$SORTENTS
280
   127
  9
$INDEXCTL
280
     0
  9
$HIDETEXT
280
     0
  9
$XCLIPFRAME
290
     0
  9
$HALOGAP
280
     0
  9
$OBSCOLOR
 70
   257
  9
$OBSLTYPE
280
     0
  9
$INTERSECTIONDISPLAY
280
     0
  9
$INTERSECTIONCOLOR
 70
   257
  9
$DIMASSOC
280
     1
  9
$PROJECTNAME
  1

  9
$CAMERADISPLAY
290
     0
  9
$LENSLENGTH
 40
50.0
  9
$CAMERAHEIGHT
 40
0.0
  9
$STEPSPERSEC
 40
2.0
  9
$STEPSIZE
 40
6.0
  9
$3DDWFPREC
 40
2.0
  9
$PSOLWIDTH
 40
0.25
  9
$PSOLHEIGHT
 40
4.0
  9
$LOFTANG1
 40
1.570796326794896
  9
$LOFTANG2
 40
1.570796326794896
  9
$LOFTMAG1
 40
0.0
  9
$LOFTMAG2
 40
0.0
  9
$LOFTPARAM
 70
     7
  9
$LOFTNORMALS
280
     1
  9
$LATITUDE
 40
37.795
  9
$LONGITUDE
 40
-122.394
  9
$NORTHDIRECTION
 40
0.0
  9
$TIMEZONE
 70
 -8000
  9
$LIGHTGLYPHDISPLAY
280
     1
  9
$TILEMODELIGHTSYNCH
280
     1
  9
$CMATERIAL
347
176
  9
$SOLIDHIST
280
     1
  9
$SHOWHIST
280
     1
  9
$DWFFRAME
280
     2
  9
$DGNFRAME
280
     0
  9
$REALWORLDSCALE
290
     1
  9
$INTERFERECOLOR
 62
     1
  9
$INTERFEREOBJVS
345
198
  9
$INTERFEREVPVS
346
195
  9
$CSHADOW
280
     0
  9
$SHADOWPLANELOCATION
 40
0.0
  0
ENDSEC
  0
SECTION
  2
CLASSES
  0
CLASS
  1
ACDBDICTIONARYWDFLT
  2
AcDbDictionaryWithDefault
  3
ObjectDBX Classes
 90
        0
 91
        1
280
     0
281
     0
  0
CLASS
  1
VISUALSTYLE
  2
AcDbVisualStyle
  3
ObjectDBX Classes
 90
     4095
 91
       16
280
     0
281
     0
  0
CLASS
  1
MATERIAL
  2
AcDbMaterial
  3
ObjectDBX Classes
 90
     1153
 91
        3
280
     0
281
     0
  0
CLASS
  1
TABLESTYLE
  2
AcDbTableStyle
  3
ObjectDBX Classes
 90
     4095
 91
        1
280
     0
281
     0
  0
CLASS
  1
SCALE
  2
AcDbScale
  3
ObjectDBX Classes
 90
     1153
 91
       17
280
     0
281
     0
  0
CLASS
  1
MLEADERSTYLE
  2
AcDbMLeaderStyle
  3
ACDB_MLEADERSTYLE_CLASS
 90
     4095
 91
        1
280
     0
281
     0
  0
CLASS
  1
DICTIONARYVAR
  2
AcDbDictionaryVar
  3
ObjectDBX Classes
 90
        0
 91
        7
280
     0
281
     0
  0
CLASS
  1
CELLSTYLEMAP
  2
AcDbCellStyleMap
  3
ObjectDBX Classes
 90
     1152
 91
        1
280
     0
281
     0
  0
ENDSEC
  0
SECTION
  2
TABLES
  0
TABLE
  2
VPORT
  5
8
330
0
100
AcDbSymbolTable
 70
     1
  0
VPORT
  5
29
330
8
100
AcDbSymbolTableRecord
100
AcDbViewportTableRecord
  2
*Active
 70
     0
 10
0.0
 20
0.0
 11
1.0
 21
1.0
 12
728.5136776020676
 22
539.1405454744126
 13
0.0
 23
0.0
 14
10.0
 24
10.0
 15
10.0
 25
10.0
 16
0.0
 26
0.0
 36
1.0
 17
0.0
 27
0.0
 37
0.0
 40
403.3735485285716
 41
2.604123711340206
 42
50.0
 43
0.0
 44
0.0
 50
0.0
 51
0.0
 71
     0
 72
  2000
 73
     1
 74
     3
 75
     0
 76
     0
 77
     0
 78
     0
281
     0
 65
     1
110
0.0
120
0.0
130
0.0
111
1.0
121
0.0
131
0.0
112
0.0
122
1.0
132
0.0
 79
     0
146
0.0
348
194
 60
     3
 61
     5
292
     1
282
     1
141
0.0
142
0.0
 63
   250
421
  3355443
  0
ENDTAB
  0
TABLE
  2
LTYPE
  5
5
330
0
100
AcDbSymbolTable
 70
     6
  0
LTYPE
  5
14
330
5
100
AcDbSymbolTableRecord
100
AcDbLinetypeTableRecord
  2
ByBlock
 70
     0
  3

 72
    65
 73
     0
 40
0.0
  0
LTYPE
  5
15
330
5
100
AcDbSymbolTableRecord
100
AcDbLinetypeTableRecord
  2
ByLayer
 70
     0
  3

 72
    65
 73
     0
 40
0.0
  0
LTYPE
  5
16
330
5
100
AcDbSymbolTableRecord
100
AcDbLinetypeTableRecord
  2
Continuous
 70
     0
  3
Solid line
 72
    65
 73
     0
 40
0.0
  0
LTYPE
  5
3F
330
5
100
AcDbSymbolTableRecord
100
AcDbLinetypeTableRecord
  2
HIDDEN
 70
     0
  3
Hidden __ __ __ __ __ __ __ __ __ __ __ __ __ __
 72
    65
 73
     2
 40
1.905
 49
1.27
 74
     0
 49
-0.635
 74
     0
  0
LTYPE
  5
40
330
5
100
AcDbSymbolTableRecord
100
AcDbLinetypeTableRecord
  2
PHANTOM
 70
     0
  3
Phantom ______  __  __  ______  __  __  ______
 72
    65
 73
     6
 40
12.7
 49
6.349999999999999
 74
     0
 49
-1.27
 74
     0
 49
1.27
 74
     0
 49
-1.27
 74
     0
 49
1.27
 74
     0
 49
-1.27
 74
     0
  0
LTYPE
  5
41
330
5
100
AcDbSymbolTableRecord
100
AcDbLinetypeTableRecord
  2
CENTER
 70
     0
  3
Center ____ _ ____ _ ____ _ ____ _ ____ _ ____
 72
    65
 73
     4
 40
10.16
 49
6.349999999999999
 74
     0
 49
-1.27
 74
     0
 49
1.27
 74
     0
 49
-1.27
 74
     0
  0
LTYPE
  5
42
330
5
100
AcDbSymbolTableRecord
100
AcDbLinetypeTableRecord
  2
CENTERX2
 70
     0
  3
Center (2x) ________  __  ________  __  _____
 72
    65
 73
     4
 40
20.32
 49
12.7
 74
     0
 49
-2.54
 74
     0
 49
2.54
 74
     0
 49
-2.54
 74
     0
  0
LTYPE
  5
43
330
5
100
AcDbSymbolTableRecord
100
AcDbLinetypeTableRecord
  2
DOT2
 70
     0
  3
Dot (.5x) ........................................
 72
    65
 73
     2
 40
0.635
 49
0.0
 74
     0
 49
-0.635
 74
     0
  0
ENDTAB
  0
TABLE
  2
LAYER
  5
2
330
0
100
AcDbSymbolTable
 70
     2
  0
LAYER
  5
10
102
{ACAD_XDICTIONARY
360
1D3
102
}
330
2
100
AcDbSymbolTableRecord
100
AcDbLayerTableRecord
  2
0
 70
     0
 62
     7
  6
Continuous
370
    -3
390
F
347
186
  0
LAYER
  5
1BB
330
2
100
AcDbSymbolTableRecord
100
AcDbLayerTableRecord
  2
Defpoints
 70
     0
 62
     7
  6
Continuous
290
     0
370
    -3
390
F
347
186
  0
ENDTAB
  0
TABLE
  2
STYLE
  5
3
330
0
100
AcDbSymbolTable
 70
     1
  0
STYLE
  5
11
330
3
100
AcDbSymbolTableRecord
100
AcDbTextStyleTableRecord
  2
Standard
 70
     0
 40
0.0
 41
1.0
 50
0.0
 71
     0
 42
35.0
  3
txt
  4

  0
ENDTAB
  0
TABLE
  2
VIEW
  5
6
330
0
100
AcDbSymbolTable
 70
     0
  0
ENDTAB
  0
TABLE
  2
UCS
  5
7
330
0
100
AcDbSymbolTable
 70
     0
  0
ENDTAB
  0
TABLE
  2
APPID
  5
9
330
0
100
AcDbSymbolTable
 70
     3
  0
APPID
  5
12
330
9
100
AcDbSymbolTableRecord
100
AcDbRegAppTableRecord
  2
ACAD
 70
     0
  0
APPID
  5
1B6
330
9
100
AcDbSymbolTableRecord
100
AcDbRegAppTableRecord
  2
ACAD_MLEADERVER
 70
     0
  0
APPID
  5
1B9
330
9
100
AcDbSymbolTableRecord
100
AcDbRegAppTableRecord
  2
ACAD_DSTYLE_DIMRADIAL_EXTENSION
 70
     0
  0
ENDTAB
  0
TABLE
  2
DIMSTYLE
  5
A
330
0
100
AcDbSymbolTable
 70
     1
100
AcDbDimStyleTable
 71
     1
340
27
  0
DIMSTYLE
105
27
330
A
100
AcDbSymbolTableRecord
100
AcDbDimStyleTableRecord
  2
ISO-25
 70
     0
 41
2.5
 42
0.625
 43
3.75
 44
1.25
 73
     0
 74
     0
 77
     1
 78
     8
140
2.5
141
2.5
143
0.03937007874016
147
0.625
171
     3
172
     1
271
     2
272
     2
274
     3
278
    44
283
     0
284
     8
340
11
  0
ENDTAB
  0
TABLE
  2
BLOCK_RECORD
  5
1
330
0
100
AcDbSymbolTable
 70
     2
  0
BLOCK_RECORD
  5
1F
330
1
100
AcDbSymbolTableRecord
100
AcDbBlockTableRecord
  2
*Model_Space
340
22
 70
     0
280
     1
281
     0
  0
BLOCK_RECORD
  5
1B
330
1
100
AcDbSymbolTableRecord
100
AcDbBlockTableRecord
  2
*Paper_Space
340
1E
 70
     0
280
     1
281
     0
  0
BLOCK_RECORD
  5
23
330
1
100
AcDbSymbolTableRecord
100
AcDbBlockTableRecord
  2
*Paper_Space0
340
26
 70
     0
280
     1
281
     0
  0
BLOCK_RECORD
  5
1BC
330
1
100
AcDbSymbolTableRecord
100
AcDbBlockTableRecord
  2
*D1
340
0
 70
     0
280
     1
281
     0
  0
ENDTAB
  0
ENDSEC
  0
SECTION
  2
BLOCKS
  0
BLOCK
  5
20
330
1F
100
AcDbEntity
  8
0
100
AcDbBlockBegin
  2
*Model_Space
 70
     0
 10
0.0
 20
0.0
 30
0.0
  3
*Model_Space
  1

  0
ENDBLK
  5
21
330
1F
100
AcDbEntity
  8
0
100
AcDbBlockEnd
  0
BLOCK
  5
1C
330
1B
100
AcDbEntity
 67
     1
  8
0
100
AcDbBlockBegin
  2
*Paper_Space
 70
     0
 10
0.0
 20
0.0
 30
0.0
  3
*Paper_Space
  1

  0
ENDBLK
  5
1D
330
1B
100
AcDbEntity
 67
     1
  8
0
100
AcDbBlockEnd
  0
BLOCK
  5
24
330
23
100
AcDbEntity
 67
     1
  8
0
100
AcDbBlockBegin
  2
*Paper_Space0
 70
     0
 10
0.0
 20
0.0
 30
0.0
  3
*Paper_Space0
  1

  0
ENDBLK
  5
25
330
23
100
AcDbEntity
 67
     1
  8
0
100
AcDbBlockEnd
  0
BLOCK
  5
1BD
330
1BC
100
AcDbEntity
  8
0
100
AcDbBlockBegin
  2
*D1
 70
     1
 10
0.0
 20
0.0
 30
0.0
  3
*D1
  1

  0
LINE
  5
1C9
330
1BC
100
AcDbEntity
  8
0
 62
     0
370
    -2
100
AcDbLine
 10
1079.705685206417
 20
475.4405810349768
 30
0.0
 11
857.2056852064166
 21
475.440581034977
 31
0.0
  0
LINE
  5
1CA
330
1BC
100
AcDbEntity
  8
0
 62
     0
370
    -2
100
AcDbLine
 10
857.2056852064166
 20
475.440581034977
 30
0.0
 11
825.7099411626944
 21
460.1756504051859
 31
0.0
  0
LINE
  5
1CB
330
1BC
100
AcDbEntity
  8
0
 62
     0
370
    -2
100
AcDbLine
 10
631.3362064928656
 20
365.9692213756185
 30
0.0
 11
599.8404624491434
 21
350.7042907458274
 31
0.0
  0
MTEXT
  5
1CC
330
1BC
100
AcDbEntity
  8
0
 62
     0
100
AcDbMText
 10
983.4556852064167
 20
525.8572477016436
 30
0.0
 40
35.0
 41
0.0
 46
0.0
 71
     5
 72
     1
  1
∅146,00
 73
     1
 44
1.0
  0
LINE
  5
1CD
330
1BC
100
AcDbEntity
  8
0
 62
     0
370
    -2
100
AcDbLine
 10
662.831950536588
 20
381.2341520054095
 30
0.0
 11
794.2141971189721
 21
444.9107197753949
 31
0.0
  0
SOLID
  5
1CE
330
1BC
100
AcDbEntity
  8
0
 62
     0
100
AcDbTrace
 10
628.7920513879005
 20
371.2185120495722
 30
0.0
 11
633.8803615978308
 21
360.7199307016647
 31
0.0
 12
662.831950536588
 22
381.2341520054095
 32
0.0
 13
662.831950536588
 23
381.2341520054095
 33
0.0
  0
SOLID
  5
1CF
330
1BC
100
AcDbEntity
  8
0
 62
     0
100
AcDbTrace
 10
823.1657860577293
 20
465.4249410791397
 30
0.0
 11
828.2540962676597
 21
454.9263597312322
 31
0.0
 12
794.2141971189721
 22
444.9107197753949
 32
0.0
 13
794.2141971189721
 23
444.9107197753949
 33
0.0
  0
ARC
  5
1D0
330
1BC
100
AcDbEntity
  8
0
 62
     0
370
    -2
100
AcDbCircle
 10
728.52307382778
 20
413.0724358904022
 30
0.0
 40
72.99999999999994
100
AcDbArc
 50
18.00917485580593
 51
32.27679698657843
  0
POINT
  5
1D1
330
1BC
100
AcDbEntity
  8
Defpoints
 62
     0
100
AcDbPoint
 10
794.2141971189721
 20
444.9107197753949
 30
0.0
  0
POINT
  5
1D2
330
1BC
100
AcDbEntity
  8
Defpoints
 62
     0
100
AcDbPoint
 10
662.831950536588
 20
381.2341520054095
 30
0.0
  0
ENDBLK
  5
1BE
330
1BC
100
AcDbEntity
  8
0
100
AcDbBlockEnd
  0
ENDSEC
  0
SECTION
  2
ENTITIES
  0
LINE
  5
44
330
1F
100
AcDbEntity
  8
0
  6
Continuous
 62
     7
370
    15
100
AcDbLine
 10
801.52307382778
 20
635.3457955466261
 30
0.0
 11
801.52307382778
 21
651.345795546626
 31
0.0
  0
LINE
  5
45
330
1F
100
AcDbEntity
  8
0
  6
Continuous
 62
     7
370
    15
100
AcDbLine
 10
655.52307382778
 20
651.345795546626
 30
0.0
 11
655.52307382778
 21
635.3457955466261
 31
0.0
  0
ARC
  5
46
330
1F
100
AcDbEntity
  8
0
  6
Continuous
 62
     7
370
    15
100
AcDbCircle
 10
665.5230738277801
 20
573.3457955466262
 30
0.0
 40
10.0
100
AcDbArc
 50
180.0
 51
270.0
  0
ARC
  5
47
330
1F
100
AcDbEntity
  8
0
  6
Continuous
 62
     7
370
    15
100
AcDbCircle
 10
791.52307382778
 20
573.3457955466262
 30
0.0
 40
10.0
100
AcDbArc
 50
270.0
 51
0.0
  0
LINE
  5
48
330
1F
100
AcDbEntity
  8
0
  6
Continuous
 62
     7
370
    15
100
AcDbLine
 10
801.52307382778
 20
573.3457955466262
 30
0.0
 11
801.52307382778
 21
613.3457955466261
 31
0.0
  0
LINE
  5
49
330
1F
100
AcDbEntity
  8
0
  6
Continuous
 62
     7
370
    15
100
AcDbLine
 10
655.52307382778
 20
613.3457955466261
 30
0.0
 11
655.52307382778
 21
573.3457955466262
 31
0.0
  0
LINE
  5
4A
330
1F
100
AcDbEntity
  8
0
  6
Continuous
 62
     7
370
    15
100
AcDbLine
 10
801.52307382778
 20
614.3457955466261
 30
0.0
 11
801.52307382778
 21
634.3457955466261
 31
0.0
  0
LINE
  5
4B
330
1F
100
AcDbEntity
  8
0
  6
Continuous
 62
     7
370
    15
100
AcDbLine
 10
655.52307382778
 20
634.3457955466261
 30
0.0
 11
655.52307382778
 21
614.3457955466261
 31
0.0
  0
LINE
  5
4C
330
1F
100
AcDbEntity
  8
0
  6
Continuous
 62
     7
370
    15
100
AcDbLine
 10
792.6462892729021
 20
634.3457955466261
 30
0.0
 11
792.6462892729021
 21
635.3457955466261
 31
0.0
  0
LINE
  5
4D
330
1F
100
AcDbEntity
  8
0
  6
Continuous
 62
     7
370
    15
100
AcDbLine
 10
664.3998583826579
 20
635.3457955466261
 30
0.0
 11
664.3998583826579
 21
634.3457955466261
 31
0.0
  0
LINE
  5
4E
330
1F
100
AcDbEntity
  8
0
  6
Continuous
 62
     7
370
    15
100
AcDbLine
 10
789.7474334835078
 20
613.3457955466261
 30
0.0
 11
789.7474334835078
 21
614.3457955466261
 31
0.0
  0
LINE
  5
4F
330
1F
100
AcDbEntity
  8
0
  6
Continuous
 62
     7
370
    15
100
AcDbLine
 10
667.2987141720523
 20
614.3457955466261
 30
0.0
 11
667.2987141720523
 21
613.3457955466261
 31
0.0
  0
LINE
  5
50
330
1F
100
AcDbEntity
  8
0
  6
Continuous
 62
     7
370
    15
100
AcDbLine
 10
773.153099544387
 20
655.345795546626
 30
0.0
 11
773.153099544387
 21
698.345795546626
 31
0.0
  0
LINE
  5
51
330
1F
100
AcDbEntity
  8
0
  6
Continuous
 62
     7
370
    15
100
AcDbLine
 10
683.893048111173
 20
698.345795546626
 30
0.0
 11
683.893048111173
 21
655.345795546626
 31
0.0
  0
ARC
  5
52
330
1F
100
AcDbEntity
  8
0
  6
Continuous
 62
     7
370
    15
100
AcDbCircle
 10
723.8930481111731
 20
698.345795546626
 30
0.0
 40
40.00000000000001
100
AcDbArc
 50
90.0
 51
180.0
  0
ARC
  5
53
330
1F
100
AcDbEntity
  8
0
  6
Continuous
 62
     7
370
    15
100
AcDbCircle
 10
733.153099544387
 20
698.345795546626
 30
0.0
 40
40.00000000000002
100
AcDbArc
 50
0.0
 51
90.0
  0
LINE
  5
54
330
1F
100
AcDbEntity
  8
0
  6
Continuous
 62
     7
370
    15
100
AcDbLine
 10
764.8751037691591
 20
536.3761676415449
 30
0.0
 11
764.8751037691591
 21
563.3457955466261
 31
0.0
  0
LINE
  5
55
330
1F
100
AcDbEntity
  8
0
  6
Continuous
 62
     7
370
    15
100
AcDbLine
 10
764.8751037691591
 20
513.3457955466261
 30
0.0
 11
764.8751037691591
 21
513.4437477069532
 31
0.0
  0
LINE
  5
56
330
1F
100
AcDbEntity
  8
0
  6
Continuous
 62
     7
370
    15
100
AcDbLine
 10
692.171043886401
 20
513.4437477069532
 30
0.0
 11
692.171043886401
 21
513.3457955466261
 31
0.0
  0
LINE
  5
57
330
1F
100
AcDbEntity
  8
0
  6
Continuous
 62
     7
370
    15
100
AcDbLine
 10
692.171043886401
 20
563.3457955466261
 30
0.0
 11
692.171043886401
 21
536.327638151014
 31
0.0
  0
LINE
  5
58
330
1F
100
AcDbEntity
  8
0
  6
Continuous
 62
     7
370
    15
100
AcDbLine
 10
692.2025307336812
 20
536.4437477069532
 30
0.0
 11
658.52307382778
 21
536.4437477069532
 31
0.0
  0
LINE
  5
59
330
1F
100
AcDbEntity
  8
0
  6
Continuous
 62
     7
370
    15
100
AcDbLine
 10
798.5230738277801
 20
536.4437477069532
 30
0.0
 11
764.8570307029096
 21
536.4437477069532
 31
0.0
  0
LINE
  5
5A
330
1F
100
AcDbEntity
  8
0
  6
Continuous
 62
     7
370
    15
100
AcDbLine
 10
658.52307382778
 20
535.7289348736988
 30
0.0
 11
656.5230738277801
 21
535.7289348736988
 31
0.0
  0
LINE
  5
5B
330
1F
100
AcDbEntity
  8
0
  6
Continuous
 62
     7
370
    15
100
AcDbLine
 10
656.5230738277801
 20
517.7289348736987
 30
0.0
 11
658.52307382778
 21
517.7289348736987
 31
0.0
  0
LINE
  5
5C
330
1F
100
AcDbEntity
  8
0
  6
Continuous
 62
     7
370
    15
100
AcDbLine
 10
798.5230738277801
 20
517.4646277826586
 30
0.0
 11
800.52307382778
 21
517.4646277826586
 31
0.0
  0
LINE
  5
5D
330
1F
100
AcDbEntity
  8
0
  6
Continuous
 62
     7
370
    15
100
AcDbLine
 10
800.52307382778
 20
535.4646277826587
 30
0.0
 11
798.5230738277801
 21
535.4646277826587
 31
0.0
  0
SPLINE
  5
5E
330
1F
100
AcDbEntity
  8
0
  6
Continuous
 62
     7
370
    15
100
AcDbSpline
210
0.0
220
0.0
230
1.0
 70
     8
 71
     3
 72
    20
 73
    16
 74
     0
 42
0.0000000001
 43
0.0000000001
 40
0.0
 40
0.0
 40
0.0
 40
0.0
 40
0.1249999999999992
 40
0.1249999999999992
 40
0.2499999999999984
 40
0.2499999999999984
 40
0.3749999999999977
 40
0.3749999999999977
 40
0.4999999999999969
 40
0.4999999999999969
 40
0.6249999999999961
 40
0.6249999999999961
 40
0.7499999999999954
 40
0.7499999999999954
 40
1.0
 40
1.0
 40
1.0
 40
1.0
 10
655.52307382778
 20
652.345795546626
 30
0.0
 10
655.52307382778
 20
652.5439106029036
 30
0.0
 10
655.5230664875844
 20
652.7387163764138
 30
0.0
 10
655.5231264612388
 20
653.1219800507406
 30
0.0
 10
655.5231958147959
 20
653.3124204555032
 30
0.0
 10
655.523666653158
 20
653.6756120604218
 30
0.0
 10
655.5240654784088
 20
653.8478729201838
 30
0.0
 10
655.525568900465
 20
654.1738934901261
 30
0.0
 10
655.5266925307384
 20
654.3282689891607
 30
0.0
 10
655.5300202205416
 20
654.6049905502927
 30
0.0
 10
655.5322250201669
 20
654.729168805455
 30
0.0
 10
655.5382011898318
 20
654.9484924778109
 30
0.0
 10
655.541945367281
 20
655.0417279622745
 30
0.0
 10
655.5556592293347
 20
655.2662877601928
 30
0.0
 10
655.5684603290859
 20
655.3457955466263
 30
0.0
 10
655.5847437125382
 20
655.345795546626
 30
0.0
  0
LINE
  5
5F
330
1F
100
AcDbEntity
  8
0
  6
Continuous
 62
     7
370
    15
100
AcDbLine
 10
655.52307382778
 20
651.345795546626
 30
0.0
 11
655.52307382778
 21
652.345795546626
 31
0.0
  0
SPLINE
  5
60
330
1F
100
AcDbEntity
  8
0
  6
Continuous
 62
     7
370
    15
100
AcDbSpline
210
0.0
220
0.0
230
1.0
 70
     8
 71
     3
 72
    20
 73
    16
 74
     0
 42
0.0000000001
 43
0.0000000001
 40
0.0
 40
0.0
 40
0.0
 40
0.0
 40
0.1250000000000001
 40
0.1250000000000001
 40
0.2500000000000002
 40
0.2500000000000002
 40
0.3750000000000001
 40
0.3750000000000001
 40
0.5000000000000001
 40
0.5000000000000001
 40
0.6250000000000001
 40
0.6250000000000001
 40
0.75
 40
0.75
 40
1.0
 40
1.0
 40
1.0
 40
1.0
 10
655.5847437125382
 20
648.345795546626
 30
0.0
 10
655.5766020750622
 20
648.345795546626
 30
0.0
 10
655.5694014870534
 20
648.365194991823
 30
0.0
 10
655.5567172431731
 20
648.441242334557
 30
0.0
 10
655.5511879163926
 20
648.4988120594856
 30
0.0
 10
655.5419707906751
 20
648.6491582801443
 30
0.0
 10
655.5382745520429
 20
648.7411749475725
 30
0.0
 10
655.5323086969898
 20
648.9586026787874
 30
0.0
 10
655.5300426286186
 20
649.0851779110632
 30
0.0
 10
655.5267067626195
 20
649.361702677182
 30
0.0
 10
655.5255996505291
 20
649.5125953763256
 30
0.0
 10
655.5240744808668
 20
649.8402403975465
 30
0.0
 10
655.5236699181921
 20
650.0147359584702
 30
0.0
 10
655.5229635125478
 20
650.5558371792018
 30
0.0
 10
655.52307382778
 20
650.949566023222
 30
0.0
 10
655.52307382778
 20
651.3457955466261
 30
0.0
  0
LINE
  5
61
330
1F
100
AcDbEntity
  8
0
  6
Continuous
 62
     7
370
    15
100
AcDbLine
 10
655.5847437125382
 20
648.345795546626
 30
0.0
 11
663.8566270383649
 21
648.345795546626
 31
0.0
  0
SPLINE
  5
62
330
1F
100
AcDbEntity
  8
0
  6
Continuous
 62
     7
370
    15
100
AcDbSpline
210
0.0
220
0.0
230
1.0
 70
     8
 71
     3
 72
    20
 73
    16
 74
     0
 42
0.0000000001
 43
0.0000000001
 40
0.0
 40
0.0
 40
0.0
 40
0.0
 40
0.1249999999999996
 40
0.1249999999999996
 40
0.2499999999999993
 40
0.2499999999999993
 40
0.3749999999999989
 40
0.3749999999999989
 40
0.4999999999999986
 40
0.4999999999999986
 40
0.6249999999999983
 40
0.6249999999999983
 40
0.7499999999999978
 40
0.7499999999999978
 40
1.0
 40
1.0
 40
1.0
 40
1.0
 10
665.303219351516
 20
651.345795546626
 30
0.0
 10
665.303219351516
 20
651.1476804903487
 30
0.0
 10
665.2934969655737
 20
650.9528747168385
 30
0.0
 10
665.2554795912172
 20
650.5696110425117
 30
0.0
 10
665.2267252600498
 20
650.379170637749
 30
0.0
 10
665.1519004921802
 20
650.0159790328305
 30
0.0
 10
665.1062077580985
 20
649.8437181730685
 30
0.0
 10
664.9987430903692
 20
649.5176976031261
 30
0.0
 10
664.9364051110352
 20
649.3633221040916
 30
0.0
 10
664.800989585929
 20
649.0866005429595
 30
0.0
 10
664.7274410461482
 20
648.9624222877973
 30
0.0
 10
664.5687883189768
 20
648.7430986154413
 30
0.0
 10
664.4847827418713
 20
648.6498631309777
 30
0.0
 10
664.2261597096328
 20
648.4253033330594
 30
0.0
 10
664.0404723475744
 20
648.345795546626
 30
0.0
 10
663.8566270383649
 20
648.345795546626
 30
0.0
  0
LINE
  5
63
330
1F
100
AcDbEntity
  8
0
  6
Continuous
 62
     7
370
    15
100
AcDbLine
 10
665.303219351516
 20
651.345795546626
 30
0.0
 11
665.303219351516
 21
652.345795546626
 31
0.0
  0
SPLINE
  5
64
330
1F
100
AcDbEntity
  8
0
  6
Continuous
 62
     7
370
    15
100
AcDbSpline
210
0.0
220
0.0
230
1.0
 70
     8
 71
     3
 72
    20
 73
    16
 74
     0
 42
0.0000000001
 43
0.0000000001
 40
0.0
 40
0.0
 40
0.0
 40
0.0
 40
0.125
 40
0.125
 40
0.25
 40
0.25
 40
0.375
 40
0.375
 40
0.5
 40
0.5
 40
0.625
 40
0.625
 40
0.75
 40
0.75
 40
1.0
 40
1.0
 40
1.0
 40
1.0
 10
666.8566270383649
 20
655.345795546626
 30
0.0
 10
666.7506032665
 20
655.345795546626
 30
0.0
 10
666.6470291223543
 20
655.3263961014293
 30
0.0
 10
666.444507949971
 20
655.2503487586952
 30
0.0
 10
666.3445295126125
 20
655.1927790337665
 30
0.0
 10
666.1549864578358
 20
655.0424328131079
 30
0.0
 10
666.0656596764383
 20
654.9504161456796
 30
0.0
 10
665.8974741164666
 20
654.7329884144649
 30
0.0
 10
665.818310739067
 20
654.6064131821891
 30
0.0
 10
665.6770244069086
 20
654.3298884160702
 30
0.0
 10
665.613952559226
 20
654.1789957169267
 30
0.0
 10
665.5029153944123
 20
653.8513506957058
 30
0.0
 10
665.4559202681467
 20
653.676855134782
 30
0.0
 10
665.3429404226425
 20
653.1357539140505
 30
0.0
 10
665.3032193515159
 20
652.7420250700303
 30
0.0
 10
665.303219351516
 20
652.345795546626
 30
0.0
  0
LINE
  5
65
330
1F
100
AcDbEntity
  8
0
  6
Continuous
 62
     7
370
    15
100
AcDbLine
 10
666.8566270383649
 20
655.345795546626
 30
0.0
 11
689.4558325588057
 21
655.345795546626
 31
0.0
  0
SPLINE
  5
66
330
1F
100
AcDbEntity
  8
0
  6
Continuous
 62
     7
370
    15
100
AcDbSpline
210
0.0
220
0.0
230
1.0
 70
     8
 71
     3
 72
    20
 73
    16
 74
     0
 42
0.0000000001
 43
0.0000000001
 40
0.0
 40
0.0
 40
0.0
 40
0.0
 40
0.1249999999999989
 40
0.1249999999999989
 40
0.2499999999999978
 40
0.2499999999999978
 40
0.3749999999999967
 40
0.3749999999999967
 40
0.4999999999999956
 40
0.4999999999999956
 40
0.6249999999999945
 40
0.6249999999999945
 40
0.7499999999999952
 40
0.7499999999999952
 40
1.0
 40
1.0
 40
1.0
 40
1.0
 10
692.02307382778
 20
652.345795546626
 30
0.0
 10
692.02307382778
 20
652.5439106029036
 30
0.0
 10
692.0062415015527
 20
652.7387163764138
 30
0.0
 10
691.9403335039423
 20
653.1219800507406
 30
0.0
 10
691.8904601878661
 20
653.3124204555032
 30
0.0
 10
691.760389049889
 20
653.6756120604218
 30
0.0
 10
691.6808480876721
 20
653.8478729201838
 30
0.0
 10
691.4932104010901
 20
654.1738934901261
 30
0.0
 10
691.384114223369
 20
654.3282689891608
 30
0.0
 10
691.1462399639483
 20
654.6049905502927
 30
0.0
 10
691.0166453566002
 20
654.7291688054551
 30
0.0
 10
690.7358746027149
 20
654.9484924778109
 30
0.0
 10
690.5866284976
 20
655.0417279622745
 30
0.0
 10
690.1249664037017
 20
655.2662877601928
 30
0.0
 10
689.7905453585419
 20
655.3457955466263
 30
0.0
 10
689.4558325588057
 20
655.345795546626
 30
0.0
  0
LINE
  5
67
330
1F
100
AcDbEntity
  8
0
  6
Continuous
 62
     7
370
    15
100
AcDbLine
 10
692.02307382778
 20
651.345795546626
 30
0.0
 11
692.02307382778
 21
652.345795546626
 31
0.0
  0
SPLINE
  5
68
330
1F
100
AcDbEntity
  8
0
  6
Continuous
 62
     7
370
    15
100
AcDbSpline
210
0.0
220
0.0
230
1.0
 70
     8
 71
     3
 72
    20
 73
    16
 74
     0
 42
0.0000000001
 43
0.0000000001
 40
0.0
 40
0.0
 40
0.0
 40
0.0
 40
0.125
 40
0.125
 40
0.25
 40
0.25
 40
0.3750000000000001
 40
0.3750000000000001
 40
0.5000000000000001
 40
0.5000000000000001
 40
0.6250000000000001
 40
0.6250000000000001
 40
0.7500000000000002
 40
0.7500000000000002
 40
1.0
 40
1.0
 40
1.0
 40
1.0
 10
694.6519849815124
 20
648.345795546626
 30
0.0
 10
694.4764880593082
 20
648.345795546626
 30
0.0
 10
694.3042929673059
 20
648.365194991823
 30
0.0
 10
693.9662002510101
 20
648.441242334557
 30
0.0
 10
693.7985618446244
 20
648.4988120594858
 30
0.0
 10
693.4794807692468
 20
648.6491582801443
 30
0.0
 10
693.3284584840217
 20
648.7411749475725
 30
0.0
 10
693.0431184041045
 20
648.9586026787874
 30
0.0
 10
692.9082694807211
 20
649.0851779110632
 30
0.0
 10
692.6668902410066
 20
649.361702677182
 30
0.0
 10
692.5587537083836
 20
649.5125953763256
 30
0.0
 10
692.3679568670601
 20
649.8402403975465
 30
0.0
 10
692.2869634833348
 20
650.0147359584702
 30
0.0
 10
692.0919830563343
 20
650.5558371792018
 30
0.0
 10
692.02307382778
 20
650.949566023222
 30
0.0
 10
692.02307382778
 20
651.345795546626
 30
0.0
  0
LINE
  5
69
330
1F
100
AcDbEntity
  8
0
  6
Continuous
 62
     7
370
    15
100
AcDbLine
 10
694.6519849815124
 20
648.345795546626
 30
0.0
 11
725.52307382778
 21
648.345795546626
 31
0.0
  0
SPLINE
  5
6A
330
1F
100
AcDbEntity
  8
0
  6
Continuous
 62
     7
370
    15
100
AcDbSpline
210
0.0
220
0.0
230
1.0
 70
     8
 71
     3
 72
    20
 73
    16
 74
     0
 42
0.0000000001
 43
0.0000000001
 40
0.0
 40
0.0
 40
0.0
 40
0.0
 40
0.1249999999999992
 40
0.1249999999999992
 40
0.2499999999999985
 40
0.2499999999999985
 40
0.3749999999999978
 40
0.3749999999999978
 40
0.499999999999997
 40
0.499999999999997
 40
0.6249999999999961
 40
0.6249999999999961
 40
0.7499999999999954
 40
0.7499999999999954
 40
1.0
 40
1.0
 40
1.0
 40
1.0
 10
728.52307382778
 20
651.345795546626
 30
0.0
 10
728.52307382778
 20
651.1476804903487
 30
0.0
 10
728.5036417694869
 20
650.9528747168385
 30
0.0
 10
728.4275031433573
 20
650.5696110425117
 30
0.0
 10
728.3698743571385
 20
650.379170637749
 30
0.0
 10
728.2194093054336
 20
650.0159790328305
 30
0.0
 10
728.1273330516727
 20
649.8437181730685
 30
0.0
 10
727.9097997128274
 20
649.5176976031261
 30
0.0
 10
727.7831775694369
 20
649.3633221040916
 30
0.0
 10
727.5065827914135
 20
649.0866005429595
 30
0.0
 10
727.3556668868806
 20
648.9624222877971
 30
0.0
 10
727.0280104030432
 20
648.7430986154413
 30
0.0
 10
726.8535141432578
 20
648.6498631309777
 30
0.0
 10
726.3125149729358
 20
648.4253033330594
 30
0.0
 10
725.9189680936573
 20
648.3457955466262
 30
0.0
 10
725.52307382778
 20
648.345795546626
 30
0.0
  0
LINE
  5
6B
330
1F
100
AcDbEntity
  8
0
  6
Continuous
 62
     7
370
    15
100
AcDbLine
 10
728.52307382778
 20
651.345795546626
 30
0.0
 11
728.52307382778
 21
652.345795546626
 31
0.0
  0
SPLINE
  5
6C
330
1F
100
AcDbEntity
  8
0
  6
Continuous
 62
     7
370
    15
100
AcDbSpline
210
0.0
220
0.0
230
1.0
 70
     8
 71
     3
 72
    20
 73
    16
 74
     0
 42
0.0000000001
 43
0.0000000001
 40
0.0
 40
0.0
 40
0.0
 40
0.0
 40
0.125
 40
0.125
 40
0.25
 40
0.25
 40
0.375
 40
0.375
 40
0.5
 40
0.5
 40
0.625
 40
0.625
 40
0.75
 40
0.75
 40
1.0
 40
1.0
 40
1.0
 40
1.0
 10
731.5230738277801
 20
655.345795546626
 30
0.0
 10
731.3251280138152
 20
655.345795546626
 30
0.0
 10
731.1304515097993
 20
655.3263961014293
 30
0.0
 10
730.7473789198891
 20
655.2503487586952
 30
0.0
 10
730.5569991200878
 20
655.1927790337665
 30
0.0
 10
730.1938775405767
 20
655.0424328131079
 30
0.0
 10
730.0216260508894
 20
654.9504161456796
 30
0.0
 10
729.6955880950084
 20
654.7329884144649
 30
0.0
 10
729.541186285762
 20
654.6064131821891
 30
0.0
 10
729.2643915108426
 20
654.3298884160702
 30
0.0
 10
729.1401653898678
 20
654.1789957169267
 30
0.0
 10
728.9207327315855
 20
653.8513506957058
 30
0.0
 10
728.8274432021619
 20
653.676855134782
 30
0.0
 10
728.60270704162
 20
653.1357539140505
 30
0.0
 10
728.52307382778
 20
652.7420250700303
 30
0.0
 10
728.52307382778
 20
652.345795546626
 30
0.0
  0
LINE
  5
6D
330
1F
100
AcDbEntity
  8
0
  6
Continuous
 62
     7
370
    15
100
AcDbLine
 10
731.5230738277801
 20
655.345795546626
 30
0.0
 11
762.3941626740477
 21
655.345795546626
 31
0.0
  0
SPLINE
  5
6E
330
1F
100
AcDbEntity
  8
0
  6
Continuous
 62
     7
370
    15
100
AcDbSpline
210
0.0
220
0.0
230
1.0
 70
     8
 71
     3
 72
    20
 73
    16
 74
     0
 42
0.0000000001
 43
0.0000000001
 40
0.0
 40
0.0
 40
0.0
 40
0.0
 40
0.1249999999999992
 40
0.1249999999999992
 40
0.2499999999999984
 40
0.2499999999999984
 40
0.3749999999999976
 40
0.3749999999999976
 40
0.4999999999999968
 40
0.4999999999999968
 40
0.624999999999996
 40
0.624999999999996
 40
0.7499999999999952
 40
0.7499999999999952
 40
1.0
 40
1.0
 40
1.0
 40
1.0
 10
765.0230738277801
 20
652.345795546626
 30
0.0
 10
765.0230738277801
 20
652.5439106029035
 30
0.0
 10
765.0062488417481
 20
652.7387163764136
 30
0.0
 10
764.9402808704834
 20
653.1219800507406
 30
0.0
 10
764.8903382008502
 20
653.3124204555031
 30
0.0
 10
764.7597962245109
 20
653.6756120604218
 30
0.0
 10
764.6798564370433
 20
653.8478729201838
 30
0.0
 10
764.4907153284052
 20
654.1738934901261
 30
0.0
 10
764.3804955204106
 20
654.3282689891608
 30
0.0
 10
764.1392935711867
 20
654.6049905502927
 30
0.0
 10
764.0074941642135
 20
654.729168805455
 30
0.0
 10
763.7207472406632
 20
654.9484924778109
 30
0.0
 10
763.5677569580989
 20
655.0417279622745
 30
0.0
 10
763.092381002147
 20
655.2662877601928
 30
0.0
 10
762.7451588572361
 20
655.3457955466263
 30
0.0
 10
762.3941626740477
 20
655.345795546626
 30
0.0
  0
LINE
  5
6F
330
1F
100
AcDbEntity
  8
0
  6
Continuous
 62
     7
370
    15
100
AcDbLine
 10
765.0230738277801
 20
651.345795546626
 30
0.0
 11
765.0230738277801
 21
652.345795546626
 31
0.0
  0
SPLINE
  5
70
330
1F
100
AcDbEntity
  8
0
  6
Continuous
 62
     7
370
    15
100
AcDbSpline
210
0.0
220
0.0
230
1.0
 70
     8
 71
     3
 72
    20
 73
    16
 74
     0
 42
0.0000000001
 43
0.0000000001
 40
0.0
 40
0.0
 40
0.0
 40
0.0
 40
0.125
 40
0.125
 40
0.25
 40
0.25
 40
0.375
 40
0.375
 40
0.5
 40
0.5
 40
0.625
 40
0.625
 40
0.75
 40
0.75
 40
1.0
 40
1.0
 40
1.0
 40
1.0
 10
767.5903150967543
 20
648.345795546626
 30
0.0
 10
767.4229598120259
 20
648.345795546626
 30
0.0
 10
767.2579653080326
 20
648.365194991823
 30
0.0
 10
766.9325568356171
 20
648.441242334557
 30
0.0
 10
766.7704477560119
 20
648.4988120594858
 30
0.0
 10
766.4605838063518
 20
648.6491582801443
 30
0.0
 10
766.3132577597589
 20
648.7411749475725
 30
0.0
 10
766.0338835348946
 20
648.9586026787874
 30
0.0
 10
765.9013006798825
 20
649.0851779110632
 30
0.0
 10
765.663257306167
 20
649.361702677182
 30
0.0
 10
765.5562278856345
 20
649.5125953763256
 30
0.0
 10
765.3669562139733
 20
649.8402403975465
 30
0.0
 10
765.2863673929225
 20
650.0147359584702
 30
0.0
 10
765.0920933715667
 20
650.5558371792018
 30
0.0
 10
765.0230738277801
 20
650.949566023222
 30
0.0
 10
765.0230738277801
 20
651.345795546626
 30
0.0
  0
LINE
  5
71
330
1F
100
AcDbEntity
  8
0
  6
Continuous
 62
     7
370
    15
100
AcDbLine
 10
767.5903150967543
 20
648.345795546626
 30
0.0
 11
790.1895206171951
 21
648.345795546626
 31
0.0
  0
SPLINE
  5
72
330
1F
100
AcDbEntity
  8
0
  6
Continuous
 62
     7
370
    15
100
AcDbSpline
210
0.0
220
0.0
230
1.0
 70
     8
 71
     3
 72
    20
 73
    16
 74
     0
 42
0.0000000001
 43
0.0000000001
 40
0.0
 40
0.0
 40
0.0
 40
0.0
 40
0.124999999999998
 40
0.124999999999998
 40
0.249999999999996
 40
0.249999999999996
 40
0.374999999999994
 40
0.374999999999994
 40
0.499999999999992
 40
0.499999999999992
 40
0.6249999999999901
 40
0.6249999999999901
 40
0.7499999999999899
 40
0.7499999999999899
 40
1.0
 40
1.0
 40
1.0
 40
1.0
 10
791.7429283040441
 20
651.345795546626
 30
0.0
 10
791.7429283040441
 20
651.1476804903487
 30
0.0
 10
791.7332186316934
 20
650.9528747168387
 30
0.0
 10
791.6950973799202
 20
650.5696110425117
 30
0.0
 10
791.6662229248686
 20
650.379170637749
 30
0.0
 10
791.5905826410335
 20
650.0159790328305
 30
0.0
 10
791.5441991213542
 20
649.8437181730685
 30
0.0
 10
791.4341304502382
 20
649.5176976031261
 30
0.0
 10
791.3698462861817
 20
649.3633221040915
 30
0.0
 10
791.2286670332646
 20
649.0866005429595
 30
0.0
 10
791.1512996685123
 20
648.9624222877971
 30
0.0
 10
790.9822959118465
 20
648.7430986154413
 30
0.0
 10
790.8918052291666
 20
648.6498631309777
 30
0.0
 10
790.6094290910831
 20
648.4253033330594
 30
0.0
 10
790.4015695738629
 20
648.3457955466262
 30
0.0
 10
790.1895206171951
 20
648.345795546626
 30
0.0
  0
LINE
  5
73
330
1F
100
AcDbEntity
  8
0
  6
Continuous
 62
     7
370
    15
100
AcDbLine
 10
791.7429283040441
 20
651.345795546626
 30
0.0
 11
791.7429283040441
 21
652.345795546626
 31
0.0
  0
SPLINE
  5
74
330
1F
100
AcDbEntity
  8
0
  6
Continuous
 62
     7
370
    15
100
AcDbSpline
210
0.0
220
0.0
230
1.0
 70
     8
 71
     3
 72
    20
 73
    16
 74
     0
 42
0.0000000001
 43
0.0000000001
 40
0.0
 40
0.0
 40
0.0
 40
0.0
 40
0.1250000000000002
 40
0.1250000000000002
 40
0.2500000000000004
 40
0.2500000000000004
 40
0.3750000000000007
 40
0.3750000000000007
 40
0.5000000000000009
 40
0.5000000000000009
 40
0.6250000000000011
 40
0.6250000000000011
 40
0.7500000000000014
 40
0.7500000000000014
 40
1.0
 40
1.0
 40
1.0
 40
1.0
 10
793.189520617195
 20
655.345795546626
 30
0.0
 10
793.0975985750952
 20
655.345795546626
 30
0.0
 10
793.006496215225
 20
655.3263961014293
 30
0.0
 10
792.8259447976982
 20
655.2503487586952
 30
0.0
 10
792.7355434352551
 20
655.1927790337665
 30
0.0
 10
792.5619649105209
 20
655.0424328131079
 30
0.0
 10
792.4790402022312
 20
654.9504161456796
 30
0.0
 10
792.3211878063219
 20
654.7329884144649
 30
0.0
 10
792.2459493744749
 20
654.6064131821891
 30
0.0
 10
792.110440931714
 20
654.3298884160702
 30
0.0
 10
792.0492866584218
 20
654.1789957169267
 30
0.0
 10
791.9408911649534
 20
653.8513506957058
 30
0.0
 10
791.8945967617951
 20
653.676855134782
 30
0.0
 10
791.7828404467577
 20
653.1357539140505
 30
0.0
 10
791.7429283040441
 20
652.7420250700303
 30
0.0
 10
791.7429283040441
 20
652.345795546626
 30
0.0
  0
LINE
  5
75
330
1F
100
AcDbEntity
  8
0
  6
Continuous
 62
     7
370
    15
100
AcDbLine
 10
793.189520617195
 20
655.345795546626
 30
0.0
 11
801.461403943022
 21
655.345795546626
 31
0.0
  0
SPLINE
  5
76
330
1F
100
AcDbEntity
  8
0
  6
Continuous
 62
     7
370
    15
100
AcDbSpline
210
0.0
220
0.0
230
1.0
 70
     8
 71
     3
 72
    20
 73
    16
 74
     0
 42
0.0000000001
 43
0.0000000001
 40
0.0
 40
0.0
 40
0.0
 40
0.0
 40
0.1249999999999991
 40
0.1249999999999991
 40
0.2499999999999983
 40
0.2499999999999983
 40
0.3749999999999974
 40
0.3749999999999974
 40
0.4999999999999966
 40
0.4999999999999966
 40
0.6249999999999957
 40
0.6249999999999957
 40
0.7499999999999949
 40
0.7499999999999949
 40
1.0
 40
1.0
 40
1.0
 40
1.0
 10
801.52307382778
 20
652.345795546626
 30
0.0
 10
801.52307382778
 20
652.5439106029036
 30
0.0
 10
801.5230811679757
 20
652.7387163764138
 30
0.0
 10
801.5230211943212
 20
653.1219800507406
 30
0.0
 10
801.5229518407641
 20
653.3124204555032
 30
0.0
 10
801.5224810024019
 20
653.6756120604218
 30
0.0
 10
801.5220821771514
 20
653.8478729201838
 30
0.0
 10
801.520578755095
 20
654.1738934901261
 30
0.0
 10
801.5194551248216
 20
654.3282689891607
 30
0.0
 10
801.5161274350184
 20
654.6049905502927
 30
0.0
 10
801.5139226353932
 20
654.729168805455
 30
0.0
 10
801.5079464657283
 20
654.9484924778109
 30
0.0
 10
801.5042022882791
 20
655.0417279622745
 30
0.0
 10
801.4904884262254
 20
655.2662877601928
 30
0.0
 10
801.4776873264741
 20
655.3457955466263
 30
0.0
 10
801.461403943022
 20
655.345795546626
 30
0.0
  0
LINE
  5
77
330
1F
100
AcDbEntity
  8
0
  6
Continuous
 62
     7
370
    15
100
AcDbLine
 10
801.52307382778
 20
651.345795546626
 30
0.0
 11
801.52307382778
 21
652.345795546626
 31
0.0
  0
LINE
  5
78
330
1F
100
AcDbEntity
  8
0
  6
Continuous
 62
     7
370
    15
100
AcDbLine
 10
728.52307382778
 20
635.3457955466261
 30
0.0
 11
801.52307382778
 21
635.3457955466261
 31
0.0
  0
LINE
  5
79
330
1F
100
AcDbEntity
  8
0
  6
Continuous
 62
     7
370
    15
100
AcDbLine
 10
655.5230738277802
 20
635.3457955466261
 30
0.0
 11
728.52307382778
 21
635.3457955466261
 31
0.0
  0
LINE
  5
7A
330
1F
100
AcDbEntity
  8
0
  6
Continuous
 62
     7
370
    15
100
AcDbLine
 10
728.52307382778
 20
563.3457955466261
 30
0.0
 11
665.5230738277801
 21
563.3457955466261
 31
0.0
  0
LINE
  5
7B
330
1F
100
AcDbEntity
  8
0
  6
Continuous
 62
     7
370
    15
100
AcDbLine
 10
791.52307382778
 20
563.3457955466261
 30
0.0
 11
728.52307382778
 21
563.3457955466261
 31
0.0
  0
LINE
  5
7C
330
1F
100
AcDbEntity
  8
0
  6
Continuous
 62
     7
370
    15
100
AcDbLine
 10
728.52307382778
 20
613.3457955466261
 30
0.0
 11
801.52307382778
 21
613.3457955466261
 31
0.0
  0
LINE
  5
7D
330
1F
100
AcDbEntity
  8
0
  6
Continuous
 62
     7
370
    15
100
AcDbLine
 10
655.5230738277802
 20
613.3457955466261
 30
0.0
 11
728.52307382778
 21
613.3457955466261
 31
0.0
  0
LINE
  5
7E
330
1F
100
AcDbEntity
  8
0
  6
Continuous
 62
     7
370
    15
100
AcDbLine
 10
728.52307382778
 20
614.3457955466261
 30
0.0
 11
801.52307382778
 21
614.3457955466261
 31
0.0
  0
LINE
  5
7F
330
1F
100
AcDbEntity
  8
0
  6
Continuous
 62
     7
370
    15
100
AcDbLine
 10
655.5230738277802
 20
614.3457955466261
 30
0.0
 11
728.52307382778
 21
614.3457955466261
 31
0.0
  0
LINE
  5
80
330
1F
100
AcDbEntity
  8
0
  6
Continuous
 62
     7
370
    15
100
AcDbLine
 10
728.52307382778
 20
634.3457955466261
 30
0.0
 11
801.52307382778
 21
634.3457955466261
 31
0.0
  0
LINE
  5
81
330
1F
100
AcDbEntity
  8
0
  6
Continuous
 62
     7
370
    15
100
AcDbLine
 10
655.5230738277802
 20
634.3457955466261
 30
0.0
 11
728.52307382778
 21
634.3457955466261
 31
0.0
  0
LINE
  5
82
330
1F
100
AcDbEntity
  8
0
  6
Continuous
 62
     7
370
    15
100
AcDbLine
 10
730.2544362867142
 20
526.394622135626
 30
0.0
 11
729.3464699907931
 21
527.8696127137218
 31
0.0
  0
LINE
  5
83
330
1F
100
AcDbEntity
  8
0
  6
Continuous
 62
     7
370
    15
100
AcDbLine
 10
726.7917113688459
 20
526.2969689576262
 30
0.0
 11
727.699677664767
 21
524.8219783795304
 31
0.0
  0
LINE
  5
84
330
1F
100
AcDbEntity
  8
0
  6
Continuous
 62
     7
370
    15
100
AcDbLine
 10
729.4310401237012
 20
524.8708049685303
 30
0.0
 11
730.2544362867142
 21
526.394622135626
 31
0.0
  0
CIRCLE
  5
85
330
1F
100
AcDbEntity
  8
0
  6
Continuous
 62
     7
370
    15
100
AcDbCircle
 10
728.52307382778
 20
526.3457955466261
 30
0.0
 40
9.0
  0
LINE
  5
86
330
1F
100
AcDbEntity
  8
0
  6
Continuous
 62
     7
370
    15
100
AcDbLine
 10
729.3464699907931
 20
527.8696127137218
 30
0.0
 11
727.6151075318589
 21
527.8207861247219
 31
0.0
  0
LINE
  5
87
330
1F
100
AcDbEntity
  8
0
  6
Continuous
 62
     7
370
    15
100
AcDbLine
 10
727.699677664767
 20
524.8219783795304
 30
0.0
 11
729.4310401237012
 21
524.8708049685303
 31
0.0
  0
LINE
  5
88
330
1F
100
AcDbEntity
  8
0
  6
Continuous
 62
     7
370
    15
100
AcDbLine
 10
727.6151075318589
 20
527.8207861247219
 30
0.0
 11
726.7917113688459
 21
526.2969689576262
 31
0.0
  0
LINE
  5
89
330
1F
100
AcDbEntity
  8
0
  6
Continuous
 62
     7
370
    15
100
AcDbLine
 10
749.2353890049879
 20
513.3457955466261
 30
0.0
 11
749.2353890049879
 21
508.3457955466261
 31
0.0
  0
LINE
  5
8A
330
1F
100
AcDbEntity
  8
0
  6
Continuous
 62
     7
370
    15
100
AcDbLine
 10
749.2353890049879
 20
513.3457955466261
 30
0.0
 11
798.5230738277801
 21
513.3457955466261
 31
0.0
  0
LINE
  5
8B
330
1F
100
AcDbEntity
  8
0
  6
Continuous
 62
     7
370
    15
100
AcDbLine
 10
798.5230738277801
 20
513.3457955466261
 30
0.0
 11
798.5230738277801
 21
508.3457955466261
 31
0.0
  0
LINE
  5
8C
330
1F
100
AcDbEntity
  8
0
  6
Continuous
 62
     7
370
    15
100
AcDbLine
 10
749.2353890049879
 20
508.3457955466261
 30
0.0
 11
798.5230738277801
 21
508.3457955466261
 31
0.0
  0
LINE
  5
8D
330
1F
100
AcDbEntity
  8
0
  6
Continuous
 62
     7
370
    15
100
AcDbLine
 10
738.52307382778
 20
513.3457955466261
 30
0.0
 11
738.52307382778
 21
526.345795546626
 31
0.0
  0
LINE
  5
8E
330
1F
100
AcDbEntity
  8
0
  6
Continuous
 62
     7
370
    15
100
AcDbLine
 10
738.52307382778
 20
513.3457955466261
 30
0.0
 11
749.2353890049879
 21
513.3457955466261
 31
0.0
  0
LINE
  5
8F
330
1F
100
AcDbEntity
  8
0
  6
Continuous
 62
     7
370
    15
100
AcDbLine
 10
707.8107586505721
 20
513.3457955466261
 30
0.0
 11
707.8107586505721
 21
508.3457955466261
 31
0.0
  0
LINE
  5
90
330
1F
100
AcDbEntity
  8
0
  6
Continuous
 62
     7
370
    15
100
AcDbLine
 10
718.5230738277801
 20
526.345795546626
 30
0.0
 11
718.5230738277801
 21
513.3457955466261
 31
0.0
  0
ARC
  5
91
330
1F
100
AcDbEntity
  8
0
  6
Continuous
 62
     7
370
    15
100
AcDbCircle
 10
728.52307382778
 20
526.3457955466261
 30
0.0
 40
10.0
100
AcDbArc
 50
0.0
 51
180.0
  0
LINE
  5
92
330
1F
100
AcDbEntity
  8
0
  6
Continuous
 62
     7
370
    15
100
AcDbLine
 10
749.2353890049879
 20
508.3457955466261
 30
0.0
 11
707.8107586505721
 21
508.3457955466261
 31
0.0
  0
LINE
  5
93
330
1F
100
AcDbEntity
  8
0
  6
Continuous
 62
     7
370
    15
100
AcDbLine
 10
707.8107586505721
 20
513.3457955466261
 30
0.0
 11
718.5230738277801
 21
513.3457955466261
 31
0.0
  0
LINE
  5
94
330
1F
100
AcDbEntity
  8
0
  6
Continuous
 62
     7
370
    15
100
AcDbLine
 10
658.52307382778
 20
513.3457955466261
 30
0.0
 11
658.52307382778
 21
508.3457955466261
 31
0.0
  0
LINE
  5
95
330
1F
100
AcDbEntity
  8
0
  6
Continuous
 62
     7
370
    15
100
AcDbLine
 10
658.52307382778
 20
508.3457955466261
 30
0.0
 11
707.8107586505721
 21
508.3457955466261
 31
0.0
  0
LINE
  5
96
330
1F
100
AcDbEntity
  8
0
  6
Continuous
 62
     7
370
    15
100
AcDbLine
 10
658.52307382778
 20
513.3457955466261
 30
0.0
 11
707.8107586505721
 21
513.3457955466261
 31
0.0
  0
LINE
  5
97
330
1F
100
AcDbEntity
  8
0
  6
Continuous
 62
     7
370
    15
100
AcDbLine
 10
692.02307382778
 20
651.345795546626
 30
0.0
 11
696.8850714461098
 21
651.345795546626
 31
0.0
  0
ARC
  5
98
330
1F
100
AcDbEntity
  8
0
  6
Continuous
 62
     7
370
    15
100
AcDbCircle
 10
699.6996540084094
 20
651.1582955466263
 30
0.0
 40
2.820821024099332
100
AcDbArc
 50
176.1887389505398
 51
265.5980503477314
  0
LINE
  5
99
330
1F
100
AcDbEntity
  8
0
  6
Continuous
 62
     7
370
    15
100
AcDbLine
 10
700.8584245600099
 20
651.345795546626
 30
0.0
 11
728.52307382778
 21
651.345795546626
 31
0.0
  0
LWPOLYLINE
  5
9A
330
1F
100
AcDbEntity
  8
0
  6
Continuous
 62
     7
370
    15
100
AcDbPolyline
 90
        9
 70
   128
 43
0.0
 10
700.8584245600099
 20
651.345795546626
 10
700.8319989999595
 20
650.7605245805778
 10
700.7537378392616
 20
650.1977452495309
 10
700.6266486104323
 20
649.6790848475673
 10
700.4556152812632
 20
649.2244752030664
 10
700.2472105666775
 20
648.8513867097185
 10
700.0094433429822
 20
648.5741569490921
 10
699.7514508712423
 20
648.4034397054165
 10
699.4831476574631
 20
648.345795546626
  0
ARC
  5
9B
330
1F
100
AcDbEntity
  8
0
  6
Continuous
 62
     7
370
    15
100
AcDbCircle
 10
694.0704888838106
 20
652.5332955466263
 30
0.0
 40
2.820821024099086
100
AcDbArc
 50
356.1887389505399
 51
85.59805034773134
  0
LINE
  5
9C
330
1F
100
AcDbEntity
  8
0
  6
Continuous
 62
     7
370
    15
100
AcDbLine
 10
696.8850714461098
 20
652.345795546626
 30
0.0
 11
692.02307382778
 21
652.345795546626
 31
0.0
  0
LINE
  5
9D
330
1F
100
AcDbEntity
  8
0
  6
Continuous
 62
     7
370
    15
100
AcDbLine
 10
689.4558325588057
 20
655.345795546626
 30
0.0
 11
694.2869952347566
 21
655.345795546626
 31
0.0
  0
LINE
  5
9E
330
1F
100
AcDbEntity
  8
0
  6
Continuous
 62
     7
370
    15
100
AcDbLine
 10
696.8850714461098
 20
651.345795546626
 30
0.0
 11
696.8850714461098
 21
652.345795546626
 31
0.0
  0
LINE
  5
9F
330
1F
100
AcDbEntity
  8
0
  6
Continuous
 62
     7
370
    15
100
AcDbLine
 10
728.52307382778
 20
652.3457955466263
 30
0.0
 11
700.8584245600099
 21
652.345795546626
 31
0.0
  0
LWPOLYLINE
  5
A0
330
1F
100
AcDbEntity
  8
0
  6
Continuous
 62
     7
370
    15
100
AcDbPolyline
 90
        9
 70
   128
 43
0.0
 10
700.8584245600099
 20
652.345795546626
 10
700.8848501200603
 20
652.9310665126745
 10
700.9631112807582
 20
653.4938458437213
 10
701.0902005095874
 20
654.012506245685
 10
701.2612338387566
 20
654.4671158901858
 10
701.4696385533422
 20
654.8402043835338
 10
701.7074057770376
 20
655.11743414416
 10
701.9653982487774
 20
655.2881513878357
 10
702.2337014625565
 20
655.345795546626
  0
LINE
  5
A1
330
1F
100
AcDbEntity
  8
0
  6
Continuous
 62
     7
370
    15
100
AcDbLine
 10
702.2337014625565
 20
655.345795546626
 30
0.0
 11
731.5230738277801
 21
655.345795546626
 31
0.0
  0
LINE
  5
A2
330
1F
100
AcDbEntity
  8
0
  6
Continuous
 62
     7
370
    15
100
AcDbLine
 10
700.8584245600099
 20
652.345795546626
 30
0.0
 11
700.8584245600099
 21
651.345795546626
 31
0.0
  0
LINE
  5
A3
330
1F
100
AcDbEntity
  8
0
  6
Continuous
 62
     7
370
    15
100
AcDbLine
 10
700.8584245600099
 20
651.345795546626
 30
0.0
 11
696.8850714461098
 21
651.345795546626
 31
0.0
  0
LINE
  5
A4
330
1F
100
AcDbEntity
  8
0
  6
Continuous
 62
     7
370
    15
100
AcDbLine
 10
700.8584245600099
 20
652.345795546626
 30
0.0
 11
696.8850714461098
 21
652.345795546626
 31
0.0
  0
LINE
  5
A5
330
1F
100
AcDbEntity
  8
0
  6
Continuous
 62
     7
370
    15
100
AcDbLine
 10
702.2337014625565
 20
655.345795546626
 30
0.0
 11
694.2869952347566
 21
655.345795546626
 31
0.0
  0
ARC
  5
A6
330
1F
100
AcDbEntity
  8
0
  6
Continuous
 62
     7
370
    15
100
AcDbCircle
 10
782.0820688308822
 20
651.1267289980818
 30
0.0
 40
2.793095426050144
100
AcDbArc
 50
175.501588379951
 51
264.651222865587
  0
ARC
  5
A7
330
1F
100
AcDbEntity
  8
0
  6
Continuous
 62
     7
370
    15
100
AcDbCircle
 10
776.513086192615
 20
652.5648620951706
 30
0.0
 40
2.793095426049871
100
AcDbArc
 50
355.5015883799511
 51
84.65122286561935
  0
LINE
  5
A8
330
1F
100
AcDbEntity
  8
0
  6
Continuous
 62
     7
370
    15
100
AcDbLine
 10
762.4283103855162
 20
655.345795546626
 30
0.0
 11
776.7734536206792
 21
655.345795546626
 31
0.0
  0
LINE
  5
A9
330
1F
100
AcDbEntity
  8
0
  6
Continuous
 62
     7
370
    15
100
AcDbLine
 10
779.2975775117485
 20
651.345795546626
 30
0.0
 11
779.2975775117485
 21
652.345795546626
 31
0.0
  0
LINE
  5
AA
330
1F
100
AcDbEntity
  8
0
  6
Continuous
 62
     7
370
    15
100
AcDbLine
 10
728.52307382778
 20
738.345795546626
 30
0.0
 11
733.153099544387
 21
738.345795546626
 31
0.0
  0
LINE
  5
AB
330
1F
100
AcDbEntity
  8
0
  6
Continuous
 62
     7
370
    15
100
AcDbLine
 10
723.8930481111731
 20
738.345795546626
 30
0.0
 11
728.52307382778
 21
738.345795546626
 31
0.0
  0
LWPOLYLINE
  5
AC
330
1F
100
AcDbEntity
  8
0
  6
Continuous
 62
     7
370
    15
100
AcDbPolyline
 90
        9
 70
   128
 43
0.0
 10
781.8217014028179
 20
648.345795546626
 10
782.1143368858421
 20
648.4034397054165
 10
782.3957265513655
 20
648.5741569490922
 10
782.6550567523473
 20
648.8513867097185
 10
782.8823615745977
 20
649.2244752030664
 10
783.0689058212717
 20
649.6790848475673
 10
783.2075207015848
 20
650.1977452495309
 10
783.2928793234227
 20
650.7605245805778
 10
783.3217014028178
 20
651.345795546626
  0
LINE
  5
AD
330
1F
100
AcDbEntity
  8
0
  6
Continuous
 62
     7
370
    15
100
AcDbLine
 10
783.3217014028178
 20
651.345795546626
 30
0.0
 11
791.7429283040441
 21
651.345795546626
 31
0.0
  0
LINE
  5
AE
330
1F
100
AcDbEntity
  8
0
  6
Continuous
 62
     7
370
    15
100
AcDbLine
 10
791.7429283040441
 20
652.345795546626
 30
0.0
 11
783.3217014028178
 21
652.345795546626
 31
0.0
  0
LWPOLYLINE
  5
AF
330
1F
100
AcDbEntity
  8
0
  6
Continuous
 62
     7
370
    15
100
AcDbPolyline
 90
        9
 70
   128
 43
0.0
 10
783.3217014028178
 20
652.345795546626
 10
783.3505234822131
 20
652.9310665126745
 10
783.435882104051
 20
653.4938458437213
 10
783.5744969843641
 20
654.012506245685
 10
783.7610412310381
 20
654.4671158901858
 10
783.9883460532885
 20
654.8402043835338
 10
784.2476762542703
 20
655.11743414416
 10
784.5290659197937
 20
655.2881513878357
 10
784.8217014028179
 20
655.345795546626
  0
LINE
  5
B0
330
1F
100
AcDbEntity
  8
0
  6
Continuous
 62
     7
370
    15
100
AcDbLine
 10
784.8217014028179
 20
655.345795546626
 30
0.0
 11
793.189520617195
 21
655.345795546626
 31
0.0
  0
LINE
  5
B1
330
1F
100
AcDbEntity
  8
0
  6
Continuous
 62
     7
370
    15
100
AcDbLine
 10
783.3217014028178
 20
652.345795546626
 30
0.0
 11
783.3217014028178
 21
651.345795546626
 31
0.0
  0
SPLINE
  5
B2
330
1F
100
AcDbEntity
  8
0
  6
Continuous
 62
     7
370
    15
100
AcDbSpline
210
0.0
220
0.0
230
1.0
 70
     8
 71
     3
 72
    13
 73
     9
 74
     0
 42
0.0000000001
 43
0.0000000001
 40
0.0
 40
0.0
 40
0.0
 40
0.0
 40
0.1207769174561591
 40
0.3264833917772604
 40
0.5370069453253026
 40
0.7540114092531548
 40
0.9692701433361721
 40
1.0
 40
1.0
 40
1.0
 40
1.0
 10
763.472610031554
 20
526.4437477069532
 30
0.0
 10
763.4830338694309
 20
527.077550664481
 30
0.0
 10
763.5112115213948
 20
528.7908427707093
 30
0.0
 10
763.7951648389739
 20
531.4660188258028
 30
0.0
 10
764.2770954546506
 20
534.0890612430071
 30
0.0
 10
764.698897278082
 20
535.8100644696914
 30
0.0
 10
764.9096615946525
 20
536.57147403687
 30
0.0
 10
764.8626729274322
 20
536.3978566094833
 30
0.0
 10
764.8568029193797
 20
536.3761676415449
 30
0.0
  0
LINE
  5
B3
330
1F
100
AcDbEntity
  8
0
  6
Continuous
 62
     7
370
    15
100
AcDbLine
 10
763.472610031554
 20
513.4437477069532
 30
0.0
 11
763.472610031554
 21
526.4437477069532
 31
0.0
  0
LINE
  5
B4
330
1F
100
AcDbEntity
  8
0
  6
Continuous
 62
     7
370
    15
100
AcDbLine
 10
693.573537624006
 20
526.4437477069532
 30
0.0
 11
693.573537624006
 21
513.4437477069532
 31
0.0
  0
SPLINE
  5
B5
330
1F
100
AcDbEntity
  8
0
  6
Continuous
 62
     7
370
    15
100
AcDbSpline
210
0.0
220
0.0
230
1.0
 70
     8
 71
     3
 72
    14
 73
    10
 74
     0
 42
0.0000000001
 43
0.0000000001
 40
0.0
 40
0.0
 40
0.0
 40
0.0
 40
0.0623590082790926
 40
0.2686849237876455
 40
0.4772121938414342
 40
0.6925301358626611
 40
0.7996532539227951
 40
0.91008106714584
 40
1.0
 40
1.0
 40
1.0
 40
1.0
 10
692.2026709391748
 20
536.327638151014
 30
0.0
 10
692.1934749561128
 20
536.3614377801595
 30
0.0
 10
692.153852420791
 20
536.5070695185668
 30
0.0
 10
692.385237607911
 20
535.6661644194395
 30
0.0
 10
692.8123991842952
 20
533.8844192244244
 30
0.0
 10
693.2164180765842
 20
531.6309560932043
 30
0.0
 10
693.4478459210603
 20
529.5439936808024
 30
0.0
 10
693.5553731032282
 20
527.9671803800598
 30
0.0
 10
693.5679105917983
 20
526.9156789416249
 30
0.0
 10
693.573537624006
 20
526.4437477069532
 30
0.0
  0
LINE
  5
B6
330
1F
100
AcDbEntity
  8
0
  6
Continuous
 62
     7
370
    15
100
AcDbLine
 10
783.3217014028178
 20
651.345795546626
 30
0.0
 11
779.2975775117485
 21
651.345795546626
 31
0.0
  0
LINE
  5
B7
330
1F
100
AcDbEntity
  8
0
  6
Continuous
 62
     7
370
    15
100
AcDbLine
 10
783.3217014028178
 20
652.345795546626
 30
0.0
 11
779.2975775117485
 21
652.345795546626
 31
0.0
  0
LINE
  5
B8
330
1F
100
AcDbEntity
  8
0
  6
Continuous
 62
     7
370
    15
100
AcDbLine
 10
784.8217014028179
 20
655.345795546626
 30
0.0
 11
776.7734536206792
 21
655.345795546626
 31
0.0
  0
LINE
  5
B9
330
1F
100
AcDbEntity
  8
0
  6
Continuous
 62
     7
370
    15
100
AcDbLine
 10
658.52307382778
 20
526.4437477069532
 30
0.0
 11
693.573537624006
 21
526.4437477069532
 31
0.0
  0
LINE
  5
BA
330
1F
100
AcDbEntity
  8
0
  6
Continuous
 62
     7
370
    15
100
AcDbLine
 10
658.52307382778
 20
536.4437477069532
 30
0.0
 11
658.52307382778
 21
526.4437477069532
 31
0.0
  0
LINE
  5
BB
330
1F
100
AcDbEntity
  8
0
  6
Continuous
 62
     7
370
    15
100
AcDbLine
 10
763.472610031554
 20
526.4437477069532
 30
0.0
 11
798.5230738277801
 21
526.4437477069532
 31
0.0
  0
LINE
  5
BC
330
1F
100
AcDbEntity
  8
0
  6
Continuous
 62
     7
370
    15
100
AcDbLine
 10
798.5230738277801
 20
526.4437477069532
 30
0.0
 11
798.5230738277801
 21
513.4437477069532
 31
0.0
  0
LINE
  5
BD
330
1F
100
AcDbEntity
  8
0
  6
Continuous
 62
     7
370
    15
100
AcDbLine
 10
763.472610031554
 20
513.4437477069532
 30
0.0
 11
798.5230738277801
 21
513.4437477069532
 31
0.0
  0
LINE
  5
BE
330
1F
100
AcDbEntity
  8
0
  6
Continuous
 62
     7
370
    15
100
AcDbLine
 10
658.52307382778
 20
513.4437477069532
 30
0.0
 11
693.573537624006
 21
513.4437477069532
 31
0.0
  0
LINE
  5
BF
330
1F
100
AcDbEntity
  8
0
  6
Continuous
 62
     7
370
    15
100
AcDbLine
 10
658.52307382778
 20
526.4437477069532
 30
0.0
 11
658.52307382778
 21
513.4437477069532
 31
0.0
  0
LINE
  5
C0
330
1F
100
AcDbEntity
  8
0
  6
Continuous
 62
     7
370
    15
100
AcDbLine
 10
798.5230738277801
 20
536.4437477069532
 30
0.0
 11
798.5230738277801
 21
526.4437477069532
 31
0.0
  0
LINE
  5
C1
330
1F
100
AcDbEntity
  8
0
  6
Continuous
 62
     7
370
    15
100
AcDbLine
 10
656.5230738277801
 20
526.7289348736987
 30
0.0
 11
656.5230738277801
 21
535.7289348736988
 31
0.0
  0
LINE
  5
C2
330
1F
100
AcDbEntity
  8
0
  6
Continuous
 62
     7
370
    15
100
AcDbLine
 10
656.5230738277801
 20
517.7289348736987
 30
0.0
 11
656.5230738277801
 21
526.7289348736987
 31
0.0
  0
LINE
  5
C3
330
1F
100
AcDbEntity
  8
0
  6
Continuous
 62
     7
370
    15
100
AcDbLine
 10
800.52307382778
 20
535.4646277826587
 30
0.0
 11
800.52307382778
 21
517.4646277826586
 31
0.0
  0
LINE
  5
C4
330
1F
100
AcDbEntity
  8
0
  6
Continuous
 62
     7
370
    15
100
AcDbLine
 10
655.52307382778
 20
651.345795546626
 30
0.0
 11
665.2470690644397
 21
651.345795546626
 31
0.0
  0
LINE
  5
C5
330
1F
100
AcDbEntity
  8
0
  6
Continuous
 62
     7
370
    15
100
AcDbLine
 10
665.2470690644397
 20
651.345795546626
 30
0.0
 11
665.2470690644397
 21
652.345795546626
 31
0.0
  0
LINE
  5
C6
330
1F
100
AcDbEntity
  8
0
  6
Continuous
 62
     7
370
    15
100
AcDbLine
 10
665.2470690644397
 20
655.345795546626
 30
0.0
 11
665.2470690644397
 21
652.345795546626
 31
0.0
  0
LINE
  5
C7
330
1F
100
AcDbEntity
  8
0
  6
Continuous
 62
     7
370
    15
100
AcDbLine
 10
666.8566270383649
 20
655.345795546626
 30
0.0
 11
665.2470690644397
 21
655.345795546626
 31
0.0
  0
LINE
  5
C8
330
1F
100
AcDbEntity
  8
0
  6
Continuous
 62
     7
370
    15
100
AcDbLine
 10
665.2470690644397
 20
652.345795546626
 30
0.0
 11
655.52307382778
 21
652.345795546626
 31
0.0
  0
LINE
  5
C9
330
1F
100
AcDbEntity
  8
0
  6
Continuous
 62
     7
370
    15
100
AcDbLine
 10
655.5847437125382
 20
655.345795546626
 30
0.0
 11
665.2470690644397
 21
655.345795546626
 31
0.0
  0
LINE
  5
CA
330
1F
100
AcDbEntity
  8
0
  6
Continuous
 62
     8
370
    15
100
AcDbLine
 10
728.52307382778
 20
573.3457955466262
 30
0.0
 11
801.52307382778
 21
573.3457955466262
 31
0.0
  0
LINE
  5
CB
330
1F
100
AcDbEntity
  8
0
  6
Continuous
 62
     8
370
    15
100
AcDbLine
 10
655.5230738277802
 20
573.3457955466262
 30
0.0
 11
728.52307382778
 21
573.3457955466262
 31
0.0
  0
LINE
  5
CC
330
1F
100
AcDbEntity
  8
0
  6
Continuous
 62
     8
370
    15
100
AcDbLine
 10
765.0592701682703
 20
651.345795546626
 30
0.0
 11
779.2975775117485
 21
651.345795546626
 31
0.0
  0
LINE
  5
CD
330
1F
100
AcDbEntity
  8
0
  6
Continuous
 62
     8
370
    15
100
AcDbLine
 10
779.2975775117485
 20
652.345795546626
 30
0.0
 11
765.0230738277801
 21
652.345795546626
 31
0.0
  0
LINE
  5
CE
330
1F
100
AcDbEntity
  8
0
  6
Continuous
 62
     8
370
    15
100
AcDbLine
 10
728.52307382778
 20
698.345795546626
 30
0.0
 11
683.893048111173
 21
698.345795546626
 31
0.0
  0
LINE
  5
CF
330
1F
100
AcDbEntity
  8
0
  6
Continuous
 62
     8
370
    15
100
AcDbLine
 10
773.153099544387
 20
698.345795546626
 30
0.0
 11
728.52307382778
 21
698.345795546626
 31
0.0
  0
LINE
  5
D0
330
1F
100
AcDbEntity
  8
0
  6
Continuous
 62
     8
370
    15
100
AcDbLine
 10
665.2470690644397
 20
651.345795546626
 30
0.0
 11
665.2470690644397
 21
650.6728034627774
 31
0.0
  0
CIRCLE
  5
D2
330
1F
100
AcDbEntity
  8
0
  6
Continuous
 62
     7
370
    15
100
AcDbCircle
 10
728.52307382778
 20
413.0724358904022
 30
0.0
 40
44.63002571660701
  0
ARC
  5
D3
330
1F
100
AcDbEntity
  8
0
  6
Continuous
 62
     7
370
    15
100
AcDbCircle
 10
728.52307382778
 20
413.0724358904022
 30
0.0
 40
57.34708184920808
100
AcDbArc
 50
297.0013149918622
 51
327.2855631269425
  0
LINE
  5
D4
330
1F
100
AcDbEntity
  8
0
  6
Continuous
 62
     7
370
    15
100
AcDbLine
 10
776.7734536206792
 20
382.0790713350532
 30
0.0
 11
779.2975775117485
 21
380.457714316216
 31
0.0
  0
ARC
  5
D5
330
1F
100
AcDbEntity
  8
0
  6
Continuous
 62
     7
370
    15
100
AcDbCircle
 10
728.52307382778
 20
413.0724358904022
 30
0.0
 40
60.34708184920809
100
AcDbArc
 50
300.0000000000078
 51
327.2855631269425
  0
SPLINE
  5
D6
330
1F
100
AcDbEntity
  8
0
  6
Continuous
 62
     7
370
    15
100
AcDbSpline
210
0.0
220
0.0
230
1.0
 70
     8
 71
     3
 72
    20
 73
    16
 74
     0
 42
0.0000000001
 43
0.0000000001
 40
0.0
 40
0.0
 40
0.0
 40
0.0
 40
0.1250000000000023
 40
0.1250000000000023
 40
0.2500000000000047
 40
0.2500000000000047
 40
0.3750000000000071
 40
0.3750000000000071
 40
0.5000000000000095
 40
0.5000000000000095
 40
0.7500000000000061
 40
0.7500000000000061
 40
0.8750000000000031
 40
0.8750000000000031
 40
1.0
 40
1.0
 40
1.0
 40
1.0
 10
758.6966147523841
 20
360.8103299647293
 30
0.0
 10
758.6966147523841
 20
360.8103299647293
 30
0.0
 10
758.6565050048701
 20
360.8210635652754
 30
0.0
 10
758.5037357650905
 20
360.8621138087195
 30
0.0
 10
758.3929965386362
 20
360.891923983573
 30
0.0
 10
758.1212142821684
 20
360.9655283061743
 30
0.0
 10
757.9606178792458
 20
361.0092095386973
 30
0.0
 10
757.6116305972982
 20
361.1048079806983
 30
0.0
 10
757.4196760519844
 20
361.1577020671979
 30
0.0
 10
756.8175786903339
 20
361.3249177123573
 30
0.0
 10
756.385536604945
 20
361.446551938091
 30
0.0
 10
755.707724227033
 20
361.6407480061584
 30
0.0
 10
755.4801101466165
 20
361.7064918428483
 30
0.0
 10
755.0218861416111
 20
361.8399633537928
 30
0.0
 10
754.7894556452249
 20
361.9082388573481
 30
0.0
 10
754.5592768836781
 20
361.9764093614068
 30
0.0
  0
LINE
  5
D7
330
1F
100
AcDbEntity
  8
0
  6
Continuous
 62
     7
370
    15
100
AcDbLine
 10
762.3941626740477
 20
348.4059891009872
 30
0.0
 11
754.5592768836781
 21
361.9764093614067
 31
0.0
  0
LINE
  5
D8
330
1F
100
AcDbEntity
  8
0
  6
Continuous
 62
     7
370
    15
100
AcDbLine
 10
758.6966147523841
 20
360.8103299647293
 30
0.0
 11
765.0230738277801
 21
349.8525814141382
 31
0.0
  0
SPLINE
  5
D9
330
1F
100
AcDbEntity
  8
0
  6
Continuous
 62
     7
370
    15
100
AcDbSpline
210
0.0
220
0.0
230
1.0
 70
     8
 71
     3
 72
    20
 73
    16
 74
     0
 42
0.0000000001
 43
0.0000000001
 40
0.0
 40
0.0
 40
0.0
 40
0.0
 40
0.1249999999999992
 40
0.1249999999999992
 40
0.2499999999999984
 40
0.2499999999999984
 40
0.3749999999999976
 40
0.3749999999999976
 40
0.4999999999999968
 40
0.4999999999999968
 40
0.624999999999996
 40
0.624999999999996
 40
0.7499999999999952
 40
0.7499999999999952
 40
1.0
 40
1.0
 40
1.0
 40
1.0
 10
765.0230738277801
 20
349.8525814141382
 30
0.0
 10
765.0230738277801
 20
349.8525814141382
 30
0.0
 10
765.0062488417481
 20
349.8428590281958
 30
0.0
 10
764.9402808704834
 20
349.8048416538393
 30
0.0
 10
764.8903382008502
 20
349.7760873226721
 30
0.0
 10
764.7597962245109
 20
349.7012625548024
 30
0.0
 10
764.6798564370433
 20
349.6555698207207
 30
0.0
 10
764.4907153284052
 20
349.5481051529914
 30
0.0
 10
764.3804955204106
 20
349.4857671736574
 30
0.0
 10
764.1392935711867
 20
349.3503516485512
 30
0.0
 10
764.0074941642135
 20
349.2768031087704
 30
0.0
 10
763.7207472406632
 20
349.118150381599
 30
0.0
 10
763.5677569580989
 20
349.0341448044935
 30
0.0
 10
763.092381002147
 20
348.775521772255
 30
0.0
 10
762.7451588572361
 20
348.5898344101967
 30
0.0
 10
762.3941626740477
 20
348.4059891009872
 30
0.0
  0
LINE
  5
DA
330
1F
100
AcDbEntity
  8
0
  6
Continuous
 62
     7
370
    15
100
AcDbLine
 10
791.7429283040441
 20
449.5724358904022
 30
0.0
 11
783.3217014028179
 21
444.7104382720724
 31
0.0
  0
LINE
  5
DB
330
1F
100
AcDbEntity
  8
0
  6
Continuous
 62
     7
370
    15
100
AcDbLine
 10
783.3217014028179
 20
444.7104382720724
 30
0.0
 11
781.821701402818
 21
447.3085144834256
 31
0.0
  0
LINE
  5
DC
330
1F
100
AcDbEntity
  8
0
  6
Continuous
 62
     7
370
    15
100
AcDbLine
 10
781.821701402818
 20
447.3085144834256
 30
0.0
 11
790.1895206171951
 21
452.1396771593764
 31
0.0
  0
SPLINE
  5
DD
330
1F
100
AcDbEntity
  8
0
  6
Continuous
 62
     7
370
    15
100
AcDbSpline
210
0.0
220
0.0
230
1.0
 70
     8
 71
     3
 72
    20
 73
    16
 74
     0
 42
0.0000000001
 43
0.0000000001
 40
0.0
 40
0.0
 40
0.0
 40
0.0
 40
0.125
 40
0.125
 40
0.25
 40
0.25
 40
0.375
 40
0.375
 40
0.5
 40
0.5
 40
0.625
 40
0.625
 40
0.75
 40
0.75
 40
1.0
 40
1.0
 40
1.0
 40
1.0
 10
790.1895206171951
 20
452.1396771593764
 30
0.0
 10
790.2955443890601
 20
451.972321874648
 30
0.0
 10
790.3991185332058
 20
451.8073273706547
 30
0.0
 10
790.6016397055891
 20
451.4819188982392
 30
0.0
 10
790.7016181429475
 20
451.319809818634
 30
0.0
 10
790.8911611977242
 20
451.0099458689739
 30
0.0
 10
790.9804879791218
 20
450.8626198223811
 30
0.0
 10
791.1486735390935
 20
450.5832455975168
 30
0.0
 10
791.2278369164931
 20
450.4506627425047
 30
0.0
 10
791.3691232486514
 20
450.2126193687892
 30
0.0
 10
791.4321950963341
 20
450.1055899482566
 30
0.0
 10
791.5432322611478
 20
449.9163182765955
 30
0.0
 10
791.5902273874133
 20
449.8357294555447
 30
0.0
 10
791.7032072329176
 20
449.6414554341888
 30
0.0
 10
791.7429283040441
 20
449.5724358904022
 30
0.0
 10
791.7429283040441
 20
449.5724358904022
 30
0.0
  0
LINE
  5
DE
330
1F
100
AcDbEntity
  8
0
  6
Continuous
 62
     7
370
    15
100
AcDbLine
 10
672.2244462527421
 20
442.1123620607191
 30
0.0
 11
663.8566270383649
 21
446.9435247366698
 31
0.0
  0
LINE
  5
DF
330
1F
100
AcDbEntity
  8
0
  6
Continuous
 62
     7
370
    15
100
AcDbLine
 10
665.3032193515159
 20
449.5724358904022
 30
0.0
 11
673.7244462527421
 21
444.7104382720723
 31
0.0
  0
LINE
  5
E0
330
1F
100
AcDbEntity
  8
0
  6
Continuous
 62
     7
370
    15
100
AcDbLine
 10
672.2244462527421
 20
442.1123620607191
 30
0.0
 11
673.7244462527421
 21
444.7104382720723
 31
0.0
  0
SPLINE
  5
E1
330
1F
100
AcDbEntity
  8
0
  6
Continuous
 62
     7
370
    15
100
AcDbSpline
210
0.0
220
0.0
230
1.0
 70
     8
 71
     3
 72
    20
 73
    16
 74
     0
 42
0.0000000001
 43
0.0000000001
 40
0.0
 40
0.0
 40
0.0
 40
0.0
 40
0.1249999999999998
 40
0.1249999999999998
 40
0.2499999999999996
 40
0.2499999999999996
 40
0.3749999999999993
 40
0.3749999999999993
 40
0.4999999999999992
 40
0.4999999999999992
 40
0.624999999999999
 40
0.624999999999999
 40
0.7499999999999987
 40
0.7499999999999987
 40
1.0
 40
1.0
 40
1.0
 40
1.0
 10
663.8566270383649
 20
446.9435247366698
 30
0.0
 10
663.9485490804649
 20
447.119021658874
 30
0.0
 10
664.039651440335
 20
447.2912167508763
 30
0.0
 10
664.2202028578619
 20
447.6293094671722
 30
0.0
 10
664.310604220305
 20
447.7969478735578
 30
0.0
 10
664.4841827450391
 20
448.1160289489354
 30
0.0
 10
664.5671074533288
 20
448.2670512341605
 30
0.0
 10
664.724959849238
 20
448.5523913140777
 30
0.0
 10
664.8001982810852
 20
448.6872402374611
 30
0.0
 10
664.9357067238461
 20
448.9286194771756
 30
0.0
 10
664.9968609971382
 20
449.0367560097986
 30
0.0
 10
665.1052564906067
 20
449.2275528511221
 30
0.0
 10
665.151550893765
 20
449.3085462348474
 30
0.0
 10
665.2633072088024
 20
449.5035266618478
 30
0.0
 10
665.3032193515159
 20
449.5724358904022
 30
0.0
 10
665.3032193515159
 20
449.5724358904022
 30
0.0
  0
LINE
  5
E2
330
1F
100
AcDbEntity
  8
0
  6
Continuous
 62
     7
370
    15
100
AcDbLine
 10
665.303219351516
 20
376.5724358904023
 30
0.0
 11
673.7244462527421
 21
381.4344335087321
 31
0.0
  0
LINE
  5
E3
330
1F
100
AcDbEntity
  8
0
  6
Continuous
 62
     7
370
    15
100
AcDbLine
 10
673.7244462527421
 20
381.4344335087321
 30
0.0
 11
675.2244462527421
 21
378.8363572973787
 31
0.0
  0
LINE
  5
E4
330
1F
100
AcDbEntity
  8
0
  6
Continuous
 62
     7
370
    15
100
AcDbLine
 10
675.2244462527421
 20
378.8363572973787
 30
0.0
 11
666.8566270383649
 21
374.005194621428
 31
0.0
  0
SPLINE
  5
E5
330
1F
100
AcDbEntity
  8
0
  6
Continuous
 62
     7
370
    15
100
AcDbSpline
210
0.0
220
0.0
230
1.0
 70
     8
 71
     3
 72
    20
 73
    16
 74
     0
 42
0.0000000001
 43
0.0000000001
 40
0.0
 40
0.0
 40
0.0
 40
0.0
 40
0.125
 40
0.125
 40
0.25
 40
0.25
 40
0.375
 40
0.375
 40
0.5
 40
0.5
 40
0.625
 40
0.625
 40
0.75
 40
0.75
 40
1.0
 40
1.0
 40
1.0
 40
1.0
 10
666.8566270383649
 20
374.005194621428
 30
0.0
 10
666.7506032665
 20
374.1725499061563
 30
0.0
 10
666.6470291223543
 20
374.3375444101497
 30
0.0
 10
666.444507949971
 20
374.6629528825653
 30
0.0
 10
666.3445295126125
 20
374.8250619621704
 30
0.0
 10
666.1549864578358
 20
375.1349259118305
 30
0.0
 10
666.0656596764383
 20
375.2822519584233
 30
0.0
 10
665.8974741164666
 20
375.5616261832876
 30
0.0
 10
665.818310739067
 20
375.6942090382997
 30
0.0
 10
665.6770244069086
 20
375.9322524120153
 30
0.0
 10
665.613952559226
 20
376.0392818325477
 30
0.0
 10
665.5029153944123
 20
376.228553504209
 30
0.0
 10
665.4559202681467
 20
376.3091423252597
 30
0.0
 10
665.3429404226425
 20
376.5034163466156
 30
0.0
 10
665.3032193515159
 20
376.5724358904023
 30
0.0
 10
665.303219351516
 20
376.5724358904023
 30
0.0
  0
LINE
  5
E6
330
1F
100
AcDbEntity
  8
0
  6
Continuous
 62
     7
370
    15
100
AcDbLine
 10
791.7429283040441
 20
376.5724358904023
 30
0.0
 11
783.3217014028178
 21
381.4344335087321
 31
0.0
  0
LINE
  5
E7
330
1F
100
AcDbEntity
  8
0
  6
Continuous
 62
     7
370
    15
100
AcDbLine
 10
783.3217014028178
 20
381.4344335087321
 30
0.0
 11
784.8217014028179
 21
384.0325097200854
 31
0.0
  0
LINE
  5
E8
330
1F
100
AcDbEntity
  8
0
  6
Continuous
 62
     7
370
    15
100
AcDbLine
 10
784.8217014028179
 20
384.0325097200854
 30
0.0
 11
793.189520617195
 21
379.2013470441347
 31
0.0
  0
SPLINE
  5
E9
330
1F
100
AcDbEntity
  8
0
  6
Continuous
 62
     7
370
    15
100
AcDbSpline
210
0.0
220
0.0
230
1.0
 70
     8
 71
     3
 72
    20
 73
    16
 74
     0
 42
0.0000000001
 43
0.0000000001
 40
0.0
 40
0.0
 40
0.0
 40
0.0
 40
0.1250000000000002
 40
0.1250000000000002
 40
0.2500000000000004
 40
0.2500000000000004
 40
0.3750000000000007
 40
0.3750000000000007
 40
0.5000000000000009
 40
0.5000000000000009
 40
0.6250000000000011
 40
0.6250000000000011
 40
0.7500000000000014
 40
0.7500000000000014
 40
1.0
 40
1.0
 40
1.0
 40
1.0
 10
793.189520617195
 20
379.2013470441347
 30
0.0
 10
793.0975985750952
 20
379.0258501219304
 30
0.0
 10
793.006496215225
 20
378.8536550299282
 30
0.0
 10
792.8259447976982
 20
378.5155623136323
 30
0.0
 10
792.7355434352551
 20
378.3479239072467
 30
0.0
 10
792.5619649105209
 20
378.028842831869
 30
0.0
 10
792.4790402022312
 20
377.877820546644
 30
0.0
 10
792.3211878063219
 20
377.5924804667267
 30
0.0
 10
792.2459493744749
 20
377.4576315433433
 30
0.0
 10
792.110440931714
 20
377.2162523036288
 30
0.0
 10
792.0492866584218
 20
377.1081157710058
 30
0.0
 10
791.9408911649534
 20
376.9173189296822
 30
0.0
 10
791.8945967617951
 20
376.836325545957
 30
0.0
 10
791.7828404467577
 20
376.6413451189566
 30
0.0
 10
791.7429283040441
 20
376.5724358904023
 30
0.0
 10
791.7429283040441
 20
376.5724358904023
 30
0.0
  0
LINE
  5
EA
330
1F
100
AcDbEntity
  8
0
  6
Continuous
 62
     7
370
    15
100
AcDbLine
 10
694.6519849815124
 20
477.7388826798172
 30
0.0
 11
699.4831476574631
 21
469.3710634654401
 31
0.0
  0
LINE
  5
EB
330
1F
100
AcDbEntity
  8
0
  6
Continuous
 62
     7
370
    15
100
AcDbLine
 10
699.4831476574631
 20
469.3710634654401
 30
0.0
 11
696.8850714461098
 21
467.87106346544
 31
0.0
  0
LINE
  5
EC
330
1F
100
AcDbEntity
  8
0
  6
Continuous
 62
     7
370
    15
100
AcDbLine
 10
696.8850714461098
 20
467.87106346544
 30
0.0
 11
692.02307382778
 21
476.2922903666662
 31
0.0
  0
SPLINE
  5
ED
330
1F
100
AcDbEntity
  8
0
  6
Continuous
 62
     7
370
    15
100
AcDbSpline
210
0.0
220
0.0
230
1.0
 70
     8
 71
     3
 72
    20
 73
    16
 74
     0
 42
0.0000000001
 43
0.0000000001
 40
0.0
 40
0.0
 40
0.0
 40
0.0
 40
0.1249999999999992
 40
0.1249999999999992
 40
0.2499999999999984
 40
0.2499999999999984
 40
0.3749999999999976
 40
0.3749999999999976
 40
0.4999999999999968
 40
0.4999999999999968
 40
0.624999999999996
 40
0.624999999999996
 40
0.7499999999999952
 40
0.7499999999999952
 40
1.0
 40
1.0
 40
1.0
 40
1.0
 10
692.02307382778
 20
476.2922903666662
 30
0.0
 10
692.02307382778
 20
476.2922903666662
 30
0.0
 10
692.0398988138118
 20
476.3020127526086
 30
0.0
 10
692.1058667850766
 20
476.3400301269651
 30
0.0
 10
692.1558094547099
 20
476.3687844581323
 30
0.0
 10
692.2863514310492
 20
476.4436092260019
 30
0.0
 10
692.3662912185167
 20
476.4893019600837
 30
0.0
 10
692.5554323271549
 20
476.5967666278131
 30
0.0
 10
692.6656521351494
 20
476.6591046071471
 30
0.0
 10
692.9068540843734
 20
476.7945201322532
 30
0.0
 10
693.0386534913466
 20
476.868068672034
 30
0.0
 10
693.3254004148969
 20
477.0267213992054
 30
0.0
 10
693.4783906974611
 20
477.1107269763109
 30
0.0
 10
693.9537666534131
 20
477.3693500085494
 30
0.0
 10
694.3009887983239
 20
477.5550373706078
 30
0.0
 10
694.6519849815124
 20
477.7388826798172
 30
0.0
  0
LINE
  5
EE
330
1F
100
AcDbEntity
  8
0
  6
Continuous
 62
     7
370
    15
100
AcDbLine
 10
767.5903150967543
 20
474.7388826798172
 30
0.0
 11
762.7591524208034
 21
466.3710634654401
 31
0.0
  0
LINE
  5
EF
330
1F
100
AcDbEntity
  8
0
  6
Continuous
 62
     7
370
    15
100
AcDbLine
 10
762.7591524208034
 20
466.3710634654401
 30
0.0
 11
760.1610762094502
 21
467.87106346544
 31
0.0
  0
LINE
  5
F0
330
1F
100
AcDbEntity
  8
0
  6
Continuous
 62
     7
370
    15
100
AcDbLine
 10
760.1610762094502
 20
467.87106346544
 30
0.0
 11
765.0230738277801
 21
476.2922903666662
 31
0.0
  0
SPLINE
  5
F1
330
1F
100
AcDbEntity
  8
0
  6
Continuous
 62
     7
370
    15
100
AcDbSpline
210
0.0
220
0.0
230
1.0
 70
     8
 71
     3
 72
    20
 73
    16
 74
     0
 42
0.0000000001
 43
0.0000000001
 40
0.0
 40
0.0
 40
0.0
 40
0.0
 40
0.1249999999999989
 40
0.1249999999999989
 40
0.2499999999999978
 40
0.2499999999999978
 40
0.3749999999999967
 40
0.3749999999999967
 40
0.4999999999999956
 40
0.4999999999999956
 40
0.6249999999999945
 40
0.6249999999999945
 40
0.7499999999999952
 40
0.7499999999999952
 40
1.0
 40
1.0
 40
1.0
 40
1.0
 10
765.0230738277801
 20
476.2922903666662
 30
0.0
 10
765.0230738277801
 20
476.2922903666662
 30
0.0
 10
765.0399061540074
 20
476.2825806943156
 30
0.0
 10
765.1058141516178
 20
476.2444594425423
 30
0.0
 10
765.155687467694
 20
476.2155849874908
 30
0.0
 10
765.2857586056711
 20
476.1399447036557
 30
0.0
 10
765.365299567888
 20
476.0935611839764
 30
0.0
 10
765.55293725447
 20
475.9834925128604
 30
0.0
 10
765.6620334321911
 20
475.9192083488039
 30
0.0
 10
765.8999076916118
 20
475.7780290958868
 30
0.0
 10
766.0295022989599
 20
475.7006617311346
 30
0.0
 10
766.3102730528452
 20
475.5316579744687
 30
0.0
 10
766.4595191579601
 20
475.4411672917886
 30
0.0
 10
766.9211812518584
 20
475.1587911537052
 30
0.0
 10
767.2556022970182
 20
474.9509316364851
 30
0.0
 10
767.5903150967543
 20
474.7388826798172
 30
0.0
  0
LINE
  5
F2
330
1F
100
AcDbEntity
  8
0
  6
Continuous
 62
     7
370
    15
100
AcDbLine
 10
689.4558325588057
 20
351.4059891009872
 30
0.0
 11
694.2869952347566
 21
359.7738083153644
 31
0.0
  0
LINE
  5
F3
330
1F
100
AcDbEntity
  8
0
  6
Continuous
 62
     7
370
    15
100
AcDbLine
 10
694.2869952347566
 20
359.7738083153644
 30
0.0
 11
696.8850714461098
 21
358.2738083153643
 31
0.0
  0
LINE
  5
F4
330
1F
100
AcDbEntity
  8
0
  6
Continuous
 62
     7
370
    15
100
AcDbLine
 10
696.8850714461098
 20
358.2738083153643
 30
0.0
 11
692.02307382778
 21
349.8525814141382
 31
0.0
  0
SPLINE
  5
F5
330
1F
100
AcDbEntity
  8
0
  6
Continuous
 62
     7
370
    15
100
AcDbSpline
210
0.0
220
0.0
230
1.0
 70
     8
 71
     3
 72
    20
 73
    16
 74
     0
 42
0.0000000001
 43
0.0000000001
 40
0.0
 40
0.0
 40
0.0
 40
0.0
 40
0.1249999999999989
 40
0.1249999999999989
 40
0.2499999999999978
 40
0.2499999999999978
 40
0.3749999999999967
 40
0.3749999999999967
 40
0.4999999999999956
 40
0.4999999999999956
 40
0.6249999999999945
 40
0.6249999999999945
 40
0.7499999999999952
 40
0.7499999999999952
 40
1.0
 40
1.0
 40
1.0
 40
1.0
 10
692.02307382778
 20
349.8525814141382
 30
0.0
 10
692.02307382778
 20
349.8525814141382
 30
0.0
 10
692.0062415015527
 20
349.8622910864889
 30
0.0
 10
691.9403335039423
 20
349.900412338262
 30
0.0
 10
691.8904601878661
 20
349.9292867933136
 30
0.0
 10
691.760389049889
 20
350.0049270771488
 30
0.0
 10
691.6808480876721
 20
350.0513105968281
 30
0.0
 10
691.4932104010901
 20
350.161379267944
 30
0.0
 10
691.384114223369
 20
350.2256634320005
 30
0.0
 10
691.1462399639483
 20
350.3668426849178
 30
0.0
 10
691.0166453566002
 20
350.4442100496699
 30
0.0
 10
690.7358746027149
 20
350.6132138063358
 30
0.0
 10
690.5866284976
 20
350.7037044890158
 30
0.0
 10
690.1249664037017
 20
350.9860806270992
 30
0.0
 10
689.7905453585419
 20
351.1939401443194
 30
0.0
 10
689.4558325588057
 20
351.4059891009872
 30
0.0
  0
ARC
  5
F6
330
1F
100
AcDbEntity
  8
0
  6
Continuous
 62
     7
370
    15
100
AcDbCircle
 10
728.52307382778
 20
413.0724358904022
 30
0.0
 40
57.34708184920811
100
AcDbArc
 50
62.71443687306979
 51
87.2855631269592
  0
ARC
  5
F7
330
1F
100
AcDbEntity
  8
0
  6
Continuous
 62
     7
370
    15
100
AcDbCircle
 10
757.562999998097
 20
469.3710634654401
 30
0.0
 40
6.0
100
AcDbArc
 50
242.7144368730698
 51
330.0000000000003
  0
ARC
  5
F8
330
1F
100
AcDbEntity
  8
0
  6
Continuous
 62
     7
370
    15
100
AcDbCircle
 10
784.821701402818
 20
442.1123620607191
 30
0.0
 40
6.000000000000029
100
AcDbArc
 50
120.0000000000078
 51
207.2855631269447
  0
ARC
  5
F9
330
1F
100
AcDbEntity
  8
0
  6
Continuous
 62
     7
370
    15
100
AcDbCircle
 10
728.52307382778
 20
413.0724358904022
 30
0.0
 40
57.34708184920808
100
AcDbArc
 50
2.71443687305783
 51
27.28556312694468
  0
ARC
  5
FA
330
1F
100
AcDbEntity
  8
0
  6
Continuous
 62
     7
370
    15
100
AcDbCircle
 10
791.7990785911204
 20
416.0724358904022
 30
0.0
 40
6.000000000000033
100
AcDbArc
 50
182.7144368730578
 51
270.0
  0
LINE
  5
FB
330
1F
100
AcDbEntity
  8
0
  6
Continuous
 62
     7
370
    15
100
AcDbLine
 10
801.461403943022
 20
410.0724358904022
 30
0.0
 11
791.7990785911204
 21
410.0724358904022
 31
0.0
  0
ARC
  5
FC
330
1F
100
AcDbEntity
  8
0
  6
Continuous
 62
     7
370
    15
100
AcDbCircle
 10
781.821701402818
 20
378.8363572973787
 30
0.0
 40
6.000000000000024
100
AcDbArc
 50
59.99999999999218
 51
147.2855631269426
  0
LINE
  5
FD
330
1F
100
AcDbEntity
  8
0
  6
Continuous
 62
     7
370
    15
100
AcDbLine
 10
731.5230738277801
 20
355.8038773558994
 30
0.0
 11
731.5230738277801
 21
340.1341057751604
 31
0.0
  0
ARC
  5
FE
330
1F
100
AcDbEntity
  8
0
  6
Continuous
 62
     7
370
    15
100
AcDbCircle
 10
728.52307382778
 20
413.0724358904022
 30
0.0
 40
57.3470818492081
100
AcDbArc
 50
242.7144368730698
 51
272.9986850081501
  0
ARC
  5
FF
330
1F
100
AcDbEntity
  8
0
  6
Continuous
 62
     7
370
    15
100
AcDbCircle
 10
699.4831476574631
 20
356.7738083153644
 30
0.0
 40
6.000000000000009
100
AcDbArc
 50
62.71443687306979
 51
150.0000000000003
  0
ARC
  5
100
330
1F
100
AcDbEntity
  8
0
  6
Continuous
 62
     7
370
    15
100
AcDbCircle
 10
672.2244462527421
 20
384.0325097200854
 30
0.0
 40
6.000000000000035
100
AcDbArc
 50
300.0000000000078
 51
27.28556312694468
  0
ARC
  5
101
330
1F
100
AcDbEntity
  8
0
  6
Continuous
 62
     7
370
    15
100
AcDbCircle
 10
728.52307382778
 20
413.0724358904022
 30
0.0
 40
57.34708184920808
100
AcDbArc
 50
182.7144368730578
 51
207.2855631269447
  0
ARC
  5
102
330
1F
100
AcDbEntity
  8
0
  6
Continuous
 62
     7
370
    15
100
AcDbCircle
 10
665.2470690644397
 20
410.0724358904022
 30
0.0
 40
6.000000000000011
100
AcDbArc
 50
2.71443687305783
 51
90.0
  0
LINE
  5
103
330
1F
100
AcDbEntity
  8
0
  6
Continuous
 62
     7
370
    15
100
AcDbLine
 10
655.5847437125382
 20
416.0724358904022
 30
0.0
 11
665.2470690644397
 21
416.0724358904022
 31
0.0
  0
ARC
  5
104
330
1F
100
AcDbEntity
  8
0
  6
Continuous
 62
     7
370
    15
100
AcDbCircle
 10
675.2244462527421
 20
447.3085144834256
 30
0.0
 40
6.000000000000006
100
AcDbArc
 50
239.9999999999922
 51
327.2855631269425
  0
ARC
  5
105
330
1F
100
AcDbEntity
  8
0
  6
Continuous
 62
     7
370
    15
100
AcDbCircle
 10
728.52307382778
 20
413.0724358904022
 30
0.0
 40
57.34708184920808
100
AcDbArc
 50
122.7144368730486
 51
147.2855631269426
  0
ARC
  5
106
330
1F
100
AcDbEntity
  8
0
  6
Continuous
 62
     7
370
    15
100
AcDbCircle
 10
694.2869952347565
 20
466.3710634654401
 30
0.0
 40
6.000000000000012
100
AcDbArc
 50
302.7144368730575
 51
29.99999999999968
  0
LINE
  5
107
330
1F
100
AcDbEntity
  8
0
  6
Continuous
 62
     7
370
    15
100
AcDbLine
 10
725.52307382778
 20
476.3484406537425
 30
0.0
 11
725.52307382778
 21
486.0107660056441
 31
0.0
  0
ARC
  5
108
330
1F
100
AcDbEntity
  8
0
  6
Continuous
 62
     7
370
    15
100
AcDbCircle
 10
731.5230738277801
 20
476.3484406537425
 30
0.0
 40
5.999999999999987
100
AcDbArc
 50
180.0
 51
267.2855631269592
  0
CIRCLE
  5
109
330
1F
100
AcDbEntity
  8
0
  6
Continuous
 62
     7
370
    15
100
AcDbCircle
 10
775.4317409444529
 20
460.1012799696577
 30
0.0
 40
4.435568574177682
  0
CIRCLE
  5
10A
330
1F
100
AcDbEntity
  8
0
  6
Continuous
 62
     7
370
    15
100
AcDbCircle
 10
792.7055810693701
 20
395.9627605493272
 30
0.0
 40
4.435568574181593
  0
CIRCLE
  5
10B
330
1F
100
AcDbEntity
  8
0
  6
Continuous
 62
     7
370
    15
100
AcDbCircle
 10
745.7969139527009
 20
348.9339164700725
 30
0.0
 40
4.43556857418377
  0
CIRCLE
  5
10C
330
1F
100
AcDbEntity
  8
0
  6
Continuous
 62
     7
370
    15
100
AcDbCircle
 10
681.6144067111143
 20
366.0435918111486
 30
0.0
 40
4.435568574182201
  0
CIRCLE
  5
10D
330
1F
100
AcDbEntity
  8
0
  6
Continuous
 62
     7
370
    15
100
AcDbCircle
 10
664.3405665861971
 20
430.1821112314791
 30
0.0
 40
4.43556857417866
  0
CIRCLE
  5
10E
330
1F
100
AcDbEntity
  8
0
  6
Continuous
 62
     7
370
    15
100
AcDbCircle
 10
711.2492337028665
 20
477.2109553107338
 30
0.0
 40
4.435568574175795
  0
ARC
  5
10F
330
1F
100
AcDbEntity
  8
0
  6
Continuous
 62
     7
370
    15
100
AcDbCircle
 10
728.52307382778
 20
413.0724358904022
 30
0.0
 40
73.00000000000001
100
AcDbArc
 50
152.3552843557702
 51
177.6447156442268
  0
ARC
  5
110
330
1F
100
AcDbEntity
  8
0
  6
Continuous
 62
     7
370
    15
100
AcDbCircle
 10
728.52307382778
 20
413.0724358904022
 30
0.0
 40
73.00000000000001
100
AcDbArc
 50
212.3552843557769
 51
237.6447156442369
  0
ARC
  5
111
330
1F
100
AcDbEntity
  8
0
  6
Continuous
 62
     7
370
    15
100
AcDbCircle
 10
728.52307382778
 20
413.0724358904022
 30
0.0
 40
73.00000000000001
100
AcDbArc
 50
272.3552843557725
 51
297.6447156442298
  0
ARC
  5
112
330
1F
100
AcDbEntity
  8
0
  6
Continuous
 62
     7
370
    15
100
AcDbCircle
 10
728.52307382778
 20
413.0724358904022
 30
0.0
 40
73.00000000000001
100
AcDbArc
 50
332.3552843557703
 51
357.6447156442268
  0
ARC
  5
113
330
1F
100
AcDbEntity
  8
0
  6
Continuous
 62
     7
370
    15
100
AcDbCircle
 10
728.52307382778
 20
413.0724358904022
 30
0.0
 40
73.00000000000001
100
AcDbArc
 50
32.35528435577688
 51
57.64471564423688
  0
ARC
  5
114
330
1F
100
AcDbEntity
  8
0
  6
Continuous
 62
     7
370
    15
100
AcDbCircle
 10
728.52307382778
 20
413.0724358904022
 30
0.0
 40
73.0
100
AcDbArc
 50
92.35528435577249
 51
117.6447156442298
  0
LINE
  5
115
330
1F
100
AcDbEntity
  8
0
  6
Continuous
 62
     7
370
    15
100
AcDbLine
 10
728.52307382778
 20
486.0724358904022
 30
0.0
 11
728.52307382778
 21
476.3484406537425
 31
0.0
  0
LINE
  5
116
330
1F
100
AcDbEntity
  8
0
  6
Continuous
 62
     7
370
    15
100
AcDbLine
 10
728.52307382778
 20
476.3484406537425
 30
0.0
 11
725.52307382778
 21
476.3484406537425
 31
0.0
  0
SPLINE
  5
117
330
1F
100
AcDbEntity
  8
0
  6
Continuous
 62
     7
370
    15
100
AcDbSpline
210
0.0
220
0.0
230
1.0
 70
     8
 71
     3
 72
    20
 73
    16
 74
     0
 42
0.0000000001
 43
0.0000000001
 40
0.0
 40
0.0
 40
0.0
 40
0.0
 40
0.1249999999999999
 40
0.1249999999999999
 40
0.2499999999999998
 40
0.2499999999999998
 40
0.3749999999999998
 40
0.3749999999999998
 40
0.5
 40
0.5
 40
0.625
 40
0.625
 40
0.75
 40
0.75
 40
1.0
 40
1.0
 40
1.0
 40
1.0
 10
725.52307382778
 20
486.0107660056441
 30
0.0
 10
725.7210196417449
 20
486.01890764312
 30
0.0
 10
725.9156961457608
 20
486.0261082311288
 30
0.0
 10
726.298768735671
 20
486.0387924750091
 30
0.0
 10
726.4891485354723
 20
486.0443218017897
 30
0.0
 10
726.8522701149834
 20
486.0535389275072
 30
0.0
 10
727.0245216046707
 20
486.0572351661393
 30
0.0
 10
727.3505595605517
 20
486.0632010211924
 30
0.0
 10
727.5049613697981
 20
486.0654670895637
 30
0.0
 10
727.7817561447175
 20
486.0688029555626
 30
0.0
 10
727.9059822656923
 20
486.0699100676531
 30
0.0
 10
728.1254149239746
 20
486.0714352373155
 30
0.0
 10
728.2187044533982
 20
486.07183979999
 30
0.0
 10
728.4434406139401
 20
486.0725462056345
 30
0.0
 10
728.52307382778
 20
486.0724358904023
 30
0.0
 10
728.52307382778
 20
486.0724358904022
 30
0.0
  0
LINE
  5
118
330
1F
100
AcDbEntity
  8
0
  6
Continuous
 62
     7
370
    15
100
AcDbLine
 10
731.2389249850149
 20
470.3551728109747
 30
0.0
 11
731.3809994063974
 21
473.3518067323586
 31
0.0
  0
ARC
  5
119
330
1F
100
AcDbEntity
  8
0
  6
Continuous
 62
     7
370
    15
100
AcDbCircle
 10
728.52307382778
 20
413.0724358904022
 30
0.0
 40
60.3470818492081
100
AcDbArc
 50
62.71443687306979
 51
87.2855631269592
  0
LINE
  5
11A
330
1F
100
AcDbEntity
  8
0
  6
Continuous
 62
     7
370
    15
100
AcDbLine
 10
754.8124461930036
 20
464.0386668405362
 30
0.0
 11
756.1877230955502
 21
466.7048651529881
 31
0.0
  0
ARC
  5
11B
330
1F
100
AcDbEntity
  8
0
  6
Continuous
 62
     7
370
    15
100
AcDbCircle
 10
731.5230738277801
 20
476.3484406537425
 30
0.0
 40
3.000000000000005
100
AcDbArc
 50
180.0
 51
267.2855631269592
  0
LINE
  5
11C
330
1F
100
AcDbEntity
  8
0
  6
Continuous
 62
     7
370
    15
100
AcDbLine
 10
697.5297092724311
 20
461.3228156833013
 30
0.0
 11
695.9083522535937
 21
463.8469395743706
 31
0.0
  0
ARC
  5
11D
330
1F
100
AcDbEntity
  8
0
  6
Continuous
 62
     7
370
    15
100
AcDbCircle
 10
694.2869952347565
 20
466.3710634654401
 30
0.0
 40
3.0
100
AcDbArc
 50
302.7144368730575
 51
29.99999999999968
  0
ARC
  5
11E
330
1F
100
AcDbEntity
  8
0
  6
Continuous
 62
     7
370
    15
100
AcDbCircle
 10
757.562999998097
 20
469.3710634654401
 30
0.0
 40
2.999999999999994
100
AcDbArc
 50
242.7144368730698
 51
330.0000000000003
  0
LINE
  5
11F
330
1F
100
AcDbEntity
  8
0
  6
Continuous
 62
     7
370
    15
100
AcDbLine
 10
680.2726940348809
 20
444.0658004457512
 30
0.0
 11
677.7485701438116
 21
445.6871574645885
 31
0.0
  0
ARC
  5
120
330
1F
100
AcDbEntity
  8
0
  6
Continuous
 62
     7
370
    15
100
AcDbCircle
 10
728.52307382778
 20
413.0724358904022
 30
0.0
 40
60.3470818492081
100
AcDbArc
 50
122.7144368730486
 51
147.2855631269426
  0
ARC
  5
121
330
1F
100
AcDbEntity
  8
0
  6
Continuous
 62
     7
370
    15
100
AcDbCircle
 10
675.2244462527421
 20
447.3085144834256
 30
0.0
 40
3.00000000000001
100
AcDbArc
 50
239.9999999999922
 51
327.2855631269425
  0
ARC
  5
122
330
1F
100
AcDbEntity
  8
0
  6
Continuous
 62
     7
370
    15
100
AcDbCircle
 10
784.821701402818
 20
442.1123620607191
 30
0.0
 40
3.000000000000035
100
AcDbArc
 50
120.0000000000078
 51
207.2855631269447
  0
LINE
  5
123
330
1F
100
AcDbEntity
  8
0
  6
Continuous
 62
     7
370
    15
100
AcDbLine
 10
782.155503090366
 20
440.7370851581724
 30
0.0
 11
779.489304777914
 21
439.3618082556256
 31
0.0
  0
ARC
  5
124
330
1F
100
AcDbEntity
  8
0
  6
Continuous
 62
     7
370
    15
100
AcDbCircle
 10
728.52307382778
 20
413.0724358904022
 30
0.0
 40
60.3470818492081
100
AcDbArc
 50
2.71443687305783
 51
27.28556312694468
  0
LINE
  5
125
330
1F
100
AcDbEntity
  8
0
  6
Continuous
 62
     7
370
    15
100
AcDbLine
 10
788.8024446697365
 20
415.9303614690196
 30
0.0
 11
785.8058107483525
 21
415.7882870476371
 31
0.0
  0
LINE
  5
126
330
1F
100
AcDbEntity
  8
0
  6
Continuous
 62
     7
370
    15
100
AcDbLine
 10
671.2403369072076
 20
410.3565847331673
 30
0.0
 11
668.2437029858236
 21
410.2145103117847
 31
0.0
  0
ARC
  5
127
330
1F
100
AcDbEntity
  8
0
  6
Continuous
 62
     7
370
    15
100
AcDbCircle
 10
665.2470690644397
 20
410.0724358904022
 30
0.0
 40
3.000000000000017
100
AcDbArc
 50
2.71443687305783
 51
90.0
  0
LINE
  5
128
330
1F
100
AcDbEntity
  8
0
  6
Continuous
 62
     7
370
    15
100
AcDbLine
 10
665.2470690644397
 20
416.0724358904022
 30
0.0
 11
665.2470690644397
 21
413.0724358904022
 31
0.0
  0
ARC
  5
129
330
1F
100
AcDbEntity
  8
0
  6
Continuous
 62
     7
370
    15
100
AcDbCircle
 10
791.7990785911204
 20
416.0724358904022
 30
0.0
 40
3.000000000000028
100
AcDbArc
 50
182.7144368730578
 51
270.0
  0
LINE
  5
12A
330
1F
100
AcDbEntity
  8
0
  6
Continuous
 62
     7
370
    15
100
AcDbLine
 10
791.7990785911204
 20
410.0724358904022
 30
0.0
 11
791.7990785911204
 21
413.0724358904022
 31
0.0
  0
LINE
  5
12B
330
1F
100
AcDbEntity
  8
0
  6
Continuous
 62
     7
370
    15
100
AcDbLine
 10
791.7990785911204
 20
413.0724358904022
 30
0.0
 11
801.52307382778
 21
413.0724358904022
 31
0.0
  0
SPLINE
  5
12C
330
1F
100
AcDbEntity
  8
0
  6
Continuous
 62
     7
370
    15
100
AcDbSpline
210
0.0
220
0.0
230
1.0
 70
     8
 71
     3
 72
    20
 73
    16
 74
     0
 42
0.0000000001
 43
0.0000000001
 40
0.0
 40
0.0
 40
0.0
 40
0.0
 40
0.1249999999999991
 40
0.1249999999999991
 40
0.2499999999999983
 40
0.2499999999999983
 40
0.3749999999999974
 40
0.3749999999999974
 40
0.4999999999999966
 40
0.4999999999999966
 40
0.6249999999999957
 40
0.6249999999999957
 40
0.7499999999999949
 40
0.7499999999999949
 40
1.0
 40
1.0
 40
1.0
 40
1.0
 10
801.52307382778
 20
413.0724358904022
 30
0.0
 10
801.52307382778
 20
413.0724358904022
 30
0.0
 10
801.5230811679757
 20
413.0530038321091
 30
0.0
 10
801.5230211943212
 20
412.9768652059794
 30
0.0
 10
801.5229518407641
 20
412.9192364197606
 30
0.0
 10
801.5224810024019
 20
412.7687713680558
 30
0.0
 10
801.5220821771514
 20
412.6766951142949
 30
0.0
 10
801.520578755095
 20
412.4591617754495
 30
0.0
 10
801.5194551248216
 20
412.332539632059
 30
0.0
 10
801.5161274350184
 20
412.0559448540356
 30
0.0
 10
801.5139226353932
 20
411.9050289495028
 30
0.0
 10
801.5079464657283
 20
411.5773724656653
 30
0.0
 10
801.5042022882791
 20
411.4028762058799
 30
0.0
 10
801.4904884262254
 20
410.861877035558
 30
0.0
 10
801.4776873264741
 20
410.4683301562794
 30
0.0
 10
801.461403943022
 20
410.0724358904022
 30
0.0
  0
LINE
  5
12D
330
1F
100
AcDbEntity
  8
0
  6
Continuous
 62
     7
370
    15
100
AcDbLine
 10
677.5568428776461
 20
386.7830635251788
 30
0.0
 11
674.8906445651941
 21
385.4077866226321
 31
0.0
  0
ARC
  5
12E
330
1F
100
AcDbEntity
  8
0
  6
Continuous
 62
     7
370
    15
100
AcDbCircle
 10
728.52307382778
 20
413.0724358904022
 30
0.0
 40
60.3470818492081
100
AcDbArc
 50
182.7144368730578
 51
207.2855631269447
  0
LINE
  5
12F
330
1F
100
AcDbEntity
  8
0
  6
Continuous
 62
     7
370
    15
100
AcDbLine
 10
665.2470690644397
 20
413.0724358904022
 30
0.0
 11
655.52307382778
 21
413.0724358904022
 31
0.0
  0
SPLINE
  5
130
330
1F
100
AcDbEntity
  8
0
  6
Continuous
 62
     7
370
    15
100
AcDbSpline
210
0.0
220
0.0
230
1.0
 70
     8
 71
     3
 72
    20
 73
    16
 74
     0
 42
0.0000000001
 43
0.0000000001
 40
0.0
 40
0.0
 40
0.0
 40
0.0
 40
0.1249999999999992
 40
0.1249999999999992
 40
0.2499999999999984
 40
0.2499999999999984
 40
0.3749999999999977
 40
0.3749999999999977
 40
0.4999999999999969
 40
0.4999999999999969
 40
0.6249999999999961
 40
0.6249999999999961
 40
0.7499999999999954
 40
0.7499999999999954
 40
1.0
 40
1.0
 40
1.0
 40
1.0
 10
655.52307382778
 20
413.0724358904022
 30
0.0
 10
655.52307382778
 20
413.0724358904022
 30
0.0
 10
655.5230664875844
 20
413.0918679486953
 30
0.0
 10
655.5231264612388
 20
413.1680065748249
 30
0.0
 10
655.5231958147959
 20
413.2256353610438
 30
0.0
 10
655.523666653158
 20
413.3761004127486
 30
0.0
 10
655.5240654784088
 20
413.4681766665095
 30
0.0
 10
655.525568900465
 20
413.6857100053549
 30
0.0
 10
655.5266925307384
 20
413.8123321487454
 30
0.0
 10
655.5300202205416
 20
414.0889269267687
 30
0.0
 10
655.5322250201669
 20
414.2398428313017
 30
0.0
 10
655.5382011898318
 20
414.567499315139
 30
0.0
 10
655.541945367281
 20
414.7419955749245
 30
0.0
 10
655.5556592293347
 20
415.2829947452464
 30
0.0
 10
655.5684603290859
 20
415.6765416245249
 30
0.0
 10
655.5847437125382
 20
416.0724358904022
 30
0.0
  0
ARC
  5
131
330
1F
100
AcDbEntity
  8
0
  6
Continuous
 62
     7
370
    15
100
AcDbCircle
 10
672.2244462527421
 20
384.0325097200854
 30
0.0
 40
3.000000000000004
100
AcDbArc
 50
300.0000000000078
 51
27.28556312694468
  0
ARC
  5
132
330
1F
100
AcDbEntity
  8
0
  6
Continuous
 62
     7
370
    15
100
AcDbCircle
 10
781.821701402818
 20
378.8363572973787
 30
0.0
 40
3.000000000000031
100
AcDbArc
 50
59.99999999999218
 51
147.2855631269426
  0
ARC
  5
133
330
1F
100
AcDbEntity
  8
0
  6
Continuous
 62
     7
370
    15
100
AcDbCircle
 10
728.52307382778
 20
413.0724358904022
 30
0.0
 40
60.3470818492081
100
AcDbArc
 50
242.7144368730698
 51
270.0
  0
LINE
  5
134
330
1F
100
AcDbEntity
  8
0
  6
Continuous
 62
     7
370
    15
100
AcDbLine
 10
700.8584245600099
 20
359.4400066278163
 30
0.0
 11
702.2337014625565
 21
362.1062049402683
 31
0.0
  0
SPLINE
  5
135
330
1F
100
AcDbEntity
  8
0
  6
Continuous
 62
     7
370
    15
100
AcDbSpline
210
0.0
220
0.0
230
1.0
 70
     8
 71
     3
 72
    20
 73
    16
 74
     0
 42
0.0000000001
 43
0.0000000001
 40
0.0
 40
0.0
 40
0.0
 40
0.0
 40
0.1250000000000018
 40
0.1250000000000018
 40
0.2500000000000036
 40
0.2500000000000036
 40
0.3750000000000055
 40
0.3750000000000055
 40
0.5000000000000073
 40
0.5000000000000073
 40
0.7500000000000037
 40
0.7500000000000037
 40
0.8750000000000017
 40
0.8750000000000017
 40
1.0
 40
1.0
 40
1.0
 40
1.0
 10
728.52307382778
 20
352.7253540411942
 30
0.0
 10
728.52307382778
 20
352.7253540411942
 30
0.0
 10
728.5524430877935
 20
352.7547044856981
 30
0.0
 10
728.6642200086376
 20
352.8666396592421
 30
0.0
 10
728.7452179045155
 20
352.9478256411836
 30
0.0
 10
728.9437860816138
 20
353.1474599826187
 30
0.0
 10
729.0610260300398
 20
353.2655872411135
 30
0.0
 10
729.3154586608035
 20
353.5228715614223
 30
0.0
 10
729.4552491301673
 20
353.6646564566979
 30
0.0
 10
729.8930729183285
 20
354.1105181341413
 30
0.0
 10
730.2064152269124
 20
354.4318775062909
 30
0.0
 10
730.6963199311501
 20
354.9389624235082
 30
0.0
 10
730.8605675887049
 20
355.1097052964322
 30
0.0
 10
731.1906654621911
 20
355.4544070180944
 30
0.0
 10
731.3578184248975
 20
355.6297505868232
 30
0.0
 10
731.5230738277801
 20
355.8038773558994
 30
0.0
  0
ARC
  5
136
330
1F
100
AcDbEntity
  8
0
  6
Continuous
 62
     7
370
    15
100
AcDbCircle
 10
699.4831476574631
 20
356.7738083153644
 30
0.0
 40
3.00000000000001
100
AcDbArc
 50
62.71443687306979
 51
150.0000000000003
  0
LINE
  5
137
330
1F
100
AcDbEntity
  8
0
  6
Continuous
 62
     7
370
    15
100
AcDbLine
 10
728.52307382778
 20
340.0724358904022
 30
0.0
 11
728.52307382778
 21
352.7253540411942
 31
0.0
  0
SPLINE
  5
138
330
1F
100
AcDbEntity
  8
0
  6
Continuous
 62
     7
370
    15
100
AcDbSpline
210
0.0
220
0.0
230
1.0
 70
     8
 71
     3
 72
    20
 73
    16
 74
     0
 42
0.0000000001
 43
0.0000000001
 40
0.0
 40
0.0
 40
0.0
 40
0.0
 40
0.125
 40
0.125
 40
0.25
 40
0.25
 40
0.375
 40
0.375
 40
0.5
 40
0.5
 40
0.625
 40
0.625
 40
0.75
 40
0.75
 40
1.0
 40
1.0
 40
1.0
 40
1.0
 10
731.5230738277801
 20
340.1341057751604
 30
0.0
 10
731.3251280138152
 20
340.1259641376845
 30
0.0
 10
731.1304515097993
 20
340.1187635496756
 30
0.0
 10
730.7473789198891
 20
340.1060793057953
 30
0.0
 10
730.5569991200878
 20
340.1005499790148
 30
0.0
 10
730.1938775405767
 20
340.0913328532973
 30
0.0
 10
730.0216260508894
 20
340.0876366146651
 30
0.0
 10
729.6955880950084
 20
340.0816707596121
 30
0.0
 10
729.541186285762
 20
340.0794046912408
 30
0.0
 10
729.2643915108426
 20
340.0760688252418
 30
0.0
 10
729.1401653898678
 20
340.0749617131513
 30
0.0
 10
728.9207327315855
 20
340.073436543489
 30
0.0
 10
728.8274432021619
 20
340.0730319808144
 30
0.0
 10
728.60270704162
 20
340.0723255751699
 30
0.0
 10
728.52307382778
 20
340.0724358904022
 30
0.0
 10
728.52307382778
 20
340.0724358904022
 30
0.0
  0
ARC
  5
139
330
1F
100
AcDbEntity
  8
0
  6
Continuous
 62
     7
370
    15
100
AcDbCircle
 10
728.52307382778
 20
413.0724358904022
 30
0.0
 40
63.34708184920809
100
AcDbArc
 50
302.7144368730575
 51
327.2855631269425
  0
SPLINE
  5
13A
330
1F
100
AcDbEntity
  8
0
  6
Continuous
 62
     7
370
    15
100
AcDbSpline
210
0.0
220
0.0
230
1.0
 70
     8
 71
     3
 72
    20
 73
    16
 74
     0
 42
0.0000000001
 43
0.0000000001
 40
0.0
 40
0.0
 40
0.0
 40
0.0
 40
0.1250000000000026
 40
0.1250000000000026
 40
0.2500000000000051
 40
0.2500000000000051
 40
0.3750000000000078
 40
0.3750000000000078
 40
0.5000000000000103
 40
0.5000000000000103
 40
0.7500000000000049
 40
0.7500000000000049
 40
0.8750000000000024
 40
0.8750000000000024
 40
1.0
 40
1.0
 40
1.0
 40
1.0
 10
758.6966147523841
 20
360.8103299647293
 30
0.0
 10
758.6966147523841
 20
360.8103299647293
 30
0.0
 10
758.7353788908417
 20
360.7999304008903
 30
0.0
 10
758.88281064356
 20
360.7605338458625
 30
0.0
 10
758.9900719394705
 20
360.7319219490489
 30
0.0
 10
759.2529980227177
 20
360.6621938638833
 30
0.0
 10
759.4090877916968
 20
360.620972587015
 30
0.0
 10
759.7483691313262
 20
360.5319884418998
 30
0.0
 10
759.9346526129531
 20
360.4834121495764
 30
0.0
 10
760.524315292795
 20
360.3308223446646
 30
0.0
 10
760.9473428137718
 20
360.2228239033838
 30
0.0
 10
761.6173298152785
 20
360.0546964064894
 30
0.0
 10
761.8434162050536
 20
359.998421305383
 30
0.0
 10
762.2985437597317
 20
359.88608142221
 30
0.0
 10
762.529937276437
 20
359.8294497413646
 30
0.0
 10
762.7591524208034
 20
359.7738083153644
 30
0.0
  0
LINE
  5
13B
330
1F
100
AcDbEntity
  8
0
  6
Continuous
 62
     7
370
    15
100
AcDbLine
 10
781.8217014028179
 20
378.8363572973787
 30
0.0
 11
779.2975775117485
 21
380.457714316216
 31
0.0
  0
SPLINE
  5
13C
330
1F
100
AcDbEntity
  8
0
  6
Continuous
 62
     7
370
    15
100
AcDbSpline
210
0.0
220
0.0
230
1.0
 70
     8
 71
     3
 72
    20
 73
    16
 74
     0
 42
0.0000000001
 43
0.0000000001
 40
0.0
 40
0.0
 40
0.0
 40
0.0
 40
0.1250000000000018
 40
0.1250000000000018
 40
0.2500000000000036
 40
0.2500000000000036
 40
0.3750000000000054
 40
0.3750000000000054
 40
0.5000000000000072
 40
0.5000000000000072
 40
0.7500000000000055
 40
0.7500000000000055
 40
0.8750000000000028
 40
0.8750000000000028
 40
1.0
 40
1.0
 40
1.0
 40
1.0
 10
728.52307382778
 20
352.7253540411942
 30
0.0
 10
728.52307382778
 20
352.7253540411942
 30
0.0
 10
728.4947028810395
 20
352.6969656854925
 30
0.0
 10
728.3867215153748
 20
352.5891313916578
 30
0.0
 10
728.3081364566803
 20
352.5107221142115
 30
0.0
 10
728.1152998318535
 20
352.3188727794771
 30
0.0
 10
728.0007327650809
 20
352.2051292220432
 30
0.0
 10
727.7513985784894
 20
351.9584260220248
 30
0.0
 10
727.6143604972567
 20
351.8232159780375
 30
0.0
 10
727.179992539306
 20
351.3962379907045
 30
0.0
 10
726.8676391802806
 20
351.0911948364977
 30
0.0
 10
726.3714771652175
 20
350.6105986523592
 30
0.0
 10
726.2038181587756
 20
350.4488197903131
 30
0.0
 10
725.8658360760485
 20
350.1239668202879
 30
0.0
 10
725.6937592527334
 20
349.9592255876641
 30
0.0
 10
725.52307382778
 20
349.7964311270619
 30
0.0
  0
ARC
  5
13D
330
1F
100
AcDbEntity
  8
0
  6
Continuous
 62
     7
370
    15
100
AcDbCircle
 10
728.52307382778
 20
413.0724358904022
 30
0.0
 40
63.3470818492081
100
AcDbArc
 50
242.7144368730698
 51
267.2855631269592
  0
LINE
  5
13E
330
1F
100
AcDbEntity
  8
0
  6
Continuous
 62
     7
370
    15
100
AcDbLine
 10
700.8584245600099
 20
359.4400066278163
 30
0.0
 11
699.4831476574631
 21
356.7738083153644
 31
0.0
  0
LINE
  5
13F
330
1F
100
AcDbEntity
  8
0
  6
Continuous
 62
     7
370
    15
100
AcDbLine
 10
762.7591524208034
 20
359.7738083153644
 30
0.0
 11
767.5903150967543
 21
351.4059891009872
 31
0.0
  0
SPLINE
  5
140
330
1F
100
AcDbEntity
  8
0
  6
Continuous
 62
     7
370
    15
100
AcDbSpline
210
0.0
220
0.0
230
1.0
 70
     8
 71
     3
 72
    20
 73
    16
 74
     0
 42
0.0000000001
 43
0.0000000001
 40
0.0
 40
0.0
 40
0.0
 40
0.0
 40
0.125
 40
0.125
 40
0.25
 40
0.25
 40
0.375
 40
0.375
 40
0.5
 40
0.5
 40
0.625
 40
0.625
 40
0.75
 40
0.75
 40
1.0
 40
1.0
 40
1.0
 40
1.0
 10
767.5903150967543
 20
351.4059891009872
 30
0.0
 10
767.4229598120259
 20
351.2999653291223
 30
0.0
 10
767.2579653080326
 20
351.1963911849765
 30
0.0
 10
766.9325568356171
 20
350.9938700125932
 30
0.0
 10
766.7704477560119
 20
350.8938915752348
 30
0.0
 10
766.4605838063518
 20
350.704348520458
 30
0.0
 10
766.3132577597589
 20
350.6150217390604
 30
0.0
 10
766.0338835348946
 20
350.4468361790888
 30
0.0
 10
765.9013006798825
 20
350.3676728016893
 30
0.0
 10
765.663257306167
 20
350.2263864695309
 30
0.0
 10
765.5562278856345
 20
350.1633146218483
 30
0.0
 10
765.3669562139733
 20
350.0522774570344
 30
0.0
 10
765.2863673929225
 20
350.0052823307691
 30
0.0
 10
765.0920933715667
 20
349.8923024852647
 30
0.0
 10
765.0230738277801
 20
349.8525814141382
 30
0.0
 10
765.0230738277801
 20
349.8525814141382
 30
0.0
  0
LINE
  5
141
330
1F
100
AcDbEntity
  8
0
  6
Continuous
 62
     7
370
    15
100
AcDbLine
 10
725.52307382778
 20
340.1341057751604
 30
0.0
 11
725.52307382778
 21
349.7964311270619
 31
0.0
  0
SPLINE
  5
142
330
1F
100
AcDbEntity
  8
0
  6
Continuous
 62
     7
370
    15
100
AcDbSpline
210
0.0
220
0.0
230
1.0
 70
     8
 71
     3
 72
    20
 73
    16
 74
     0
 42
0.0000000001
 43
0.0000000001
 40
0.0
 40
0.0
 40
0.0
 40
0.0
 40
0.1249999999999992
 40
0.1249999999999992
 40
0.2499999999999985
 40
0.2499999999999985
 40
0.3749999999999978
 40
0.3749999999999978
 40
0.499999999999997
 40
0.499999999999997
 40
0.6249999999999961
 40
0.6249999999999961
 40
0.7499999999999954
 40
0.7499999999999954
 40
1.0
 40
1.0
 40
1.0
 40
1.0
 10
728.52307382778
 20
340.0724358904022
 30
0.0
 10
728.52307382778
 20
340.0724358904023
 30
0.0
 10
728.5036417694869
 20
340.0724285502067
 30
0.0
 10
728.4275031433573
 20
340.0724885238611
 30
0.0
 10
728.3698743571385
 20
340.0725578774181
 30
0.0
 10
728.2194093054336
 20
340.0730287157803
 30
0.0
 10
728.1273330516727
 20
340.073427541031
 30
0.0
 10
727.9097997128274
 20
340.0749309630872
 30
0.0
 10
727.7831775694369
 20
340.0760545933607
 30
0.0
 10
727.5065827914135
 20
340.0793822831639
 30
0.0
 10
727.3556668868806
 20
340.0815870827892
 30
0.0
 10
727.0280104030432
 20
340.0875632524541
 30
0.0
 10
726.8535141432578
 20
340.0913074299033
 30
0.0
 10
726.3125149729358
 20
340.1050212919569
 30
0.0
 10
725.9189680936573
 20
340.1178223917081
 30
0.0
 10
725.52307382778
 20
340.1341057751603
 30
0.0
  0
LINE
  5
143
330
1F
100
AcDbEntity
  8
0
  6
Continuous
 62
     7
370
    15
100
AcDbLine
 10
760.1610762094502
 20
467.87106346544
 30
0.0
 11
757.562999998097
 21
469.3710634654401
 31
0.0
  0
LINE
  5
144
330
1F
100
AcDbEntity
  8
0
  6
Continuous
 62
     7
370
    15
100
AcDbLine
 10
757.562999998097
 20
469.3710634654401
 30
0.0
 11
762.3941626740477
 21
477.7388826798172
 31
0.0
  0
SPLINE
  5
145
330
1F
100
AcDbEntity
  8
0
  6
Continuous
 62
     7
370
    15
100
AcDbSpline
210
0.0
220
0.0
230
1.0
 70
     8
 71
     3
 72
    20
 73
    16
 74
     0
 42
0.0000000001
 43
0.0000000001
 40
0.0
 40
0.0
 40
0.0
 40
0.0
 40
0.1249999999999996
 40
0.1249999999999996
 40
0.2499999999999992
 40
0.2499999999999992
 40
0.3749999999999988
 40
0.3749999999999988
 40
0.4999999999999984
 40
0.4999999999999984
 40
0.6249999999999981
 40
0.6249999999999981
 40
0.7499999999999977
 40
0.7499999999999977
 40
1.0
 40
1.0
 40
1.0
 40
1.0
 10
762.3941626740477
 20
477.7388826798172
 30
0.0
 10
762.5696595962519
 20
477.6469606377174
 30
0.0
 10
762.7418546882542
 20
477.5558582778472
 30
0.0
 10
763.07994740455
 20
477.3753068603203
 30
0.0
 10
763.2475858109357
 20
477.2849054978773
 30
0.0
 10
763.5666668863133
 20
477.1113269731431
 30
0.0
 10
763.7176891715384
 20
477.0284022648533
 30
0.0
 10
764.0030292514556
 20
476.8705498689441
 30
0.0
 10
764.137878174839
 20
476.7953114370971
 30
0.0
 10
764.3792574145535
 20
476.6598029943361
 30
0.0
 10
764.4873939471765
 20
476.5986487210439
 30
0.0
 10
764.6781907885
 20
476.4902532275755
 30
0.0
 10
764.7591841722253
 20
476.4439588244172
 30
0.0
 10
764.9541645992257
 20
476.3322025093798
 30
0.0
 10
765.0230738277801
 20
476.2922903666662
 30
0.0
 10
765.0230738277801
 20
476.2922903666662
 30
0.0
  0
LINE
  5
146
330
1F
100
AcDbEntity
  8
0
  6
Continuous
 62
     7
370
    15
100
AcDbLine
 10
694.2869952347565
 20
466.3710634654401
 30
0.0
 11
689.4558325588057
 21
474.7388826798172
 31
0.0
  0
LINE
  5
147
330
1F
100
AcDbEntity
  8
0
  6
Continuous
 62
     7
370
    15
100
AcDbLine
 10
696.8850714461098
 20
467.87106346544
 30
0.0
 11
694.2869952347565
 21
466.3710634654401
 31
0.0
  0
SPLINE
  5
148
330
1F
100
AcDbEntity
  8
0
  6
Continuous
 62
     7
370
    15
100
AcDbSpline
210
0.0
220
0.0
230
1.0
 70
     8
 71
     3
 72
    20
 73
    16
 74
     0
 42
0.0000000001
 43
0.0000000001
 40
0.0
 40
0.0
 40
0.0
 40
0.0
 40
0.125
 40
0.125
 40
0.25
 40
0.25
 40
0.375
 40
0.375
 40
0.5
 40
0.5
 40
0.625
 40
0.625
 40
0.75
 40
0.75
 40
1.0
 40
1.0
 40
1.0
 40
1.0
 10
689.4558325588057
 20
474.7388826798172
 30
0.0
 10
689.6231878435342
 20
474.8449064516822
 30
0.0
 10
689.7881823475274
 20
474.9484805958281
 30
0.0
 10
690.113590819943
 20
475.1510017682113
 30
0.0
 10
690.2756998995482
 20
475.2509802055697
 30
0.0
 10
690.5855638492083
 20
475.4405232603464
 30
0.0
 10
690.7328898958011
 20
475.5298500417441
 30
0.0
 10
691.0122641206655
 20
475.6980356017156
 30
0.0
 10
691.1448469756775
 20
475.7771989791152
 30
0.0
 10
691.382890349393
 20
475.9184853112736
 30
0.0
 10
691.4899197699256
 20
475.9815571589562
 30
0.0
 10
691.6791914415868
 20
476.0925943237699
 30
0.0
 10
691.7597802626374
 20
476.1395894500354
 30
0.0
 10
691.9540542839934
 20
476.2525692955398
 30
0.0
 10
692.02307382778
 20
476.2922903666662
 30
0.0
 10
692.02307382778
 20
476.2922903666662
 30
0.0
  0
LINE
  5
149
330
1F
100
AcDbEntity
  8
0
  6
Continuous
 62
     7
370
    15
100
AcDbLine
 10
791.7990785911204
 20
416.0724358904022
 30
0.0
 11
801.461403943022
 21
416.0724358904022
 31
0.0
  0
LINE
  5
14A
330
1F
100
AcDbEntity
  8
0
  6
Continuous
 62
     7
370
    15
100
AcDbLine
 10
791.7990785911204
 20
416.0724358904022
 30
0.0
 11
791.7990785911204
 21
413.0724358904022
 31
0.0
  0
SPLINE
  5
14B
330
1F
100
AcDbEntity
  8
0
  6
Continuous
 62
     7
370
    15
100
AcDbSpline
210
0.0
220
0.0
230
1.0
 70
     8
 71
     3
 72
    20
 73
    16
 74
     0
 42
0.0000000001
 43
0.0000000001
 40
0.0
 40
0.0
 40
0.0
 40
0.0
 40
0.125
 40
0.125
 40
0.25
 40
0.25
 40
0.375
 40
0.375
 40
0.5
 40
0.5
 40
0.625
 40
0.625
 40
0.75
 40
0.75
 40
1.0
 40
1.0
 40
1.0
 40
1.0
 10
801.461403943022
 20
416.0724358904022
 30
0.0
 10
801.4695455804979
 20
415.8744900764374
 30
0.0
 10
801.4767461685066
 20
415.6798135724215
 30
0.0
 10
801.489430412387
 20
415.2967409825111
 30
0.0
 10
801.4949597391675
 20
415.1063611827098
 30
0.0
 10
801.5041768648851
 20
414.7432396031988
 30
0.0
 10
801.5078731035172
 20
414.5709881135115
 30
0.0
 10
801.5138389585702
 20
414.2449501576306
 30
0.0
 10
801.5161050269416
 20
414.0905483483841
 30
0.0
 10
801.5194408929405
 20
413.8137535734647
 30
0.0
 10
801.5205480050308
 20
413.68952745249
 30
0.0
 10
801.5220731746932
 20
413.4700947942077
 30
0.0
 10
801.5224777373679
 20
413.376805264784
 30
0.0
 10
801.5231841430123
 20
413.1520691042423
 30
0.0
 10
801.52307382778
 20
413.0724358904022
 30
0.0
 10
801.52307382778
 20
413.0724358904022
 30
0.0
  0
LINE
  5
14C
330
1F
100
AcDbEntity
  8
0
  6
Continuous
 62
     7
370
    15
100
AcDbLine
 10
665.2470690644397
 20
413.0724358904022
 30
0.0
 11
665.2470690644397
 21
410.0724358904022
 31
0.0
  0
LINE
  5
14D
330
1F
100
AcDbEntity
  8
0
  6
Continuous
 62
     7
370
    15
100
AcDbLine
 10
665.2470690644397
 20
410.0724358904022
 30
0.0
 11
655.5847437125382
 21
410.0724358904022
 31
0.0
  0
SPLINE
  5
14E
330
1F
100
AcDbEntity
  8
0
  6
Continuous
 62
     7
370
    15
100
AcDbSpline
210
0.0
220
0.0
230
1.0
 70
     8
 71
     3
 72
    20
 73
    16
 74
     0
 42
0.0000000001
 43
0.0000000001
 40
0.0
 40
0.0
 40
0.0
 40
0.0
 40
0.1250000000000001
 40
0.1250000000000001
 40
0.2500000000000002
 40
0.2500000000000002
 40
0.3750000000000001
 40
0.3750000000000001
 40
0.5000000000000001
 40
0.5000000000000001
 40
0.6250000000000001
 40
0.6250000000000001
 40
0.75
 40
0.75
 40
1.0
 40
1.0
 40
1.0
 40
1.0
 10
655.5847437125382
 20
410.0724358904022
 30
0.0
 10
655.5766020750622
 20
410.270381704367
 30
0.0
 10
655.5694014870534
 20
410.465058208383
 30
0.0
 10
655.5567172431731
 20
410.8481307982932
 30
0.0
 10
655.5511879163926
 20
411.0385105980945
 30
0.0
 10
655.5419707906751
 20
411.4016321776055
 30
0.0
 10
655.5382745520429
 20
411.5738836672929
 30
0.0
 10
655.5323086969898
 20
411.8999216231738
 30
0.0
 10
655.5300426286186
 20
412.0543234324203
 30
0.0
 10
655.5267067626195
 20
412.3311182073397
 30
0.0
 10
655.5255996505291
 20
412.4553443283144
 30
0.0
 10
655.5240744808668
 20
412.6747769865967
 30
0.0
 10
655.5236699181921
 20
412.7680665160204
 30
0.0
 10
655.5229635125478
 20
412.9928026765622
 30
0.0
 10
655.52307382778
 20
413.0724358904022
 30
0.0
 10
655.52307382778
 20
413.0724358904022
 30
0.0
  0
LINE
  5
14F
330
1F
100
AcDbEntity
  8
0
  6
Continuous
 62
     7
370
    15
100
AcDbLine
 10
696.8850714461098
 20
358.2738083153643
 30
0.0
 11
699.4831476574631
 21
356.7738083153644
 31
0.0
  0
LINE
  5
150
330
1F
100
AcDbEntity
  8
0
  6
Continuous
 62
     7
370
    15
100
AcDbLine
 10
699.4831476574631
 20
356.7738083153644
 30
0.0
 11
694.6519849815124
 21
348.4059891009872
 31
0.0
  0
SPLINE
  5
151
330
1F
100
AcDbEntity
  8
0
  6
Continuous
 62
     7
370
    15
100
AcDbSpline
210
0.0
220
0.0
230
1.0
 70
     8
 71
     3
 72
    20
 73
    16
 74
     0
 42
0.0000000001
 43
0.0000000001
 40
0.0
 40
0.0
 40
0.0
 40
0.0
 40
0.125
 40
0.125
 40
0.25
 40
0.25
 40
0.3750000000000001
 40
0.3750000000000001
 40
0.5000000000000001
 40
0.5000000000000001
 40
0.6250000000000001
 40
0.6250000000000001
 40
0.7500000000000002
 40
0.7500000000000002
 40
1.0
 40
1.0
 40
1.0
 40
1.0
 10
694.6519849815124
 20
348.4059891009872
 30
0.0
 10
694.4764880593082
 20
348.4979111430871
 30
0.0
 10
694.3042929673059
 20
348.5890135029572
 30
0.0
 10
693.9662002510101
 20
348.7695649204841
 30
0.0
 10
693.7985618446244
 20
348.8599662829271
 30
0.0
 10
693.4794807692468
 20
349.0335448076613
 30
0.0
 10
693.3284584840217
 20
349.1164695159511
 30
0.0
 10
693.0431184041045
 20
349.2743219118604
 30
0.0
 10
692.9082694807211
 20
349.3495603437073
 30
0.0
 10
692.6668902410066
 20
349.4850687864683
 30
0.0
 10
692.5587537083836
 20
349.5462230597604
 30
0.0
 10
692.3679568670601
 20
349.6546185532289
 30
0.0
 10
692.2869634833348
 20
349.7009129563872
 30
0.0
 10
692.0919830563343
 20
349.8126692714246
 30
0.0
 10
692.02307382778
 20
349.8525814141382
 30
0.0
 10
692.02307382778
 20
349.8525814141382
 30
0.0
  0
LINE
  5
152
330
1F
100
AcDbEntity
  8
0
  6
Continuous
 62
     7
370
    15
100
AcDbLine
 10
731.5230738277801
 20
486.0107660056441
 30
0.0
 11
731.5230738277801
 21
476.3484406537425
 31
0.0
  0
LINE
  5
153
330
1F
100
AcDbEntity
  8
0
  6
Continuous
 62
     7
370
    15
100
AcDbLine
 10
731.5230738277801
 20
476.3484406537425
 30
0.0
 11
728.52307382778
 21
476.3484406537425
 31
0.0
  0
SPLINE
  5
154
330
1F
100
AcDbEntity
  8
0
  6
Continuous
 62
     7
370
    15
100
AcDbSpline
210
0.0
220
0.0
230
1.0
 70
     8
 71
     3
 72
    20
 73
    16
 74
     0
 42
0.0000000001
 43
0.0000000001
 40
0.0
 40
0.0
 40
0.0
 40
0.0
 40
0.1249999999999992
 40
0.1249999999999992
 40
0.2499999999999985
 40
0.2499999999999985
 40
0.3749999999999978
 40
0.3749999999999978
 40
0.499999999999997
 40
0.499999999999997
 40
0.6249999999999961
 40
0.6249999999999961
 40
0.7499999999999954
 40
0.7499999999999954
 40
1.0
 40
1.0
 40
1.0
 40
1.0
 10
728.52307382778
 20
486.0724358904022
 30
0.0
 10
728.52307382778
 20
486.0724358904022
 30
0.0
 10
728.5425058860731
 20
486.0724432305977
 30
0.0
 10
728.6186445122028
 20
486.0723832569433
 30
0.0
 10
728.6762732984215
 20
486.0723139033864
 30
0.0
 10
728.8267383501265
 20
486.0718430650242
 30
0.0
 10
728.9188146038874
 20
486.0714442397735
 30
0.0
 10
729.1363479427327
 20
486.0699408177172
 30
0.0
 10
729.2629700861232
 20
486.0688171874438
 30
0.0
 10
729.5395648641466
 20
486.0654894976405
 30
0.0
 10
729.6904807686795
 20
486.0632846980153
 30
0.0
 10
730.0181372525169
 20
486.0573085283504
 30
0.0
 10
730.1926335123023
 20
486.0535643509011
 30
0.0
 10
730.7336326826243
 20
486.0398504888475
 30
0.0
 10
731.1271795619028
 20
486.0270493890963
 30
0.0
 10
731.5230738277801
 20
486.0107660056441
 30
0.0
  0
LINE
  5
155
330
1F
100
AcDbEntity
  8
0
  6
Continuous
 62
     7
370
    15
100
AcDbLine
 10
666.8566270383649
 20
452.1396771593764
 30
0.0
 11
675.2244462527421
 21
447.3085144834256
 31
0.0
  0
LINE
  5
156
330
1F
100
AcDbEntity
  8
0
  6
Continuous
 62
     7
370
    15
100
AcDbLine
 10
675.2244462527421
 20
447.3085144834256
 30
0.0
 11
673.7244462527421
 21
444.7104382720723
 31
0.0
  0
SPLINE
  5
157
330
1F
100
AcDbEntity
  8
0
  6
Continuous
 62
     7
370
    15
100
AcDbSpline
210
0.0
220
0.0
230
1.0
 70
     8
 71
     3
 72
    20
 73
    16
 74
     0
 42
0.0000000001
 43
0.0000000001
 40
0.0
 40
0.0
 40
0.0
 40
0.0
 40
0.124999999999998
 40
0.124999999999998
 40
0.249999999999996
 40
0.249999999999996
 40
0.374999999999994
 40
0.374999999999994
 40
0.499999999999992
 40
0.499999999999992
 40
0.6249999999999901
 40
0.6249999999999901
 40
0.7499999999999899
 40
0.7499999999999899
 40
1.0
 40
1.0
 40
1.0
 40
1.0
 10
665.3032193515159
 20
449.5724358904022
 30
0.0
 10
665.3032193515159
 20
449.5724358904022
 30
0.0
 10
665.3129290238666
 20
449.5892682166296
 30
0.0
 10
665.3510502756398
 20
449.65517621424
 30
0.0
 10
665.3799247306913
 20
449.7050495303162
 30
0.0
 10
665.4555650145266
 20
449.8351206682932
 30
0.0
 10
665.5019485342059
 20
449.9146616305101
 30
0.0
 10
665.6120172053219
 20
450.1022993170921
 30
0.0
 10
665.6763013693783
 20
450.2113954948132
 30
0.0
 10
665.8174806222955
 20
450.449269754234
 30
0.0
 10
665.8948479870477
 20
450.578864361582
 30
0.0
 10
666.0638517437135
 20
450.8596351154673
 30
0.0
 10
666.1543424263935
 20
451.0088812205823
 30
0.0
 10
666.436718564477
 20
451.4705433144806
 30
0.0
 10
666.6445780816972
 20
451.8049643596403
 30
0.0
 10
666.8566270383649
 20
452.1396771593764
 30
0.0
  0
LINE
  5
158
330
1F
100
AcDbEntity
  8
0
  6
Continuous
 62
     7
370
    15
100
AcDbLine
 10
793.189520617195
 20
446.9435247366698
 30
0.0
 11
784.8217014028179
 21
442.1123620607191
 31
0.0
  0
LINE
  5
159
330
1F
100
AcDbEntity
  8
0
  6
Continuous
 62
     7
370
    15
100
AcDbLine
 10
784.8217014028179
 20
442.1123620607191
 30
0.0
 11
783.3217014028179
 21
444.7104382720724
 31
0.0
  0
SPLINE
  5
15A
330
1F
100
AcDbEntity
  8
0
  6
Continuous
 62
     7
370
    15
100
AcDbSpline
210
0.0
220
0.0
230
1.0
 70
     8
 71
     3
 72
    20
 73
    16
 74
     0
 42
0.0000000001
 43
0.0000000001
 40
0.0
 40
0.0
 40
0.0
 40
0.0
 40
0.1249999999999992
 40
0.1249999999999992
 40
0.2499999999999984
 40
0.2499999999999984
 40
0.3749999999999976
 40
0.3749999999999976
 40
0.4999999999999968
 40
0.4999999999999968
 40
0.624999999999996
 40
0.624999999999996
 40
0.7499999999999952
 40
0.7499999999999952
 40
1.0
 40
1.0
 40
1.0
 40
1.0
 10
791.7429283040441
 20
449.5724358904022
 30
0.0
 10
791.7429283040442
 20
449.5724358904022
 30
0.0
 10
791.7526506899864
 20
449.5556109043703
 30
0.0
 10
791.7906680643429
 20
449.4896429331056
 30
0.0
 10
791.8194223955102
 20
449.4397002634723
 30
0.0
 10
791.8942471633799
 20
449.3091582871331
 30
0.0
 10
791.9399398974616
 20
449.2292184996655
 30
0.0
 10
792.0474045651909
 20
449.0400773910272
 30
0.0
 10
792.1097425445249
 20
448.9298575830328
 30
0.0
 10
792.2451580696311
 20
448.6886556338088
 30
0.0
 10
792.3187066094119
 20
448.5568562268356
 30
0.0
 10
792.4773593365833
 20
448.2701093032853
 30
0.0
 10
792.5613649136888
 20
448.1171190207211
 30
0.0
 10
792.8199879459273
 20
447.6417430647691
 30
0.0
 10
793.0056753079857
 20
447.2945209198583
 30
0.0
 10
793.189520617195
 20
446.9435247366698
 30
0.0
  0
LINE
  5
15B
330
1F
100
AcDbEntity
  8
0
  6
Continuous
 62
     7
370
    15
100
AcDbLine
 10
790.1895206171951
 20
374.005194621428
 30
0.0
 11
781.8217014028179
 21
378.8363572973787
 31
0.0
  0
LINE
  5
15C
330
1F
100
AcDbEntity
  8
0
  6
Continuous
 62
     7
370
    15
100
AcDbLine
 10
781.8217014028179
 20
378.8363572973787
 30
0.0
 11
783.3217014028178
 21
381.4344335087321
 31
0.0
  0
SPLINE
  5
15D
330
1F
100
AcDbEntity
  8
0
  6
Continuous
 62
     7
370
    15
100
AcDbSpline
210
0.0
220
0.0
230
1.0
 70
     8
 71
     3
 72
    20
 73
    16
 74
     0
 42
0.0000000001
 43
0.0000000001
 40
0.0
 40
0.0
 40
0.0
 40
0.0
 40
0.124999999999998
 40
0.124999999999998
 40
0.249999999999996
 40
0.249999999999996
 40
0.374999999999994
 40
0.374999999999994
 40
0.499999999999992
 40
0.499999999999992
 40
0.6249999999999901
 40
0.6249999999999901
 40
0.7499999999999899
 40
0.7499999999999899
 40
1.0
 40
1.0
 40
1.0
 40
1.0
 10
791.7429283040441
 20
376.5724358904023
 30
0.0
 10
791.7429283040441
 20
376.5724358904023
 30
0.0
 10
791.7332186316934
 20
376.5556035641748
 30
0.0
 10
791.6950973799202
 20
376.4896955665645
 30
0.0
 10
791.6662229248686
 20
376.4398222504882
 30
0.0
 10
791.5905826410335
 20
376.3097511125112
 30
0.0
 10
791.5441991213542
 20
376.2302101502943
 30
0.0
 10
791.4341304502382
 20
376.0425724637123
 30
0.0
 10
791.3698462861817
 20
375.9334762859912
 30
0.0
 10
791.2286670332646
 20
375.6956020265705
 30
0.0
 10
791.1512996685123
 20
375.5660074192225
 30
0.0
 10
790.9822959118465
 20
375.2852366653371
 30
0.0
 10
790.8918052291666
 20
375.1359905602221
 30
0.0
 10
790.6094290910831
 20
374.6743284663239
 30
0.0
 10
790.4015695738629
 20
374.3399074211642
 30
0.0
 10
790.1895206171951
 20
374.005194621428
 30
0.0
  0
LINE
  5
15E
330
1F
100
AcDbEntity
  8
0
  6
Continuous
 62
     7
370
    15
100
AcDbLine
 10
663.8566270383649
 20
379.2013470441346
 30
0.0
 11
672.2244462527421
 21
384.0325097200854
 31
0.0
  0
LINE
  5
15F
330
1F
100
AcDbEntity
  8
0
  6
Continuous
 62
     7
370
    15
100
AcDbLine
 10
673.7244462527421
 20
381.4344335087321
 30
0.0
 11
672.2244462527421
 21
384.0325097200854
 31
0.0
  0
SPLINE
  5
160
330
1F
100
AcDbEntity
  8
0
  6
Continuous
 62
     7
370
    15
100
AcDbSpline
210
0.0
220
0.0
230
1.0
 70
     8
 71
     3
 72
    20
 73
    16
 74
     0
 42
0.0000000001
 43
0.0000000001
 40
0.0
 40
0.0
 40
0.0
 40
0.0
 40
0.1249999999999996
 40
0.1249999999999996
 40
0.2499999999999993
 40
0.2499999999999993
 40
0.3749999999999989
 40
0.3749999999999989
 40
0.4999999999999986
 40
0.4999999999999986
 40
0.6249999999999983
 40
0.6249999999999983
 40
0.7499999999999978
 40
0.7499999999999978
 40
1.0
 40
1.0
 40
1.0
 40
1.0
 10
665.303219351516
 20
376.5724358904023
 30
0.0
 10
665.303219351516
 20
376.5724358904023
 30
0.0
 10
665.2934969655737
 20
376.5892608764341
 30
0.0
 10
665.2554795912172
 20
376.6552288476988
 30
0.0
 10
665.2267252600498
 20
376.7051715173321
 30
0.0
 10
665.1519004921802
 20
376.8357134936713
 30
0.0
 10
665.1062077580985
 20
376.9156532811389
 30
0.0
 10
664.9987430903692
 20
377.1047943897772
 30
0.0
 10
664.9364051110352
 20
377.2150141977717
 30
0.0
 10
664.800989585929
 20
377.4562161469956
 30
0.0
 10
664.7274410461482
 20
377.5880155539689
 30
0.0
 10
664.5687883189768
 20
377.8747624775192
 30
0.0
 10
664.4847827418713
 20
378.0277527600834
 30
0.0
 10
664.2261597096328
 20
378.5031287160354
 30
0.0
 10
664.0404723475744
 20
378.8503508609462
 30
0.0
 10
663.8566270383649
 20
379.2013470441346
 30
0.0
  0
LINE
  5
161
330
1F
100
AcDbEntity
  8
0
  6
Continuous
 62
     7
370
    15
100
AcDbLine
 10
731.3809994063974
 20
473.3518067323586
 30
0.0
 11
731.5230738277801
 21
476.3484406537425
 31
0.0
  0
ARC
  5
162
330
1F
100
AcDbEntity
  8
0
  6
Continuous
 62
     7
370
    15
100
AcDbCircle
 10
728.52307382778
 20
413.0724358904022
 30
0.0
 40
63.34708184920809
100
AcDbArc
 50
62.71443687306979
 51
87.2855631269592
  0
LINE
  5
163
330
1F
100
AcDbEntity
  8
0
  6
Continuous
 62
     7
370
    15
100
AcDbLine
 10
756.1877230955502
 20
466.7048651529881
 30
0.0
 11
757.562999998097
 21
469.3710634654401
 31
0.0
  0
LINE
  5
164
330
1F
100
AcDbEntity
  8
0
  6
Continuous
 62
     7
370
    15
100
AcDbLine
 10
695.9083522535937
 20
463.8469395743706
 30
0.0
 11
694.2869952347565
 21
466.3710634654401
 31
0.0
  0
LINE
  5
165
330
1F
100
AcDbEntity
  8
0
  6
Continuous
 62
     7
370
    15
100
AcDbLine
 10
677.7485701438116
 20
445.6871574645885
 30
0.0
 11
675.2244462527421
 21
447.3085144834256
 31
0.0
  0
ARC
  5
166
330
1F
100
AcDbEntity
  8
0
  6
Continuous
 62
     7
370
    15
100
AcDbCircle
 10
728.52307382778
 20
413.0724358904022
 30
0.0
 40
63.3470818492081
100
AcDbArc
 50
122.7144368730486
 51
147.2855631269426
  0
ARC
  5
167
330
1F
100
AcDbEntity
  8
0
  6
Continuous
 62
     7
370
    15
100
AcDbCircle
 10
728.52307382778
 20
413.0724358904022
 30
0.0
 40
63.34708184920808
100
AcDbArc
 50
2.71443687305783
 51
27.28556312694468
  0
LINE
  5
168
330
1F
100
AcDbEntity
  8
0
  6
Continuous
 62
     7
370
    15
100
AcDbLine
 10
791.7990785911204
 20
416.0724358904022
 30
0.0
 11
788.8024446697365
 21
415.9303614690196
 31
0.0
  0
LINE
  5
169
330
1F
100
AcDbEntity
  8
0
  6
Continuous
 62
     7
370
    15
100
AcDbLine
 10
784.8217014028179
 20
442.1123620607191
 30
0.0
 11
782.155503090366
 21
440.7370851581724
 31
0.0
  0
LINE
  5
16A
330
1F
100
AcDbEntity
  8
0
  6
Continuous
 62
     7
370
    15
100
AcDbLine
 10
674.8906445651941
 20
385.4077866226321
 30
0.0
 11
672.2244462527421
 21
384.0325097200854
 31
0.0
  0
ARC
  5
16B
330
1F
100
AcDbEntity
  8
0
  6
Continuous
 62
     7
370
    15
100
AcDbCircle
 10
728.52307382778
 20
413.0724358904022
 30
0.0
 40
63.34708184920809
100
AcDbArc
 50
182.7144368730578
 51
207.2855631269447
  0
LINE
  5
16C
330
1F
100
AcDbEntity
  8
0
  6
Continuous
 62
     7
370
    15
100
AcDbLine
 10
668.2437029858236
 20
410.2145103117847
 30
0.0
 11
665.2470690644397
 21
410.0724358904022
 31
0.0
  0
ARC
  5
16D
330
1F
100
AcDbEntity
  8
0
  6
Continuous
 62
     7
370
    15
100
AcDbCircle
 10
728.52307382778
 20
413.0724358904022
 30
0.0
 40
73.00000000000001
100
AcDbArc
 50
62.35528435577022
 51
87.64471564422752
  0
ARC
  5
16E
330
1F
100
AcDbEntity
  8
0
  6
Continuous
 62
     7
370
    15
100
AcDbCircle
 10
728.52307382778
 20
413.0724358904022
 30
0.0
 40
73.00000000000003
100
AcDbArc
 50
122.3552843557631
 51
147.6447156442231
  0
ARC
  5
16F
330
1F
100
AcDbEntity
  8
0
  6
Continuous
 62
     7
370
    15
100
AcDbCircle
 10
728.52307382778
 20
413.0724358904022
 30
0.0
 40
73.00000000000001
100
AcDbArc
 50
2.355284355773158
 51
27.64471564422978
  0
ARC
  5
170
330
1F
100
AcDbEntity
  8
0
  6
Continuous
 62
     7
370
    15
100
AcDbCircle
 10
728.52307382778
 20
413.0724358904022
 30
0.0
 40
73.00000000000001
100
AcDbArc
 50
182.3552843557731
 51
207.6447156442298
  0
ARC
  5
171
330
1F
100
AcDbEntity
  8
0
  6
Continuous
 62
     7
370
    15
100
AcDbCircle
 10
728.52307382778
 20
413.0724358904022
 30
0.0
 40
73.00000000000001
100
AcDbArc
 50
302.3552843557631
 51
327.6447156442231
  0
ARC
  5
172
330
1F
100
AcDbEntity
  8
0
  6
Continuous
 62
     7
370
    15
100
AcDbCircle
 10
728.52307382778
 20
413.0724358904022
 30
0.0
 40
73.00000000000001
100
AcDbArc
 50
242.3552843557702
 51
267.6447156442275
  0
ENDSEC
  0
SECTION
  2
OBJECTS
  0
DICTIONARY
  5
C
330
0
100
AcDbDictionary
281
     1
  3
ACAD_COLOR
350
19F
  3
ACAD_GROUP
350
D
  3
ACAD_LAYOUT
350
1A
  3
ACAD_MATERIAL
350
175
  3
ACAD_MLEADERSTYLE
350
1B4
  3
ACAD_MLINESTYLE
350
17
  3
ACAD_PLOTSETTINGS
350
19
  3
ACAD_PLOTSTYLENAME
350
E
  3
ACAD_SCALELIST
350
1A2
  3
ACAD_TABLESTYLE
350
1A0
  3
ACAD_VISUALSTYLE
350
18E
  3
ACDB_RECOMPOSE_DATA
350
1DF
  3
AcDbVariableDictionary
350
1D5
  0
DICTIONARY
  5
1D3
330
10
100
AcDbDictionary
280
     1
281
     1
  3
ADSK_XREC_LAYER_RECONCILED
360
1D4
  0
DICTIONARY
  5
19F
102
{ACAD_REACTORS
330
C
102
}
330
C
100
AcDbDictionary
281
     1
  0
DICTIONARY
  5
D
102
{ACAD_REACTORS
330
C
102
}
330
C
100
AcDbDictionary
281
     1
  0
DICTIONARY
  5
1A
102
{ACAD_REACTORS
330
C
102
}
330
C
100
AcDbDictionary
281
     1
  3
Layout1
350
1E
  3
Layout2
350
26
  3
Model
350
22
  0
DICTIONARY
  5
175
102
{ACAD_REACTORS
330
C
102
}
330
C
100
AcDbDictionary
281
     1
  3
ByBlock
350
17E
  3
ByLayer
350
176
  3
Global
350
186
  0
DICTIONARY
  5
1B4
102
{ACAD_REACTORS
330
C
102
}
330
C
100
AcDbDictionary
281
     1
  3
Standard
350
1B5
  0
DICTIONARY
  5
17
102
{ACAD_REACTORS
330
C
102
}
330
C
100
AcDbDictionary
281
     1
  3
Standard
350
18
  0
DICTIONARY
  5
19
102
{ACAD_REACTORS
330
C
102
}
330
C
100
AcDbDictionary
281
     1
  0
ACDBDICTIONARYWDFLT
  5
E
102
{ACAD_REACTORS
330
C
102
}
330
C
100
AcDbDictionary
281
     1
  3
Normal
350
F
100
AcDbDictionaryWithDefault
340
F
  0
DICTIONARY
  5
1A2
102
{ACAD_REACTORS
330
C
102
}
330
C
100
AcDbDictionary
281
     1
  3
A0
350
1A3
  3
A1
350
1A4
  3
A2
350
1A5
  3
A3
350
1A6
  3
A4
350
1A7
  3
A5
350
1A8
  3
A6
350
1A9
  3
A7
350
1AA
  3
A8
350
1AB
  3
A9
350
1AC
  3
B0
350
1AD
  3
B1
350
1AE
  3
B2
350
1AF
  3
B3
350
1B0
  3
B4
350
1B1
  3
B5
350
1B2
  3
B6
350
1B3
  0
DICTIONARY
  5
1A0
102
{ACAD_REACTORS
330
C
102
}
330
C
100
AcDbDictionary
281
     1
  3
Standard
350
1A1
  0
DICTIONARY
  5
18E
102
{ACAD_REACTORS
330
C
102
}
330
C
100
AcDbDictionary
281
     1
  3
2dWireframe
350
194
  3
3D Hidden
350
196
  3
3dWireframe
350
195
  3
Basic
350
193
  3
Brighten
350
19A
  3
ColorChange
350
19E
  3
Conceptual
350
197
  3
Dim
350
199
  3
Facepattern
350
19D
  3
Flat
350
18F
  3
FlatWithEdges
350
190
  3
Gouraud
350
191
  3
GouraudWithEdges
350
192
  3
Linepattern
350
19C
  3
Realistic
350
198
  3
Thicken
350
19B
  0
XRECORD
  5
1DF
102
{ACAD_REACTORS
330
C
102
}
330
C
100
AcDbXrecord
280
     1
 90
        1
330
1A1
  0
DICTIONARY
  5
1D5
102
{ACAD_REACTORS
330
C
102
}
330
C
100
AcDbDictionary
281
     1
  3
CANNOSCALE
350
1D9
  3
CMLEADERSTYLE
350
1D7
  3
CTABLESTYLE
350
1D6
  3
LAYEREVAL
350
1DB
  3
LAYERNOTIFY
350
1DC
  3
LIGHTINGUNITS
350
1DA
  3
MSLTSCALE
350
1D8
  0
XRECORD
  5
1D4
102
{ACAD_REACTORS
330
1D3
102
}
330
1D3
100
AcDbXrecord
280
     1
290
     1
  0
LAYOUT
  5
1E
102
{ACAD_REACTORS
330
1A
102
}
330
1A
100
AcDbPlotSettings
  1

  2
none_device
  4

  6

 40
0.0
 41
0.0
 42
0.0
 43
0.0
 44
0.0
 45
0.0
 46
0.0
 47
0.0
 48
0.0
 49
0.0
140
0.0
141
0.0
142
1.0
143
1.0
 70
   688
 72
     0
 73
     0
 74
     5
  7

 75
    16
147
1.0
 76
     0
 77
     2
 78
   300
148
0.0
149
0.0
100
AcDbLayout
  1
Layout1
 70
     1
 71
     1
 10
0.0
 20
0.0
 11
420.0
 21
297.0
 12
0.0
 22
0.0
 32
0.0
 14
1.000000000000000E+20
 24
1.000000000000000E+20
 34
1.000000000000000E+20
 15
-1.000000000000000E+20
 25
-1.000000000000000E+20
 35
-1.000000000000000E+20
146
0.0
 13
0.0
 23
0.0
 33
0.0
 16
1.0
 26
0.0
 36
0.0
 17
0.0
 27
1.0
 37
0.0
 76
     0
330
1B
  0
LAYOUT
  5
26
102
{ACAD_REACTORS
330
1A
102
}
330
1A
100
AcDbPlotSettings
  1

  2
none_device
  4

  6

 40
0.0
 41
0.0
 42
0.0
 43
0.0
 44
0.0
 45
0.0
 46
0.0
 47
0.0
 48
0.0
 49
0.0
140
0.0
141
0.0
142
1.0
143
1.0
 70
   688
 72
     0
 73
     0
 74
     5
  7

 75
    16
147
1.0
 76
     0
 77
     2
 78
   300
148
0.0
149
0.0
100
AcDbLayout
  1
Layout2
 70
     1
 71
     2
 10
0.0
 20
0.0
 11
0.0
 21
0.0
 12
0.0
 22
0.0
 32
0.0
 14
0.0
 24
0.0
 34
0.0
 15
0.0
 25
0.0
 35
0.0
146
0.0
 13
0.0
 23
0.0
 33
0.0
 16
1.0
 26
0.0
 36
0.0
 17
0.0
 27
1.0
 37
0.0
 76
     0
330
23
  0
LAYOUT
  5
22
102
{ACAD_REACTORS
330
1A
102
}
330
1A
100
AcDbPlotSettings
  1

  2
none_device
  4

  6

 40
0.0
 41
0.0
 42
0.0
 43
0.0
 44
0.0
 45
0.0
 46
0.0
 47
0.0
 48
0.0
 49
0.0
140
0.0
141
0.0
142
1.0
143
1.0
 70
  1712
 72
     0
 73
     0
 74
     0
  7

 75
     0
147
1.0
 76
     0
 77
     2
 78
   300
148
0.0
149
0.0
100
AcDbLayout
  1
Model
 70
     1
 71
     0
 10
0.0
 20
0.0
 11
2794.0
 21
2159.0
 12
0.0
 22
0.0
 32
0.0
 14
0.0
 24
0.0
 34
0.0
 15
2794.0
 25
2159.0
 35
0.0
146
0.0
 13
0.0
 23
0.0
 33
0.0
 16
1.0
 26
0.0
 36
0.0
 17
0.0
 27
1.0
 37
0.0
 76
     0
330
1F
331
29
  0
MATERIAL
  5
17E
102
{ACAD_XDICTIONARY
360
17F
102
}
102
{ACAD_REACTORS
330
175
102
}
330
175
100
AcDbMaterial
  1
ByBlock
 72
     0
 43
0.0008202099737533
 43
0.0
 43
0.0
 43
0.0
 43
0.0
 43
0.0008202099737533
 43
0.0
 43
0.0
 43
0.0
 43
0.0
 43
1.0
 43
0.0
 43
0.0
 43
0.0
 43
0.0
 43
1.0
 77
     0
 47
0.0008202099737533
 47
0.0
 47
0.0
 47
0.0
 47
0.0
 47
0.0008202099737533
 47
0.0
 47
0.0
 47
0.0
 47
0.0
 47
1.0
 47
0.0
 47
0.0
 47
0.0
 47
0.0
 47
1.0
171
     0
 49
0.0008202099737533
 49
0.0
 49
0.0
 49
0.0
 49
0.0
 49
0.0008202099737533
 49
0.0
 49
0.0
 49
0.0
 49
0.0
 49
1.0
 49
0.0
 49
0.0
 49
0.0
 49
0.0
 49
1.0
175
     0
142
0.0008202099737533
142
0.0
142
0.0
142
0.0
142
0.0
142
0.0008202099737533
142
0.0
142
0.0
142
0.0
142
0.0
142
1.0
142
0.0
142
0.0
142
0.0
142
0.0
142
1.0
179
     0
144
0.0008202099737533
144
0.0
144
0.0
144
0.0
144
0.0
144
0.0008202099737533
144
0.0
144
0.0
144
0.0
144
0.0
144
1.0
144
0.0
144
0.0
144
0.0
144
0.0
144
1.0
147
0.0008202099737533
147
0.0
147
0.0
147
0.0
147
0.0
147
0.0008202099737533
147
0.0
147
0.0
147
0.0
147
0.0
147
1.0
147
0.0
147
0.0
147
0.0
147
0.0
147
1.0
  0
MATERIAL
  5
176
102
{ACAD_XDICTIONARY
360
177
102
}
102
{ACAD_REACTORS
330
175
102
}
330
175
100
AcDbMaterial
  1
ByLayer
 72
     0
 43
0.0008202099737533
 43
0.0
 43
0.0
 43
0.0
 43
0.0
 43
0.0008202099737533
 43
0.0
 43
0.0
 43
0.0
 43
0.0
 43
1.0
 43
0.0
 43
0.0
 43
0.0
 43
0.0
 43
1.0
 77
     0
 47
0.0008202099737533
 47
0.0
 47
0.0
 47
0.0
 47
0.0
 47
0.0008202099737533
 47
0.0
 47
0.0
 47
0.0
 47
0.0
 47
1.0
 47
0.0
 47
0.0
 47
0.0
 47
0.0
 47
1.0
171
     0
 49
0.0008202099737533
 49
0.0
 49
0.0
 49
0.0
 49
0.0
 49
0.0008202099737533
 49
0.0
 49
0.0
 49
0.0
 49
0.0
 49
1.0
 49
0.0
 49
0.0
 49
0.0
 49
0.0
 49
1.0
175
     0
142
0.0008202099737533
142
0.0
142
0.0
142
0.0
142
0.0
142
0.0008202099737533
142
0.0
142
0.0
142
0.0
142
0.0
142
1.0
142
0.0
142
0.0
142
0.0
142
0.0
142
1.0
179
     0
144
0.0008202099737533
144
0.0
144
0.0
144
0.0
144
0.0
144
0.0008202099737533
144
0.0
144
0.0
144
0.0
144
0.0
144
1.0
144
0.0
144
0.0
144
0.0
144
0.0
144
1.0
147
0.0008202099737533
147
0.0
147
0.0
147
0.0
147
0.0
147
0.0008202099737533
147
0.0
147
0.0
147
0.0
147
0.0
147
1.0
147
0.0
147
0.0
147
0.0
147
0.0
147
1.0
  0
MATERIAL
  5
186
102
{ACAD_XDICTIONARY
360
187
102
}
102
{ACAD_REACTORS
330
175
102
}
330
175
100
AcDbMaterial
  1
Global
 72
     0
 43
0.0008202099737533
 43
0.0
 43
0.0
 43
0.0
 43
0.0
 43
0.0008202099737533
 43
0.0
 43
0.0
 43
0.0
 43
0.0
 43
1.0
 43
0.0
 43
0.0
 43
0.0
 43
0.0
 43
1.0
 77
     0
 47
0.0008202099737533
 47
0.0
 47
0.0
 47
0.0
 47
0.0
 47
0.0008202099737533
 47
0.0
 47
0.0
 47
0.0
 47
0.0
 47
1.0
 47
0.0
 47
0.0
 47
0.0
 47
0.0
 47
1.0
171
     0
 49
0.0008202099737533
 49
0.0
 49
0.0
 49
0.0
 49
0.0
 49
0.0008202099737533
 49
0.0
 49
0.0
 49
0.0
 49
0.0
 49
1.0
 49
0.0
 49
0.0
 49
0.0
 49
0.0
 49
1.0
175
     0
142
0.0008202099737533
142
0.0
142
0.0
142
0.0
142
0.0
142
0.0008202099737533
142
0.0
142
0.0
142
0.0
142
0.0
142
1.0
142
0.0
142
0.0
142
0.0
142
0.0
142
1.0
179
     0
144
0.0008202099737533
144
0.0
144
0.0
144
0.0
144
0.0
144
0.0008202099737533
144
0.0
144
0.0
144
0.0
144
0.0
144
1.0
144
0.0
144
0.0
144
0.0
144
0.0
144
1.0
147
0.0008202099737533
147
0.0
147
0.0
147
0.0
147
0.0
147
0.0008202099737533
147
0.0
147
0.0
147
0.0
147
0.0
147
1.0
147
0.0
147
0.0
147
0.0
147
0.0
147
1.0
  0
MLEADERSTYLE
  5
1B5
102
{ACAD_REACTORS
330
1B4
102
}
330
1B4
100
AcDbMLeaderStyle
170
     2
171
     1
172
     0
 90
        2
 40
0.0
 41
0.0
173
     1
 91
-1056964608
340
14
 92
       -2
290
     1
 42
2.0
291
     1
 43
0.36
  3
Standard
 44
4.0
300

342
11
174
     1
178
     6
175
     1
176
     0
 93
-1056964608
 45
4.0
292
     0
297
     0
 46
4.0
 94
-1056964608
 47
1.0
 49
1.0
140
1.0
293
     1
141
0.0
294
     1
177
     0
142
1.0
295
     1
296
     0
143
0.125
1001
ACAD_MLEADERVER
1070
     2
  0
MLINESTYLE
  5
18
102
{ACAD_REACTORS
330
17
102
}
330
17
100
AcDbMlineStyle
  2
STANDARD
 70
     0
  3

 62
   256
 51
90.0
 52
90.0
 71
     2
 49
0.5
 62
   256
  6
BYLAYER
 49
-0.5
 62
   256
  6
BYLAYER
  0
ACDBPLACEHOLDER
  5
F
102
{ACAD_REACTORS
330
E
102
}
330
E
  0
SCALE
  5
1A3
102
{ACAD_REACTORS
330
1A2
102
}
330
1A2
100
AcDbScale
 70
     0
300
1:1
140
1.0
141
1.0
290
     1
  0
SCALE
  5
1A4
102
{ACAD_REACTORS
330
1A2
102
}
330
1A2
100
AcDbScale
 70
     0
300
1:2
140
1.0
141
2.0
290
     0
  0
SCALE
  5
1A5
102
{ACAD_REACTORS
330
1A2
102
}
330
1A2
100
AcDbScale
 70
     0
300
1:4
140
1.0
141
4.0
290
     0
  0
SCALE
  5
1A6
102
{ACAD_REACTORS
330
1A2
102
}
330
1A2
100
AcDbScale
 70
     0
300
1:5
140
1.0
141
5.0
290
     0
  0
SCALE
  5
1A7
102
{ACAD_REACTORS
330
1A2
102
}
330
1A2
100
AcDbScale
 70
     0
300
1:8
140
1.0
141
8.0
290
     0
  0
SCALE
  5
1A8
102
{ACAD_REACTORS
330
1A2
102
}
330
1A2
100
AcDbScale
 70
     0
300
1:10
140
1.0
141
10.0
290
     0
  0
SCALE
  5
1A9
102
{ACAD_REACTORS
330
1A2
102
}
330
1A2
100
AcDbScale
 70
     0
300
1:16
140
1.0
141
16.0
290
     0
  0
SCALE
  5
1AA
102
{ACAD_REACTORS
330
1A2
102
}
330
1A2
100
AcDbScale
 70
     0
300
1:20
140
1.0
141
20.0
290
     0
  0
SCALE
  5
1AB
102
{ACAD_REACTORS
330
1A2
102
}
330
1A2
100
AcDbScale
 70
     0
300
1:30
140
1.0
141
30.0
290
     0
  0
SCALE
  5
1AC
102
{ACAD_REACTORS
330
1A2
102
}
330
1A2
100
AcDbScale
 70
     0
300
1:40
140
1.0
141
40.0
290
     0
  0
SCALE
  5
1AD
102
{ACAD_REACTORS
330
1A2
102
}
330
1A2
100
AcDbScale
 70
     0
300
1:50
140
1.0
141
50.0
290
     0
  0
SCALE
  5
1AE
102
{ACAD_REACTORS
330
1A2
102
}
330
1A2
100
AcDbScale
 70
     0
300
1:100
140
1.0
141
100.0
290
     0
  0
SCALE
  5
1AF
102
{ACAD_REACTORS
330
1A2
102
}
330
1A2
100
AcDbScale
 70
     0
300
2:1
140
2.0
141
1.0
290
     0
  0
SCALE
  5
1B0
102
{ACAD_REACTORS
330
1A2
102
}
330
1A2
100
AcDbScale
 70
     0
300
4:1
140
4.0
141
1.0
290
     0
  0
SCALE
  5
1B1
102
{ACAD_REACTORS
330
1A2
102
}
330
1A2
100
AcDbScale
 70
     0
300
8:1
140
8.0
141
1.0
290
     0
  0
SCALE
  5
1B2
102
{ACAD_REACTORS
330
1A2
102
}
330
1A2
100
AcDbScale
 70
     0
300
10:1
140
10.0
141
1.0
290
     0
  0
SCALE
  5
1B3
102
{ACAD_REACTORS
330
1A2
102
}
330
1A2
100
AcDbScale
 70
     0
300
100:1
140
100.0
141
1.0
290
     0
  0
TABLESTYLE
  5
1A1
102
{ACAD_XDICTIONARY
360
1DD
102
}
102
{ACAD_REACTORS
330
1A0
102
}
330
1A0
100
AcDbTableStyle
  3
Standard
 70
     0
 71
     0
 40
1.5
 41
1.5
280
     0
281
     0
  7
Standard
140
4.5
170
     2
 62
     0
 63
     7
283
     0
 90
      512
 91
        0
  1

274
    -2
284
     1
 64
     0
275
    -2
285
     1
 65
     0
276
    -2
286
     1
 66
     0
277
    -2
287
     1
 67
     0
278
    -2
288
     1
 68
     0
279
    -2
289
     1
 69
     0
  7
Standard
140
6.0
170
     5
 62
     0
 63
     7
283
     0
 90
      512
 91
        0
  1

274
    -2
284
     1
 64
     0
275
    -2
285
     1
 65
     0
276
    -2
286
     1
 66
     0
277
    -2
287
     1
 67
     0
278
    -2
288
     1
 68
     0
279
    -2
289
     1
 69
     0
  7
Standard
140
4.5
170
     5
 62
     0
 63
     7
283
     0
 90
      512
 91
        0
  1

274
    -2
284
     1
 64
     0
275
    -2
285
     1
 65
     0
276
    -2
286
     1
 66
     0
277
    -2
287
     1
 67
     0
278
    -2
288
     1
 68
     0
279
    -2
289
     1
 69
     0
  0
VISUALSTYLE
  5
194
102
{ACAD_REACTORS
330
18E
102
}
330
18E
100
AcDbVisualStyle
  2
2dWireframe
 70
     4
 71
     0
 72
     2
 73
     0
 90
        0
 40
-0.6
 41
-30.0
 62
     5
 63
     7
421
 16777215
 74
     1
 91
        4
 64
     7
 65
   257
 75
     1
175
     1
 42
1.0
 92
        0
 66
   257
 43
1.0
 76
     1
 77
     6
 78
     2
 67
     7
 79
     5
170
     0
171
     0
290
     0
174
     0
 93
        1
 44
0.0
173
     0
291
     0
 45
0.0
  0
VISUALSTYLE
  5
196
102
{ACAD_REACTORS
330
18E
102
}
330
18E
100
AcDbVisualStyle
  2
3D Hidden
 70
     6
 71
     1
 72
     2
 73
     2
 90
        0
 40
-0.6
 41
-30.0
 62
     5
 63
     7
421
 16777215
 74
     2
 91
        2
 64
     7
 65
   257
 75
     2
175
     1
 42
40.0
 92
        0
 66
   257
 43
1.0
 76
     1
 77
     6
 78
     2
 67
     7
 79
     3
170
     0
171
     0
290
     0
174
     0
 93
        1
 44
0.0
173
     0
291
     0
 45
0.0
  0
VISUALSTYLE
  5
195
102
{ACAD_REACTORS
330
18E
102
}
330
18E
100
AcDbVisualStyle
  2
3dWireframe
 70
     5
 71
     0
 72
     2
 73
     0
 90
        0
 40
-0.6
 41
-30.0
 62
     5
 63
     7
421
 16777215
 74
     1
 91
        4
 64
     7
 65
   257
 75
     1
175
     1
 42
1.0
 92
        0
 66
   257
 43
1.0
 76
     1
 77
     6
 78
     2
 67
     7
 79
     5
170
     0
171
     0
290
     0
174
     0
 93
        1
 44
0.0
173
     0
291
     0
 45
0.0
  0
VISUALSTYLE
  5
193
102
{ACAD_REACTORS
330
18E
102
}
330
18E
100
AcDbVisualStyle
  2
Basic
 70
     7
 71
     1
 72
     0
 73
     1
 90
        0
 40
-0.6
 41
-30.0
 62
     5
 63
     7
421
 16777215
 74
     0
 91
        4
 64
     7
 65
   257
 75
     1
175
     1
 42
1.0
 92
        8
 66
     7
 43
1.0
 76
     1
 77
     6
 78
     2
 67
     7
 79
     5
170
     0
171
     0
290
     0
174
     0
 93
        1
 44
0.0
173
     0
291
     1
 45
0.0
  0
VISUALSTYLE
  5
19A
102
{ACAD_REACTORS
330
18E
102
}
330
18E
100
AcDbVisualStyle
  2
Brighten
 70
    12
 71
     2
 72
     2
 73
     0
 90
        0
 40
-0.6
 41
-30.0
 62
     5
 63
     7
421
 16777215
 74
     1
 91
        4
 64
     7
 65
   257
 75
     1
175
     1
 42
1.0
 92
        8
 66
     7
 43
1.0
 76
     1
 77
     6
 78
     2
 67
     7
 79
     5
170
     0
171
     0
290
     0
174
     0
 93
        1
 44
50.0
173
     0
291
     1
 45
0.0
  0
VISUALSTYLE
  5
19E
102
{ACAD_REACTORS
330
18E
102
}
330
18E
100
AcDbVisualStyle
  2
ColorChange
 70
    16
 71
     2
 72
     2
 73
     3
 90
        0
 40
-0.6
 41
-30.0
 62
     5
 63
     8
421
  8421504
 74
     1
 91
        4
 64
     7
 65
   257
 75
     1
175
     1
 42
1.0
 92
        8
 66
     8
424
  8421504
 43
1.0
 76
     1
 77
     6
 78
     2
 67
     7
 79
     5
170
     0
171
     0
290
     0
174
     0
 93
        1
 44
0.0
173
     0
291
     1
 45
0.0
  0
VISUALSTYLE
  5
197
102
{ACAD_REACTORS
330
18E
102
}
330
18E
100
AcDbVisualStyle
  2
Conceptual
 70
     9
 71
     3
 72
     2
 73
     0
 90
        0
 40
-0.6
 41
-30.0
 62
     5
 63
     7
421
 16777215
 74
     2
 91
        2
 64
     7
 65
   257
 75
     1
175
     1
 42
40.0
 92
        8
 66
     7
 43
1.0
 76
     1
 77
     6
 78
     2
 67
     7
 79
     3
170
     0
171
     0
290
     0
174
     0
 93
        1
 44
0.0
173
     0
291
     0
 45
0.0
  0
VISUALSTYLE
  5
199
102
{ACAD_REACTORS
330
18E
102
}
330
18E
100
AcDbVisualStyle
  2
Dim
 70
    11
 71
     2
 72
     2
 73
     0
 90
        0
 40
-0.6
 41
-30.0
 62
     5
 63
     7
421
 16777215
 74
     1
 91
        4
 64
     7
 65
   257
 75
     1
175
     1
 42
1.0
 92
        8
 66
     7
 43
1.0
 76
     1
 77
     6
 78
     2
 67
     7
 79
     5
170
     0
171
     0
290
     0
174
     0
 93
        1
 44
-50.0
173
     0
291
     1
 45
0.0
  0
VISUALSTYLE
  5
19D
102
{ACAD_REACTORS
330
18E
102
}
330
18E
100
AcDbVisualStyle
  2
Facepattern
 70
    15
 71
     2
 72
     2
 73
     0
 90
        0
 40
-0.6
 41
-30.0
 62
     5
 63
     7
421
 16777215
 74
     1
 91
        4
 64
     7
 65
   257
 75
     1
175
     1
 42
1.0
 92
        8
 66
     7
 43
1.0
 76
     1
 77
     6
 78
     2
 67
     7
 79
     5
170
     0
171
     0
290
     0
174
     0
 93
        1
 44
0.0
173
     0
291
     1
 45
0.0
  0
VISUALSTYLE
  5
18F
102
{ACAD_REACTORS
330
18E
102
}
330
18E
100
AcDbVisualStyle
  2
Flat
 70
     0
 71
     2
 72
     1
 73
     1
 90
        2
 40
-0.6
 41
30.0
 62
     5
 63
     7
421
 16777215
 74
     0
 91
        4
 64
     7
 65
   257
 75
     1
175
     1
 42
1.0
 92
        8
 66
     7
 43
1.0
 76
     1
 77
     6
 78
     2
 67
     7
 79
     5
170
     0
171
     0
290
     0
174
     0
 93
       13
 44
0.0
173
     0
291
     1
 45
0.0
  0
VISUALSTYLE
  5
190
102
{ACAD_REACTORS
330
18E
102
}
330
18E
100
AcDbVisualStyle
  2
FlatWithEdges
 70
     1
 71
     2
 72
     1
 73
     1
 90
        2
 40
-0.6
 41
30.0
 62
     5
 63
     7
421
 16777215
 74
     1
 91
        4
 64
     7
 65
   257
 75
     1
175
     1
 42
1.0
 92
        0
 66
   257
 43
1.0
 76
     1
 77
     6
 78
     2
 67
     7
 79
     5
170
     0
171
     0
290
     0
174
     0
 93
       13
 44
0.0
173
     0
291
     1
 45
0.0
  0
VISUALSTYLE
  5
191
102
{ACAD_REACTORS
330
18E
102
}
330
18E
100
AcDbVisualStyle
  2
Gouraud
 70
     2
 71
     2
 72
     2
 73
     1
 90
        2
 40
-0.6
 41
30.0
 62
     5
 63
     7
421
 16777215
 74
     0
 91
        4
 64
     7
 65
   257
 75
     1
175
     1
 42
1.0
 92
        0
 66
     7
 43
1.0
 76
     1
 77
     6
 78
     2
 67
     7
 79
     5
170
     0
171
     0
290
     0
174
     0
 93
       13
 44
0.0
173
     0
291
     1
 45
0.0
  0
VISUALSTYLE
  5
192
102
{ACAD_REACTORS
330
18E
102
}
330
18E
100
AcDbVisualStyle
  2
GouraudWithEdges
 70
     3
 71
     2
 72
     2
 73
     1
 90
        2
 40
-0.6
 41
30.0
 62
     5
 63
     7
421
 16777215
 74
     1
 91
        4
 64
     7
 65
   257
 75
     1
175
     1
 42
1.0
 92
        0
 66
   257
 43
1.0
 76
     1
 77
     6
 78
     2
 67
     7
 79
     5
170
     0
171
     0
290
     0
174
     0
 93
       13
 44
0.0
173
     0
291
     1
 45
0.0
  0
VISUALSTYLE
  5
19C
102
{ACAD_REACTORS
330
18E
102
}
330
18E
100
AcDbVisualStyle
  2
Linepattern
 70
    14
 71
     2
 72
     2
 73
     0
 90
        0
 40
-0.6
 41
-30.0
 62
     5
 63
     7
421
 16777215
 74
     1
 91
        4
 64
     7
 65
   257
 75
     7
175
     7
 42
1.0
 92
        8
 66
     7
 43
1.0
 76
     1
 77
     6
 78
     2
 67
     7
 79
     5
170
     0
171
     0
290
     0
174
     0
 93
        1
 44
0.0
173
     0
291
     1
 45
0.0
  0
VISUALSTYLE
  5
198
102
{ACAD_REACTORS
330
18E
102
}
330
18E
100
AcDbVisualStyle
  2
Realistic
 70
     8
 71
     2
 72
     2
 73
     0
 90
        0
 40
-0.6
 41
-30.0
 62
     5
 63
     7
421
 16777215
 74
     1
 91
        0
 64
     7
 65
   257
 75
     1
175
     1
 42
1.0
 92
        8
 66
     8
424
  7895160
 43
1.0
 76
     1
 77
     6
 78
     2
 67
     7
 79
     5
170
     0
171
     0
290
     0
174
     0
 93
       13
 44
0.0
173
     0
291
     0
 45
0.0
  0
VISUALSTYLE
  5
19B
102
{ACAD_REACTORS
330
18E
102
}
330
18E
100
AcDbVisualStyle
  2
Thicken
 70
    13
 71
     2
 72
     2
 73
     0
 90
        0
 40
-0.6
 41
-30.0
 62
     5
 63
     7
421
 16777215
 74
     1
 91
        4
 64
     7
 65
   257
 75
     1
175
     1
 42
1.0
 92
       12
 66
     7
 43
1.0
 76
     1
 77
     6
 78
     2
 67
     7
 79
     5
170
     0
171
     0
290
     0
174
     0
 93
        1
 44
0.0
173
     0
291
     1
 45
0.0
  0
DICTIONARYVAR
  5
1D9
102
{ACAD_REACTORS
330
1D5
102
}
330
1D5
100
DictionaryVariables
280
     0
  1
1:1
  0
DICTIONARYVAR
  5
1D7
102
{ACAD_REACTORS
330
1D5
102
}
330
1D5
100
DictionaryVariables
280
     0
  1
STANDARD
  0
DICTIONARYVAR
  5
1D6
102
{ACAD_REACTORS
330
1D5
102
}
330
1D5
100
DictionaryVariables
280
     0
  1
STANDARD
  0
DICTIONARYVAR
  5
1DB
102
{ACAD_REACTORS
330
1D5
102
}
330
1D5
100
DictionaryVariables
280
     0
  1
1
  0
DICTIONARYVAR
  5
1DC
102
{ACAD_REACTORS
330
1D5
102
}
330
1D5
100
DictionaryVariables
280
     0
  1
15
  0
DICTIONARYVAR
  5
1DA
102
{ACAD_REACTORS
330
1D5
102
}
330
1D5
100
DictionaryVariables
280
     0
  1
0
  0
DICTIONARYVAR
  5
1D8
102
{ACAD_REACTORS
330
1D5
102
}
330
1D5
100
DictionaryVariables
280
     0
  1
0
  0
DICTIONARY
  5
17F
330
17E
100
AcDbDictionary
280
     1
281
     1
  3
BUMPTILE
360
181
  3
DIFFUSETILE
360
180
  3
OPACITYTILE
360
184
  3
REFLECTIONTILE
360
183
  3
REFRACTIONTILE
360
185
  3
SPECULARTILE
360
182
  0
DICTIONARY
  5
177
330
176
100
AcDbDictionary
280
     1
281
     1
  3
BUMPTILE
360
179
  3
DIFFUSETILE
360
178
  3
OPACITYTILE
360
17C
  3
REFLECTIONTILE
360
17B
  3
REFRACTIONTILE
360
17D
  3
SPECULARTILE
360
17A
  0
DICTIONARY
  5
187
330
186
100
AcDbDictionary
280
     1
281
     1
  3
BUMPTILE
360
189
  3
DIFFUSETILE
360
188
  3
OPACITYTILE
360
18C
  3
REFLECTIONTILE
360
18B
  3
REFRACTIONTILE
360
18D
  3
SPECULARTILE
360
18A
  0
DICTIONARY
  5
1DD
330
1A1
100
AcDbDictionary
280
     1
281
     1
  3
ACAD_ROUNDTRIP_2008_TABLESTYLE_CELLSTYLEMAP
360
1DE
  0
XRECORD
  5
181
102
{ACAD_REACTORS
330
17F
102
}
330
17F
100
AcDbXrecord
280
     1
270
     1
271
     1
  0
XRECORD
  5
180
102
{ACAD_REACTORS
330
17F
102
}
330
17F
100
AcDbXrecord
280
     1
270
     1
271
     1
  0
XRECORD
  5
184
102
{ACAD_REACTORS
330
17F
102
}
330
17F
100
AcDbXrecord
280
     1
270
     1
271
     1
  0
XRECORD
  5
183
102
{ACAD_REACTORS
330
17F
102
}
330
17F
100
AcDbXrecord
280
     1
270
     1
271
     1
  0
XRECORD
  5
185
102
{ACAD_REACTORS
330
17F
102
}
330
17F
100
AcDbXrecord
280
     1
270
     1
271
     1
  0
XRECORD
  5
182
102
{ACAD_REACTORS
330
17F
102
}
330
17F
100
AcDbXrecord
280
     1
270
     1
271
     1
  0
XRECORD
  5
179
102
{ACAD_REACTORS
330
177
102
}
330
177
100
AcDbXrecord
280
     1
270
     1
271
     1
  0
XRECORD
  5
178
102
{ACAD_REACTORS
330
177
102
}
330
177
100
AcDbXrecord
280
     1
270
     1
271
     1
  0
XRECORD
  5
17C
102
{ACAD_REACTORS
330
177
102
}
330
177
100
AcDbXrecord
280
     1
270
     1
271
     1
  0
XRECORD
  5
17B
102
{ACAD_REACTORS
330
177
102
}
330
177
100
AcDbXrecord
280
     1
270
     1
271
     1
  0
XRECORD
  5
17D
102
{ACAD_REACTORS
330
177
102
}
330
177
100
AcDbXrecord
280
     1
270
     1
271
     1
  0
XRECORD
  5
17A
102
{ACAD_REACTORS
330
177
102
}
330
177
100
AcDbXrecord
280
     1
270
     1
271
     1
  0
XRECORD
  5
189
102
{ACAD_REACTORS
330
187
102
}
330
187
100
AcDbXrecord
280
     1
270
     1
271
     1
  0
XRECORD
  5
188
102
{ACAD_REACTORS
330
187
102
}
330
187
100
AcDbXrecord
280
     1
270
     1
271
     1
  0
XRECORD
  5
18C
102
{ACAD_REACTORS
330
187
102
}
330
187
100
AcDbXrecord
280
     1
270
     1
271
     1
  0
XRECORD
  5
18B
102
{ACAD_REACTORS
330
187
102
}
330
187
100
AcDbXrecord
280
     1
270
     1
271
     1
  0
XRECORD
  5
18D
102
{ACAD_REACTORS
330
187
102
}
330
187
100
AcDbXrecord
280
     1
270
     1
271
     1
  0
XRECORD
  5
18A
102
{ACAD_REACTORS
330
187
102
}
330
187
100
AcDbXrecord
280
     1
270
     1
271
     1
  0
CELLSTYLEMAP
  5
1DE
102
{ACAD_REACTORS
330
1DD
102
}
330
1DD
100
AcDbCellStyleMap
 90
        3
300
CELLSTYLE
  1
TABLEFORMAT_BEGIN
 90
        5
170
     1
 91
        0
 92
    32768
 62
   257
 93
        1
300
CONTENTFORMAT
  1
CONTENTFORMAT_BEGIN
 90
        0
 91
        0
 92
      512
 93
        0
300

 40
0.0
140
1.0
 94
        5
 62
     0
340
11
144
6.0
309
CONTENTFORMAT_END
171
     1
301
MARGIN
  1
CELLMARGIN_BEGIN
 40
1.5
 40
1.5
 40
1.5
 40
1.5
 40
4.5
 40
4.5
309
CELLMARGIN_END
 94
        6
 95
        1
302
GRIDFORMAT
  1
GRIDFORMAT_BEGIN
 90
        0
 91
        1
 62
     0
 92
       -2
340
0
 93
        0
 40
1.125
309
GRIDFORMAT_END
 95
        2
302
GRIDFORMAT
  1
GRIDFORMAT_BEGIN
 90
        0
 91
        1
 62
     0
 92
       -2
340
0
 93
        0
 40
1.125
309
GRIDFORMAT_END
 95
        4
302
GRIDFORMAT
  1
GRIDFORMAT_BEGIN
 90
        0
 91
        1
 62
     0
 92
       -2
340
0
 93
        0
 40
1.125
309
GRIDFORMAT_END
 95
        8
302
GRIDFORMAT
  1
GRIDFORMAT_BEGIN
 90
        0
 91
        1
 62
     0
 92
       -2
340
0
 93
        0
 40
1.125
309
GRIDFORMAT_END
 95
       16
302
GRIDFORMAT
  1
GRIDFORMAT_BEGIN
 90
        0
 91
        1
 62
     0
 92
       -2
340
0
 93
        0
 40
1.125
309
GRIDFORMAT_END
 95
       32
302
GRIDFORMAT
  1
GRIDFORMAT_BEGIN
 90
        0
 91
        1
 62
     0
 92
       -2
340
0
 93
        0
 40
1.125
309
GRIDFORMAT_END
309
TABLEFORMAT_END
  1
CELLSTYLE_BEGIN
 90
        1
 91
        1
300
_TITLE
309
CELLSTYLE_END
300
CELLSTYLE
  1
TABLEFORMAT_BEGIN
 90
        5
170
     1
 91
        0
 92
        0
 62
   257
 93
        1
300
CONTENTFORMAT
  1
CONTENTFORMAT_BEGIN
 90
        0
 91
        0
 92
      512
 93
        0
300

 40
0.0
140
1.0
 94
        5
 62
     0
340
11
144
4.5
309
CONTENTFORMAT_END
171
     1
301
MARGIN
  1
CELLMARGIN_BEGIN
 40
1.5
 40
1.5
 40
1.5
 40
1.5
 40
4.5
 40
4.5
309
CELLMARGIN_END
 94
        6
 95
        1
302
GRIDFORMAT
  1
GRIDFORMAT_BEGIN
 90
        0
 91
        1
 62
     0
 92
       -2
340
0
 93
        0
 40
1.125
309
GRIDFORMAT_END
 95
        2
302
GRIDFORMAT
  1
GRIDFORMAT_BEGIN
 90
        0
 91
        1
 62
     0
 92
       -2
340
0
 93
        0
 40
1.125
309
GRIDFORMAT_END
 95
        4
302
GRIDFORMAT
  1
GRIDFORMAT_BEGIN
 90
        0
 91
        1
 62
     0
 92
       -2
340
0
 93
        0
 40
1.125
309
GRIDFORMAT_END
 95
        8
302
GRIDFORMAT
  1
GRIDFORMAT_BEGIN
 90
        0
 91
        1
 62
     0
 92
       -2
340
0
 93
        0
 40
1.125
309
GRIDFORMAT_END
 95
       16
302
GRIDFORMAT
  1
GRIDFORMAT_BEGIN
 90
        0
 91
        1
 62
     0
 92
       -2
340
0
 93
        0
 40
1.125
309
GRIDFORMAT_END
 95
       32
302
GRIDFORMAT
  1
GRIDFORMAT_BEGIN
 90
        0
 91
        1
 62
     0
 92
       -2
340
0
 93
        0
 40
1.125
309
GRIDFORMAT_END
309
TABLEFORMAT_END
  1
CELLSTYLE_BEGIN
 90
        2
 91
        1
300
_HEADER
309
CELLSTYLE_END
300
CELLSTYLE
  1
TABLEFORMAT_BEGIN
 90
        5
170
     1
 91
        0
 92
        0
 62
   257
 93
        1
300
CONTENTFORMAT
  1
CONTENTFORMAT_BEGIN
 90
        0
 91
        0
 92
      512
 93
        0
300

 40
0.0
140
1.0
 94
        2
 62
     0
340
11
144
4.5
309
CONTENTFORMAT_END
171
     1
301
MARGIN
  1
CELLMARGIN_BEGIN
 40
1.5
 40
1.5
 40
1.5
 40
1.5
 40
4.5
 40
4.5
309
CELLMARGIN_END
 94
        6
 95
        1
302
GRIDFORMAT
  1
GRIDFORMAT_BEGIN
 90
        0
 91
        1
 62
     0
 92
       -2
340
0
 93
        0
 40
1.125
309
GRIDFORMAT_END
 95
        2
302
GRIDFORMAT
  1
GRIDFORMAT_BEGIN
 90
        0
 91
        1
 62
     0
 92
       -2
340
0
 93
        0
 40
1.125
309
GRIDFORMAT_END
 95
        4
302
GRIDFORMAT
  1
GRIDFORMAT_BEGIN
 90
        0
 91
        1
 62
     0
 92
       -2
340
0
 93
        0
 40
1.125
309
GRIDFORMAT_END
 95
        8
302
GRIDFORMAT
  1
GRIDFORMAT_BEGIN
 90
        0
 91
        1
 62
     0
 92
       -2
340
0
 93
        0
 40
1.125
309
GRIDFORMAT_END
 95
       16
302
GRIDFORMAT
  1
GRIDFORMAT_BEGIN
 90
        0
 91
        1
 62
     0
 92
       -2
340
0
 93
        0
 40
1.125
309
GRIDFORMAT_END
 95
       32
302
GRIDFORMAT
  1
GRIDFORMAT_BEGIN
 90
        0
 91
        1
 62
     0
 92
       -2
340
0
 93
        0
 40
1.125
309
GRIDFORMAT_END
309
TABLEFORMAT_END
  1
CELLSTYLE_BEGIN
 90
        3
 91
        2
300
_DATA
309
CELLSTYLE_END
  0
ENDSEC
  0
EOF
