ISO-10303-21;
HEADER;
FILE_DESCRIPTION (( 'STEP AP214' ),
    '1' );
FILE_NAME ('OKKO P 38 BL 3000K.STEP',
    '2018-07-24T07:35:20',
    ( '' ),
    ( '' ),
    'SwSTEP 2.0',
    'SolidWorks 2013',
    '' );
FILE_SCHEMA (( 'AUTOMOTIVE_DESIGN' ));
ENDSEC;

DATA;
#1 = FILL_AREA_STYLE ('',( #322 ) ) ;
#2 = PLANE ( 'NONE',  #22 ) ;
#3 = DIRECTION ( 'NONE',  ( 0.0000000000000000000, 1.000000000000000000, 0.0000000000000000000 ) ) ;
#4 = CARTESIAN_POINT ( 'NONE',  ( 0.0000000000000000000, 381.0000000000000600, 0.0000000000000000000 ) ) ;
#5 = VECTOR ( 'NONE', #283, 1000.000000000000000 ) ;
#6 = AXIS2_PLACEMENT_3D ( 'NONE', #175, #3, #206 ) ;
#7 = ORIENTED_EDGE ( 'NONE', *, *, #212, .T. ) ;
#8 =( GEOMETRIC_REPRESENTATION_CONTEXT ( 3 ) GLOBAL_UNCERTAINTY_ASSIGNED_CONTEXT ( ( #36 ) ) GLOBAL_UNIT_ASSIGNED_CONTEXT ( ( #236, #58, #265 ) ) REPRESENTATION_CONTEXT ( 'NONE', 'WORKASPACE' ) );
#9 = EDGE_CURVE ( 'NONE', #243, #94, #275, .T. ) ;
#10 = CIRCLE ( 'NONE', #242, 25.00000000000000000 ) ;
#11 = ORIENTED_EDGE ( 'NONE', *, *, #313, .F. ) ;
#12 = VERTEX_POINT ( 'NONE', #26 ) ;
#13 = CARTESIAN_POINT ( 'NONE',  ( 0.0000000000000000000, 356.0000000000000600, -3.000000000000000400 ) ) ;
#14 = AXIS2_PLACEMENT_3D ( 'NONE', #193, #252, #159 ) ;
#15 = CARTESIAN_POINT ( 'NONE',  ( 0.0000000000000000000, 381.0000000000000600, 0.0000000000000000000 ) ) ;
#16 = CARTESIAN_POINT ( 'NONE',  ( 0.0000000000000000000, 281.0000000000000000, 0.0000000000000000000 ) ) ;
#17 = ADVANCED_FACE ( 'NONE', ( #117 ), #233, .T. ) ;
#18 = CARTESIAN_POINT ( 'NONE',  ( 0.0000000000000000000, 281.0000000000000000, 0.0000000000000000000 ) ) ;
#19 = DIRECTION ( 'NONE',  ( -0.0000000000000000000, -1.000000000000000000, -0.0000000000000000000 ) ) ;
#20 = ORIENTED_EDGE ( 'NONE', *, *, #374, .F. ) ;
#21 = CARTESIAN_POINT ( 'NONE',  ( 0.0000000000000000000, 0.0000000000000000000, -91.63118399308425000 ) ) ;
#22 = AXIS2_PLACEMENT_3D ( 'NONE', #59, #266, #86 ) ;
#23 = CARTESIAN_POINT ( 'NONE',  ( 0.0000000000000000000, 356.0000000000000600, 0.0000000000000000000 ) ) ;
#24 = VERTEX_POINT ( 'NONE', #203 ) ;
#25 = CARTESIAN_POINT ( 'NONE',  ( 0.0000000000000000000, 281.0000000000000000, 0.0000000000000000000 ) ) ;
#26 = CARTESIAN_POINT ( 'NONE',  ( 3.673940397442060400E-016, 356.0000000000000600, 3.000000000000000400 ) ) ;
#27 = SURFACE_STYLE_USAGE ( .BOTH. , #204 ) ;
#28 = DIRECTION ( 'NONE',  ( 0.0000000000000000000, -1.000000000000000000, 0.0000000000000000000 ) ) ;
#29 = FILL_AREA_STYLE_COLOUR ( '', #31 ) ;
#30 = SURFACE_SIDE_STYLE ('',( #246 ) ) ;
#31 = COLOUR_RGB ( '',0.7921568627450980000, 0.8196078431372548800, 0.9333333333333333500 ) ;
#32 = EDGE_LOOP ( 'NONE', ( #92, #146 ) ) ;
#33 = EDGE_CURVE ( 'NONE', #329, #170, #38, .T. ) ;
#34 = VERTEX_POINT ( 'NONE', #114 ) ;
#35 = AXIS2_PLACEMENT_3D ( 'NONE', #339, #162, #373 ) ;
#36 = UNCERTAINTY_MEASURE_WITH_UNIT (LENGTH_MEASURE( 1.000000000000000100E-005 ), #236, 'distance_accuracy_value', 'NONE');
#37 = PRODUCT_DEFINITION_SHAPE ( 'NONE', 'NONE',  #87 ) ;
#38 = CIRCLE ( 'NONE', #328, 31.54512209032801800 ) ;
#39 = EDGE_LOOP ( 'NONE', ( #235, #151 ) ) ;
#40 = ORIENTED_EDGE ( 'NONE', *, *, #128, .T. ) ;
#41 = CIRCLE ( 'NONE', #95, 25.00000000000000000 ) ;
#42 = CARTESIAN_POINT ( 'NONE',  ( 0.0000000000000000000, 356.0000000000000600, 0.0000000000000000000 ) ) ;
#43 = CARTESIAN_POINT ( 'NONE',  ( 7.542373448792273400E-015, 100.0000000000000000, 31.54512209032801800 ) ) ;
#44 = DIRECTION ( 'NONE',  ( 0.0000000000000000000, 0.0000000000000000000, 1.000000000000000000 ) ) ;
#45 = ADVANCED_FACE ( 'NONE', ( #354, #268 ), #2, .F. ) ;
#46 = DIRECTION ( 'NONE',  ( 0.0000000000000000000, 0.0000000000000000000, 1.000000000000000000 ) ) ;
#47 = ORIENTED_EDGE ( 'NONE', *, *, #9, .F. ) ;
#48 = ORIENTED_EDGE ( 'NONE', *, *, #108, .T. ) ;
#49 = CYLINDRICAL_SURFACE ( 'NONE', #172, 115.0000000000000000 ) ;
#50 = EDGE_CURVE ( 'NONE', #307, #94, #184, .T. ) ;
#51 = CARTESIAN_POINT ( 'NONE',  ( 0.0000000000000000000, 0.0000000000000000000, 0.0000000000000000000 ) ) ;
#52 = EDGE_LOOP ( 'NONE', ( #370, #118 ) ) ;
#53 = CARTESIAN_POINT ( 'NONE',  ( 0.0000000000000000000, 281.0000000000000000, -115.0000000000000000 ) ) ;
#54 = CARTESIAN_POINT ( 'NONE',  ( 0.0000000000000000000, 281.0000000000000000, 0.0000000000000000000 ) ) ;
#55 = DIRECTION ( 'NONE',  ( 0.0000000000000000000, 0.0000000000000000000, 1.000000000000000000 ) ) ;
#56 = AXIS2_PLACEMENT_3D ( 'NONE', #343, #163, #375 ) ;
#57 = DIRECTION ( 'NONE',  ( 0.0000000000000000000, -1.000000000000000000, 0.0000000000000000000 ) ) ;
#58 =( NAMED_UNIT ( * ) PLANE_ANGLE_UNIT ( ) SI_UNIT ( $, .RADIAN. ) );
#59 = CARTESIAN_POINT ( 'NONE',  ( 0.0000000000000000000, 0.0000000000000000000, 0.0000000000000000000 ) ) ;
#60 = ORIENTED_EDGE ( 'NONE', *, *, #238, .T. ) ;
#61 = ORIENTED_EDGE ( 'NONE', *, *, #277, .F. ) ;
#62 = LINE ( 'NONE', #53, #365 ) ;
#63 = ADVANCED_FACE ( 'NONE', ( #340 ), #178, .T. ) ;
#64 =( LENGTH_UNIT ( ) NAMED_UNIT ( * ) SI_UNIT ( .MILLI., .METRE. ) );
#65 = ORIENTED_EDGE ( 'NONE', *, *, #33, .T. ) ;
#66 = CYLINDRICAL_SURFACE ( 'NONE', #14, 25.00000000000000000 ) ;
#67 = AXIS2_PLACEMENT_3D ( 'NONE', #116, #325, #148 ) ;
#68 = ORIENTED_EDGE ( 'NONE', *, *, #226, .T. ) ;
#69 = AXIS2_PLACEMENT_3D ( 'NONE', #143, #297, #115 ) ;
#70 = CYLINDRICAL_SURFACE ( 'NONE', #152, 3.000000000000000400 ) ;
#71 = EDGE_CURVE ( 'NONE', #157, #12, #332, .T. ) ;
#72 = CONICAL_SURFACE ( 'NONE', #304, 91.63118399308425000, 0.5410520681182435800 ) ;
#73 = DIRECTION ( 'NONE',  ( 0.0000000000000000000, 0.0000000000000000000, 1.000000000000000000 ) ) ;
#74 = AXIS2_PLACEMENT_3D ( 'NONE', #51, #258, #77 ) ;
#75 = ADVANCED_FACE ( 'NONE', ( #106, #256 ), #267, .T. ) ;
#76 = DIRECTION ( 'NONE',  ( 6.307397298776140700E-017, -0.8571673007021115600, 0.5150380749100553800 ) ) ;
#77 = DIRECTION ( 'NONE',  ( 0.0000000000000000000, 0.0000000000000000000, -1.000000000000000000 ) ) ;
#78 = FACE_OUTER_BOUND ( 'NONE', #364, .T. ) ;
#79 = DIRECTION ( 'NONE',  ( 0.0000000000000000000, 0.0000000000000000000, -1.000000000000000000 ) ) ;
#80 = AXIS2_PLACEMENT_3D ( 'NONE', #323, #353, #298 ) ;
#81 = MANIFOLD_SOLID_BREP ( 'Áîáûøêà-Âûòÿíóòü3', #129 ) ;
#82 = DIRECTION ( 'NONE',  ( 0.0000000000000000000, 0.0000000000000000000, 1.000000000000000000 ) ) ;
#83 = EDGE_LOOP ( 'NONE', ( #327, #200, #363, #333 ) ) ;
#84 =( LENGTH_UNIT ( ) NAMED_UNIT ( * ) SI_UNIT ( .MILLI., .METRE. ) );
#85 = DIRECTION ( 'NONE',  ( 0.0000000000000000000, -1.000000000000000000, 0.0000000000000000000 ) ) ;
#86 = DIRECTION ( 'NONE',  ( 0.0000000000000000000, -0.0000000000000000000, 1.000000000000000000 ) ) ;
#87 = PRODUCT_DEFINITION ( 'UNKNOWN', '', #104, #137 ) ;
#88 = CARTESIAN_POINT ( 'NONE',  ( 0.0000000000000000000, 281.0000000000000000, 0.0000000000000000000 ) ) ;
#89 =( NAMED_UNIT ( * ) SI_UNIT ( $, .STERADIAN. ) SOLID_ANGLE_UNIT ( ) );
#90 = EDGE_CURVE ( 'NONE', #231, #243, #96, .T. ) ;
#91 = LINE ( 'NONE', #183, #315 ) ;
#92 = ORIENTED_EDGE ( 'NONE', *, *, #128, .F. ) ;
#93 = PRESENTATION_STYLE_ASSIGNMENT (( #27 ) ) ;
#94 = VERTEX_POINT ( 'NONE', #120 ) ;
#95 = AXIS2_PLACEMENT_3D ( 'NONE', #140, #344, #169 ) ;
#96 = CIRCLE ( 'NONE', #202, 25.00000000000000000 ) ;
#97 = ORIENTED_EDGE ( 'NONE', *, *, #248, .F. ) ;
#98 = STYLED_ITEM ( 'NONE', ( #165 ), #81 ) ;
#99 = VERTEX_POINT ( 'NONE', #180 ) ;
#100 = DIRECTION ( 'NONE',  ( -0.0000000000000000000, -1.000000000000000000, -0.0000000000000000000 ) ) ;
#101 = ADVANCED_FACE ( 'NONE', ( #164 ), #359, .T. ) ;
#102 = ADVANCED_BREP_SHAPE_REPRESENTATION ( 'OKKO P 38 BL 3000K', ( #81, #69 ), #296 ) ;
#103 = CARTESIAN_POINT ( 'NONE',  ( 0.0000000000000000000, 356.0000000000000600, -3.000000000000000400 ) ) ;
#104 = PRODUCT_DEFINITION_FORMATION_WITH_SPECIFIED_SOURCE ( 'ANY', '', #190, .NOT_KNOWN. ) ;
#105 = CARTESIAN_POINT ( 'NONE',  ( 1.122158361792128100E-014, 0.0000000000000000000, 91.63118399308425000 ) ) ;
#106 = FACE_OUTER_BOUND ( 'NONE', #52, .T. ) ;
#107 = ORIENTED_EDGE ( 'NONE', *, *, #254, .T. ) ;
#108 = EDGE_CURVE ( 'NONE', #231, #307, #91, .T. ) ;
#109 = DIRECTION ( 'NONE',  ( -0.0000000000000000000, -1.000000000000000000, -0.0000000000000000000 ) ) ;
#110 = VERTEX_POINT ( 'NONE', #311 ) ;
#111 = DIRECTION ( 'NONE',  ( 0.0000000000000000000, -0.0000000000000000000, 1.000000000000000000 ) ) ;
#112 = AXIS2_PLACEMENT_3D ( 'NONE', #54, #260, #82 ) ;
#113 =( NAMED_UNIT ( * ) SI_UNIT ( $, .STERADIAN. ) SOLID_ANGLE_UNIT ( ) );
#114 = CARTESIAN_POINT ( 'NONE',  ( 1.122158361792128100E-014, 0.0000000000000000000, 91.63118399308425000 ) ) ;
#115 = DIRECTION ( 'NONE',  ( 1.000000000000000000, 0.0000000000000000000, 0.0000000000000000000 ) ) ;
#116 = CARTESIAN_POINT ( 'NONE',  ( 0.0000000000000000000, 356.0000000000000600, 0.0000000000000000000 ) ) ;
#117 = FACE_OUTER_BOUND ( 'NONE', #224, .T. ) ;
#118 = ORIENTED_EDGE ( 'NONE', *, *, #217, .T. ) ;
#119 = CIRCLE ( 'NONE', #251, 115.0000000000000000 ) ;
#120 = CARTESIAN_POINT ( 'NONE',  ( 0.0000000000000000000, 356.0000000000000600, -25.00000000000000000 ) ) ;
#121 = EDGE_LOOP ( 'NONE', ( #320, #61, #166, #40 ) ) ;
#122 = AXIS2_PLACEMENT_3D ( 'NONE', #88, #356, #176 ) ;
#123 = VECTOR ( 'NONE', #76, 1000.000000000000000 ) ;
#124 = PRODUCT_RELATED_PRODUCT_CATEGORY ( 'part', '', ( #190 ) ) ;
#125 = ORIENTED_EDGE ( 'NONE', *, *, #357, .T. ) ;
#126 = CIRCLE ( 'NONE', #112, 115.0000000000000000 ) ;
#127 = CARTESIAN_POINT ( 'NONE',  ( 0.0000000000000000000, 381.0000000000000600, 0.0000000000000000000 ) ) ;
#128 = EDGE_CURVE ( 'NONE', #94, #307, #10, .T. ) ;
#129 = CLOSED_SHELL ( 'NONE', ( #177, #284, #161, #310, #75, #63, #45, #222, #17, #338, #326, #194, #101 ) ) ;
#130 = LINE ( 'NONE', #136, #367 ) ;
#131 = DIRECTION ( 'NONE',  ( 0.0000000000000000000, 1.000000000000000000, 0.0000000000000000000 ) ) ;
#132 = CARTESIAN_POINT ( 'NONE',  ( 1.408343819019456100E-014, 281.0000000000000000, 115.0000000000000000 ) ) ;
#133 = DIRECTION ( 'NONE',  ( -0.0000000000000000000, -1.000000000000000000, -0.0000000000000000000 ) ) ;
#134 = ORIENTED_EDGE ( 'NONE', *, *, #290, .T. ) ;
#135 = CIRCLE ( 'NONE', #192, 3.000000000000000400 ) ;
#136 = CARTESIAN_POINT ( 'NONE',  ( 1.408343819019456100E-014, 281.0000000000000000, 115.0000000000000000 ) ) ;
#137 = PRODUCT_DEFINITION_CONTEXT ( 'detailed design', #147, 'design' ) ;
#138 = CARTESIAN_POINT ( 'NONE',  ( 0.0000000000000000000, 0.0000000000000000000, -115.0000000000000000 ) ) ;
#139 = EDGE_LOOP ( 'NONE', ( #346, #207 ) ) ;
#140 = CARTESIAN_POINT ( 'NONE',  ( 0.0000000000000000000, 381.0000000000000600, 0.0000000000000000000 ) ) ;
#141 = FACE_OUTER_BOUND ( 'NONE', #269, .T. ) ;
#142 = PRESENTATION_LAYER_ASSIGNMENT (  '', '', ( #98 ) ) ;
#143 = CARTESIAN_POINT ( 'NONE',  ( 0.0000000000000000000, 0.0000000000000000000, 0.0000000000000000000 ) ) ;
#144 = DIRECTION ( 'NONE',  ( -0.0000000000000000000, -1.000000000000000000, -0.0000000000000000000 ) ) ;
#145 = APPLICATION_PROTOCOL_DEFINITION ( 'draft international standard', 'automotive_design', 1998, #174 ) ;
#146 = ORIENTED_EDGE ( 'NONE', *, *, #50, .F. ) ;
#147 = APPLICATION_CONTEXT ( 'automotive_design' ) ;
#148 = DIRECTION ( 'NONE',  ( 0.0000000000000000000, 0.0000000000000000000, 1.000000000000000000 ) ) ;
#149 = EDGE_CURVE ( 'NONE', #12, #157, #240, .T. ) ;
#150 = LINE ( 'NONE', #368, #306 ) ;
#151 = ORIENTED_EDGE ( 'NONE', *, *, #186, .F. ) ;
#152 = AXIS2_PLACEMENT_3D ( 'NONE', #314, #255, #317 ) ;
#153 = FACE_OUTER_BOUND ( 'NONE', #213, .T. ) ;
#154 = ORIENTED_EDGE ( 'NONE', *, *, #149, .T. ) ;
#155 = MECHANICAL_DESIGN_GEOMETRIC_PRESENTATION_REPRESENTATION (  '', ( #98 ), #182 ) ;
#156 = DIRECTION ( 'NONE',  ( 0.0000000000000000000, -0.0000000000000000000, 1.000000000000000000 ) ) ;
#157 = VERTEX_POINT ( 'NONE', #13 ) ;
#158 = CARTESIAN_POINT ( 'NONE',  ( 0.0000000000000000000, 0.0000000000000000000, 0.0000000000000000000 ) ) ;
#159 = DIRECTION ( 'NONE',  ( 0.0000000000000000000, 0.0000000000000000000, -1.000000000000000000 ) ) ;
#160 = ORIENTED_EDGE ( 'NONE', *, *, #290, .F. ) ;
#161 = ADVANCED_FACE ( 'NONE', ( #78 ), #72, .F. ) ;
#162 = DIRECTION ( 'NONE',  ( 0.0000000000000000000, -1.000000000000000000, 0.0000000000000000000 ) ) ;
#163 = DIRECTION ( 'NONE',  ( 0.0000000000000000000, 1.000000000000000000, 0.0000000000000000000 ) ) ;
#164 = FACE_OUTER_BOUND ( 'NONE', #219, .T. ) ;
#165 = PRESENTATION_STYLE_ASSIGNMENT (( #239 ) ) ;
#166 = ORIENTED_EDGE ( 'NONE', *, *, #9, .T. ) ;
#167 = EDGE_CURVE ( 'NONE', #12, #24, #150, .T. ) ;
#168 = COLOUR_RGB ( '',0.7921568627450980000, 0.8196078431372548800, 0.9333333333333333500 ) ;
#169 = DIRECTION ( 'NONE',  ( 0.0000000000000000000, 0.0000000000000000000, 1.000000000000000000 ) ) ;
#170 = VERTEX_POINT ( 'NONE', #43 ) ;
#171 = DIRECTION ( 'NONE',  ( 0.0000000000000000000, 1.000000000000000000, 0.0000000000000000000 ) ) ;
#172 = AXIS2_PLACEMENT_3D ( 'NONE', #291, #109, #79 ) ;
#173 = UNCERTAINTY_MEASURE_WITH_UNIT (LENGTH_MEASURE( 1.000000000000000100E-005 ), #84, 'distance_accuracy_value', 'NONE');
#174 = APPLICATION_CONTEXT ( 'automotive_design' ) ;
#175 = CARTESIAN_POINT ( 'NONE',  ( 0.0000000000000000000, 356.0000000000000600, 0.0000000000000000000 ) ) ;
#176 = DIRECTION ( 'NONE',  ( 0.0000000000000000000, -0.0000000000000000000, 1.000000000000000000 ) ) ;
#177 = ADVANCED_FACE ( 'NONE', ( #153 ), #303, .T. ) ;
#178 = CYLINDRICAL_SURFACE ( 'NONE', #80, 115.0000000000000000 ) ;
#179 = ORIENTED_EDGE ( 'NONE', *, *, #90, .T. ) ;
#180 = CARTESIAN_POINT ( 'NONE',  ( 0.0000000000000000000, 281.0000000000000000, -3.000000000000000400 ) ) ;
#181 = VERTEX_POINT ( 'NONE', #132 ) ;
#182 =( GEOMETRIC_REPRESENTATION_CONTEXT ( 3 ) GLOBAL_UNCERTAINTY_ASSIGNED_CONTEXT ( ( #244 ) ) GLOBAL_UNIT_ASSIGNED_CONTEXT ( ( #64, #270, #89 ) ) REPRESENTATION_CONTEXT ( 'NONE', 'WORKASPACE' ) );
#183 = CARTESIAN_POINT ( 'NONE',  ( 3.061616997868383000E-015, 381.0000000000000600, 25.00000000000000000 ) ) ;
#184 = CIRCLE ( 'NONE', #6, 25.00000000000000000 ) ;
#185 = ORIENTED_EDGE ( 'NONE', *, *, #374, .T. ) ;
#186 = EDGE_CURVE ( 'NONE', #24, #99, #376, .T. ) ;
#187 = SHAPE_DEFINITION_REPRESENTATION ( #37, #102 ) ;
#188 = VERTEX_POINT ( 'NONE', #309 ) ;
#189 = DIRECTION ( 'NONE',  ( 0.0000000000000000000, 0.0000000000000000000, 1.000000000000000000 ) ) ;
#190 = PRODUCT ( 'OKKO P 38 BL 3000K', 'OKKO P 38 BL 3000K', '', ( #324 ) ) ;
#191 = DIRECTION ( 'NONE',  ( 0.0000000000000000000, 0.0000000000000000000, -1.000000000000000000 ) ) ;
#192 = AXIS2_PLACEMENT_3D ( 'NONE', #25, #230, #55 ) ;
#193 = CARTESIAN_POINT ( 'NONE',  ( 0.0000000000000000000, 381.0000000000000600, 0.0000000000000000000 ) ) ;
#194 = ADVANCED_FACE ( 'NONE', ( #220 ), #66, .T. ) ;
#195 = DIRECTION ( 'NONE',  ( 0.0000000000000000000, 0.0000000000000000000, -1.000000000000000000 ) ) ;
#196 = VECTOR ( 'NONE', #144, 1000.000000000000000 ) ;
#197 = ORIENTED_EDGE ( 'NONE', *, *, #167, .F. ) ;
#198 = FACE_OUTER_BOUND ( 'NONE', #216, .T. ) ;
#199 = DIRECTION ( 'NONE',  ( 0.0000000000000000000, -0.8571673007021115600, -0.5150380749100553800 ) ) ;
#200 = ORIENTED_EDGE ( 'NONE', *, *, #167, .T. ) ;
#201 = CIRCLE ( 'NONE', #56, 115.0000000000000000 ) ;
#202 = AXIS2_PLACEMENT_3D ( 'NONE', #4, #211, #189 ) ;
#203 = CARTESIAN_POINT ( 'NONE',  ( 3.673940397442060400E-016, 281.0000000000000000, 3.000000000000000400 ) ) ;
#204 = SURFACE_SIDE_STYLE ('',( #271 ) ) ;
#205 = CARTESIAN_POINT ( 'NONE',  ( 0.0000000000000000000, 100.0000000000000000, 0.0000000000000000000 ) ) ;
#206 = DIRECTION ( 'NONE',  ( 0.0000000000000000000, 0.0000000000000000000, 1.000000000000000000 ) ) ;
#207 = ORIENTED_EDGE ( 'NONE', *, *, #254, .F. ) ;
#208 = DIRECTION ( 'NONE',  ( 0.0000000000000000000, 1.000000000000000000, 0.0000000000000000000 ) ) ;
#209 = FACE_BOUND ( 'NONE', #247, .T. ) ;
#210 = FILL_AREA_STYLE ('',( #29 ) ) ;
#211 = DIRECTION ( 'NONE',  ( 0.0000000000000000000, 1.000000000000000000, 0.0000000000000000000 ) ) ;
#212 = EDGE_CURVE ( 'NONE', #157, #99, #227, .T. ) ;
#213 = EDGE_LOOP ( 'NONE', ( #316, #48, #249, #47 ) ) ;
#214 = LINE ( 'NONE', #105, #123 ) ;
#215 = AXIS2_PLACEMENT_3D ( 'NONE', #23, #293, #111 ) ;
#216 = EDGE_LOOP ( 'NONE', ( #197, #262, #7, #286 ) ) ;
#217 = EDGE_CURVE ( 'NONE', #181, #259, #245, .T. ) ;
#218 = FACE_OUTER_BOUND ( 'NONE', #32, .T. ) ;
#219 = EDGE_LOOP ( 'NONE', ( #285, #179 ) ) ;
#220 = FACE_OUTER_BOUND ( 'NONE', #121, .T. ) ;
#221 = DIRECTION ( 'NONE',  ( 0.0000000000000000000, 0.0000000000000000000, -1.000000000000000000 ) ) ;
#222 = ADVANCED_FACE ( 'NONE', ( #141 ), #279, .F. ) ;
#223 = DIRECTION ( 'NONE',  ( 0.0000000000000000000, 1.000000000000000000, 0.0000000000000000000 ) ) ;
#224 = EDGE_LOOP ( 'NONE', ( #65, #68 ) ) ;
#225 = DIRECTION ( 'NONE',  ( 0.0000000000000000000, 1.000000000000000000, 0.0000000000000000000 ) ) ;
#226 = EDGE_CURVE ( 'NONE', #170, #329, #361, .T. ) ;
#227 = LINE ( 'NONE', #103, #5 ) ;
#228 = DIRECTION ( 'NONE',  ( -0.0000000000000000000, -1.000000000000000000, -0.0000000000000000000 ) ) ;
#229 = PLANE ( 'NONE',  #215 ) ;
#230 = DIRECTION ( 'NONE',  ( 0.0000000000000000000, 1.000000000000000000, 0.0000000000000000000 ) ) ;
#231 = VERTEX_POINT ( 'NONE', #312 ) ;
#232 = CARTESIAN_POINT ( 'NONE',  ( 0.0000000000000000000, 0.0000000000000000000, 0.0000000000000000000 ) ) ;
#233 = PLANE ( 'NONE',  #345 ) ;
#234 = AXIS2_PLACEMENT_3D ( 'NONE', #232, #57, #263 ) ;
#235 = ORIENTED_EDGE ( 'NONE', *, *, #331, .F. ) ;
#236 =( LENGTH_UNIT ( ) NAMED_UNIT ( * ) SI_UNIT ( .MILLI., .METRE. ) );
#237 = DIRECTION ( 'NONE',  ( 0.0000000000000000000, 0.0000000000000000000, -1.000000000000000000 ) ) ;
#238 = EDGE_CURVE ( 'NONE', #181, #188, #130, .T. ) ;
#239 = SURFACE_STYLE_USAGE ( .BOTH. , #30 ) ;
#240 = CIRCLE ( 'NONE', #280, 3.000000000000000400 ) ;
#241 = EDGE_LOOP ( 'NONE', ( #355, #11, #334, #125 ) ) ;
#242 = AXIS2_PLACEMENT_3D ( 'NONE', #42, #250, #73 ) ;
#243 = VERTEX_POINT ( 'NONE', #253 ) ;
#244 = UNCERTAINTY_MEASURE_WITH_UNIT (LENGTH_MEASURE( 1.000000000000000100E-005 ), #64, 'distance_accuracy_value', 'NONE');
#245 = CIRCLE ( 'NONE', #378, 115.0000000000000000 ) ;
#246 = SURFACE_STYLE_FILL_AREA ( #210 ) ;
#247 = EDGE_LOOP ( 'NONE', ( #276, #154 ) ) ;
#248 = EDGE_CURVE ( 'NONE', #170, #34, #214, .T. ) ;
#249 = ORIENTED_EDGE ( 'NONE', *, *, #50, .T. ) ;
#250 = DIRECTION ( 'NONE',  ( 0.0000000000000000000, 1.000000000000000000, 0.0000000000000000000 ) ) ;
#251 = AXIS2_PLACEMENT_3D ( 'NONE', #350, #171, #379 ) ;
#252 = DIRECTION ( 'NONE',  ( -0.0000000000000000000, -1.000000000000000000, -0.0000000000000000000 ) ) ;
#253 = CARTESIAN_POINT ( 'NONE',  ( 0.0000000000000000000, 381.0000000000000600, -25.00000000000000000 ) ) ;
#254 = EDGE_CURVE ( 'NONE', #188, #273, #201, .T. ) ;
#255 = DIRECTION ( 'NONE',  ( -0.0000000000000000000, -1.000000000000000000, -0.0000000000000000000 ) ) ;
#256 = FACE_BOUND ( 'NONE', #39, .T. ) ;
#257 = EDGE_LOOP ( 'NONE', ( #20, #278 ) ) ;
#258 = DIRECTION ( 'NONE',  ( 0.0000000000000000000, -1.000000000000000000, 0.0000000000000000000 ) ) ;
#259 = VERTEX_POINT ( 'NONE', #288 ) ;
#260 = DIRECTION ( 'NONE',  ( 0.0000000000000000000, 1.000000000000000000, 0.0000000000000000000 ) ) ;
#261 = AXIS2_PLACEMENT_3D ( 'NONE', #127, #208, #156 ) ;
#262 = ORIENTED_EDGE ( 'NONE', *, *, #71, .F. ) ;
#263 = DIRECTION ( 'NONE',  ( 0.0000000000000000000, 0.0000000000000000000, -1.000000000000000000 ) ) ;
#264 = CARTESIAN_POINT ( 'NONE',  ( 0.0000000000000000000, 100.0000000000000000, 0.0000000000000000000 ) ) ;
#265 =( NAMED_UNIT ( * ) SI_UNIT ( $, .STERADIAN. ) SOLID_ANGLE_UNIT ( ) );
#266 = DIRECTION ( 'NONE',  ( 0.0000000000000000000, 1.000000000000000000, 0.0000000000000000000 ) ) ;
#267 = PLANE ( 'NONE',  #122 ) ;
#268 = FACE_OUTER_BOUND ( 'NONE', #139, .T. ) ;
#269 = EDGE_LOOP ( 'NONE', ( #97, #360, #134, #185 ) ) ;
#270 =( NAMED_UNIT ( * ) PLANE_ANGLE_UNIT ( ) SI_UNIT ( $, .RADIAN. ) );
#271 = SURFACE_STYLE_FILL_AREA ( #1 ) ;
#272 = EDGE_CURVE ( 'NONE', #34, #110, #292, .T. ) ;
#273 = VERTEX_POINT ( 'NONE', #138 ) ;
#274 = AXIS2_PLACEMENT_3D ( 'NONE', #319, #349, #377 ) ;
#275 = LINE ( 'NONE', #380, #196 ) ;
#276 = ORIENTED_EDGE ( 'NONE', *, *, #71, .T. ) ;
#277 = EDGE_CURVE ( 'NONE', #243, #231, #41, .T. ) ;
#278 = ORIENTED_EDGE ( 'NONE', *, *, #272, .F. ) ;
#279 = CONICAL_SURFACE ( 'NONE', #321, 91.63118399308425000, 0.5410520681182435800 ) ;
#280 = AXIS2_PLACEMENT_3D ( 'NONE', #308, #131, #337 ) ;
#281 = DIRECTION ( 'NONE',  ( -0.0000000000000000000, -1.000000000000000000, -0.0000000000000000000 ) ) ;
#282 = DIRECTION ( 'NONE',  ( -0.0000000000000000000, -1.000000000000000000, -0.0000000000000000000 ) ) ;
#283 = DIRECTION ( 'NONE',  ( -0.0000000000000000000, -1.000000000000000000, -0.0000000000000000000 ) ) ;
#284 = ADVANCED_FACE ( 'NONE', ( #348 ), #70, .T. ) ;
#285 = ORIENTED_EDGE ( 'NONE', *, *, #277, .T. ) ;
#286 = ORIENTED_EDGE ( 'NONE', *, *, #331, .T. ) ;
#287 = FACE_OUTER_BOUND ( 'NONE', #300, .T. ) ;
#288 = CARTESIAN_POINT ( 'NONE',  ( 0.0000000000000000000, 281.0000000000000000, -115.0000000000000000 ) ) ;
#289 = ORIENTED_EDGE ( 'NONE', *, *, #226, .F. ) ;
#290 = EDGE_CURVE ( 'NONE', #329, #110, #372, .T. ) ;
#291 = CARTESIAN_POINT ( 'NONE',  ( 0.0000000000000000000, 281.0000000000000000, 0.0000000000000000000 ) ) ;
#292 = CIRCLE ( 'NONE', #74, 91.63118399308425000 ) ;
#293 = DIRECTION ( 'NONE',  ( 0.0000000000000000000, 1.000000000000000000, 0.0000000000000000000 ) ) ;
#294 =( NAMED_UNIT ( * ) PLANE_ANGLE_UNIT ( ) SI_UNIT ( $, .RADIAN. ) );
#295 = DIRECTION ( 'NONE',  ( 0.0000000000000000000, -0.0000000000000000000, -1.000000000000000000 ) ) ;
#296 =( GEOMETRIC_REPRESENTATION_CONTEXT ( 3 ) GLOBAL_UNCERTAINTY_ASSIGNED_CONTEXT ( ( #173 ) ) GLOBAL_UNIT_ASSIGNED_CONTEXT ( ( #84, #294, #113 ) ) REPRESENTATION_CONTEXT ( 'NONE', 'WORKASPACE' ) );
#297 = DIRECTION ( 'NONE',  ( 0.0000000000000000000, 0.0000000000000000000, 1.000000000000000000 ) ) ;
#298 = DIRECTION ( 'NONE',  ( 0.0000000000000000000, 0.0000000000000000000, -1.000000000000000000 ) ) ;
#299 = ORIENTED_EDGE ( 'NONE', *, *, #248, .T. ) ;
#300 = EDGE_LOOP ( 'NONE', ( #305, #60, #107, #366 ) ) ;
#301 = VECTOR ( 'NONE', #199, 1000.000000000000000 ) ;
#302 = EDGE_CURVE ( 'NONE', #259, #273, #62, .T. ) ;
#303 = CYLINDRICAL_SURFACE ( 'NONE', #362, 25.00000000000000000 ) ;
#304 = AXIS2_PLACEMENT_3D ( 'NONE', #158, #100, #221 ) ;
#305 = ORIENTED_EDGE ( 'NONE', *, *, #217, .F. ) ;
#306 = VECTOR ( 'NONE', #281, 1000.000000000000000 ) ;
#307 = VERTEX_POINT ( 'NONE', #318 ) ;
#308 = CARTESIAN_POINT ( 'NONE',  ( 0.0000000000000000000, 356.0000000000000600, 0.0000000000000000000 ) ) ;
#309 = CARTESIAN_POINT ( 'NONE',  ( 1.408343819019456100E-014, 0.0000000000000000000, 115.0000000000000000 ) ) ;
#310 = ADVANCED_FACE ( 'NONE', ( #287 ), #49, .T. ) ;
#311 = CARTESIAN_POINT ( 'NONE',  ( 0.0000000000000000000, 0.0000000000000000000, -91.63118399308425000 ) ) ;
#312 = CARTESIAN_POINT ( 'NONE',  ( 3.061616997868383000E-015, 381.0000000000000600, 25.00000000000000000 ) ) ;
#313 = EDGE_CURVE ( 'NONE', #259, #181, #126, .T. ) ;
#314 = CARTESIAN_POINT ( 'NONE',  ( 0.0000000000000000000, 356.0000000000000600, 0.0000000000000000000 ) ) ;
#315 = VECTOR ( 'NONE', #335, 1000.000000000000000 ) ;
#316 = ORIENTED_EDGE ( 'NONE', *, *, #90, .F. ) ;
#317 = DIRECTION ( 'NONE',  ( 0.0000000000000000000, 0.0000000000000000000, -1.000000000000000000 ) ) ;
#318 = CARTESIAN_POINT ( 'NONE',  ( 3.061616997868383000E-015, 356.0000000000000600, 25.00000000000000000 ) ) ;
#319 = CARTESIAN_POINT ( 'NONE',  ( 0.0000000000000000000, 356.0000000000000600, 0.0000000000000000000 ) ) ;
#320 = ORIENTED_EDGE ( 'NONE', *, *, #108, .F. ) ;
#321 = AXIS2_PLACEMENT_3D ( 'NONE', #371, #133, #195 ) ;
#322 = FILL_AREA_STYLE_COLOUR ( '', #168 ) ;
#323 = CARTESIAN_POINT ( 'NONE',  ( 0.0000000000000000000, 281.0000000000000000, 0.0000000000000000000 ) ) ;
#324 = PRODUCT_CONTEXT ( 'NONE', #174, 'mechanical' ) ;
#325 = DIRECTION ( 'NONE',  ( 0.0000000000000000000, 1.000000000000000000, 0.0000000000000000000 ) ) ;
#326 = ADVANCED_FACE ( 'NONE', ( #218, #209 ), #229, .F. ) ;
#327 = ORIENTED_EDGE ( 'NONE', *, *, #149, .F. ) ;
#328 = AXIS2_PLACEMENT_3D ( 'NONE', #205, #28, #237 ) ;
#329 = VERTEX_POINT ( 'NONE', #347 ) ;
#330 = STYLED_ITEM ( 'NONE', ( #93 ), #102 ) ;
#331 = EDGE_CURVE ( 'NONE', #99, #24, #135, .T. ) ;
#332 = CIRCLE ( 'NONE', #67, 3.000000000000000400 ) ;
#333 = ORIENTED_EDGE ( 'NONE', *, *, #212, .F. ) ;
#334 = ORIENTED_EDGE ( 'NONE', *, *, #302, .T. ) ;
#335 = DIRECTION ( 'NONE',  ( -0.0000000000000000000, -1.000000000000000000, -0.0000000000000000000 ) ) ;
#336 = AXIS2_PLACEMENT_3D ( 'NONE', #16, #223, #44 ) ;
#337 = DIRECTION ( 'NONE',  ( 0.0000000000000000000, 0.0000000000000000000, 1.000000000000000000 ) ) ;
#338 = ADVANCED_FACE ( 'NONE', ( #198 ), #342, .T. ) ;
#339 = CARTESIAN_POINT ( 'NONE',  ( 0.0000000000000000000, 100.0000000000000000, 0.0000000000000000000 ) ) ;
#340 = FACE_OUTER_BOUND ( 'NONE', #241, .T. ) ;
#341 = ORIENTED_EDGE ( 'NONE', *, *, #272, .T. ) ;
#342 = CYLINDRICAL_SURFACE ( 'NONE', #274, 3.000000000000000400 ) ;
#343 = CARTESIAN_POINT ( 'NONE',  ( 0.0000000000000000000, 0.0000000000000000000, 0.0000000000000000000 ) ) ;
#344 = DIRECTION ( 'NONE',  ( 0.0000000000000000000, 1.000000000000000000, 0.0000000000000000000 ) ) ;
#345 = AXIS2_PLACEMENT_3D ( 'NONE', #264, #85, #295 ) ;
#346 = ORIENTED_EDGE ( 'NONE', *, *, #357, .F. ) ;
#347 = CARTESIAN_POINT ( 'NONE',  ( 0.0000000000000000000, 100.0000000000000000, -31.54512209032801800 ) ) ;
#348 = FACE_OUTER_BOUND ( 'NONE', #83, .T. ) ;
#349 = DIRECTION ( 'NONE',  ( -0.0000000000000000000, -1.000000000000000000, -0.0000000000000000000 ) ) ;
#350 = CARTESIAN_POINT ( 'NONE',  ( 0.0000000000000000000, 0.0000000000000000000, 0.0000000000000000000 ) ) ;
#351 = PRESENTATION_LAYER_ASSIGNMENT (  '', '', ( #330 ) ) ;
#352 = APPLICATION_PROTOCOL_DEFINITION ( 'draft international standard', 'automotive_design', 1998, #147 ) ;
#353 = DIRECTION ( 'NONE',  ( -0.0000000000000000000, -1.000000000000000000, -0.0000000000000000000 ) ) ;
#354 = FACE_BOUND ( 'NONE', #257, .T. ) ;
#355 = ORIENTED_EDGE ( 'NONE', *, *, #238, .F. ) ;
#356 = DIRECTION ( 'NONE',  ( 0.0000000000000000000, 1.000000000000000000, 0.0000000000000000000 ) ) ;
#357 = EDGE_CURVE ( 'NONE', #273, #188, #119, .T. ) ;
#358 = CIRCLE ( 'NONE', #234, 91.63118399308425000 ) ;
#359 = PLANE ( 'NONE',  #261 ) ;
#360 = ORIENTED_EDGE ( 'NONE', *, *, #33, .F. ) ;
#361 = CIRCLE ( 'NONE', #35, 31.54512209032801800 ) ;
#362 = AXIS2_PLACEMENT_3D ( 'NONE', #15, #282, #191 ) ;
#363 = ORIENTED_EDGE ( 'NONE', *, *, #186, .T. ) ;
#364 = EDGE_LOOP ( 'NONE', ( #289, #299, #341, #160 ) ) ;
#365 = VECTOR ( 'NONE', #228, 1000.000000000000000 ) ;
#366 = ORIENTED_EDGE ( 'NONE', *, *, #302, .F. ) ;
#367 = VECTOR ( 'NONE', #19, 1000.000000000000000 ) ;
#368 = CARTESIAN_POINT ( 'NONE',  ( 3.673940397442060400E-016, 356.0000000000000600, 3.000000000000000400 ) ) ;
#369 = MECHANICAL_DESIGN_GEOMETRIC_PRESENTATION_REPRESENTATION (  '', ( #330 ), #8 ) ;
#370 = ORIENTED_EDGE ( 'NONE', *, *, #313, .T. ) ;
#371 = CARTESIAN_POINT ( 'NONE',  ( 0.0000000000000000000, 0.0000000000000000000, 0.0000000000000000000 ) ) ;
#372 = LINE ( 'NONE', #21, #301 ) ;
#373 = DIRECTION ( 'NONE',  ( 0.0000000000000000000, 0.0000000000000000000, -1.000000000000000000 ) ) ;
#374 = EDGE_CURVE ( 'NONE', #110, #34, #358, .T. ) ;
#375 = DIRECTION ( 'NONE',  ( 0.0000000000000000000, 0.0000000000000000000, 1.000000000000000000 ) ) ;
#376 = CIRCLE ( 'NONE', #336, 3.000000000000000400 ) ;
#377 = DIRECTION ( 'NONE',  ( 0.0000000000000000000, 0.0000000000000000000, -1.000000000000000000 ) ) ;
#378 = AXIS2_PLACEMENT_3D ( 'NONE', #18, #225, #46 ) ;
#379 = DIRECTION ( 'NONE',  ( 0.0000000000000000000, 0.0000000000000000000, 1.000000000000000000 ) ) ;
#380 = CARTESIAN_POINT ( 'NONE',  ( 0.0000000000000000000, 381.0000000000000600, -25.00000000000000000 ) ) ;
ENDSEC;
END-ISO-10303-21;
