ISO-10303-21;
HEADER;
FILE_DESCRIPTION (( 'STEP AP214' ),
    '1' );
FILE_NAME ('OTN 118 HF new.STEP',
    '2018-07-30T14:53:55',
    ( '' ),
    ( '' ),
    'SwSTEP 2.0',
    'SolidWorks 2013',
    '' );
FILE_SCHEMA (( 'AUTOMOTIVE_DESIGN' ));
ENDSEC;

DATA;
#1 = CARTESIAN_POINT ( 'NONE',  ( -30.86623945629768400, 25.67969921978866000, 630.0000000000000000 ) ) ;
#2 = ADVANCED_FACE ( 'NONE', ( #184 ), #69, .F. ) ;
#3 = CARTESIAN_POINT ( 'NONE',  ( 45.76032974209474700, 10.36046155955802600, 0.0000000000000000000 ) ) ;
#4 = DIRECTION ( 'NONE',  ( -1.196361017915039500E-016, 1.000000000000000000, 0.0000000000000000000 ) ) ;
#5 = DIRECTION ( 'NONE',  ( 1.000000000000000000, 0.0000000000000000000, 0.0000000000000000000 ) ) ;
#6 = ORIENTED_EDGE ( 'NONE', *, *, #145, .T. ) ;
#7 = ORIENTED_EDGE ( 'NONE', *, *, #187, .T. ) ;
#8 = DIRECTION ( 'NONE',  ( -0.0000000000000000000, -0.0000000000000000000, -1.000000000000000000 ) ) ;
#9 = LINE ( 'NONE', #36, #56 ) ;
#10 = AXIS2_PLACEMENT_3D ( 'NONE', #227, #123, #5 ) ;
#11 = FILL_AREA_STYLE ('',( #125 ) ) ;
#12 = EDGE_CURVE ( 'NONE', #235, #197, #34, .T. ) ;
#13 = EDGE_LOOP ( 'NONE', ( #191, #167, #153, #7 ) ) ;
#14 = ORIENTED_EDGE ( 'NONE', *, *, #201, .T. ) ;
#15 = ORIENTED_EDGE ( 'NONE', *, *, #214, .F. ) ;
#16 = CARTESIAN_POINT ( 'NONE',  ( 109.1337605437023200, 25.67969921978866000, 630.0000000000000000 ) ) ;
#17 = SURFACE_STYLE_FILL_AREA ( #11 ) ;
#18 = VECTOR ( 'NONE', #109, 1000.000000000000000 ) ;
#19 = DIRECTION ( 'NONE',  ( -1.000000000000000000, -0.0000000000000000000, -0.0000000000000000000 ) ) ;
#20 = DIRECTION ( 'NONE',  ( -0.0000000000000000000, -0.0000000000000000000, -1.000000000000000000 ) ) ;
#21 = AXIS2_PLACEMENT_3D ( 'NONE', #174, #122, #4 ) ;
#22 = ADVANCED_FACE ( 'NONE', ( #179 ), #76, .T. ) ;
#23 = PLANE ( 'NONE',  #222 ) ;
#24 = DIRECTION ( 'NONE',  ( 0.0000000000000000000, 0.0000000000000000000, 1.000000000000000000 ) ) ;
#25 = FACE_OUTER_BOUND ( 'NONE', #103, .T. ) ;
#26 = CARTESIAN_POINT ( 'NONE',  ( -30.86623945629768400, 25.67969921978866000, 0.0000000000000000000 ) ) ;
#27 = EDGE_CURVE ( 'NONE', #101, #190, #31, .T. ) ;
#28 = SURFACE_SIDE_STYLE ('',( #144 ) ) ;
#29 = CARTESIAN_POINT ( 'NONE',  ( 109.1337605437023200, 25.67969921978866000, 0.0000000000000000000 ) ) ;
#30 = SURFACE_STYLE_USAGE ( .BOTH. , #143 ) ;
#31 = LINE ( 'NONE', #91, #134 ) ;
#32 = STYLED_ITEM ( 'NONE', ( #92 ), #212 ) ;
#33 = CARTESIAN_POINT ( 'NONE',  ( -30.86623945629768400, 25.67969921978866000, 0.0000000000000000000 ) ) ;
#34 = LINE ( 'NONE', #53, #223 ) ;
#35 = EDGE_CURVE ( 'NONE', #190, #147, #88, .T. ) ;
#36 = CARTESIAN_POINT ( 'NONE',  ( 58.39050841825543600, -38.01803145756949200, 630.0000000000000000 ) ) ;
#37 = FILL_AREA_STYLE_COLOUR ( '', #95 ) ;
#38 = UNCERTAINTY_MEASURE_WITH_UNIT (LENGTH_MEASURE( 1.000000000000000100E-005 ), #164, 'distance_accuracy_value', 'NONE');
#39 = CARTESIAN_POINT ( 'NONE',  ( 90.57092092166435300, -11.82085756572122500, 630.0000000000000000 ) ) ;
#40 =( LENGTH_UNIT ( ) NAMED_UNIT ( * ) SI_UNIT ( .MILLI., .METRE. ) );
#41 = ORIENTED_EDGE ( 'NONE', *, *, #74, .T. ) ;
#42 =( LENGTH_UNIT ( ) NAMED_UNIT ( * ) SI_UNIT ( .MILLI., .METRE. ) );
#43 = ORIENTED_EDGE ( 'NONE', *, *, #35, .T. ) ;
#44 = LINE ( 'NONE', #39, #149 ) ;
#45 = PRESENTATION_LAYER_ASSIGNMENT (  '', '', ( #32 ) ) ;
#46 =( NAMED_UNIT ( * ) PLANE_ANGLE_UNIT ( ) SI_UNIT ( $, .RADIAN. ) );
#47 = ORIENTED_EDGE ( 'NONE', *, *, #226, .T. ) ;
#48 = EDGE_CURVE ( 'NONE', #190, #197, #80, .T. ) ;
#49 = ORIENTED_EDGE ( 'NONE', *, *, #181, .F. ) ;
#50 = ORIENTED_EDGE ( 'NONE', *, *, #159, .T. ) ;
#51 = FACE_OUTER_BOUND ( 'NONE', #165, .T. ) ;
#52 = DIRECTION ( 'NONE',  ( 1.196361017915039500E-016, -1.000000000000000000, 0.0000000000000000000 ) ) ;
#53 = CARTESIAN_POINT ( 'NONE',  ( -30.86623945629768400, 25.67969921978866000, 0.0000000000000000000 ) ) ;
#54 = EDGE_LOOP ( 'NONE', ( #229, #196, #162, #47 ) ) ;
#55 = ORIENTED_EDGE ( 'NONE', *, *, #187, .F. ) ;
#56 = VECTOR ( 'NONE', #59, 1000.000000000000000 ) ;
#57 = MECHANICAL_DESIGN_GEOMETRIC_PRESENTATION_REPRESENTATION (  '', ( #32 ), #66 ) ;
#58 = ADVANCED_FACE ( 'NONE', ( #25 ), #121, .T. ) ;
#59 = DIRECTION ( 'NONE',  ( -0.0000000000000000000, -0.0000000000000000000, -1.000000000000000000 ) ) ;
#60 = CARTESIAN_POINT ( 'NONE',  ( -30.86623945629768400, 25.67969921978866000, 630.0000000000000000 ) ) ;
#61 = EDGE_LOOP ( 'NONE', ( #43, #115, #14, #236, #157 ) ) ;
#62 = EDGE_CURVE ( 'NONE', #197, #210, #220, .T. ) ;
#63 =( NAMED_UNIT ( * ) SI_UNIT ( $, .STERADIAN. ) SOLID_ANGLE_UNIT ( ) );
#64 = PLANE ( 'NONE',  #177 ) ;
#65 = COLOUR_RGB ( '',0.7921568627450980000, 0.8196078431372548800, 0.9333333333333333500 ) ;
#66 =( GEOMETRIC_REPRESENTATION_CONTEXT ( 3 ) GLOBAL_UNCERTAINTY_ASSIGNED_CONTEXT ( ( #173 ) ) GLOBAL_UNIT_ASSIGNED_CONTEXT ( ( #40, #176, #63 ) ) REPRESENTATION_CONTEXT ( 'NONE', 'WORKASPACE' ) );
#67 = DIRECTION ( 'NONE',  ( -0.8962118235913901800, 0.4436263825055888900, 0.0000000000000000000 ) ) ;
#68 = EDGE_LOOP ( 'NONE', ( #6, #136, #189, #41 ) ) ;
#69 = PLANE ( 'NONE',  #116 ) ;
#70 = VECTOR ( 'NONE', #83, 1000.000000000000100 ) ;
#71 = CARTESIAN_POINT ( 'NONE',  ( 45.76032974209474700, 10.36046155955802600, 630.0000000000000000 ) ) ;
#72 = VECTOR ( 'NONE', #20, 1000.000000000000000 ) ;
#73 = CARTESIAN_POINT ( 'NONE',  ( -30.86623945629768400, 25.67969921978866000, 630.0000000000000000 ) ) ;
#74 = EDGE_CURVE ( 'NONE', #147, #210, #169, .T. ) ;
#75 = DIRECTION ( 'NONE',  ( 0.0000000000000000000, -1.000000000000000000, 0.0000000000000000000 ) ) ;
#76 = PLANE ( 'NONE',  #142 ) ;
#77 = VECTOR ( 'NONE', #102, 1000.000000000000100 ) ;
#78 = ADVANCED_FACE ( 'NONE', ( #131 ), #64, .F. ) ;
#79 = CARTESIAN_POINT ( 'NONE',  ( 90.57092092166435300, -11.82085756572122500, 0.0000000000000000000 ) ) ;
#80 = LINE ( 'NONE', #1, #72 ) ;
#81 = DIRECTION ( 'NONE',  ( -1.000000000000000000, -0.0000000000000000000, -0.0000000000000000000 ) ) ;
#82 = CARTESIAN_POINT ( 'NONE',  ( 90.57092092166435300, -11.82085756572122500, 0.0000000000000000000 ) ) ;
#83 = DIRECTION ( 'NONE',  ( 0.4436263825055888300, 0.8962118235913900700, 0.0000000000000000000 ) ) ;
#84 =( NAMED_UNIT ( * ) SI_UNIT ( $, .STERADIAN. ) SOLID_ANGLE_UNIT ( ) );
#85 = DIRECTION ( 'NONE',  ( 0.0000000000000000000, -0.0000000000000000000, -1.000000000000000000 ) ) ;
#86 =( GEOMETRIC_REPRESENTATION_CONTEXT ( 3 ) GLOBAL_UNCERTAINTY_ASSIGNED_CONTEXT ( ( #135 ) ) GLOBAL_UNIT_ASSIGNED_CONTEXT ( ( #42, #192, #84 ) ) REPRESENTATION_CONTEXT ( 'NONE', 'WORKASPACE' ) );
#87 = DIRECTION ( 'NONE',  ( 0.0000000000000000000, 0.0000000000000000000, 1.000000000000000000 ) ) ;
#88 = LINE ( 'NONE', #96, #172 ) ;
#89 = ADVANCED_BREP_SHAPE_REPRESENTATION ( 'OTN 118 HF new', ( #212, #182 ), #86 ) ;
#90 = VERTEX_POINT ( 'NONE', #151 ) ;
#91 = CARTESIAN_POINT ( 'NONE',  ( -30.86623945629768400, 25.67969921978866000, 630.0000000000000000 ) ) ;
#92 = PRESENTATION_STYLE_ASSIGNMENT (( #160 ) ) ;
#93 = ORIENTED_EDGE ( 'NONE', *, *, #62, .F. ) ;
#94 = ORIENTED_EDGE ( 'NONE', *, *, #181, .T. ) ;
#95 = COLOUR_RGB ( '',0.7921568627450980000, 0.8196078431372548800, 0.9333333333333333500 ) ;
#96 = CARTESIAN_POINT ( 'NONE',  ( -30.86623945629768400, 25.67969921978866000, 630.0000000000000000 ) ) ;
#97 = ADVANCED_FACE ( 'NONE', ( #204 ), #110, .F. ) ;
#98 = DIRECTION ( 'NONE',  ( -0.4436263825055888300, -0.8962118235913900700, 0.0000000000000000000 ) ) ;
#99 = CARTESIAN_POINT ( 'NONE',  ( -30.86623945629767400, -61.32030078021133300, 630.0000000000000000 ) ) ;
#100 = DIRECTION ( 'NONE',  ( 0.0000000000000000000, 0.0000000000000000000, 1.000000000000000000 ) ) ;
#101 = VERTEX_POINT ( 'NONE', #16 ) ;
#102 = DIRECTION ( 'NONE',  ( 0.4436263825055888300, 0.8962118235913900700, 0.0000000000000000000 ) ) ;
#103 = EDGE_LOOP ( 'NONE', ( #94, #55, #104, #50 ) ) ;
#104 = ORIENTED_EDGE ( 'NONE', *, *, #201, .F. ) ;
#105 = VECTOR ( 'NONE', #120, 1000.000000000000100 ) ;
#106 = APPLICATION_PROTOCOL_DEFINITION ( 'draft international standard', 'automotive_design', 1998, #127 ) ;
#107 = PRODUCT_CONTEXT ( 'NONE', #127, 'mechanical' ) ;
#108 = PRODUCT_DEFINITION_SHAPE ( 'NONE', 'NONE',  #195 ) ;
#109 = DIRECTION ( 'NONE',  ( -0.0000000000000000000, -0.0000000000000000000, -1.000000000000000000 ) ) ;
#110 = PLANE ( 'NONE',  #199 ) ;
#111 = EDGE_LOOP ( 'NONE', ( #93, #154, #15, #49, #148 ) ) ;
#112 = ORIENTED_EDGE ( 'NONE', *, *, #62, .T. ) ;
#113 = LINE ( 'NONE', #138, #163 ) ;
#114 = STYLED_ITEM ( 'NONE', ( #206 ), #89 ) ;
#115 = ORIENTED_EDGE ( 'NONE', *, *, #170, .T. ) ;
#116 = AXIS2_PLACEMENT_3D ( 'NONE', #73, #75, #85 ) ;
#117 = VERTEX_POINT ( 'NONE', #124 ) ;
#118 = PRODUCT ( 'OTN 118 HF new', 'OTN 118 HF new', '', ( #107 ) ) ;
#119 = CARTESIAN_POINT ( 'NONE',  ( -30.86623945629767400, -61.32030078021133300, 630.0000000000000000 ) ) ;
#120 = DIRECTION ( 'NONE',  ( 0.9675698603425491000, 0.2526035735232183800, 0.0000000000000000000 ) ) ;
#121 = CYLINDRICAL_SURFACE ( 'NONE', #166, 50.00000000000000000 ) ;
#122 = DIRECTION ( 'NONE',  ( 1.000000000000000000, 1.196361017915039500E-016, -0.0000000000000000000 ) ) ;
#123 = DIRECTION ( 'NONE',  ( 0.0000000000000000000, 0.0000000000000000000, 1.000000000000000000 ) ) ;
#124 = CARTESIAN_POINT ( 'NONE',  ( 90.57092092166435300, -11.82085756572122500, 630.0000000000000000 ) ) ;
#125 = FILL_AREA_STYLE_COLOUR ( '', #65 ) ;
#126 = DIRECTION ( 'NONE',  ( -0.9675698603425492200, -0.2526035735232184400, 0.0000000000000000000 ) ) ;
#127 = APPLICATION_CONTEXT ( 'automotive_design' ) ;
#128 = PRESENTATION_LAYER_ASSIGNMENT (  '', '', ( #114 ) ) ;
#129 = APPLICATION_PROTOCOL_DEFINITION ( 'draft international standard', 'automotive_design', 1998, #230 ) ;
#130 = LINE ( 'NONE', #139, #70 ) ;
#131 = FACE_OUTER_BOUND ( 'NONE', #68, .T. ) ;
#132 = SHAPE_DEFINITION_REPRESENTATION ( #108, #89 ) ;
#133 = LINE ( 'NONE', #228, #217 ) ;
#134 = VECTOR ( 'NONE', #19, 1000.000000000000000 ) ;
#135 = UNCERTAINTY_MEASURE_WITH_UNIT (LENGTH_MEASURE( 1.000000000000000100E-005 ), #42, 'distance_accuracy_value', 'NONE');
#136 = ORIENTED_EDGE ( 'NONE', *, *, #159, .F. ) ;
#137 = MECHANICAL_DESIGN_GEOMETRIC_PRESENTATION_REPRESENTATION (  '', ( #114 ), #150 ) ;
#138 = CARTESIAN_POINT ( 'NONE',  ( -30.86623945629767400, -61.32030078021133300, 0.0000000000000000000 ) ) ;
#139 = CARTESIAN_POINT ( 'NONE',  ( 90.57092092166435300, -11.82085756572122500, 630.0000000000000000 ) ) ;
#140 = FILL_AREA_STYLE ('',( #37 ) ) ;
#141 = ORIENTED_EDGE ( 'NONE', *, *, #74, .F. ) ;
#142 = AXIS2_PLACEMENT_3D ( 'NONE', #71, #221, #216 ) ;
#143 = SURFACE_SIDE_STYLE ('',( #17 ) ) ;
#144 = SURFACE_STYLE_FILL_AREA ( #140 ) ;
#145 = EDGE_CURVE ( 'NONE', #210, #146, #113, .T. ) ;
#146 = VERTEX_POINT ( 'NONE', #215 ) ;
#147 = VERTEX_POINT ( 'NONE', #119 ) ;
#148 = ORIENTED_EDGE ( 'NONE', *, *, #145, .F. ) ;
#149 = VECTOR ( 'NONE', #175, 1000.000000000000000 ) ;
#150 =( GEOMETRIC_REPRESENTATION_CONTEXT ( 3 ) GLOBAL_UNCERTAINTY_ASSIGNED_CONTEXT ( ( #38 ) ) GLOBAL_UNIT_ASSIGNED_CONTEXT ( ( #164, #46, #178 ) ) REPRESENTATION_CONTEXT ( 'NONE', 'WORKASPACE' ) );
#151 = CARTESIAN_POINT ( 'NONE',  ( 58.39050841825543600, -38.01803145756949200, 630.0000000000000000 ) ) ;
#152 = CARTESIAN_POINT ( 'NONE',  ( 90.57092092166435300, -11.82085756572122500, 630.0000000000000000 ) ) ;
#153 = ORIENTED_EDGE ( 'NONE', *, *, #234, .F. ) ;
#154 = ORIENTED_EDGE ( 'NONE', *, *, #12, .F. ) ;
#155 = LINE ( 'NONE', #82, #77 ) ;
#156 = DIRECTION ( 'NONE',  ( 0.9675698603425491000, 0.2526035735232183800, 0.0000000000000000000 ) ) ;
#157 = ORIENTED_EDGE ( 'NONE', *, *, #27, .T. ) ;
#158 = DIRECTION ( 'NONE',  ( 1.000000000000000000, 0.0000000000000000000, -0.0000000000000000000 ) ) ;
#159 = EDGE_CURVE ( 'NONE', #90, #146, #9, .T. ) ;
#160 = SURFACE_STYLE_USAGE ( .BOTH. , #28 ) ;
#161 = VERTEX_POINT ( 'NONE', #79 ) ;
#162 = ORIENTED_EDGE ( 'NONE', *, *, #27, .F. ) ;
#163 = VECTOR ( 'NONE', #156, 1000.000000000000100 ) ;
#164 =( LENGTH_UNIT ( ) NAMED_UNIT ( * ) SI_UNIT ( .MILLI., .METRE. ) );
#165 = EDGE_LOOP ( 'NONE', ( #112, #141, #202, #231 ) ) ;
#166 = AXIS2_PLACEMENT_3D ( 'NONE', #183, #200, #168 ) ;
#167 = ORIENTED_EDGE ( 'NONE', *, *, #226, .F. ) ;
#168 = DIRECTION ( 'NONE',  ( -1.000000000000000000, 0.0000000000000000000, 0.0000000000000000000 ) ) ;
#169 = LINE ( 'NONE', #219, #18 ) ;
#170 = EDGE_CURVE ( 'NONE', #147, #90, #198, .T. ) ;
#171 = ADVANCED_FACE ( 'NONE', ( #237 ), #23, .F. ) ;
#172 = VECTOR ( 'NONE', #233, 1000.000000000000000 ) ;
#173 = UNCERTAINTY_MEASURE_WITH_UNIT (LENGTH_MEASURE( 1.000000000000000100E-005 ), #40, 'distance_accuracy_value', 'NONE');
#174 = CARTESIAN_POINT ( 'NONE',  ( -30.86623945629768400, 25.67969921978866000, 630.0000000000000000 ) ) ;
#175 = DIRECTION ( 'NONE',  ( -0.0000000000000000000, -0.0000000000000000000, -1.000000000000000000 ) ) ;
#176 =( NAMED_UNIT ( * ) PLANE_ANGLE_UNIT ( ) SI_UNIT ( $, .RADIAN. ) );
#177 = AXIS2_PLACEMENT_3D ( 'NONE', #225, #180, #126 ) ;
#178 =( NAMED_UNIT ( * ) SI_UNIT ( $, .STERADIAN. ) SOLID_ANGLE_UNIT ( ) );
#179 = FACE_OUTER_BOUND ( 'NONE', #61, .T. ) ;
#180 = DIRECTION ( 'NONE',  ( -0.2526035735232184400, 0.9675698603425492200, 0.0000000000000000000 ) ) ;
#181 = EDGE_CURVE ( 'NONE', #146, #161, #193, .T. ) ;
#182 = AXIS2_PLACEMENT_3D ( 'NONE', #194, #87, #211 ) ;
#183 = CARTESIAN_POINT ( 'NONE',  ( 45.76032974209474700, 10.36046155955802600, 630.0000000000000000 ) ) ;
#184 = FACE_OUTER_BOUND ( 'NONE', #54, .T. ) ;
#185 = ADVANCED_FACE ( 'NONE', ( #51 ), #186, .F. ) ;
#186 = PLANE ( 'NONE',  #21 ) ;
#187 = EDGE_CURVE ( 'NONE', #117, #161, #44, .T. ) ;
#188 = CARTESIAN_POINT ( 'NONE',  ( -30.86623945629767400, -61.32030078021133300, 0.0000000000000000000 ) ) ;
#189 = ORIENTED_EDGE ( 'NONE', *, *, #170, .F. ) ;
#190 = VERTEX_POINT ( 'NONE', #60 ) ;
#191 = ORIENTED_EDGE ( 'NONE', *, *, #214, .T. ) ;
#192 =( NAMED_UNIT ( * ) PLANE_ANGLE_UNIT ( ) SI_UNIT ( $, .RADIAN. ) );
#193 = CIRCLE ( 'NONE', #209, 50.00000000000000000 ) ;
#194 = CARTESIAN_POINT ( 'NONE',  ( 0.0000000000000000000, 0.0000000000000000000, 0.0000000000000000000 ) ) ;
#195 = PRODUCT_DEFINITION ( 'UNKNOWN', '', #205, #207 ) ;
#196 = ORIENTED_EDGE ( 'NONE', *, *, #48, .F. ) ;
#197 = VERTEX_POINT ( 'NONE', #26 ) ;
#198 = LINE ( 'NONE', #99, #105 ) ;
#199 = AXIS2_PLACEMENT_3D ( 'NONE', #152, #67, #98 ) ;
#200 = DIRECTION ( 'NONE',  ( -0.0000000000000000000, -0.0000000000000000000, -1.000000000000000000 ) ) ;
#201 = EDGE_CURVE ( 'NONE', #90, #117, #232, .T. ) ;
#202 = ORIENTED_EDGE ( 'NONE', *, *, #35, .F. ) ;
#203 = CLOSED_SHELL ( 'NONE', ( #185, #78, #58, #97, #2, #22, #171 ) ) ;
#204 = FACE_OUTER_BOUND ( 'NONE', #13, .T. ) ;
#205 = PRODUCT_DEFINITION_FORMATION_WITH_SPECIFIED_SOURCE ( 'ANY', '', #118, .NOT_KNOWN. ) ;
#206 = PRESENTATION_STYLE_ASSIGNMENT (( #30 ) ) ;
#207 = PRODUCT_DEFINITION_CONTEXT ( 'detailed design', #230, 'design' ) ;
#208 = CARTESIAN_POINT ( 'NONE',  ( 45.76032974209474700, 10.36046155955802600, 0.0000000000000000000 ) ) ;
#209 = AXIS2_PLACEMENT_3D ( 'NONE', #208, #100, #224 ) ;
#210 = VERTEX_POINT ( 'NONE', #188 ) ;
#211 = DIRECTION ( 'NONE',  ( 1.000000000000000000, 0.0000000000000000000, 0.0000000000000000000 ) ) ;
#212 = MANIFOLD_SOLID_BREP ( 'Áîáûøêà-Âûòÿíóòü1', #203 ) ;
#213 = VECTOR ( 'NONE', #52, 1000.000000000000000 ) ;
#214 = EDGE_CURVE ( 'NONE', #161, #235, #155, .T. ) ;
#215 = CARTESIAN_POINT ( 'NONE',  ( 58.39050841825543600, -38.01803145756949200, 0.0000000000000000000 ) ) ;
#216 = DIRECTION ( 'NONE',  ( 1.000000000000000000, 0.0000000000000000000, -0.0000000000000000000 ) ) ;
#217 = VECTOR ( 'NONE', #8, 1000.000000000000000 ) ;
#218 = PRODUCT_RELATED_PRODUCT_CATEGORY ( 'part', '', ( #118 ) ) ;
#219 = CARTESIAN_POINT ( 'NONE',  ( -30.86623945629767400, -61.32030078021133300, 630.0000000000000000 ) ) ;
#220 = LINE ( 'NONE', #33, #213 ) ;
#221 = DIRECTION ( 'NONE',  ( 0.0000000000000000000, 0.0000000000000000000, 1.000000000000000000 ) ) ;
#222 = AXIS2_PLACEMENT_3D ( 'NONE', #3, #24, #158 ) ;
#223 = VECTOR ( 'NONE', #81, 1000.000000000000000 ) ;
#224 = DIRECTION ( 'NONE',  ( 1.000000000000000000, 0.0000000000000000000, 0.0000000000000000000 ) ) ;
#225 = CARTESIAN_POINT ( 'NONE',  ( -30.86623945629767400, -61.32030078021133300, 630.0000000000000000 ) ) ;
#226 = EDGE_CURVE ( 'NONE', #101, #235, #133, .T. ) ;
#227 = CARTESIAN_POINT ( 'NONE',  ( 45.76032974209474700, 10.36046155955802600, 630.0000000000000000 ) ) ;
#228 = CARTESIAN_POINT ( 'NONE',  ( 109.1337605437023200, 25.67969921978866000, 630.0000000000000000 ) ) ;
#229 = ORIENTED_EDGE ( 'NONE', *, *, #12, .T. ) ;
#230 = APPLICATION_CONTEXT ( 'automotive_design' ) ;
#231 = ORIENTED_EDGE ( 'NONE', *, *, #48, .T. ) ;
#232 = CIRCLE ( 'NONE', #10, 50.00000000000000000 ) ;
#233 = DIRECTION ( 'NONE',  ( 1.196361017915039500E-016, -1.000000000000000000, 0.0000000000000000000 ) ) ;
#234 = EDGE_CURVE ( 'NONE', #117, #101, #130, .T. ) ;
#235 = VERTEX_POINT ( 'NONE', #29 ) ;
#236 = ORIENTED_EDGE ( 'NONE', *, *, #234, .T. ) ;
#237 = FACE_OUTER_BOUND ( 'NONE', #111, .T. ) ;
ENDSEC;
END-ISO-10303-21;
