  0
SECTION
  2
HEADER
  9
$ACADVER
  1
AC1015
  9
$ACADMAINTVER
 70
     6
  9
$DWGCODEPAGE
  3
ANSI_1251
  9
$INSBASE
 10
0.0
 20
0.0
 30
0.0
  9
$EXTMIN
 10
0.0
 20
0.0
 30
0.0
  9
$EXTMAX
 10
558.8
 20
431.8
 30
0.0
  9
$LIMMIN
 10
0.0
 20
0.0
  9
$LIMMAX
 10
558.8
 20
431.8
  9
$ORTHOMODE
 70
     0
  9
$REGENMODE
 70
     1
  9
$FILLMODE
 70
     1
  9
$QTEXTMODE
 70
     0
  9
$MIRRTEXT
 70
     1
  9
$LTSCALE
 40
2.0
  9
$ATTMODE
 70
     1
  9
$TEXTSIZE
 40
7.0
  9
$TRACEWID
 40
1.0
  9
$TEXTSTYLE
  7
Standard
  9
$CLAYER
  8
0
  9
$CELTYPE
  6
ByLayer
  9
$CECOLOR
 62
   256
  9
$CELTSCALE
 40
1.0
  9
$DISPSILH
 70
     0
  9
$DIMSCALE
 40
1.0
  9
$DIMASZ
 40
7.0
  9
$DIMEXO
 40
0.02
  9
$DIMDLI
 40
3.75
  9
$DIMRND
 40
0.0
  9
$DIMDLE
 40
0.0
  9
$DIMEXE
 40
2.0
  9
$DIMTP
 40
0.0
  9
$DIMTM
 40
0.0
  9
$DIMTXT
 40
7.0
  9
$DIMCEN
 40
2.5
  9
$DIMTSZ
 40
0.0
  9
$DIMTOL
 70
     0
  9
$DIMLIM
 70
     0
  9
$DIMTIH
 70
     1
  9
$DIMTOH
 70
     1
  9
$DIMSE1
 70
     0
  9
$DIMSE2
 70
     0
  9
$DIMTAD
 70
     1
  9
$DIMZIN
 70
     0
  9
$DIMBLK
  1

  9
$DIMASO
 70
     1
  9
$DIMSHO
 70
     1
  9
$DIMPOST
  1

  9
$DIMAPOST
  1

  9
$DIMALT
 70
     0
  9
$DIMALTD
 70
     3
  9
$DIMALTF
 40
0.0393700787
  9
$DIMLFAC
 40
1.0
  9
$DIMTOFL
 70
     1
  9
$DIMTVP
 40
0.0
  9
$DIMTIX
 70
     0
  9
$DIMSOXD
 70
     0
  9
$DIMSAH
 70
     0
  9
$DIMBLK1
  1

  9
$DIMBLK2
  1

  9
$DIMSTYLE
  2
ISO-25
  9
$DIMCLRD
 70
     0
  9
$DIMCLRE
 70
     0
  9
$DIMCLRT
 70
     0
  9
$DIMTFAC
 40
1.0
  9
$DIMGAP
 40
6.0
  9
$DIMJUST
 70
     0
  9
$DIMSD1
 70
     0
  9
$DIMSD2
 70
     0
  9
$DIMTOLJ
 70
     0
  9
$DIMTZIN
 70
     0
  9
$DIMALTZ
 70
     0
  9
$DIMALTTZ
 70
     0
  9
$DIMUPT
 70
     0
  9
$DIMDEC
 70
     2
  9
$DIMTDEC
 70
     3
  9
$DIMALTU
 70
     2
  9
$DIMALTTD
 70
     3
  9
$DIMTXSTY
  7
Standard
  9
$DIMAUNIT
 70
     0
  9
$DIMADEC
 70
     2
  9
$DIMALTRND
 40
0.0
  9
$DIMAZIN
 70
     0
  9
$DIMDSEP
 70
    44
  9
$DIMATFIT
 70
     3
  9
$DIMFRAC
 70
     0
  9
$DIMLDRBLK
  1

  9
$DIMLUNIT
 70
     2
  9
$DIMLWD
 70
    -2
  9
$DIMLWE
 70
    -2
  9
$DIMTMOVE
 70
     0
  9
$LUNITS
 70
     2
  9
$LUPREC
 70
     2
  9
$SKETCHINC
 40
1.0
  9
$FILLETRAD
 40
10.0
  9
$AUNITS
 70
     0
  9
$AUPREC
 70
     2
  9
$MENU
  1
.
  9
$ELEVATION
 40
0.0
  9
$PELEVATION
 40
0.0
  9
$THICKNESS
 40
0.0
  9
$LIMCHECK
 70
     0
  9
$CHAMFERA
 40
10.0
  9
$CHAMFERB
 40
10.0
  9
$CHAMFERC
 40
20.0
  9
$CHAMFERD
 40
0.0
  9
$SKPOLY
 70
     0
  9
$TDCREATE
 40
2458091.907331944
  9
$TDUCREATE
 40
2458091.823998611
  9
$TDUPDATE
 40
2458091.907332419
  9
$TDUUPDATE
 40
2458091.823999085
  9
$TDINDWG
 40
0.0000000116
  9
$TDUSRTIMER
 40
0.0000000116
  9
$USRTIMER
 70
     1
  9
$ANGBASE
 50
0.0
  9
$ANGDIR
 70
     0
  9
$PDMODE
 70
     0
  9
$PDSIZE
 40
-1.0
  9
$PLINEWID
 40
0.0
  9
$SPLFRAME
 70
     0
  9
$SPLINETYPE
 70
     6
  9
$SPLINESEGS
 70
     8
  9
$HANDSEED
  5
72
  9
$SURFTAB1
 70
     6
  9
$SURFTAB2
 70
     6
  9
$SURFTYPE
 70
     6
  9
$SURFU
 70
     6
  9
$SURFV
 70
     6
  9
$UCSBASE
  2

  9
$UCSNAME
  2

  9
$UCSORG
 10
0.0
 20
0.0
 30
0.0
  9
$UCSXDIR
 10
1.0
 20
0.0
 30
0.0
  9
$UCSYDIR
 10
0.0
 20
1.0
 30
0.0
  9
$UCSORTHOREF
  2

  9
$UCSORTHOVIEW
 70
     0
  9
$UCSORGTOP
 10
0.0
 20
0.0
 30
0.0
  9
$UCSORGBOTTOM
 10
0.0
 20
0.0
 30
0.0
  9
$UCSORGLEFT
 10
0.0
 20
0.0
 30
0.0
  9
$UCSORGRIGHT
 10
0.0
 20
0.0
 30
0.0
  9
$UCSORGFRONT
 10
0.0
 20
0.0
 30
0.0
  9
$UCSORGBACK
 10
0.0
 20
0.0
 30
0.0
  9
$PUCSBASE
  2

  9
$PUCSNAME
  2

  9
$PUCSORG
 10
0.0
 20
0.0
 30
0.0
  9
$PUCSXDIR
 10
1.0
 20
0.0
 30
0.0
  9
$PUCSYDIR
 10
0.0
 20
1.0
 30
0.0
  9
$PUCSORTHOREF
  2

  9
$PUCSORTHOVIEW
 70
     0
  9
$PUCSORGTOP
 10
0.0
 20
0.0
 30
0.0
  9
$PUCSORGBOTTOM
 10
0.0
 20
0.0
 30
0.0
  9
$PUCSORGLEFT
 10
0.0
 20
0.0
 30
0.0
  9
$PUCSORGRIGHT
 10
0.0
 20
0.0
 30
0.0
  9
$PUCSORGFRONT
 10
0.0
 20
0.0
 30
0.0
  9
$PUCSORGBACK
 10
0.0
 20
0.0
 30
0.0
  9
$USERI1
 70
     0
  9
$USERI2
 70
     0
  9
$USERI3
 70
     0
  9
$USERI4
 70
     0
  9
$USERI5
 70
     0
  9
$USERR1
 40
0.0
  9
$USERR2
 40
0.0
  9
$USERR3
 40
0.0
  9
$USERR4
 40
0.0
  9
$USERR5
 40
0.0
  9
$WORLDVIEW
 70
     1
  9
$SHADEDGE
 70
     3
  9
$SHADEDIF
 70
    70
  9
$TILEMODE
 70
     1
  9
$MAXACTVP
 70
    64
  9
$PINSBASE
 10
0.0
 20
0.0
 30
0.0
  9
$PLIMCHECK
 70
     0
  9
$PEXTMIN
 10
1.0000000000E+20
 20
1.0000000000E+20
 30
1.0000000000E+20
  9
$PEXTMAX
 10
-1.0000000000E+20
 20
-1.0000000000E+20
 30
-1.0000000000E+20
  9
$PLIMMIN
 10
0.0
 20
0.0
  9
$PLIMMAX
 10
420.0
 20
297.0
  9
$UNITMODE
 70
     0
  9
$VISRETAIN
 70
     1
  9
$PLINEGEN
 70
     0
  9
$PSLTSCALE
 70
     1
  9
$TREEDEPTH
 70
  3020
  9
$CMLSTYLE
  2
Standard
  9
$CMLJUST
 70
     0
  9
$CMLSCALE
 40
20.0
  9
$PROXYGRAPHICS
 70
     1
  9
$MEASUREMENT
 70
     1
  9
$CELWEIGHT
370
    -1
  9
$ENDCAPS
280
     0
  9
$JOINSTYLE
280
     0
  9
$LWDISPLAY
290
     1
  9
$INSUNITS
 70
     4
  9
$HYPERLINKBASE
  1

  9
$STYLESHEET
  1

  9
$XEDIT
290
     1
  9
$CEPSNTYPE
380
     0
  9
$PSTYLEMODE
290
     1
  9
$FINGERPRINTGUID
  2
{5730A93A-1F39-4AE9-92B2-E56B8FB18286}
  9
$VERSIONGUID
  2
{FAEB1C32-E019-11D5-929B-00C0DF256EC4}
  9
$EXTNAMES
290
     1
  9
$PSVPSCALE
 40
0.0
  9
$OLESTARTUP
290
     0
  0
ENDSEC
  0
SECTION
  2
CLASSES
  0
CLASS
  1
ACDBDICTIONARYWDFLT
  2
AcDbDictionaryWithDefault
  3
ObjectDBX Classes
 90
        0
280
     0
281
     0
  0
CLASS
  1
VISUALSTYLE
  2
AcDbVisualStyle
  3
ObjectDBX Classes
 90
     4095
280
     0
281
     0
  0
CLASS
  1
MATERIAL
  2
AcDbMaterial
  3
ObjectDBX Classes
 90
     1153
280
     0
281
     0
  0
CLASS
  1
ACDBPLACEHOLDER
  2
AcDbPlaceHolder
  3
ObjectDBX Classes
 90
        0
280
     0
281
     0
  0
CLASS
  1
LAYOUT
  2
AcDbLayout
  3
ObjectDBX Classes
 90
        0
280
     0
281
     0
  0
ENDSEC
  0
SECTION
  2
TABLES
  0
TABLE
  2
VPORT
  5
8
330
0
100
AcDbSymbolTable
 70
     1
  0
VPORT
  5
29
330
8
100
AcDbSymbolTableRecord
100
AcDbViewportTableRecord
  2
*Active
 70
     0
 10
0.0
 20
0.0
 11
1.0
 21
1.0
 12
279.4
 22
215.9
 13
0.0
 23
0.0
 14
10.0
 24
10.0
 15
10.0
 25
10.0
 16
0.0
 26
0.0
 36
1.0
 17
0.0
 27
0.0
 37
0.0
 40
431.8
 41
1.2941176471
 42
50.0
 43
0.0
 44
0.0
 50
0.0
 51
0.0
 71
     0
 72
  2000
 73
     1
 74
     3
 75
     0
 76
     0
 77
     0
 78
     0
281
     0
 65
     1
110
0.0
120
0.0
130
0.0
111
1.0
121
0.0
131
0.0
112
0.0
122
1.0
132
0.0
 79
     0
146
0.0
  0
ENDTAB
  0
TABLE
  2
LTYPE
  5
5
330
0
100
AcDbSymbolTable
 70
     6
  0
LTYPE
  5
14
330
5
100
AcDbSymbolTableRecord
100
AcDbLinetypeTableRecord
  2
ByBlock
 70
     0
  3

 72
    65
 73
     0
 40
0.0
  0
LTYPE
  5
15
330
5
100
AcDbSymbolTableRecord
100
AcDbLinetypeTableRecord
  2
ByLayer
 70
     0
  3

 72
    65
 73
     0
 40
0.0
  0
LTYPE
  5
16
330
5
100
AcDbSymbolTableRecord
100
AcDbLinetypeTableRecord
  2
Continuous
 70
     0
  3
Solid line
 72
    65
 73
     0
 40
0.0
  0
LTYPE
  5
3F
330
5
100
AcDbSymbolTableRecord
100
AcDbLinetypeTableRecord
  2
HIDDEN
 70
     0
  3
Hidden __ __ __ __ __ __ __ __ __ __ __ __ __ __
 72
    65
 73
     2
 40
1.905
 49
1.27
 74
     0
 49
-0.635
 74
     0
  0
LTYPE
  5
40
330
5
100
AcDbSymbolTableRecord
100
AcDbLinetypeTableRecord
  2
PHANTOM
 70
     0
  3
Phantom ______  __  __  ______  __  __  ______
 72
    65
 73
     6
 40
12.7
 49
6.35
 74
     0
 49
-1.27
 74
     0
 49
1.27
 74
     0
 49
-1.27
 74
     0
 49
1.27
 74
     0
 49
-1.27
 74
     0
  0
LTYPE
  5
41
330
5
100
AcDbSymbolTableRecord
100
AcDbLinetypeTableRecord
  2
CENTER
 70
     0
  3
Center ____ _ ____ _ ____ _ ____ _ ____ _ ____
 72
    65
 73
     4
 40
10.16
 49
6.35
 74
     0
 49
-1.27
 74
     0
 49
1.27
 74
     0
 49
-1.27
 74
     0
  0
LTYPE
  5
42
330
5
100
AcDbSymbolTableRecord
100
AcDbLinetypeTableRecord
  2
CENTERX2
 70
     0
  3
Center (2x) ________  __  ________  __  _____
 72
    65
 73
     4
 40
20.32
 49
12.7
 74
     0
 49
-2.54
 74
     0
 49
2.54
 74
     0
 49
-2.54
 74
     0
  0
LTYPE
  5
43
330
5
100
AcDbSymbolTableRecord
100
AcDbLinetypeTableRecord
  2
DOT2
 70
     0
  3
Dot (.5x) ........................................
 72
    65
 73
     2
 40
0.635
 49
0.0
 74
     0
 49
-0.635
 74
     0
  0
ENDTAB
  0
TABLE
  2
LAYER
  5
2
330
0
100
AcDbSymbolTable
 70
     1
  0
LAYER
  5
10
330
2
100
AcDbSymbolTableRecord
100
AcDbLayerTableRecord
  2
0
 70
     0
 62
     7
  6
Continuous
370
    -3
390
F
  0
ENDTAB
  0
TABLE
  2
STYLE
  5
3
330
0
100
AcDbSymbolTable
 70
     1
  0
STYLE
  5
11
330
3
100
AcDbSymbolTableRecord
100
AcDbTextStyleTableRecord
  2
Standard
 70
     0
 40
0.0
 41
1.0
 50
0.0
 71
     0
 42
7.0
  3
txt
  4

  0
ENDTAB
  0
TABLE
  2
VIEW
  5
6
330
0
100
AcDbSymbolTable
 70
     0
  0
ENDTAB
  0
TABLE
  2
UCS
  5
7
330
0
100
AcDbSymbolTable
 70
     0
  0
ENDTAB
  0
TABLE
  2
APPID
  5
9
330
0
100
AcDbSymbolTable
 70
     1
  0
APPID
  5
12
330
9
100
AcDbSymbolTableRecord
100
AcDbRegAppTableRecord
  2
ACAD
 70
     0
  0
ENDTAB
  0
TABLE
  2
DIMSTYLE
  5
A
330
0
100
AcDbSymbolTable
 70
     1
100
AcDbDimStyleTable
  0
DIMSTYLE
105
27
330
A
100
AcDbSymbolTableRecord
100
AcDbDimStyleTableRecord
  2
ISO-25
 70
     0
 41
2.5
 42
0.625
 43
3.75
 44
1.25
 73
     0
 74
     0
 77
     1
 78
     8
140
2.5
141
2.5
143
0.0393700787
147
0.625
171
     3
172
     1
178
     0
271
     2
272
     2
274
     3
278
    44
283
     0
284
     8
340
11
  0
ENDTAB
  0
TABLE
  2
BLOCK_RECORD
  5
1
330
0
100
AcDbSymbolTable
 70
     1
  0
BLOCK_RECORD
  5
1F
330
1
100
AcDbSymbolTableRecord
100
AcDbBlockTableRecord
  2
*Model_Space
340
22
  0
BLOCK_RECORD
  5
1B
330
1
100
AcDbSymbolTableRecord
100
AcDbBlockTableRecord
  2
*Paper_Space
340
1E
  0
BLOCK_RECORD
  5
23
330
1
100
AcDbSymbolTableRecord
100
AcDbBlockTableRecord
  2
*Paper_Space0
340
26
  0
ENDTAB
  0
ENDSEC
  0
SECTION
  2
BLOCKS
  0
BLOCK
  5
20
330
1F
100
AcDbEntity
  8
0
100
AcDbBlockBegin
  2
*Model_Space
 70
     0
 10
0.0
 20
0.0
 30
0.0
  3
*Model_Space
  1

  0
ENDBLK
  5
21
330
1F
100
AcDbEntity
  8
0
100
AcDbBlockEnd
  0
BLOCK
  5
1C
330
1B
100
AcDbEntity
 67
     1
  8
0
100
AcDbBlockBegin
  2
*Paper_Space
 70
     0
 10
0.0
 20
0.0
 30
0.0
  3
*Paper_Space
  1

  0
ENDBLK
  5
1D
330
1B
100
AcDbEntity
 67
     1
  8
0
100
AcDbBlockEnd
  0
BLOCK
  5
24
330
23
100
AcDbEntity
  8
0
100
AcDbBlockBegin
  2
*Paper_Space0
 70
     0
 10
0.0
 20
0.0
 30
0.0
  3
*Paper_Space0
  1

  0
ENDBLK
  5
25
330
23
100
AcDbEntity
  8
0
100
AcDbBlockEnd
  0
ENDSEC
  0
SECTION
  2
ENTITIES
  0
LINE
  5
44
330
1F
100
AcDbEntity
  8
0
  6
Continuous
 62
     7
370
    15
100
AcDbLine
 10
65.0886482376
 20
315.8879285693
 30
0.0
 11
65.0886476749
 21
313.2917962909
 31
0.0
  0
LINE
  5
45
330
1F
100
AcDbEntity
  8
0
  6
Continuous
 62
     7
370
    15
100
AcDbLine
 10
200.0873513212
 20
313.2917670314
 30
0.0
 11
200.0873518838
 21
315.8878993098
 31
0.0
  0
LINE
  5
46
330
1F
100
AcDbEntity
  8
0
  6
Continuous
 62
     7
370
    15
100
AcDbLine
 10
65.0886478955
 20
313.2917962909
 30
0.0
 11
68.5501564437
 21
309.8302866724
 31
0.0
  0
LINE
  5
47
330
1F
100
AcDbEntity
  8
0
  6
Continuous
 62
     7
370
    15
100
AcDbLine
 10
196.6258410519
 20
309.8302589134
 30
0.0
 11
200.0873511005
 21
313.2917670314
 31
0.0
  0
LINE
  5
48
330
1F
100
AcDbEntity
  8
0
  6
Continuous
 62
     7
370
    15
100
AcDbLine
 10
187.3663251058
 20
362.1856155594
 30
0.0
 11
187.057477891
 21
364.8624879544
 31
0.0
  0
LINE
  5
49
330
1F
100
AcDbEntity
  8
0
  6
Continuous
 62
     7
370
    15
100
AcDbLine
 10
78.1185434599
 20
364.8625115657
 30
0.0
 11
77.8096950846
 21
362.1856393046
 31
0.0
  0
LINE
  5
4A
330
1F
100
AcDbEntity
  8
0
  6
Continuous
 62
     7
370
    15
100
AcDbLine
 10
77.8096950846
 20
362.1856393046
 30
0.0
 11
77.8096949346
 21
315.8879307933
 31
0.0
  0
LINE
  5
4B
330
1F
100
AcDbEntity
  8
0
  6
Continuous
 62
     7
370
    15
100
AcDbLine
 10
187.3663051869
 20
315.8879070481
 30
0.0
 11
187.3663251058
 21
362.1856155594
 31
0.0
  0
LINE
  5
4C
330
1F
100
AcDbEntity
  8
0
  6
Continuous
 62
     7
370
    15
100
AcDbLine
 10
187.057477891
 20
364.8624879544
 30
0.0
 11
186.1778724881
 21
367.3207631989
 31
0.0
  0
LINE
  5
4D
330
1F
100
AcDbEntity
  8
0
  6
Continuous
 62
     7
370
    15
100
AcDbLine
 10
78.9981499283
 20
367.3207864289
 30
0.0
 11
78.1185434599
 21
364.8625115657
 31
0.0
  0
LINE
  5
4E
330
1F
100
AcDbEntity
  8
0
  6
Continuous
 62
     7
370
    15
100
AcDbLine
 10
186.1778724881
 20
367.3207631989
 30
0.0
 11
184.79795747
 21
369.4900295785
 31
0.0
  0
LINE
  5
4F
330
1F
100
AcDbEntity
  8
0
  6
Continuous
 62
     7
370
    15
100
AcDbLine
 10
80.3780658867
 20
369.4900522103
 30
0.0
 11
78.9981499283
 21
367.3207864289
 31
0.0
  0
LINE
  5
50
330
1F
100
AcDbEntity
  8
0
  6
Continuous
 62
     7
370
    15
100
AcDbLine
 10
184.79795747
 20
369.4900295785
 30
0.0
 11
182.9881552197
 21
371.2998372318
 31
0.0
  0
LINE
  5
51
330
1F
100
AcDbEntity
  8
0
  6
Continuous
 62
     7
370
    15
100
AcDbLine
 10
82.1878689216
 20
371.2998590791
 30
0.0
 11
80.3780658867
 21
369.4900522103
 31
0.0
  0
LINE
  5
52
330
1F
100
AcDbEntity
  8
0
  6
Continuous
 62
     7
370
    15
100
AcDbLine
 10
182.9881552197
 20
371.2998372318
 30
0.0
 11
180.8188954169
 21
372.6797591855
 31
0.0
  0
LINE
  5
53
330
1F
100
AcDbEntity
  8
0
  6
Continuous
 62
     7
370
    15
100
AcDbLine
 10
84.3571293226
 20
372.6797800926
 30
0.0
 11
82.1878689216
 21
371.2998590791
 31
0.0
  0
LINE
  5
54
330
1F
100
AcDbEntity
  8
0
  6
Continuous
 62
     7
370
    15
100
AcDbLine
 10
180.8188954169
 20
372.6797591855
 30
0.0
 11
178.3606118548
 21
373.5593532079
 31
0.0
  0
LINE
  5
55
330
1F
100
AcDbEntity
  8
0
  6
Continuous
 62
     7
370
    15
100
AcDbLine
 10
86.815413266
 20
373.5593730493
 30
0.0
 11
84.3571293226
 21
372.6797800926
 31
0.0
  0
LINE
  5
56
330
1F
100
AcDbEntity
  8
0
  6
Continuous
 62
     7
370
    15
100
AcDbLine
 10
178.3606118547
 20
373.5593532079
 30
0.0
 11
175.6837377684
 21
373.8682075843
 31
0.0
  0
LINE
  5
57
330
1F
100
AcDbEntity
  8
0
  6
Continuous
 62
     7
370
    15
100
AcDbLine
 10
89.4922874862
 20
373.8682262653
 30
0.0
 11
86.815413266
 21
373.5593730493
 31
0.0
  0
LINE
  5
58
330
1F
100
AcDbEntity
  8
0
  6
Continuous
 62
     7
370
    15
100
AcDbLine
 10
166.5252891535
 20
373.8682135249
 30
0.0
 11
132.5880126273
 21
373.8682273379
 31
0.0
  0
LINE
  5
59
330
1F
100
AcDbEntity
  8
0
  6
Continuous
 62
     7
370
    15
100
AcDbLine
 10
132.5880126273
 20
373.8682273379
 30
0.0
 11
98.650736103
 21
373.8682282359
 31
0.0
  0
LWPOLYLINE
  5
5A
330
1F
100
AcDbEntity
  8
0
  6
Continuous
 62
     7
370
    15
100
AcDbPolyline
 90
       60
 70
   128
 43
0.0
 10
65.0886482376
 20
315.8879285693
 10
65.11383329
 20
315.8879282893
 10
65.3152027233
 20
315.8879276973
 10
65.7173406244
 20
315.8879270643
 10
66.3190468557
 20
315.8879263921
 10
67.1185256894
 20
315.8879256827
 10
68.1133911663
 20
315.8879249383
 10
69.3006742169
 20
315.887924161
 10
70.6768315219
 20
315.8879233533
 10
72.2377560871
 20
315.8879225175
 10
73.9787894999
 20
315.887921656
 10
75.8947358326
 20
315.8879207716
 10
77.979877148
 20
315.8879198667
 10
80.2279905652
 20
315.8879189442
 10
82.6323668299
 20
315.8879180067
 10
85.1858303385
 20
315.8879170571
 10
87.8807605522
 20
315.8879160982
 10
90.7091147401
 20
315.8879151328
 10
93.6624519816
 20
315.8879141639
 10
96.7319583577
 20
315.8879131943
 10
99.9084732548
 20
315.8879122269
 10
103.1825167042
 20
315.8879112646
 10
106.5443176732
 20
315.8879103104
 10
109.9838432265
 20
315.8879093669
 10
113.4908284681
 20
315.8879084371
 10
117.0548071755
 20
315.8879075238
 10
120.6651430355
 20
315.8879066295
 10
124.3110613871
 20
315.8879057571
 10
127.9816813767
 20
315.8879049091
 10
131.6660484317
 20
315.8879040881
 10
135.3531669528
 20
315.8879032964
 10
139.032033129
 20
315.8879025366
 10
142.6916677779
 20
315.8879018107
 10
146.3211491112
 20
315.8879011211
 10
149.9096453301
 20
315.8879004697
 10
153.4464469515
 20
315.8878998585
 10
156.9209987694
 20
315.8878992893
 10
160.3229313553
 20
315.8878987638
 10
163.6420920056
 20
315.8878982837
 10
166.8685750401
 20
315.8878978502
 10
169.9927513654
 20
315.8878974648
 10
173.0052972115
 20
315.8878971286
 10
175.8972219575
 20
315.8878968425
 10
178.6598949634
 20
315.8878966074
 10
181.285071327
 20
315.8878964241
 10
183.7649164904
 20
315.887896293
 10
186.0920296208
 20
315.8878962147
 10
188.2594656981
 20
315.8878961892
 10
190.2607562412
 20
315.8878962166
 10
192.0899286124
 20
315.887896297
 10
193.7415238426
 20
315.88789643
 10
195.2106129223
 20
315.8878966153
 10
196.4928115124
 20
315.8878968523
 10
197.5842930284
 20
315.8878971403
 10
198.4818000604
 20
315.8878974784
 10
199.1826540946
 20
315.8878978656
 10
199.6847635073
 20
315.8878983008
 10
199.9866298064
 20
315.8878987827
 10
200.0873521045
 20
315.8878993098
 10
200.0873521045
 20
315.8878993098
  0
LWPOLYLINE
  5
5B
330
1F
100
AcDbEntity
  8
0
  6
Continuous
 62
     7
370
    15
100
AcDbPolyline
 90
       11
 70
   128
 43
0.0
 10
187.3663051869
 20
315.8879070481
 10
187.2644157404
 20
315.8879075675
 10
186.9591264365
 20
315.8879081291
 10
186.4515729713
 20
315.8879087309
 10
185.7436434771
 20
315.8879093706
 10
184.8379714982
 20
315.8879100459
 10
183.7379261937
 20
315.8879107541
 10
182.4475998044
 20
315.8879114927
 10
180.9717924294
 20
315.887912259
 10
179.3159941688
 20
315.88791305
 10
178.4529108455
 20
315.8879134404
  0
LWPOLYLINE
  5
5C
330
1F
100
AcDbEntity
  8
0
  6
Continuous
 62
     7
370
    15
100
AcDbPolyline
 90
       63
 70
   128
 43
0.0
 10
86.7230892759
 20
315.8879333218
 10
85.0099775049
 20
315.8879332756
 10
83.4434460677
 20
315.8879331757
 10
82.0597355991
 20
315.8879330227
 10
80.863993593
 20
315.8879328172
 10
79.8606682883
 20
315.8879325601
 10
79.0534921209
 20
315.8879322522
 10
78.4454678392
 20
315.8879318948
 10
78.0388573334
 20
315.887931489
 10
77.8351732214
 20
315.8879310365
 10
77.8351732214
 20
315.887930539
 10
78.0388573334
 20
315.8879299982
 10
78.4454678392
 20
315.8879294162
 10
79.0534921209
 20
315.8879287952
 10
79.8606682883
 20
315.8879281374
 10
80.863993593
 20
315.8879274453
 10
82.0597355991
 20
315.8879267216
 10
83.4434460677
 20
315.8879259688
 10
85.0099775049
 20
315.8879251898
 10
86.753502311
 20
315.8879243874
 10
88.6675344591
 20
315.8879235648
 10
90.744953624
 20
315.8879227248
 10
92.9780316699
 20
315.8879218707
 10
95.3584613997
 20
315.8879210057
 10
97.8773874587
 20
315.8879201328
 10
100.5254392763
 20
315.8879192555
 10
103.2927659259
 20
315.8879183769
 10
106.1690727707
 20
315.8879175004
 10
109.1436597601
 20
315.8879166291
 10
112.2054612353
 20
315.8879157663
 10
115.3430870936
 20
315.8879149153
 10
118.5448651609
 20
315.8879140792
 10
121.7988846123
 20
315.8879132611
 10
125.0930402818
 20
315.8879124641
 10
128.4150776939
 20
315.887911691
 10
131.7526386514
 20
315.8879109449
 10
135.0933072082
 20
315.8879102284
 10
138.4246558578
 20
315.8879095443
 10
141.7342917645
 20
315.887908895
 10
145.0099028653
 20
315.8879082831
 10
148.2393036718
 20
315.8879077107
 10
151.4104806009
 20
315.88790718
 10
154.5116366662
 20
315.887906693
 10
157.5312353633
 20
315.8879062515
 10
160.4580435868
 20
315.8879058571
 10
163.2811734179
 20
315.8879055113
 10
165.9901226282
 20
315.8879052154
 10
168.5748137486
 20
315.8879049705
 10
171.0256315585
 20
315.8879047775
 10
173.3334588547
 20
315.8879046371
 10
175.4897103679
 20
315.8879045498
 10
177.4863647011
 20
315.887904516
 10
179.3159941688
 20
315.8879045358
 10
180.9717924294
 20
315.887904609
 10
182.4475998044
 20
315.8879047356
 10
183.7379261937
 20
315.8879049149
 10
184.8379714982
 20
315.8879051463
 10
185.7436434771
 20
315.8879054289
 10
186.4515729713
 20
315.8879057617
 10
186.9591264365
 20
315.8879061435
 10
187.2644157404
 20
315.8879065728
 10
187.3663051869
 20
315.8879070481
 10
187.3663051869
 20
315.8879070481
  0
LWPOLYLINE
  5
5D
330
1F
100
AcDbEntity
  8
0
  6
Continuous
 62
     7
370
    15
100
AcDbPolyline
 90
       59
 70
   128
 43
0.0
 10
65.0886476749
 20
313.2917962909
 10
65.1138331684
 20
313.2917960108
 10
65.3152026004
 20
313.2917954189
 10
65.7173404989
 20
313.2917947858
 10
66.3190467263
 20
313.2917941136
 10
67.1185255547
 20
313.2917934043
 10
68.1133910251
 20
313.2917926598
 10
69.3006740679
 20
313.2917918826
 10
70.6768313639
 20
313.2917910749
 10
72.2377559189
 20
313.291790239
 10
73.9787893204
 20
313.2917893776
 10
75.8947356405
 20
313.2917884931
 10
77.9798769423
 20
313.2917875883
 10
80.2279903448
 20
313.2917866657
 10
82.6323665938
 20
313.2917857282
 10
85.1858300857
 20
313.2917847786
 10
87.8807602818
 20
313.2917838197
 10
90.7091144512
 20
313.2917828543
 10
93.6624516734
 20
313.2917818854
 10
96.7319580294
 20
313.2917809158
 10
99.9084729058
 20
313.2917799485
 10
103.1825163337
 20
313.2917789862
 10
106.5443172807
 20
313.2917780319
 10
109.9838428116
 20
313.2917770885
 10
113.4908280302
 20
313.2917761587
 10
117.0548067143
 20
313.2917752453
 10
120.6651425508
 20
313.2917743511
 10
124.3110608785
 20
313.2917734787
 10
127.9816808441
 20
313.2917726307
 10
131.6660478751
 20
313.2917718096
 10
135.353166372
 20
313.291771018
 10
139.0320325242
 20
313.2917702581
 10
142.6916671492
 20
313.2917695323
 10
146.3211484587
 20
313.2917688426
 10
149.9096446542
 20
313.2917681912
 10
153.4464462525
 20
313.29176758
 10
156.9209980476
 20
313.2917670109
 10
160.3229306113
 20
313.2917664854
 10
163.6420912399
 20
313.2917660052
 10
166.8685742533
 20
313.2917655718
 10
169.9927505582
 20
313.2917651864
 10
173.0052963846
 20
313.2917648501
 10
175.8972211117
 20
313.2917645641
 10
178.6598940995
 20
313.291764329
 10
181.285070446
 20
313.2917641457
 10
183.7649155932
 20
313.2917640146
 10
186.0920287084
 20
313.2917639362
 10
188.2594647715
 20
313.2917639107
 10
190.2607553015
 20
313.2917639382
 10
192.0899276608
 20
313.2917640186
 10
193.7415228801
 20
313.2917641516
 10
195.2106119503
 20
313.2917643369
 10
196.492810532
 20
313.2917645738
 10
197.5842920408
 20
313.2917648618
 10
198.4817990669
 20
313.2917651999
 10
199.1826530966
 20
313.2917655872
 10
199.684762506
 20
313.2917660224
 10
199.9866288032
 20
313.2917665043
 10
200.0873511005
 20
313.2917670314
  0
LWPOLYLINE
  5
5E
330
1F
100
AcDbEntity
  8
0
  6
Continuous
 62
     7
370
    15
100
AcDbPolyline
 90
       13
 70
   128
 43
0.0
 10
196.6258410519
 20
309.8302589134
 10
196.5250976801
 20
309.83025947
 10
196.2231845406
 20
309.8302600685
 10
195.7210515638
 20
309.830260707
 10
195.0202786459
 20
309.8302613835
 10
194.1230706778
 20
309.830262096
 10
193.0322506075
 20
309.8302628421
 10
191.7512505587
 20
309.8302636195
 10
190.2841010314
 20
309.8302644258
 10
188.6354182208
 20
309.8302652584
 10
186.810389493
 20
309.8302661147
 10
184.8147570636
 20
309.830266992
 10
184.5105511115
 20
309.8302671212
  0
LWPOLYLINE
  5
5F
330
1F
100
AcDbEntity
  8
0
  6
Continuous
 62
     7
370
    15
100
AcDbPolyline
 90
       70
 70
   128
 43
0.0
 10
80.6654463841
 20
309.8302896285
 10
80.361240432
 20
309.8302896311
 10
78.3656080026
 20
309.8302896189
 10
76.5405792748
 20
309.8302895537
 10
74.8918964642
 20
309.8302894358
 10
73.4247469369
 20
309.8302892655
 10
72.143746888
 20
309.8302890433
 10
71.0529268178
 20
309.8302887701
 10
70.1557188496
 20
309.8302884466
 10
69.4549459317
 20
309.8302880738
 10
68.952812955
 20
309.8302876529
 10
68.6508998155
 20
309.8302871853
 10
68.5501564437
 20
309.8302866724
 10
68.6508998155
 20
309.8302861159
 10
68.952812955
 20
309.8302855174
 10
69.4549459317
 20
309.8302848789
 10
70.1557188496
 20
309.8302842023
 10
71.0529268178
 20
309.8302834899
 10
72.143746888
 20
309.8302827438
 10
73.4247469369
 20
309.8302819664
 10
74.8918964642
 20
309.8302811601
 10
76.5405792748
 20
309.8302803275
 10
78.3656080026
 20
309.8302794712
 10
80.361240432
 20
309.8302785939
 10
82.5211975651
 20
309.8302776983
 10
84.8386833777
 20
309.8302767873
 10
87.306406202
 20
309.8302758637
 10
89.916601669
 20
309.8302749305
 10
92.6610571382
 20
309.8302739905
 10
95.5311375371
 20
309.8302730468
 10
98.5178125312
 20
309.8302721023
 10
101.6116849358
 20
309.8302711599
 10
104.8030202839
 20
309.8302702227
 10
108.0817774536
 20
309.8302692936
 10
111.437640262
 20
309.8302683755
 10
114.860049923
 20
309.8302674712
 10
118.3382382697
 20
309.8302665838
 10
121.8612616348
 20
309.8302657158
 10
125.4180352834
 20
309.8302648702
 10
128.9973682897
 20
309.8302640494
 10
132.5879987478
 20
309.8302632562
 10
136.1786292059
 20
309.830262493
 10
139.7579622122
 20
309.8302617621
 10
143.3147358607
 20
309.830261066
 10
146.8377592258
 20
309.8302604068
 10
150.3159475726
 20
309.8302597866
 10
153.7383572336
 20
309.8302592072
 10
157.094220042
 20
309.8302586707
 10
160.3729772117
 20
309.8302581785
 10
163.5643125597
 20
309.8302577324
 10
166.6581849644
 20
309.8302573336
 10
169.6448599585
 20
309.8302569835
 10
172.5149403574
 20
309.8302566831
 10
175.2593958266
 20
309.8302564334
 10
177.8695912936
 20
309.8302562351
 10
180.3373141179
 20
309.830256089
 10
182.6547999305
 20
309.8302559954
 10
184.8147570636
 20
309.8302559547
 10
186.810389493
 20
309.830255967
 10
188.6354182208
 20
309.8302560322
 10
190.2841010314
 20
309.8302561501
 10
191.7512505587
 20
309.8302563204
 10
193.0322506075
 20
309.8302565425
 10
194.1230706778
 20
309.8302568158
 10
195.0202786459
 20
309.8302571393
 10
195.7210515638
 20
309.8302575121
 10
196.2231845406
 20
309.8302579329
 10
196.5250976801
 20
309.8302584005
 10
196.6258410519
 20
309.8302589134
 10
196.6258410519
 20
309.8302589134
  0
LWPOLYLINE
  5
60
330
1F
100
AcDbEntity
  8
0
  6
Continuous
 62
     7
370
    15
100
AcDbPolyline
 90
       51
 70
   128
 43
0.0
 10
80.6654437296
 20
309.830286974
 10
80.7679010313
 20
309.8302864662
 10
81.0748685844
 20
309.8302859161
 10
81.5851349281
 20
309.8302853257
 10
82.2966862744
 20
309.8302846974
 10
83.206714455
 20
309.8302840337
 10
84.3116280046
 20
309.8302833372
 10
85.6070663341
 20
309.8302826106
 10
87.0879169404
 20
309.8302818568
 10
88.7483355825
 20
309.8302810788
 10
90.5817693467
 20
309.8302802797
 10
92.5809825075
 20
309.8302794625
 10
94.7380850839
 20
309.8302786306
 10
97.0445639776
 20
309.8302777872
 10
99.4913165701
 20
309.8302769357
 10
102.0686866467
 20
309.8302760793
 10
104.7665025053
 20
309.8302752216
 10
107.574117099
 20
309.8302743658
 10
110.4804500559
 20
309.8302735153
 10
113.4740314075
 20
309.8302726736
 10
116.5430468558
 20
309.8302718438
 10
119.675384399
 20
309.8302710294
 10
122.8586821318
 20
309.8302702335
 10
126.0803770324
 20
309.8302694593
 10
129.3277545429
 20
309.8302687097
 10
132.5879987478
 20
309.8302679878
 10
135.8482429527
 20
309.8302672965
 10
139.0956204631
 20
309.8302666383
 10
142.3173153638
 20
309.8302660161
 10
145.5006130966
 20
309.8302654321
 10
148.6329506398
 20
309.8302648887
 10
151.7019660881
 20
309.8302643881
 10
154.6955474397
 20
309.8302639322
 10
157.6018803966
 20
309.8302635228
 10
160.4094949903
 20
309.8302631616
 10
163.1073108489
 20
309.8302628499
 10
165.6846809255
 20
309.830262589
 10
168.1314335179
 20
309.8302623799
 10
170.4379124116
 20
309.8302622235
 10
172.5950149881
 20
309.8302621204
 10
174.5942281489
 20
309.8302620709
 10
176.4276619131
 20
309.8302620753
 10
178.0880805552
 20
309.8302621335
 10
179.5689311614
 20
309.8302622454
 10
180.864369491
 20
309.8302624104
 10
181.9692830406
 20
309.830262628
 10
182.8793112212
 20
309.8302628972
 10
183.5908625675
 20
309.8302632171
 10
184.1011289112
 20
309.8302635863
 10
184.4080964643
 20
309.8302640033
 10
184.510553766
 20
309.8302644667
  0
LWPOLYLINE
  5
61
330
1F
100
AcDbEntity
  8
0
  6
Continuous
 62
     7
370
    15
100
AcDbPolyline
 90
       54
 70
   128
 43
0.0
 10
77.8096950846
 20
362.1856393046
 10
77.835173376
 20
362.1856390503
 10
78.0388575248
 20
362.1856385095
 10
78.4454681039
 20
362.1856379275
 10
79.0534924954
 20
362.1856373065
 10
79.8606688084
 20
362.1856366487
 10
80.8639942942
 20
362.1856359567
 10
82.0597365161
 20
362.1856352329
 10
83.4434472343
 20
362.1856344801
 10
85.0099789542
 20
362.1856337011
 10
86.7535040749
 20
362.1856328988
 10
88.6675365684
 20
362.1856320761
 10
90.7449561081
 20
362.1856312362
 10
92.978034557
 20
362.1856303821
 10
95.3584647164
 20
362.185629517
 10
97.8773912299
 20
362.1856286442
 10
100.5254435253
 20
362.1856277669
 10
103.2927706743
 20
362.1856268883
 10
106.169078038
 20
362.1856260117
 10
109.1436655642
 20
362.1856251404
 10
112.2054675919
 20
362.1856242777
 10
115.3430940164
 20
362.1856234267
 10
118.5448726614
 20
362.1856225906
 10
121.7988927
 20
362.1856217725
 10
125.0930489639
 20
362.1856209754
 10
128.4150869755
 20
362.1856202024
 10
131.7526485352
 20
362.1856194562
 10
135.0933176947
 20
362.1856187398
 10
138.4246669455
 20
362.1856180556
 10
141.7343034494
 20
362.1856174064
 10
145.0099151413
 20
362.1856167944
 10
148.2393165305
 20
362.1856162221
 10
151.4104940319
 20
362.1856156914
 10
154.5116506567
 20
362.1856152044
 10
157.5312498987
 20
362.1856147629
 10
160.4580586503
 20
362.1856143685
 10
163.2811889908
 20
362.1856140227
 10
165.9901386899
 20
362.1856137268
 10
168.5748302768
 20
362.1856134819
 10
171.0256485289
 20
362.1856132888
 10
173.3334762415
 20
362.1856131484
 10
175.4897281439
 20
362.1856130612
 10
177.4863828373
 20
362.1856130273
 10
179.3160126352
 20
362.1856130471
 10
180.9718111945
 20
362.1856131204
 10
182.4476188359
 20
362.1856132469
 10
183.7379454579
 20
362.1856134262
 10
184.8379909609
 20
362.1856136576
 10
185.7436631033
 20
362.1856139402
 10
186.4515927252
 20
362.1856142731
 10
186.959146282
 20
362.1856146549
 10
187.264435641
 20
362.1856150842
 10
187.3663251058
 20
362.1856155594
 10
187.3663251058
 20
362.1856155594
  0
LWPOLYLINE
  5
62
330
1F
100
AcDbEntity
  8
0
  6
Continuous
 62
     7
370
    15
100
AcDbPolyline
 90
       54
 70
   128
 43
0.0
 10
78.1185434599
 20
364.8625115657
 10
78.1438781011
 20
364.8625113129
 10
78.3464138502
 20
364.8625107751
 10
78.750731902
 20
364.8625101964
 10
79.355328167
 20
364.8625095789
 10
80.1579535072
 20
364.8625089248
 10
81.1556221037
 20
364.8625082367
 10
82.3446225638
 20
364.862507517
 10
83.7205317276
 20
364.8625067684
 10
85.2782311228
 20
364.8625059938
 10
87.0119260052
 20
364.862505196
 10
88.915166916
 20
364.862504378
 10
90.9808736741
 20
364.8625035428
 10
93.2013617146
 20
364.8625026935
 10
95.5683706761
 20
364.8625018333
 10
98.0730951299
 20
364.8625009654
 10
100.7062173364
 20
364.862500093
 10
103.4579419082
 20
364.8624992194
 10
106.3180322491
 20
364.8624983478
 10
109.2758486351
 20
364.8624974814
 10
112.3203877951
 20
364.8624966235
 10
115.4403238433
 20
364.8624957773
 10
118.6240504129
 20
364.8624949459
 10
121.8597238317
 20
364.8624941324
 10
125.1353071823
 20
364.8624933399
 10
128.4386150794
 20
364.8624925712
 10
131.7573590006
 20
364.8624918293
 10
135.0791930006
 20
364.8624911168
 10
138.3917596387
 20
364.8624904366
 10
141.6827359495
 20
364.862489791
 10
144.9398792849
 20
364.8624891825
 10
148.1510728579
 20
364.8624886133
 10
151.3043708173
 20
364.8624880856
 10
154.3880426877
 20
364.8624876014
 10
157.3906170072
 20
364.8624871623
 10
160.3009240021
 20
364.8624867702
 10
163.1081371392
 20
364.8624864263
 10
165.8018134013
 20
364.8624861321
 10
168.3719321358
 20
364.8624858886
 10
170.8089323321
 20
364.8624856966
 10
173.1037481896
 20
364.862485557
 10
175.2478428424
 20
364.8624854702
 10
177.2332401176
 20
364.8624854366
 10
179.052554207
 20
364.8624854563
 10
180.6990171426
 20
364.8624855291
 10
182.1665039743
 20
364.8624856549
 10
183.4495555546
 20
364.8624858332
 10
184.5433988473
 20
364.8624860633
 10
185.4439646836
 20
364.8624863444
 10
186.1479028993
 20
364.8624866753
 10
186.6525947982
 20
364.8624870549
 10
186.9561628932
 20
364.8624874818
 10
187.057477891
 20
364.8624879544
 10
187.057477891
 20
364.8624879544
  0
LWPOLYLINE
  5
63
330
1F
100
AcDbEntity
  8
0
  6
Continuous
 62
     7
370
    15
100
AcDbPolyline
 90
       52
 70
   128
 43
0.0
 10
78.9981499283
 20
367.3207864289
 10
79.0997922782
 20
367.3207859156
 10
79.4043337636
 20
367.3207853601
 10
79.9106191543
 20
367.3207847647
 10
80.6167279365
 20
367.3207841315
 10
81.5199815976
 20
367.3207834629
 10
82.6169537871
 20
367.3207827616
 10
83.9034833138
 20
367.3207820301
 10
85.3746899306
 20
367.3207812712
 10
87.0249928467
 20
367.3207804879
 10
88.848131898
 20
367.320779683
 10
90.8371912935
 20
367.3207788596
 10
92.9846258498
 20
367.3207780209
 10
95.2822896119
 20
367.32077717
 10
97.7214667541
 20
367.3207763102
 10
100.2929046422
 20
367.3207754447
 10
102.9868489314
 20
367.3207745768
 10
105.7930805683
 20
367.3207737098
 10
108.700954555
 20
367.3207728471
 10
111.6994403296
 20
367.3207719917
 10
114.7771636084
 20
367.3207711471
 10
117.9224495328
 20
367.3207703164
 10
121.123366956
 20
367.3207695027
 10
124.3677737018
 20
367.3207687092
 10
127.6433626241
 20
367.3207679389
 10
130.9377082921
 20
367.3207671946
 10
134.2383141244
 20
367.3207664792
 10
137.5326597924
 20
367.3207657955
 10
140.8082487147
 20
367.3207651459
 10
144.0526554604
 20
367.320764533
 10
147.2535728836
 20
367.3207639592
 10
150.3988588081
 20
367.3207634265
 10
153.4765820868
 20
367.320762937
 10
156.4750678614
 20
367.3207624925
 10
159.3829418482
 20
367.3207620948
 10
162.1891734851
 20
367.3207617454
 10
164.8831177743
 20
367.3207614455
 10
167.4545556623
 20
367.3207611963
 10
169.8937328046
 20
367.3207609988
 10
172.1913965667
 20
367.3207608537
 10
174.3388311229
 20
367.3207607615
 10
176.3278905185
 20
367.3207607227
 10
178.1510295698
 20
367.3207607373
 10
179.8013324859
 20
367.3207608053
 10
181.2725391026
 20
367.3207609264
 10
182.5590686294
 20
367.3207611002
 10
183.6560408189
 20
367.3207613261
 10
184.55929448
 20
367.3207616031
 10
185.2654032622
 20
367.3207619302
 10
185.7716886529
 20
367.3207623062
 10
186.0762301382
 20
367.3207627296
 10
186.1778724881
 20
367.3207631989
  0
LWPOLYLINE
  5
64
330
1F
100
AcDbEntity
  8
0
  6
Continuous
 62
     7
370
    15
100
AcDbPolyline
 90
       53
 70
   128
 43
0.0
 10
80.3780658867
 20
369.4900522103
 10
80.4033207621
 20
369.4900519631
 10
80.6052131934
 20
369.4900514366
 10
81.0082169736
 20
369.4900508694
 10
81.6107729592
 20
369.4900502636
 10
82.4105499782
 20
369.4900496215
 10
83.4044538488
 20
369.4900489457
 10
84.5886393497
 20
369.4900482387
 10
85.9585250976
 20
369.4900475033
 10
87.5088112704
 20
369.4900467423
 10
89.2335001122
 20
369.4900459587
 10
91.1259191369
 20
369.4900451556
 10
93.1787469429
 20
369.4900443359
 10
95.3840415383
 20
369.4900435029
 10
97.7332710666
 20
369.4900426598
 10
100.2173468152
 20
369.4900418099
 10
102.8266583776
 20
369.4900409565
 10
105.5511108342
 20
369.4900401028
 10
108.3801638079
 20
369.4900392522
 10
111.3028722421
 20
369.4900384079
 10
114.3079287459
 20
369.4900375733
 10
117.3837073393
 20
369.4900367515
 10
120.5183084325
 20
369.4900359457
 10
123.6996048628
 20
369.4900351591
 10
126.9152888123
 20
369.4900343946
 10
130.1529194246
 20
369.4900336554
 10
133.3999709357
 20
369.4900329441
 10
136.6438811342
 20
369.4900322635
 10
139.8720999618
 20
369.4900316164
 10
143.0721380668
 20
369.4900310052
 10
146.2316151235
 20
369.4900304322
 10
149.338307729
 20
369.4900298997
 10
152.3801966931
 20
369.4900294097
 10
155.3455135384
 20
369.4900289642
 10
158.22278603
 20
369.4900285648
 10
161.0008825597
 20
369.4900282131
 10
163.6690552116
 20
369.4900279105
 10
166.2169813441
 20
369.4900276581
 10
168.6348035259
 20
369.4900274569
 10
170.9131676728
 20
369.4900273078
 10
173.0432592365
 20
369.4900272111
 10
175.0168373065
 20
369.4900271674
 10
176.8262664927
 20
369.4900271769
 10
178.4645464651
 20
369.4900272393
 10
179.9253390366
 20
369.4900273547
 10
181.2029926847
 20
369.4900275224
 10
182.2925644156
 20
369.4900277418
 10
183.1898388879
 20
369.4900280121
 10
183.891344721
 20
369.4900283323
 10
184.3943679252
 20
369.490028701
 10
184.6969624013
 20
369.490029117
 10
184.79795747
 20
369.4900295785
 10
184.79795747
 20
369.4900295785
  0
LWPOLYLINE
  5
65
330
1F
100
AcDbEntity
  8
0
  6
Continuous
 62
     7
370
    15
100
AcDbPolyline
 90
       52
 70
   128
 43
0.0
 10
82.1878689216
 20
371.2998590791
 10
82.2132432575
 20
371.2998588355
 10
82.4160846721
 20
371.2998583162
 10
82.8209507304
 20
371.299857756
 10
83.4262111798
 20
371.2998571571
 10
84.2294288499
 20
371.299856522
 10
85.2273694669
 20
371.2998558532
 10
86.416014676
 20
371.2998551534
 10
87.7905782225
 20
371.2998544254
 10
89.3455252241
 20
371.2998536722
 10
91.074594458
 20
371.2998528968
 10
92.9708235728
 20
371.2998521023
 10
95.0265771231
 20
371.2998512919
 10
97.2335773148
 20
371.2998504688
 10
99.5829373371
 20
371.2998496364
 10
102.0651971464
 20
371.2998487981
 10
104.6703615587
 20
371.2998479572
 10
107.3879404961
 20
371.2998471171
 10
110.2069912276
 20
371.2998462812
 10
113.1161624308
 20
371.2998454528
 10
116.1037399
 20
371.2998446353
 10
119.1576937152
 20
371.2998438319
 10
122.2657266823
 20
371.299843046
 10
125.4153238494
 20
371.2998422807
 10
128.5938029005
 20
371.299841539
 10
131.7883652222
 20
371.2998408239
 10
134.9861474395
 20
371.2998401384
 10
138.174273212
 20
371.2998394852
 10
141.3399050826
 20
371.2998388668
 10
144.470296169
 20
371.2998382859
 10
147.5528414911
 20
371.2998377447
 10
150.5751287268
 20
371.2998372454
 10
153.5249881922
 20
371.2998367901
 10
156.3905418444
 20
371.2998363805
 10
159.1602511101
 20
371.2998360183
 10
161.8229633477
 20
371.2998357051
 10
164.3679567547
 20
371.2998354419
 10
166.7849835411
 20
371.2998352299
 10
169.064311193
 20
371.29983507
 10
171.1967616624
 20
371.2998349628
 10
173.1737483239
 20
371.2998349087
 10
174.98731055
 20
371.2998349079
 10
176.6301457657
 20
371.2998349605
 10
178.0956388534
 20
371.2998350662
 10
179.3778887897
 20
371.2998352246
 10
180.4717324066
 20
371.2998354351
 10
181.372765182
 20
371.2998356968
 10
182.0773589749
 20
371.2998360087
 10
182.5826766347
 20
371.2998363695
 10
182.8866834257
 20
371.2998367777
 10
182.9881552197
 20
371.2998372318
 10
182.9881552197
 20
371.2998372318
  0
LWPOLYLINE
  5
66
330
1F
100
AcDbEntity
  8
0
  6
Continuous
 62
     7
370
    15
100
AcDbPolyline
 90
       51
 70
   128
 43
0.0
 10
84.3571293226
 20
372.6797800926
 10
84.3824230906
 20
372.6797798545
 10
84.5846140847
 20
372.6797793465
 10
84.9881480135
 20
372.6797787977
 10
85.5913323156
 20
372.6797782106
 10
86.3916370263
 20
372.6797775875
 10
87.3857053896
 20
372.679776931
 10
88.5693679372
 20
372.679776244
 10
89.9376599772
 20
372.6797755293
 10
91.4848424172
 20
372.6797747898
 10
93.2044258363
 20
372.6797740288
 10
95.089197704
 20
372.6797732493
 10
97.1312526323
 20
372.6797724547
 10
99.322025533
 20
372.6797716483
 10
101.6523275432
 20
372.6797708335
 10
104.1123845665
 20
372.6797700136
 10
106.6918782688
 20
372.6797691922
 10
109.3799893571
 20
372.6797683726
 10
112.1654429592
 20
372.6797675584
 10
115.0365559148
 20
372.6797667529
 10
117.9812857783
 20
372.6797659595
 10
120.9872813293
 20
372.6797651815
 10
124.0419343779
 20
372.6797644223
 10
127.1324326475
 20
372.6797636849
 10
130.2458135144
 20
372.6797629725
 10
133.3690183773
 20
372.679762288
 10
136.4889474296
 20
372.6797616344
 10
139.5925146046
 20
372.6797610143
 10
142.6667024629
 20
372.6797604305
 10
145.6986167925
 20
372.6797598852
 10
148.6755406908
 20
372.6797593809
 10
151.5849879045
 20
372.6797589196
 10
154.4147552009
 20
372.6797585032
 10
157.1529735526
 20
372.6797581336
 10
159.7881579201
 20
372.6797578122
 10
162.3092554245
 20
372.6797575404
 10
164.7056917066
 20
372.6797573194
 10
166.9674152799
 20
372.67975715
 10
169.0849396897
 20
372.6797570331
 10
171.0493833028
 20
372.679756969
 10
172.8525065599
 20
372.679756958
 10
174.4867465354
 20
372.6797570002
 10
175.9452486591
 20
372.6797570955
 10
177.221895466
 20
372.6797572433
 10
178.3113322558
 20
372.6797574432
 10
179.2089895521
 20
372.6797576942
 10
179.9111022681
 20
372.6797579953
 10
180.4147254992
 20
372.6797583452
 10
180.7177468744
 20
372.6797587425
 10
180.8188954169
 20
372.6797591855
 10
180.8188954169
 20
372.6797591855
  0
LWPOLYLINE
  5
67
330
1F
100
AcDbEntity
  8
0
  6
Continuous
 62
     7
370
    15
100
AcDbPolyline
 90
       49
 70
   128
 43
0.0
 10
86.815413266
 20
373.5593730493
 10
86.815413266
 20
373.5593730493
 10
86.9176290359
 20
373.5593725718
 10
87.2238198254
 20
373.5593720522
 10
87.7326181119
 20
373.5593714927
 10
88.4417514788
 20
373.5593708959
 10
89.3480527644
 20
373.5593702643
 10
90.4474742071
 20
373.5593696009
 10
91.7351055239
 20
373.5593689086
 10
93.2051958406
 20
373.5593681905
 10
94.8511793772
 20
373.5593674498
 10
96.6657047715
 20
373.5593666897
 10
98.6406679127
 20
373.5593659138
 10
100.7672481359
 20
373.5593651254
 10
103.0359476177
 20
373.5593643281
 10
105.4366337953
 20
373.5593635255
 10
107.9585846216
 20
373.559362721
 10
110.590536452
 20
373.5593619184
 10
113.3207343507
 20
373.5593611212
 10
116.136984591
 20
373.559360333
 10
119.0267091158
 20
373.5593595573
 10
121.9770017138
 20
373.5593587975
 10
124.9746856621
 20
373.559358057
 10
128.0063725766
 20
373.5593573392
 10
131.0585222074
 20
373.5593566472
 10
134.1175029134
 20
373.5593559842
 10
137.1696525442
 20
373.5593553532
 10
140.2013394586
 20
373.5593547568
 10
143.1990234069
 20
373.5593541978
 10
146.149316005
 20
373.5593536787
 10
149.0390405298
 20
373.5593532018
 10
151.8552907701
 20
373.5593527693
 10
154.5854886687
 20
373.559352383
 10
157.2174404991
 20
373.5593520447
 10
159.7393913254
 20
373.5593517559
 10
162.1400775031
 20
373.5593515179
 10
164.4087769848
 20
373.5593513318
 10
166.5353572081
 20
373.5593511984
 10
168.5103203492
 20
373.5593511182
 10
170.3248457436
 20
373.5593510917
 10
171.9708292801
 20
373.5593511189
 10
173.4409195969
 20
373.5593511998
 10
174.7285509137
 20
373.5593513339
 10
175.8279723564
 20
373.5593515208
 10
176.7342736419
 20
373.5593517594
 10
177.4434070089
 20
373.5593520489
 10
177.9522052954
 20
373.5593523878
 10
178.2583960848
 20
373.5593527747
 10
178.3606118548
 20
373.5593532078
  0
LWPOLYLINE
  5
68
330
1F
100
AcDbEntity
  8
0
  6
Continuous
 62
     7
370
    15
100
AcDbPolyline
 90
       48
 70
   128
 43
0.0
 10
89.4922874862
 20
373.8682262653
 10
89.5179664812
 20
373.8682260382
 10
89.7232148651
 20
373.8682255517
 10
90.1327335308
 20
373.8682250242
 10
90.7445709355
 20
373.868224458
 10
91.5558113952
 20
373.8682238559
 10
92.5625889798
 20
373.8682232208
 10
93.7601059355
 20
373.8682225557
 10
95.1426555487
 20
373.8682218637
 10
96.7036493409
 20
373.8682211482
 10
98.4356484659
 20
373.8682204126
 10
100.3303991589
 20
373.8682196604
 10
102.3788720702
 20
373.8682188951
 10
104.5713052934
 20
373.8682181204
 10
106.8972508858
 20
373.8682173401
 10
109.3456246574
 20
373.8682165577
 10
111.9047589922
 20
373.8682157772
 10
114.5624584497
 20
373.868215002
 10
117.3060578816
 20
373.8682142361
 10
120.1224827873
 20
373.8682134829
 10
122.9983116194
 20
373.8682127462
 10
125.9198397439
 20
373.8682120294
 10
128.8731447489
 20
373.8682113359
 10
131.8441527911
 20
373.868210669
 10
134.8187056641
 20
373.8682100319
 10
137.782628269
 20
373.8682094277
 10
140.7217961648
 20
373.8682088593
 10
143.6222028778
 20
373.8682083292
 10
146.4700266494
 20
373.8682078401
 10
149.2516963023
 20
373.8682073943
 10
151.953955914
 20
373.868206994
 10
154.5639279866
 20
373.8682066409
 10
157.0691748148
 20
373.8682063369
 10
159.4577577565
 20
373.8682060833
 10
161.7182941263
 20
373.8682058814
 10
163.8400114388
 20
373.8682057321
 10
165.812798745
 20
373.8682056361
 10
167.6272548148
 20
373.868205594
 10
169.2747329388
 20
373.8682056058
 10
170.7473821334
 20
373.8682056716
 10
172.0381845547
 20
373.868205791
 10
173.1409889413
 20
373.8682059634
 10
174.050539928
 20
373.8682061881
 10
174.7625030901
 20
373.868206464
 10
175.2734855991
 20
373.8682067897
 10
175.5810523905
 20
373.8682071637
 10
175.6837377685
 20
373.8682075843
 10
175.6837377685
 20
373.8682075843
  0
CIRCLE
  5
69
330
1F
100
AcDbEntity
  8
0
  6
Continuous
 62
     7
370
    15
100
AcDbCircle
 10
132.5880125604
 20
215.1272966745
 30
0.0
 40
45.77259929440888
  0
CIRCLE
  5
6A
330
1F
100
AcDbEntity
  8
0
  6
Continuous
 62
     7
370
    15
100
AcDbCircle
 10
132.5880126273
 20
215.1272966285
 30
0.0
 40
43.09572514114198
  0
CIRCLE
  5
6B
330
1F
100
AcDbEntity
  8
0
  6
Continuous
 62
     7
370
    15
100
AcDbCircle
 10
132.5880123697
 20
215.1272968055
 30
0.0
 40
48.2308830471694
  0
CIRCLE
  5
6C
330
1F
100
AcDbEntity
  8
0
  6
Continuous
 62
     7
370
    15
100
AcDbCircle
 10
132.5880120707
 20
215.127297011
 30
0.0
 40
50.40014314908176
  0
CIRCLE
  5
6D
330
1F
100
AcDbEntity
  8
0
  6
Continuous
 62
     7
370
    15
100
AcDbCircle
 10
132.5880116784
 20
215.1272972805
 30
0.0
 40
52.20994579165371
  0
CIRCLE
  5
6E
330
1F
100
AcDbEntity
  8
0
  6
Continuous
 62
     7
370
    15
100
AcDbCircle
 10
132.5880112082
 20
215.1272976036
 30
0.0
 40
53.58986127989341
  0
CIRCLE
  5
6F
330
1F
100
AcDbEntity
  8
0
  6
Continuous
 62
     7
370
    15
100
AcDbCircle
 10
132.5880106754
 20
215.1272979697
 30
0.0
 40
54.4694672155598
  0
CIRCLE
  5
70
330
1F
100
AcDbEntity
  8
0
  6
Continuous
 62
     7
370
    15
100
AcDbCircle
 10
132.5880100952
 20
215.1272983683
 30
0.0
 40
54.77831501061024
  0
CIRCLE
  5
71
330
1F
100
AcDbEntity
  8
0
  6
Continuous
 62
     7
370
    15
100
AcDbCircle
 10
132.5880000607
 20
215.1273052632
 30
0.0
 40
67.49935204374418
  0
ENDSEC
  0
SECTION
  2
OBJECTS
  0
DICTIONARY
  5
C
330
0
100
AcDbDictionary
281
     1
  3
ACAD_GROUP
350
D
  3
ACAD_LAYOUT
350
1A
  3
ACAD_MLINESTYLE
350
17
  3
ACAD_PLOTSETTINGS
350
19
  3
ACAD_PLOTSTYLENAME
350
E
  0
DICTIONARY
  5
D
102
{ACAD_REACTORS
330
C
102
}
330
C
100
AcDbDictionary
281
     1
  0
DICTIONARY
  5
1A
102
{ACAD_REACTORS
330
C
102
}
330
C
100
AcDbDictionary
281
     1
  3
Layout1
350
1E
  3
Layout2
350
26
  3
Model
350
22
  0
DICTIONARY
  5
17
102
{ACAD_REACTORS
330
C
102
}
330
C
100
AcDbDictionary
281
     1
  3
Standard
350
18
  0
DICTIONARY
  5
19
102
{ACAD_REACTORS
330
C
102
}
330
C
100
AcDbDictionary
281
     1
  0
ACDBDICTIONARYWDFLT
  5
E
102
{ACAD_REACTORS
330
C
102
}
330
C
100
AcDbDictionary
281
     1
  3
Normal
350
F
100
AcDbDictionaryWithDefault
340
F
  0
LAYOUT
  5
1E
102
{ACAD_REACTORS
330
1A
102
}
330
1A
100
AcDbPlotSettings
  1

  2
none_device
  4

  6

 40
0.0
 41
0.0
 42
0.0
 43
0.0
 44
0.0
 45
0.0
 46
0.0
 47
0.0
 48
0.0
 49
0.0
140
0.0
141
0.0
142
1.0
143
1.0
 70
   688
 72
     0
 73
     0
 74
     5
  7

 75
    16
147
1.0
148
0.0
149
0.0
100
AcDbLayout
  1
Layout1
 70
     1
 71
     1
 10
0.0
 20
0.0
 11
420.0
 21
297.0
 12
0.0
 22
0.0
 32
0.0
 14
1.0000000000E+20
 24
1.0000000000E+20
 34
1.0000000000E+20
 15
-1.0000000000E+20
 25
-1.0000000000E+20
 35
-1.0000000000E+20
146
0.0
 13
0.0
 23
0.0
 33
0.0
 16
1.0
 26
0.0
 36
0.0
 17
0.0
 27
1.0
 37
0.0
 76
     0
330
1B
  0
LAYOUT
  5
26
102
{ACAD_REACTORS
330
1A
102
}
330
1A
100
AcDbPlotSettings
  1

  2
none_device
  4

  6

 40
0.0
 41
0.0
 42
0.0
 43
0.0
 44
0.0
 45
0.0
 46
0.0
 47
0.0
 48
0.0
 49
0.0
140
0.0
141
0.0
142
1.0
143
1.0
 70
   688
 72
     0
 73
     0
 74
     5
  7

 75
    16
147
1.0
148
0.0
149
0.0
100
AcDbLayout
  1
Layout2
 70
     1
 71
     2
 10
0.0
 20
0.0
 11
0.0
 21
0.0
 12
0.0
 22
0.0
 32
0.0
 14
0.0
 24
0.0
 34
0.0
 15
0.0
 25
0.0
 35
0.0
146
0.0
 13
0.0
 23
0.0
 33
0.0
 16
1.0
 26
0.0
 36
0.0
 17
0.0
 27
1.0
 37
0.0
 76
     0
330
23
  0
LAYOUT
  5
22
102
{ACAD_REACTORS
330
1A
102
}
330
1A
100
AcDbPlotSettings
  1

  2
none_device
  4

  6

 40
0.0
 41
0.0
 42
0.0
 43
0.0
 44
0.0
 45
0.0
 46
0.0
 47
0.0
 48
0.0
 49
0.0
140
0.0
141
0.0
142
1.0
143
1.0
 70
  1712
 72
     0
 73
     0
 74
     0
  7

 75
     0
147
1.0
148
0.0
149
0.0
100
AcDbLayout
  1
Model
 70
     1
 71
     0
 10
0.0
 20
0.0
 11
558.8
 21
431.8
 12
0.0
 22
0.0
 32
0.0
 14
0.0
 24
0.0
 34
0.0
 15
558.8
 25
431.8
 35
0.0
146
0.0
 13
0.0
 23
0.0
 33
0.0
 16
1.0
 26
0.0
 36
0.0
 17
0.0
 27
1.0
 37
0.0
 76
     0
330
1F
331
29
  0
MLINESTYLE
  5
18
102
{ACAD_REACTORS
330
17
102
}
330
17
100
AcDbMlineStyle
  2
Standard
 70
     0
  3

 62
   256
 51
90.0
 52
90.0
 71
     2
 49
0.5
 62
   256
  6
BYLAYER
 49
-0.5
 62
   256
  6
BYLAYER
  0
ACDBPLACEHOLDER
  5
F
102
{ACAD_REACTORS
330
E
102
}
330
E
  0
ENDSEC
  0
EOF
