  0
SECTION
  2
HEADER
  9
$ACADVER
  1
AC1021
  9
$ACADMAINTVER
 70
    50
  9
$DWGCODEPAGE
  3
ANSI_1251
  9
$LASTSAVEDBY
  1
Игорь
  9
$INSBASE
 10
0.0
 20
0.0
 30
0.0
  9
$EXTMIN
 10
-164.2310603316768
 20
13.81330465694577
 30
-0.0015258207003583
  9
$EXTMAX
 10
285.0360907449807
 20
222.7753560404705
 30
0.0000000349246037
  9
$LIMMIN
 10
0.0
 20
0.0
  9
$LIMMAX
 10
279.4
 20
215.9
  9
$ORTHOMODE
 70
     0
  9
$REGENMODE
 70
     1
  9
$FILLMODE
 70
     1
  9
$QTEXTMODE
 70
     0
  9
$MIRRTEXT
 70
     1
  9
$LTSCALE
 40
1.0
  9
$ATTMODE
 70
     1
  9
$TEXTSIZE
 40
3.5
  9
$TRACEWID
 40
1.0
  9
$TEXTSTYLE
  7
Standard
  9
$CLAYER
  8
0
  9
$CELTYPE
  6
ByLayer
  9
$CECOLOR
 62
   256
  9
$CELTSCALE
 40
1.0
  9
$DISPSILH
 70
     0
  9
$DIMSCALE
 40
1.0
  9
$DIMASZ
 40
3.5
  9
$DIMEXO
 40
0.01
  9
$DIMDLI
 40
3.75
  9
$DIMRND
 40
0.0
  9
$DIMDLE
 40
0.0
  9
$DIMEXE
 40
1.0
  9
$DIMTP
 40
0.0
  9
$DIMTM
 40
0.0
  9
$DIMTXT
 40
3.5
  9
$DIMCEN
 40
2.5
  9
$DIMTSZ
 40
0.0
  9
$DIMTOL
 70
     0
  9
$DIMLIM
 70
     0
  9
$DIMTIH
 70
     1
  9
$DIMTOH
 70
     1
  9
$DIMSE1
 70
     0
  9
$DIMSE2
 70
     0
  9
$DIMTAD
 70
     1
  9
$DIMZIN
 70
     0
  9
$DIMBLK
  1

  9
$DIMASO
 70
     1
  9
$DIMSHO
 70
     1
  9
$DIMPOST
  1

  9
$DIMAPOST
  1

  9
$DIMALT
 70
     0
  9
$DIMALTD
 70
     3
  9
$DIMALTF
 40
0.0393700787401575
  9
$DIMLFAC
 40
1.0
  9
$DIMTOFL
 70
     1
  9
$DIMTVP
 40
0.0
  9
$DIMTIX
 70
     0
  9
$DIMSOXD
 70
     0
  9
$DIMSAH
 70
     0
  9
$DIMBLK1
  1

  9
$DIMBLK2
  1

  9
$DIMSTYLE
  2
ISO-25
  9
$DIMCLRD
 70
     0
  9
$DIMCLRE
 70
     0
  9
$DIMCLRT
 70
     0
  9
$DIMTFAC
 40
1.0
  9
$DIMGAP
 40
3.0
  9
$DIMJUST
 70
     0
  9
$DIMSD1
 70
     0
  9
$DIMSD2
 70
     0
  9
$DIMTOLJ
 70
     0
  9
$DIMTZIN
 70
     0
  9
$DIMALTZ
 70
     0
  9
$DIMALTTZ
 70
     0
  9
$DIMUPT
 70
     0
  9
$DIMDEC
 70
     2
  9
$DIMTDEC
 70
     3
  9
$DIMALTU
 70
     2
  9
$DIMALTTD
 70
     3
  9
$DIMTXSTY
  7
Standard
  9
$DIMAUNIT
 70
     0
  9
$DIMADEC
 70
     2
  9
$DIMALTRND
 40
0.0
  9
$DIMAZIN
 70
     0
  9
$DIMDSEP
 70
    44
  9
$DIMATFIT
 70
     3
  9
$DIMFRAC
 70
     0
  9
$DIMLDRBLK
  1

  9
$DIMLUNIT
 70
     2
  9
$DIMLWD
 70
    -2
  9
$DIMLWE
 70
    -2
  9
$DIMTMOVE
 70
     0
  9
$DIMFXL
 40
1.0
  9
$DIMFXLON
 70
     0
  9
$DIMJOGANG
 40
0.7853981633974483
  9
$DIMTFILL
 70
     0
  9
$DIMTFILLCLR
 70
     0
  9
$DIMARCSYM
 70
     0
  9
$DIMLTYPE
  6

  9
$DIMLTEX1
  6

  9
$DIMLTEX2
  6

  9
$LUNITS
 70
     2
  9
$LUPREC
 70
     2
  9
$SKETCHINC
 40
1.0
  9
$FILLETRAD
 40
10.0
  9
$AUNITS
 70
     0
  9
$AUPREC
 70
     2
  9
$MENU
  1
.
  9
$ELEVATION
 40
0.0
  9
$PELEVATION
 40
0.0
  9
$THICKNESS
 40
0.0
  9
$LIMCHECK
 70
     0
  9
$CHAMFERA
 40
10.0
  9
$CHAMFERB
 40
10.0
  9
$CHAMFERC
 40
20.0
  9
$CHAMFERD
 40
0.0
  9
$SKPOLY
 70
     0
  9
$TDCREATE
 40
2458061.027529051
  9
$TDUCREATE
 40
2458060.944195718
  9
$TDUPDATE
 40
2458061.028174479
  9
$TDUUPDATE
 40
2458060.944841146
  9
$TDINDWG
 40
0.0005417245
  9
$TDUSRTIMER
 40
0.0005417245
  9
$USRTIMER
 70
     1
  9
$ANGBASE
 50
0.0
  9
$ANGDIR
 70
     0
  9
$PDMODE
 70
     0
  9
$PDSIZE
 40
-1.0
  9
$PLINEWID
 40
0.0
  9
$SPLFRAME
 70
     0
  9
$SPLINETYPE
 70
     6
  9
$SPLINESEGS
 70
     8
  9
$HANDSEED
  5
366
  9
$SURFTAB1
 70
     6
  9
$SURFTAB2
 70
     6
  9
$SURFTYPE
 70
     6
  9
$SURFU
 70
     6
  9
$SURFV
 70
     6
  9
$UCSBASE
  2

  9
$UCSNAME
  2

  9
$UCSORG
 10
0.0
 20
0.0
 30
0.0
  9
$UCSXDIR
 10
1.0
 20
0.0
 30
0.0
  9
$UCSYDIR
 10
0.0
 20
1.0
 30
0.0
  9
$UCSORTHOREF
  2

  9
$UCSORTHOVIEW
 70
     0
  9
$UCSORGTOP
 10
0.0
 20
0.0
 30
0.0
  9
$UCSORGBOTTOM
 10
0.0
 20
0.0
 30
0.0
  9
$UCSORGLEFT
 10
0.0
 20
0.0
 30
0.0
  9
$UCSORGRIGHT
 10
0.0
 20
0.0
 30
0.0
  9
$UCSORGFRONT
 10
0.0
 20
0.0
 30
0.0
  9
$UCSORGBACK
 10
0.0
 20
0.0
 30
0.0
  9
$PUCSBASE
  2

  9
$PUCSNAME
  2

  9
$PUCSORG
 10
0.0
 20
0.0
 30
0.0
  9
$PUCSXDIR
 10
1.0
 20
0.0
 30
0.0
  9
$PUCSYDIR
 10
0.0
 20
1.0
 30
0.0
  9
$PUCSORTHOREF
  2

  9
$PUCSORTHOVIEW
 70
     0
  9
$PUCSORGTOP
 10
0.0
 20
0.0
 30
0.0
  9
$PUCSORGBOTTOM
 10
0.0
 20
0.0
 30
0.0
  9
$PUCSORGLEFT
 10
0.0
 20
0.0
 30
0.0
  9
$PUCSORGRIGHT
 10
0.0
 20
0.0
 30
0.0
  9
$PUCSORGFRONT
 10
0.0
 20
0.0
 30
0.0
  9
$PUCSORGBACK
 10
0.0
 20
0.0
 30
0.0
  9
$USERI1
 70
     0
  9
$USERI2
 70
     0
  9
$USERI3
 70
     0
  9
$USERI4
 70
     0
  9
$USERI5
 70
     0
  9
$USERR1
 40
0.0
  9
$USERR2
 40
0.0
  9
$USERR3
 40
0.0
  9
$USERR4
 40
0.0
  9
$USERR5
 40
0.0
  9
$WORLDVIEW
 70
     1
  9
$SHADEDGE
 70
     3
  9
$SHADEDIF
 70
    70
  9
$TILEMODE
 70
     1
  9
$MAXACTVP
 70
    64
  9
$PINSBASE
 10
0.0
 20
0.0
 30
0.0
  9
$PLIMCHECK
 70
     0
  9
$PEXTMIN
 10
1.000000000000000E+20
 20
1.000000000000000E+20
 30
1.000000000000000E+20
  9
$PEXTMAX
 10
-1.000000000000000E+20
 20
-1.000000000000000E+20
 30
-1.000000000000000E+20
  9
$PLIMMIN
 10
0.0
 20
0.0
  9
$PLIMMAX
 10
420.0
 20
297.0
  9
$UNITMODE
 70
     0
  9
$VISRETAIN
 70
     1
  9
$PLINEGEN
 70
     0
  9
$PSLTSCALE
 70
     1
  9
$TREEDEPTH
 70
  3020
  9
$CMLSTYLE
  2
Standard
  9
$CMLJUST
 70
     0
  9
$CMLSCALE
 40
20.0
  9
$PROXYGRAPHICS
 70
     1
  9
$MEASUREMENT
 70
     1
  9
$CELWEIGHT
370
    -1
  9
$ENDCAPS
280
     0
  9
$JOINSTYLE
280
     0
  9
$LWDISPLAY
290
     1
  9
$INSUNITS
 70
     4
  9
$HYPERLINKBASE
  1

  9
$STYLESHEET
  1

  9
$XEDIT
290
     1
  9
$CEPSNTYPE
380
     0
  9
$PSTYLEMODE
290
     1
  9
$FINGERPRINTGUID
  2
{B25D190E-9F85-4200-9226-3D93B67B68F1}
  9
$VERSIONGUID
  2
{1CB84A1C-A816-4482-A1C3-606D1ECE7A58}
  9
$EXTNAMES
290
     1
  9
$PSVPSCALE
 40
0.0
  9
$OLESTARTUP
290
     0
  9
$SORTENTS
280
   127
  9
$INDEXCTL
280
     0
  9
$HIDETEXT
280
     0
  9
$XCLIPFRAME
290
     0
  9
$HALOGAP
280
     0
  9
$OBSCOLOR
 70
   257
  9
$OBSLTYPE
280
     0
  9
$INTERSECTIONDISPLAY
280
     0
  9
$INTERSECTIONCOLOR
 70
   257
  9
$DIMASSOC
280
     1
  9
$PROJECTNAME
  1

  9
$CAMERADISPLAY
290
     0
  9
$LENSLENGTH
 40
50.0
  9
$CAMERAHEIGHT
 40
0.0
  9
$STEPSPERSEC
 40
2.0
  9
$STEPSIZE
 40
6.0
  9
$3DDWFPREC
 40
2.0
  9
$PSOLWIDTH
 40
0.25
  9
$PSOLHEIGHT
 40
4.0
  9
$LOFTANG1
 40
1.570796326794896
  9
$LOFTANG2
 40
1.570796326794896
  9
$LOFTMAG1
 40
0.0
  9
$LOFTMAG2
 40
0.0
  9
$LOFTPARAM
 70
     7
  9
$LOFTNORMALS
280
     1
  9
$LATITUDE
 40
37.795
  9
$LONGITUDE
 40
-122.394
  9
$NORTHDIRECTION
 40
0.0
  9
$TIMEZONE
 70
 -8000
  9
$LIGHTGLYPHDISPLAY
280
     1
  9
$TILEMODELIGHTSYNCH
280
     1
  9
$CMATERIAL
347
2FF
  9
$SOLIDHIST
280
     1
  9
$SHOWHIST
280
     1
  9
$DWFFRAME
280
     2
  9
$DGNFRAME
280
     0
  9
$REALWORLDSCALE
290
     1
  9
$INTERFERECOLOR
 62
     1
  9
$INTERFEREOBJVS
345
321
  9
$INTERFEREVPVS
346
31E
  9
$CSHADOW
280
     0
  9
$SHADOWPLANELOCATION
 40
0.0
  0
ENDSEC
  0
SECTION
  2
CLASSES
  0
CLASS
  1
ACDBDICTIONARYWDFLT
  2
AcDbDictionaryWithDefault
  3
ObjectDBX Classes
 90
        0
 91
        1
280
     0
281
     0
  0
CLASS
  1
VISUALSTYLE
  2
AcDbVisualStyle
  3
ObjectDBX Classes
 90
     4095
 91
       16
280
     0
281
     0
  0
CLASS
  1
MATERIAL
  2
AcDbMaterial
  3
ObjectDBX Classes
 90
     1153
 91
        3
280
     0
281
     0
  0
CLASS
  1
TABLESTYLE
  2
AcDbTableStyle
  3
ObjectDBX Classes
 90
     4095
 91
        1
280
     0
281
     0
  0
CLASS
  1
SCALE
  2
AcDbScale
  3
ObjectDBX Classes
 90
     1153
 91
       17
280
     0
281
     0
  0
CLASS
  1
MLEADERSTYLE
  2
AcDbMLeaderStyle
  3
ACDB_MLEADERSTYLE_CLASS
 90
     4095
 91
        1
280
     0
281
     0
  0
CLASS
  1
DICTIONARYVAR
  2
AcDbDictionaryVar
  3
ObjectDBX Classes
 90
        0
 91
        7
280
     0
281
     0
  0
CLASS
  1
CELLSTYLEMAP
  2
AcDbCellStyleMap
  3
ObjectDBX Classes
 90
     1152
 91
        1
280
     0
281
     0
  0
ENDSEC
  0
SECTION
  2
TABLES
  0
TABLE
  2
VPORT
  5
8
330
0
100
AcDbSymbolTable
 70
     1
  0
VPORT
  5
29
330
8
100
AcDbSymbolTableRecord
100
AcDbViewportTableRecord
  2
*Active
 70
     0
 10
0.0
 20
0.0
 11
1.0
 21
1.0
 12
60.40251520665194
 22
118.2943303487081
 13
0.0
 23
0.0
 14
10.0
 24
10.0
 15
10.0
 25
10.0
 16
0.0
 26
0.0
 36
1.0
 17
0.0
 27
0.0
 37
0.0
 40
211.541829795667
 41
2.604123711340206
 42
50.0
 43
0.0
 44
0.0
 50
0.0
 51
0.0
 71
     0
 72
  2000
 73
     1
 74
     3
 75
     0
 76
     0
 77
     0
 78
     0
281
     0
 65
     1
110
0.0
120
0.0
130
0.0
111
1.0
121
0.0
131
0.0
112
0.0
122
1.0
132
0.0
 79
     0
146
0.0
348
31D
 60
     3
 61
     5
292
     1
282
     1
141
0.0
142
0.0
 63
   250
421
  3355443
  0
ENDTAB
  0
TABLE
  2
LTYPE
  5
5
330
0
100
AcDbSymbolTable
 70
     6
  0
LTYPE
  5
14
330
5
100
AcDbSymbolTableRecord
100
AcDbLinetypeTableRecord
  2
ByBlock
 70
     0
  3

 72
    65
 73
     0
 40
0.0
  0
LTYPE
  5
15
330
5
100
AcDbSymbolTableRecord
100
AcDbLinetypeTableRecord
  2
ByLayer
 70
     0
  3

 72
    65
 73
     0
 40
0.0
  0
LTYPE
  5
16
330
5
100
AcDbSymbolTableRecord
100
AcDbLinetypeTableRecord
  2
Continuous
 70
     0
  3
Solid line
 72
    65
 73
     0
 40
0.0
  0
LTYPE
  5
3F
330
5
100
AcDbSymbolTableRecord
100
AcDbLinetypeTableRecord
  2
HIDDEN
 70
     0
  3
Hidden __ __ __ __ __ __ __ __ __ __ __ __ __ __
 72
    65
 73
     2
 40
1.905
 49
1.27
 74
     0
 49
-0.635
 74
     0
  0
LTYPE
  5
40
330
5
100
AcDbSymbolTableRecord
100
AcDbLinetypeTableRecord
  2
PHANTOM
 70
     0
  3
Phantom ______  __  __  ______  __  __  ______
 72
    65
 73
     6
 40
12.7
 49
6.349999999999999
 74
     0
 49
-1.27
 74
     0
 49
1.27
 74
     0
 49
-1.27
 74
     0
 49
1.27
 74
     0
 49
-1.27
 74
     0
  0
LTYPE
  5
41
330
5
100
AcDbSymbolTableRecord
100
AcDbLinetypeTableRecord
  2
CENTER
 70
     0
  3
Center ____ _ ____ _ ____ _ ____ _ ____ _ ____
 72
    65
 73
     4
 40
10.16
 49
6.349999999999999
 74
     0
 49
-1.27
 74
     0
 49
1.27
 74
     0
 49
-1.27
 74
     0
  0
LTYPE
  5
42
330
5
100
AcDbSymbolTableRecord
100
AcDbLinetypeTableRecord
  2
CENTERX2
 70
     0
  3
Center (2x) ________  __  ________  __  _____
 72
    65
 73
     4
 40
20.32
 49
12.7
 74
     0
 49
-2.54
 74
     0
 49
2.54
 74
     0
 49
-2.54
 74
     0
  0
LTYPE
  5
43
330
5
100
AcDbSymbolTableRecord
100
AcDbLinetypeTableRecord
  2
DOT2
 70
     0
  3
Dot (.5x) ........................................
 72
    65
 73
     2
 40
0.635
 49
0.0
 74
     0
 49
-0.635
 74
     0
  0
ENDTAB
  0
TABLE
  2
LAYER
  5
2
330
0
100
AcDbSymbolTable
 70
     2
  0
LAYER
  5
10
102
{ACAD_XDICTIONARY
360
359
102
}
330
2
100
AcDbSymbolTableRecord
100
AcDbLayerTableRecord
  2
0
 70
     0
 62
     7
  6
Continuous
370
    -3
390
F
347
30F
  0
LAYER
  5
343
330
2
100
AcDbSymbolTableRecord
100
AcDbLayerTableRecord
  2
Defpoints
 70
     0
 62
     7
  6
Continuous
290
     0
370
    -3
390
F
347
30F
  0
ENDTAB
  0
TABLE
  2
STYLE
  5
3
330
0
100
AcDbSymbolTable
 70
     1
  0
STYLE
  5
11
330
3
100
AcDbSymbolTableRecord
100
AcDbTextStyleTableRecord
  2
Standard
 70
     0
 40
0.0
 41
1.0
 50
0.0
 71
     0
 42
3.5
  3
txt
  4

  0
ENDTAB
  0
TABLE
  2
VIEW
  5
6
330
0
100
AcDbSymbolTable
 70
     0
  0
ENDTAB
  0
TABLE
  2
UCS
  5
7
330
0
100
AcDbSymbolTable
 70
     0
  0
ENDTAB
  0
TABLE
  2
APPID
  5
9
330
0
100
AcDbSymbolTable
 70
     2
  0
APPID
  5
12
330
9
100
AcDbSymbolTableRecord
100
AcDbRegAppTableRecord
  2
ACAD
 70
     0
  0
APPID
  5
33F
330
9
100
AcDbSymbolTableRecord
100
AcDbRegAppTableRecord
  2
ACAD_MLEADERVER
 70
     0
  0
ENDTAB
  0
TABLE
  2
DIMSTYLE
  5
A
330
0
100
AcDbSymbolTable
 70
     1
100
AcDbDimStyleTable
 71
     1
340
27
  0
DIMSTYLE
105
27
330
A
100
AcDbSymbolTableRecord
100
AcDbDimStyleTableRecord
  2
ISO-25
 70
     0
 41
2.5
 42
0.625
 43
3.75
 44
1.25
 73
     0
 74
     0
 77
     1
 78
     8
140
2.5
141
2.5
143
0.03937007874016
147
0.625
171
     3
172
     1
271
     2
272
     2
274
     3
278
    44
283
     0
284
     8
340
11
  0
ENDTAB
  0
TABLE
  2
BLOCK_RECORD
  5
1
330
0
100
AcDbSymbolTable
 70
     2
  0
BLOCK_RECORD
  5
1F
330
1
100
AcDbSymbolTableRecord
100
AcDbBlockTableRecord
  2
*Model_Space
340
22
 70
     0
280
     1
281
     0
  0
BLOCK_RECORD
  5
1B
330
1
100
AcDbSymbolTableRecord
100
AcDbBlockTableRecord
  2
*Paper_Space
340
1E
 70
     0
280
     1
281
     0
  0
BLOCK_RECORD
  5
23
330
1
100
AcDbSymbolTableRecord
100
AcDbBlockTableRecord
  2
*Paper_Space0
340
26
 70
     0
280
     1
281
     0
  0
BLOCK_RECORD
  5
344
330
1
100
AcDbSymbolTableRecord
100
AcDbBlockTableRecord
  2
*D1
340
0
 70
     0
280
     1
281
     0
  0
ENDTAB
  0
ENDSEC
  0
SECTION
  2
BLOCKS
  0
BLOCK
  5
20
330
1F
100
AcDbEntity
  8
0
100
AcDbBlockBegin
  2
*Model_Space
 70
     0
 10
0.0
 20
0.0
 30
0.0
  3
*Model_Space
  1

  0
ENDBLK
  5
21
330
1F
100
AcDbEntity
  8
0
100
AcDbBlockEnd
  0
BLOCK
  5
1C
330
1B
100
AcDbEntity
 67
     1
  8
0
100
AcDbBlockBegin
  2
*Paper_Space
 70
     0
 10
0.0
 20
0.0
 30
0.0
  3
*Paper_Space
  1

  0
ENDBLK
  5
1D
330
1B
100
AcDbEntity
 67
     1
  8
0
100
AcDbBlockEnd
  0
BLOCK
  5
24
330
23
100
AcDbEntity
 67
     1
  8
0
100
AcDbBlockBegin
  2
*Paper_Space0
 70
     0
 10
0.0
 20
0.0
 30
0.0
  3
*Paper_Space0
  1

  0
ENDBLK
  5
25
330
23
100
AcDbEntity
 67
     1
  8
0
100
AcDbBlockEnd
  0
BLOCK
  5
345
330
344
100
AcDbEntity
  8
0
100
AcDbBlockBegin
  2
*D1
 70
     1
 10
0.0
 20
0.0
 30
0.0
  3
*D1
  1

  0
LINE
  5
350
330
344
100
AcDbEntity
  8
0
 62
     0
370
    -2
100
AcDbLine
 10
201.0287166399914
 20
170.7531872170282
 30
0.0
 11
201.0287166399914
 21
75.18693340421833
 31
0.0
  0
LINE
  5
351
330
344
100
AcDbEntity
  8
0
 62
     0
370
    -2
100
AcDbLine
 10
285.0287166399915
 20
170.7531872170282
 30
0.0
 11
285.0287166399915
 21
75.18693340421833
 31
0.0
  0
LINE
  5
352
330
344
100
AcDbEntity
  8
0
 62
     0
370
    -2
100
AcDbLine
 10
204.5287166399914
 20
76.18693340421834
 30
0.0
 11
281.5287166399916
 21
76.18693340421834
 31
0.0
  0
SOLID
  5
353
330
344
100
AcDbEntity
  8
0
 62
     0
100
AcDbTrace
 10
204.5287166399914
 20
76.77026673755166
 30
0.0
 11
204.5287166399914
 21
75.60360007088501
 31
0.0
 12
201.0287166399914
 22
76.18693340421834
 32
0.0
 13
201.0287166399914
 23
76.18693340421834
 33
0.0
  0
SOLID
  5
354
330
344
100
AcDbEntity
  8
0
 62
     0
100
AcDbTrace
 10
281.5287166399916
 20
76.77026673755166
 30
0.0
 11
281.5287166399916
 21
75.60360007088501
 31
0.0
 12
285.0287166399915
 22
76.18693340421834
 32
0.0
 13
285.0287166399915
 23
76.18693340421834
 33
0.0
  0
MTEXT
  5
355
330
344
100
AcDbEntity
  8
0
 62
     0
100
AcDbMText
 10
243.0287166399915
 20
81.22860007088501
 30
0.0
 40
3.5
 41
0.0
 46
0.0
 71
     5
 72
     1
  1
84,00
 73
     1
 44
1.0
  0
POINT
  5
356
330
344
100
AcDbEntity
  8
Defpoints
 62
     0
100
AcDbPoint
 10
201.0287166399914
 20
170.7631872170282
 30
0.0
  0
POINT
  5
357
330
344
100
AcDbEntity
  8
Defpoints
 62
     0
100
AcDbPoint
 10
285.0287166399915
 20
170.7631872170282
 30
0.0
  0
POINT
  5
358
330
344
100
AcDbEntity
  8
Defpoints
 62
     0
100
AcDbPoint
 10
285.0287166399915
 20
76.18693340421834
 30
0.0
  0
ENDBLK
  5
346
330
344
100
AcDbEntity
  8
0
100
AcDbBlockEnd
  0
ENDSEC
  0
SECTION
  2
ENTITIES
  0
ARC
  5
44
330
1F
100
AcDbEntity
  8
0
  6
Continuous
 62
     7
370
    15
100
AcDbCircle
 10
-144.2284305787615
 20
202.7631872170282
 30
0.0
 40
20.00000000000001
100
AcDbArc
 50
90.0
 51
180.0
  0
LINE
  5
45
330
1F
100
AcDbEntity
  8
0
  6
Continuous
 62
     7
370
    15
100
AcDbLine
 10
-164.2284305787616
 20
202.7631872170282
 30
0.0
 11
-164.2284305787616
 21
181.7631872170282
 31
0.0
  0
LWPOLYLINE
  5
46
330
1F
100
AcDbEntity
  8
0
  6
Continuous
 62
     7
370
    15
100
AcDbPolyline
 90
        3
 70
   128
 43
0.0
 10
139.7715694212384
 20
202.7631872170282
 10
139.6004666487146
 20
205.3737110614292
 10
139.4451892662562
 20
206.3616149561555
  0
ARC
  5
47
330
1F
100
AcDbEntity
  8
0
  6
Continuous
 62
     7
370
    15
100
AcDbCircle
 10
119.7715694212384
 20
202.7631872170282
 30
0.0
 40
20.00000000000001
100
AcDbArc
 50
42.33039837051294
 51
90.0
  0
LINE
  5
48
330
1F
100
AcDbEntity
  8
0
  6
Continuous
 62
     7
370
    15
100
AcDbLine
 10
139.7715694212384
 20
181.7631872170282
 30
0.0
 11
139.7715694212384
 21
202.7631872170282
 31
0.0
  0
ARC
  5
49
330
1F
100
AcDbEntity
  8
0
  6
Continuous
 62
     7
370
    15
100
AcDbCircle
 10
-134.2284305787615
 20
170.7631872170282
 30
0.0
 40
30.00000000000003
100
AcDbArc
 50
180.0
 51
270.0000000000008
  0
LINE
  5
4A
330
1F
100
AcDbEntity
  8
0
  6
Continuous
 62
     7
370
    15
100
AcDbLine
 10
-164.2284305787615
 20
181.7631872170282
 30
0.0
 11
-164.2284305787615
 21
170.7631872170282
 31
0.0
  0
ARC
  5
4B
330
1F
100
AcDbEntity
  8
0
  6
Continuous
 62
     7
370
    15
100
AcDbCircle
 10
109.7715694212389
 20
170.7631872170282
 30
0.0
 40
30.0
100
AcDbArc
 50
270.0000000000008
 51
0.0
  0
LINE
  5
4C
330
1F
100
AcDbEntity
  8
0
  6
Continuous
 62
     7
370
    15
100
AcDbLine
 10
139.7715694212389
 20
170.7631872170282
 30
0.0
 11
139.7715694212389
 21
181.7631872170282
 31
0.0
  0
LINE
  5
4D
330
1F
100
AcDbEntity
  8
0
  6
Continuous
 62
     7
370
    15
100
AcDbLine
 10
-144.2284305787615
 20
222.7631872170282
 30
0.0
 11
-122.2284305787615
 21
222.7631872170282
 31
0.0
  0
LINE
  5
4E
330
1F
100
AcDbEntity
  8
0
  6
Continuous
 62
     7
370
    15
100
AcDbLine
 10
-122.2284305787615
 20
222.7631872170282
 30
0.0
 11
-122.2284305787615
 21
202.7631872170282
 31
0.0
  0
LINE
  5
4F
330
1F
100
AcDbEntity
  8
0
  6
Continuous
 62
     7
370
    15
100
AcDbLine
 10
-122.2284305787615
 20
202.7631872170282
 30
0.0
 11
-152.498107310596
 21
202.7631872170282
 31
0.0
  0
SPLINE
  5
50
330
1F
100
AcDbEntity
  8
0
  6
Continuous
 62
     7
370
    15
100
AcDbSpline
210
0.0
220
0.0
230
1.0
 70
     8
 71
     3
 72
    14
 73
    10
 74
     0
 42
0.0000000001
 43
0.0000000001
 40
0.0
 40
0.0
 40
0.0
 40
0.0
 40
0.1249898130025462
 40
0.2500029196725936
 40
0.3775099626028987
 40
0.5050780959206956
 40
0.6624189211952367
 40
0.8311157440079592
 40
1.0
 40
1.0
 40
1.0
 40
1.0
 10
-152.498107310596
 20
202.7631872170282
 30
0.0
 10
-152.4582644632411
 20
203.5660333176452
 30
0.0
 10
-152.378571343238
 20
205.1718751409136
 30
0.0
 10
-151.7590668659538
 20
207.5309872871574
 30
0.0
 10
-150.7816215430984
 20
209.7742426057024
 30
0.0
 10
-149.3562551889345
 20
212.0171845083311
 30
0.0
 10
-147.4046406186197
 20
214.1934917780303
 30
0.0
 10
-144.9227663093854
 20
216.2052735512736
 30
0.0
 10
-143.0171337463007
 20
217.2426658170557
 30
0.0
 10
-142.063788438115
 20
217.7616499425844
 30
0.0
  0
LINE
  5
51
330
1F
100
AcDbEntity
  8
0
  6
Continuous
 62
     7
370
    15
100
AcDbLine
 10
-142.063788438115
 20
217.7616499425844
 30
0.0
 11
-150.4679254341998
 21
217.7616499425745
 31
0.0
  0
SPLINE
  5
52
330
1F
100
AcDbEntity
  8
0
  6
Continuous
 62
     7
370
    15
100
AcDbSpline
210
0.0
220
0.0
230
1.0
 70
     8
 71
     3
 72
    13
 73
     9
 74
     0
 42
0.0000000001
 43
0.0000000001
 40
0.0
 40
0.0
 40
0.0
 40
0.0
 40
0.1512880772518976
 40
0.3052540313115263
 40
0.4924659920639866
 40
0.6861092619253443
 40
0.8410520386754585
 40
1.0
 40
1.0
 40
1.0
 40
1.0
 10
-150.4679254341998
 20
217.7616499425745
 30
0.0
 10
-151.1787715390286
 20
217.219651817441
 30
0.0
 10
-152.6130460904844
 20
216.1260619214916
 30
0.0
 10
-154.6077301983354
 20
213.9958191611066
 30
0.0
 10
-156.409545772557
 20
211.3860318533614
 30
0.0
 10
-157.6869474568888
 20
208.4750303533678
 30
0.0
 10
-158.4325204980637
 20
205.5562350071915
 30
0.0
 10
-158.5198696140832
 20
203.7020893261249
 30
0.0
 10
-158.5641014509318
 20
202.7631872170282
 30
0.0
  0
LINE
  5
53
330
1F
100
AcDbEntity
  8
0
  6
Continuous
 62
     7
370
    15
100
AcDbLine
 10
-158.5641014509318
 20
202.7631872170282
 30
0.0
 11
-159.6259588447306
 21
202.7631872170282
 31
0.0
  0
SPLINE
  5
54
330
1F
100
AcDbEntity
  8
0
  6
Continuous
 62
     7
370
    15
100
AcDbSpline
210
0.0
220
0.0
230
1.0
 70
     8
 71
     3
 72
    13
 73
     9
 74
     0
 42
0.0000000001
 43
0.0000000001
 40
0.0
 40
0.0
 40
0.0
 40
0.0
 40
0.0685307890503378
 40
0.2403541833491312
 40
0.4121985660911743
 40
0.5849950675265144
 40
0.7578416668478133
 40
1.0
 40
1.0
 40
1.0
 40
1.0
 10
-159.6259588447306
 20
202.7631872170282
 30
0.0
 10
-159.6177560841228
 20
203.1634923247689
 30
0.0
 10
-159.5889870030367
 20
204.5674599223232
 30
0.0
 10
-159.2048301106823
 20
206.9585609141244
 30
0.0
 10
-158.2626212486987
 20
209.8382366586643
 30
0.0
 10
-156.8361308197775
 20
212.5155910631979
 30
0.0
 10
-154.783397151945
 20
215.2957438582108
 30
0.0
 10
-152.9130741280217
 20
216.8529873037298
 30
0.0
 10
-151.8217273258765
 20
217.7616499425844
 30
0.0
  0
LINE
  5
55
330
1F
100
AcDbEntity
  8
0
  6
Continuous
 62
     7
370
    15
100
AcDbLine
 10
-151.8217273258765
 20
217.7616499425844
 30
0.0
 11
-155.6763281595017
 21
217.7616499425716
 31
0.0
  0
SPLINE
  5
56
330
1F
100
AcDbEntity
  8
0
  6
Continuous
 62
     7
370
    15
100
AcDbSpline
210
0.0
220
0.0
230
1.0
 70
     8
 71
     3
 72
    13
 73
     9
 74
     0
 42
0.0000000001
 43
0.0000000001
 40
0.0
 40
0.0
 40
0.0
 40
0.0
 40
0.1827811410373099
 40
0.3842944958620115
 40
0.5857829603883996
 40
0.7794676934329222
 40
0.9731453804208921
 40
1.0
 40
1.0
 40
1.0
 40
1.0
 10
-155.6763281595017
 20
217.7616499425716
 30
0.0
 10
-156.446108260236
 20
217.0562911306839
 30
0.0
 10
-158.0645589059508
 20
215.5732852391685
 30
0.0
 10
-160.0210141389919
 20
212.837290708538
 30
0.0
 10
-161.5369570169119
 20
209.7757829884473
 30
0.0
 10
-162.4637221703384
 20
206.5325618065955
 30
0.0
 10
-162.7341089737277
 20
204.1733161244287
 30
0.0
 10
-162.7436127181328
 20
202.9162610918512
 30
0.0
 10
-162.7447700063531
 20
202.7631872170282
 30
0.0
  0
LINE
  5
57
330
1F
100
AcDbEntity
  8
0
  6
Continuous
 62
     7
370
    15
100
AcDbLine
 10
-162.7447700063531
 20
202.7631872170282
 30
0.0
 11
-163.2271733809273
 21
202.7631872170282
 31
0.0
  0
SPLINE
  5
58
330
1F
100
AcDbEntity
  8
0
  6
Continuous
 62
     7
370
    15
100
AcDbSpline
210
0.0
220
0.0
230
1.0
 70
     8
 71
     3
 72
    13
 73
     9
 74
     0
 42
0.0000000001
 43
0.0000000001
 40
0.0
 40
0.0
 40
0.0
 40
0.0
 40
0.215332780287272
 40
0.4083420222057291
 40
0.6013597989005062
 40
0.7952404774713128
 40
0.9891404642137084
 40
1.0
 40
1.0
 40
1.0
 40
1.0
 10
-163.2271733809273
 20
202.7631872170282
 30
0.0
 10
-163.1611896053267
 20
203.9886650287557
 30
0.0
 10
-163.0360625887824
 20
206.3125754298634
 30
0.0
 10
-162.0733344375983
 20
209.6169477210099
 30
0.0
 10
-160.6760229675306
 20
212.6142271947036
 30
0.0
 10
-158.7757479659285
 20
215.3315840616827
 30
0.0
 10
-157.1891849495549
 20
216.9643465627721
 30
0.0
 10
-156.3059228769838
 20
217.7214941945106
 30
0.0
 10
-156.2590785790127
 20
217.7616499425844
 30
0.0
  0
LINE
  5
59
330
1F
100
AcDbEntity
  8
0
  6
Continuous
 62
     7
370
    15
100
AcDbLine
 10
-156.2590785790127
 20
217.7616499425844
 30
0.0
 11
-157.4428400648382
 21
217.7616499425682
 31
0.0
  0
SPLINE
  5
5A
330
1F
100
AcDbEntity
  8
0
  6
Continuous
 62
     7
370
    15
100
AcDbSpline
210
0.0
220
0.0
230
1.0
 70
     8
 71
     3
 72
    12
 73
     8
 74
     0
 42
0.0000000001
 43
0.0000000001
 40
0.0
 40
0.0
 40
0.0
 40
0.0
 40
0.2067888587075532
 40
0.4456522369179151
 40
0.6445209418376413
 40
0.8433895452366254
 40
1.0
 40
1.0
 40
1.0
 40
1.0
 10
-157.4428400648382
 20
217.7616499425682
 30
0.0
 10
-158.2798300723488
 20
216.9437004545076
 30
0.0
 10
-160.0836335821526
 20
215.1809313125026
 30
0.0
 10
-162.0434126150984
 20
212.0683478871935
 30
0.0
 10
-163.3958266908954
 20
208.7285698884158
 30
0.0
 10
-164.1024671678706
 20
205.6562461189074
 30
0.0
 10
-164.1805392931636
 20
203.6479607943895
 30
0.0
 10
-164.2149348806553
 20
202.7631872170282
 30
0.0
  0
LINE
  5
5B
330
1F
100
AcDbEntity
  8
0
  6
Continuous
 62
     7
370
    15
100
AcDbLine
 10
-164.2149348806553
 20
188.7631872170282
 30
0.0
 11
-164.2149348806553
 21
202.7631872170282
 31
0.0
  0
LINE
  5
5C
330
1F
100
AcDbEntity
  8
0
  6
Continuous
 62
     7
370
    15
100
AcDbLine
 10
-163.2271733809273
 20
188.7631872170282
 30
0.0
 11
-164.2149348806553
 21
188.7631872170282
 31
0.0
  0
LINE
  5
5D
330
1F
100
AcDbEntity
  8
0
  6
Continuous
 62
     7
370
    15
100
AcDbLine
 10
-163.2271733809273
 20
202.7631872170282
 30
0.0
 11
-163.2271733809273
 21
188.7631872170282
 31
0.0
  0
LINE
  5
5E
330
1F
100
AcDbEntity
  8
0
  6
Continuous
 62
     7
370
    15
100
AcDbLine
 10
-162.7447700063531
 20
188.7631872170282
 30
0.0
 11
-162.7447700063531
 21
202.7631872170282
 31
0.0
  0
LINE
  5
5F
330
1F
100
AcDbEntity
  8
0
  6
Continuous
 62
     7
370
    15
100
AcDbLine
 10
-159.6259588447306
 20
188.7631872170282
 30
0.0
 11
-162.7447700063531
 21
188.7631872170282
 31
0.0
  0
LINE
  5
60
330
1F
100
AcDbEntity
  8
0
  6
Continuous
 62
     7
370
    15
100
AcDbLine
 10
-159.6259588447306
 20
202.7631872170282
 30
0.0
 11
-159.6259588447306
 21
188.7631872170282
 31
0.0
  0
LINE
  5
61
330
1F
100
AcDbEntity
  8
0
  6
Continuous
 62
     7
370
    15
100
AcDbLine
 10
-158.5641014509317
 20
188.7631872170282
 30
0.0
 11
-158.5641014509318
 21
202.7631872170282
 31
0.0
  0
LINE
  5
62
330
1F
100
AcDbEntity
  8
0
  6
Continuous
 62
     7
370
    15
100
AcDbLine
 10
-152.498107310596
 20
188.7631872170282
 30
0.0
 11
-158.5641014509317
 21
188.7631872170282
 31
0.0
  0
LINE
  5
63
330
1F
100
AcDbEntity
  8
0
  6
Continuous
 62
     7
370
    15
100
AcDbLine
 10
-152.498107310596
 20
202.7631872170282
 30
0.0
 11
-152.498107310596
 21
188.7631872170282
 31
0.0
  0
LINE
  5
64
330
1F
100
AcDbEntity
  8
0
  6
Continuous
 62
     7
370
    15
100
AcDbLine
 10
-122.2284305787615
 20
202.7631872170282
 30
0.0
 11
-122.2284305787615
 21
181.7631872170282
 31
0.0
  0
LINE
  5
65
330
1F
100
AcDbEntity
  8
0
  6
Continuous
 62
     7
370
    15
100
AcDbLine
 10
-164.2284305787616
 20
181.7631872170282
 30
0.0
 11
-122.2284305787615
 21
181.7631872170282
 31
0.0
  0
LINE
  5
66
330
1F
100
AcDbEntity
  8
0
  6
Continuous
 62
     7
370
    15
100
AcDbLine
 10
91.82301982489139
 20
222.7631872170282
 30
0.0
 11
91.82301982489139
 21
222.0136290989176
 31
0.0
  0
LINE
  5
67
330
1F
100
AcDbEntity
  8
0
  6
Continuous
 62
     7
370
    15
100
AcDbLine
 10
91.82301982489139
 20
222.7631872170282
 30
0.0
 11
97.77156942123845
 21
222.7631872170282
 31
0.0
  0
LINE
  5
68
330
1F
100
AcDbEntity
  8
0
  6
Continuous
 62
     7
370
    15
100
AcDbLine
 10
97.77156942123845
 20
222.7631872170282
 30
0.0
 11
97.77156942123845
 21
202.7631872170282
 31
0.0
  0
LINE
  5
69
330
1F
100
AcDbEntity
  8
0
  6
Continuous
 62
     7
370
    15
100
AcDbLine
 10
97.77156942123845
 20
202.7631872170282
 30
0.0
 11
83.72011901758531
 21
202.7631872170282
 31
0.0
  0
LINE
  5
6A
330
1F
100
AcDbEntity
  8
0
  6
Continuous
 62
     7
370
    15
100
AcDbLine
 10
83.72011901758531
 20
218.2190608316024
 30
0.0
 11
80.77156942123826
 21
218.2190608316024
 31
0.0
  0
LINE
  5
6B
330
1F
100
AcDbEntity
  8
0
  6
Continuous
 62
     7
370
    15
100
AcDbLine
 10
80.77156942123826
 20
202.7631872170282
 30
0.0
 11
68.22011901758537
 21
202.7631872170282
 31
0.0
  0
LINE
  5
6C
330
1F
100
AcDbEntity
  8
0
  6
Continuous
 62
     7
370
    15
100
AcDbLine
 10
68.22011901758532
 20
218.2190608316024
 30
0.0
 11
65.27156942123832
 21
218.2190608316024
 31
0.0
  0
LINE
  5
6D
330
1F
100
AcDbEntity
  8
0
  6
Continuous
 62
     7
370
    15
100
AcDbLine
 10
65.27156942123832
 20
202.7631872170282
 30
0.0
 11
65.27156942123832
 21
218.2190608316024
 31
0.0
  0
LINE
  5
6E
330
1F
100
AcDbEntity
  8
0
  6
Continuous
 62
     7
370
    15
100
AcDbLine
 10
65.27156942123832
 20
202.7631872170282
 30
0.0
 11
52.72011901758543
 21
202.7631872170282
 31
0.0
  0
LINE
  5
6F
330
1F
100
AcDbEntity
  8
0
  6
Continuous
 62
     7
370
    15
100
AcDbLine
 10
52.72011901758538
 20
218.2190608316024
 30
0.0
 11
49.77156942123821
 21
218.2190608316024
 31
0.0
  0
LINE
  5
70
330
1F
100
AcDbEntity
  8
0
  6
Continuous
 62
     7
370
    15
100
AcDbLine
 10
49.77156942123833
 20
202.7631872170282
 30
0.0
 11
37.22011901758535
 21
202.7631872170282
 31
0.0
  0
LINE
  5
71
330
1F
100
AcDbEntity
  8
0
  6
Continuous
 62
     7
370
    15
100
AcDbLine
 10
37.22011901758535
 20
218.2190608316024
 30
0.0
 11
34.27156942123821
 21
218.2190608316024
 31
0.0
  0
LINE
  5
72
330
1F
100
AcDbEntity
  8
0
  6
Continuous
 62
     7
370
    15
100
AcDbLine
 10
34.2715694212383
 20
202.7631872170282
 30
0.0
 11
21.72011901758543
 21
202.7631872170282
 31
0.0
  0
LINE
  5
73
330
1F
100
AcDbEntity
  8
0
  6
Continuous
 62
     7
370
    15
100
AcDbLine
 10
21.72011901758541
 20
218.2190608316024
 30
0.0
 11
18.77156942123824
 21
218.2190608316024
 31
0.0
  0
LINE
  5
74
330
1F
100
AcDbEntity
  8
0
  6
Continuous
 62
     7
370
    15
100
AcDbLine
 10
18.77156942123835
 20
202.7631872170282
 30
0.0
 11
6.220119017585403
 21
202.7631872170282
 31
0.0
  0
LINE
  5
75
330
1F
100
AcDbEntity
  8
0
  6
Continuous
 62
     7
370
    15
100
AcDbLine
 10
6.220119017585375
 20
218.2190608316024
 30
0.0
 11
3.271569421238268
 21
218.2190608316024
 31
0.0
  0
LINE
  5
76
330
1F
100
AcDbEntity
  8
0
  6
Continuous
 62
     7
370
    15
100
AcDbLine
 10
3.271569421238325
 20
202.7631872170282
 30
0.0
 11
-9.279880982414567
 21
202.7631872170282
 31
0.0
  0
LINE
  5
77
330
1F
100
AcDbEntity
  8
0
  6
Continuous
 62
     7
370
    15
100
AcDbLine
 10
-9.279880982414567
 20
218.2190608316024
 30
0.0
 11
-12.22843057876173
 21
218.2190608316024
 31
0.0
  0
LINE
  5
78
330
1F
100
AcDbEntity
  8
0
  6
Continuous
 62
     7
370
    15
100
AcDbLine
 10
-12.22843057876161
 20
202.7631872170282
 30
0.0
 11
-24.77988098241457
 21
202.7631872170282
 31
0.0
  0
LINE
  5
79
330
1F
100
AcDbEntity
  8
0
  6
Continuous
 62
     7
370
    15
100
AcDbLine
 10
-24.77988098241457
 20
218.2190608316024
 30
0.0
 11
-27.7284305787617
 21
218.2190608316024
 31
0.0
  0
LINE
  5
7A
330
1F
100
AcDbEntity
  8
0
  6
Continuous
 62
     7
370
    15
100
AcDbLine
 10
-27.72843057876165
 20
202.7631872170282
 30
0.0
 11
-40.27988098241453
 21
202.7631872170282
 31
0.0
  0
LINE
  5
7B
330
1F
100
AcDbEntity
  8
0
  6
Continuous
 62
     7
370
    15
100
AcDbLine
 10
-40.27988098241453
 20
218.2190608316024
 30
0.0
 11
-43.22843057876167
 21
218.2190608316024
 31
0.0
  0
LINE
  5
7C
330
1F
100
AcDbEntity
  8
0
  6
Continuous
 62
     7
370
    15
100
AcDbLine
 10
-43.22843057876162
 20
202.7631872170282
 30
0.0
 11
-55.77988098241454
 21
202.7631872170282
 31
0.0
  0
LINE
  5
7D
330
1F
100
AcDbEntity
  8
0
  6
Continuous
 62
     7
370
    15
100
AcDbLine
 10
-55.77988098241454
 20
218.2190608316024
 30
0.0
 11
-58.72843057876167
 21
218.2190608316024
 31
0.0
  0
LINE
  5
7E
330
1F
100
AcDbEntity
  8
0
  6
Continuous
 62
     7
370
    15
100
AcDbLine
 10
-58.72843057876162
 20
202.7631872170282
 30
0.0
 11
-71.27988098241451
 21
202.7631872170282
 31
0.0
  0
LINE
  5
7F
330
1F
100
AcDbEntity
  8
0
  6
Continuous
 62
     7
370
    15
100
AcDbLine
 10
-71.27988098241451
 20
218.2190608316024
 30
0.0
 11
-74.22843057876164
 21
218.2190608316024
 31
0.0
  0
LINE
  5
80
330
1F
100
AcDbEntity
  8
0
  6
Continuous
 62
     7
370
    15
100
AcDbLine
 10
-74.22843057876161
 20
202.7631872170282
 30
0.0
 11
-86.77988098241451
 21
202.7631872170282
 31
0.0
  0
LINE
  5
81
330
1F
100
AcDbEntity
  8
0
  6
Continuous
 62
     7
370
    15
100
AcDbLine
 10
-86.77988098241451
 20
218.2190608316024
 30
0.0
 11
-89.72843057876163
 21
218.2190608316024
 31
0.0
  0
LINE
  5
82
330
1F
100
AcDbEntity
  8
0
  6
Continuous
 62
     7
370
    15
100
AcDbLine
 10
-89.72843057876159
 20
202.7631872170282
 30
0.0
 11
-102.2798809824144
 21
202.7631872170282
 31
0.0
  0
LINE
  5
83
330
1F
100
AcDbEntity
  8
0
  6
Continuous
 62
     7
370
    15
100
AcDbLine
 10
-102.2798809824144
 20
218.2190608316024
 30
0.0
 11
-105.2284305787616
 21
218.2190608316024
 31
0.0
  0
LINE
  5
84
330
1F
100
AcDbEntity
  8
0
  6
Continuous
 62
     7
370
    15
100
AcDbLine
 10
-105.2284305787616
 20
202.7631872170282
 30
0.0
 11
-122.2284305787615
 21
202.7631872170282
 31
0.0
  0
LINE
  5
85
330
1F
100
AcDbEntity
  8
0
  6
Continuous
 62
     7
370
    15
100
AcDbLine
 10
-122.2284305787615
 20
222.7631872170282
 30
0.0
 11
-117.7284305787615
 21
222.7631872170282
 31
0.0
  0
LINE
  5
86
330
1F
100
AcDbEntity
  8
0
  6
Continuous
 62
     7
370
    15
100
AcDbLine
 10
-117.7284305787615
 20
222.0136290989176
 30
0.0
 11
-117.7284305787615
 21
222.7631872170282
 31
0.0
  0
LINE
  5
87
330
1F
100
AcDbEntity
  8
0
  6
Continuous
 62
     7
370
    15
100
AcDbLine
 10
-109.6769801751086
 20
222.0136290989176
 30
0.0
 11
-117.7284305787615
 21
222.0136290989176
 31
0.0
  0
LINE
  5
88
330
1F
100
AcDbEntity
  8
0
  6
Continuous
 62
     7
370
    15
100
AcDbLine
 10
-109.6769801751086
 20
222.7631872170282
 30
0.0
 11
-109.6769801751086
 21
222.0136290989176
 31
0.0
  0
LINE
  5
89
330
1F
100
AcDbEntity
  8
0
  6
Continuous
 62
     7
370
    15
100
AcDbLine
 10
-109.6769801751086
 20
222.7631872170282
 30
0.0
 11
-102.2284305787615
 21
222.7631872170282
 31
0.0
  0
LINE
  5
8A
330
1F
100
AcDbEntity
  8
0
  6
Continuous
 62
     7
370
    15
100
AcDbLine
 10
-102.2284305787615
 20
222.0136290989176
 30
0.0
 11
-102.2284305787615
 21
222.7631872170282
 31
0.0
  0
LINE
  5
8B
330
1F
100
AcDbEntity
  8
0
  6
Continuous
 62
     7
370
    15
100
AcDbLine
 10
-94.17698017510865
 20
222.0136290989176
 30
0.0
 11
-102.2284305787615
 21
222.0136290989176
 31
0.0
  0
LINE
  5
8C
330
1F
100
AcDbEntity
  8
0
  6
Continuous
 62
     7
370
    15
100
AcDbLine
 10
-94.17698017510865
 20
222.7631872170282
 30
0.0
 11
-94.17698017510865
 21
222.0136290989176
 31
0.0
  0
LINE
  5
8D
330
1F
100
AcDbEntity
  8
0
  6
Continuous
 62
     7
370
    15
100
AcDbLine
 10
-94.17698017510865
 20
222.7631872170282
 30
0.0
 11
-86.72843057876155
 21
222.7631872170282
 31
0.0
  0
LINE
  5
8E
330
1F
100
AcDbEntity
  8
0
  6
Continuous
 62
     7
370
    15
100
AcDbLine
 10
-86.72843057876155
 20
222.0136290989176
 30
0.0
 11
-86.72843057876155
 21
222.7631872170282
 31
0.0
  0
LINE
  5
8F
330
1F
100
AcDbEntity
  8
0
  6
Continuous
 62
     7
370
    15
100
AcDbLine
 10
-78.67698017510864
 20
222.0136290989176
 30
0.0
 11
-86.72843057876155
 21
222.0136290989176
 31
0.0
  0
LINE
  5
90
330
1F
100
AcDbEntity
  8
0
  6
Continuous
 62
     7
370
    15
100
AcDbLine
 10
-78.67698017510867
 20
222.7631872170282
 30
0.0
 11
-78.67698017510864
 21
222.0136290989176
 31
0.0
  0
LINE
  5
91
330
1F
100
AcDbEntity
  8
0
  6
Continuous
 62
     7
370
    15
100
AcDbLine
 10
-78.67698017510867
 20
222.7631872170282
 30
0.0
 11
-71.22843057876156
 21
222.7631872170282
 31
0.0
  0
LINE
  5
92
330
1F
100
AcDbEntity
  8
0
  6
Continuous
 62
     7
370
    15
100
AcDbLine
 10
-71.22843057876156
 20
222.0136290989176
 30
0.0
 11
-71.22843057876156
 21
222.7631872170282
 31
0.0
  0
LINE
  5
93
330
1F
100
AcDbEntity
  8
0
  6
Continuous
 62
     7
370
    15
100
AcDbLine
 10
-63.17698017510867
 20
222.0136290989176
 30
0.0
 11
-71.22843057876156
 21
222.0136290989176
 31
0.0
  0
LINE
  5
94
330
1F
100
AcDbEntity
  8
0
  6
Continuous
 62
     7
370
    15
100
AcDbLine
 10
-63.17698017510867
 20
222.7631872170282
 30
0.0
 11
-63.17698017510867
 21
222.0136290989176
 31
0.0
  0
LINE
  5
95
330
1F
100
AcDbEntity
  8
0
  6
Continuous
 62
     7
370
    15
100
AcDbLine
 10
-63.17698017510867
 20
222.7631872170282
 30
0.0
 11
-55.72843057876156
 21
222.7631872170282
 31
0.0
  0
LINE
  5
96
330
1F
100
AcDbEntity
  8
0
  6
Continuous
 62
     7
370
    15
100
AcDbLine
 10
-55.72843057876156
 20
222.0136290989176
 30
0.0
 11
-55.72843057876156
 21
222.7631872170282
 31
0.0
  0
LINE
  5
97
330
1F
100
AcDbEntity
  8
0
  6
Continuous
 62
     7
370
    15
100
AcDbLine
 10
-47.67698017510864
 20
222.0136290989176
 30
0.0
 11
-55.72843057876156
 21
222.0136290989176
 31
0.0
  0
LINE
  5
98
330
1F
100
AcDbEntity
  8
0
  6
Continuous
 62
     7
370
    15
100
AcDbLine
 10
-47.67698017510864
 20
222.7631872170282
 30
0.0
 11
-47.67698017510864
 21
222.0136290989176
 31
0.0
  0
LINE
  5
99
330
1F
100
AcDbEntity
  8
0
  6
Continuous
 62
     7
370
    15
100
AcDbLine
 10
-47.67698017510864
 20
222.7631872170282
 30
0.0
 11
-40.22843057876156
 21
222.7631872170282
 31
0.0
  0
LINE
  5
9A
330
1F
100
AcDbEntity
  8
0
  6
Continuous
 62
     7
370
    15
100
AcDbLine
 10
-40.22843057876156
 20
222.0136290989176
 30
0.0
 11
-40.22843057876156
 21
222.7631872170282
 31
0.0
  0
LINE
  5
9B
330
1F
100
AcDbEntity
  8
0
  6
Continuous
 62
     7
370
    15
100
AcDbLine
 10
-32.17698017510867
 20
222.0136290989176
 30
0.0
 11
-40.22843057876156
 21
222.0136290989176
 31
0.0
  0
LINE
  5
9C
330
1F
100
AcDbEntity
  8
0
  6
Continuous
 62
     7
370
    15
100
AcDbLine
 10
-32.17698017510867
 20
222.7631872170282
 30
0.0
 11
-32.17698017510867
 21
222.0136290989176
 31
0.0
  0
LINE
  5
9D
330
1F
100
AcDbEntity
  8
0
  6
Continuous
 62
     7
370
    15
100
AcDbLine
 10
-32.17698017510867
 20
222.7631872170282
 30
0.0
 11
-24.72843057876156
 21
222.7631872170282
 31
0.0
  0
LINE
  5
9E
330
1F
100
AcDbEntity
  8
0
  6
Continuous
 62
     7
370
    15
100
AcDbLine
 10
-24.72843057876156
 20
222.0136290989176
 30
0.0
 11
-24.72843057876156
 21
222.7631872170282
 31
0.0
  0
LINE
  5
9F
330
1F
100
AcDbEntity
  8
0
  6
Continuous
 62
     7
370
    15
100
AcDbLine
 10
-16.67698017510864
 20
222.0136290989176
 30
0.0
 11
-24.72843057876156
 21
222.0136290989176
 31
0.0
  0
LINE
  5
A0
330
1F
100
AcDbEntity
  8
0
  6
Continuous
 62
     7
370
    15
100
AcDbLine
 10
-16.67698017510864
 20
222.7631872170282
 30
0.0
 11
-16.67698017510864
 21
222.0136290989176
 31
0.0
  0
LINE
  5
A1
330
1F
100
AcDbEntity
  8
0
  6
Continuous
 62
     7
370
    15
100
AcDbLine
 10
-16.67698017510864
 20
222.7631872170282
 30
0.0
 11
-9.22843057876156
 21
222.7631872170282
 31
0.0
  0
LINE
  5
A2
330
1F
100
AcDbEntity
  8
0
  6
Continuous
 62
     7
370
    15
100
AcDbLine
 10
-9.22843057876156
 20
222.0136290989176
 30
0.0
 11
-9.22843057876156
 21
222.7631872170282
 31
0.0
  0
LINE
  5
A3
330
1F
100
AcDbEntity
  8
0
  6
Continuous
 62
     7
370
    15
100
AcDbLine
 10
-1.176980175108667
 20
222.0136290989176
 30
0.0
 11
-9.22843057876156
 21
222.0136290989176
 31
0.0
  0
LINE
  5
A4
330
1F
100
AcDbEntity
  8
0
  6
Continuous
 62
     7
370
    15
100
AcDbLine
 10
-1.176980175108667
 20
222.7631872170282
 30
0.0
 11
-1.176980175108667
 21
222.0136290989176
 31
0.0
  0
LINE
  5
A5
330
1F
100
AcDbEntity
  8
0
  6
Continuous
 62
     7
370
    15
100
AcDbLine
 10
-1.176980175108667
 20
222.7631872170282
 30
0.0
 11
6.271569421238439
 21
222.7631872170282
 31
0.0
  0
LINE
  5
A6
330
1F
100
AcDbEntity
  8
0
  6
Continuous
 62
     7
370
    15
100
AcDbLine
 10
6.271569421238439
 20
222.0136290989176
 30
0.0
 11
6.271569421238439
 21
222.7631872170282
 31
0.0
  0
LINE
  5
A7
330
1F
100
AcDbEntity
  8
0
  6
Continuous
 62
     7
370
    15
100
AcDbLine
 10
14.32301982489136
 20
222.0136290989176
 30
0.0
 11
6.271569421238439
 21
222.0136290989176
 31
0.0
  0
LINE
  5
A8
330
1F
100
AcDbEntity
  8
0
  6
Continuous
 62
     7
370
    15
100
AcDbLine
 10
14.32301982489136
 20
222.7631872170282
 30
0.0
 11
14.32301982489136
 21
222.0136290989176
 31
0.0
  0
LINE
  5
A9
330
1F
100
AcDbEntity
  8
0
  6
Continuous
 62
     7
370
    15
100
AcDbLine
 10
14.32301982489136
 20
222.7631872170282
 30
0.0
 11
21.77156942123847
 21
222.7631872170282
 31
0.0
  0
LINE
  5
AA
330
1F
100
AcDbEntity
  8
0
  6
Continuous
 62
     7
370
    15
100
AcDbLine
 10
21.77156942123847
 20
222.0136290989176
 30
0.0
 11
21.77156942123847
 21
222.7631872170282
 31
0.0
  0
LINE
  5
AB
330
1F
100
AcDbEntity
  8
0
  6
Continuous
 62
     7
370
    15
100
AcDbLine
 10
29.82301982489136
 20
222.0136290989176
 30
0.0
 11
21.77156942123847
 21
222.0136290989176
 31
0.0
  0
LINE
  5
AC
330
1F
100
AcDbEntity
  8
0
  6
Continuous
 62
     7
370
    15
100
AcDbLine
 10
29.82301982489136
 20
222.7631872170282
 30
0.0
 11
29.82301982489136
 21
222.0136290989176
 31
0.0
  0
LINE
  5
AD
330
1F
100
AcDbEntity
  8
0
  6
Continuous
 62
     7
370
    15
100
AcDbLine
 10
29.82301982489136
 20
222.7631872170282
 30
0.0
 11
37.27156942123841
 21
222.7631872170282
 31
0.0
  0
LINE
  5
AE
330
1F
100
AcDbEntity
  8
0
  6
Continuous
 62
     7
370
    15
100
AcDbLine
 10
37.27156942123841
 20
222.0136290989176
 30
0.0
 11
37.27156942123841
 21
222.7631872170282
 31
0.0
  0
LINE
  5
AF
330
1F
100
AcDbEntity
  8
0
  6
Continuous
 62
     7
370
    15
100
AcDbLine
 10
45.32301982489133
 20
222.0136290989176
 30
0.0
 11
37.27156942123841
 21
222.0136290989176
 31
0.0
  0
LINE
  5
B0
330
1F
100
AcDbEntity
  8
0
  6
Continuous
 62
     7
370
    15
100
AcDbLine
 10
45.32301982489133
 20
222.7631872170282
 30
0.0
 11
45.32301982489133
 21
222.0136290989176
 31
0.0
  0
LINE
  5
B1
330
1F
100
AcDbEntity
  8
0
  6
Continuous
 62
     7
370
    15
100
AcDbLine
 10
45.32301982489133
 20
222.7631872170282
 30
0.0
 11
52.77156942123844
 21
222.7631872170282
 31
0.0
  0
LINE
  5
B2
330
1F
100
AcDbEntity
  8
0
  6
Continuous
 62
     7
370
    15
100
AcDbLine
 10
52.77156942123844
 20
222.0136290989176
 30
0.0
 11
52.77156942123844
 21
222.7631872170282
 31
0.0
  0
LINE
  5
B3
330
1F
100
AcDbEntity
  8
0
  6
Continuous
 62
     7
370
    15
100
AcDbLine
 10
60.82301982489133
 20
222.0136290989176
 30
0.0
 11
52.77156942123844
 21
222.0136290989176
 31
0.0
  0
LINE
  5
B4
330
1F
100
AcDbEntity
  8
0
  6
Continuous
 62
     7
370
    15
100
AcDbLine
 10
60.82301982489133
 20
222.7631872170282
 30
0.0
 11
60.82301982489133
 21
222.0136290989176
 31
0.0
  0
LINE
  5
B5
330
1F
100
AcDbEntity
  8
0
  6
Continuous
 62
     7
370
    15
100
AcDbLine
 10
60.82301982489133
 20
222.7631872170282
 30
0.0
 11
68.27156942123844
 21
222.7631872170282
 31
0.0
  0
LINE
  5
B6
330
1F
100
AcDbEntity
  8
0
  6
Continuous
 62
     7
370
    15
100
AcDbLine
 10
68.27156942123844
 20
222.0136290989176
 30
0.0
 11
68.27156942123844
 21
222.7631872170282
 31
0.0
  0
LINE
  5
B7
330
1F
100
AcDbEntity
  8
0
  6
Continuous
 62
     7
370
    15
100
AcDbLine
 10
76.32301982489133
 20
222.0136290989176
 30
0.0
 11
68.27156942123844
 21
222.0136290989176
 31
0.0
  0
LINE
  5
B8
330
1F
100
AcDbEntity
  8
0
  6
Continuous
 62
     7
370
    15
100
AcDbLine
 10
76.32301982489133
 20
222.7631872170282
 30
0.0
 11
76.32301982489133
 21
222.0136290989176
 31
0.0
  0
LINE
  5
B9
330
1F
100
AcDbEntity
  8
0
  6
Continuous
 62
     7
370
    15
100
AcDbLine
 10
76.32301982489133
 20
222.7631872170282
 30
0.0
 11
83.77156942123844
 21
222.7631872170282
 31
0.0
  0
LINE
  5
BA
330
1F
100
AcDbEntity
  8
0
  6
Continuous
 62
     7
370
    15
100
AcDbLine
 10
83.77156942123844
 20
222.0136290989176
 30
0.0
 11
83.77156942123844
 21
222.7631872170282
 31
0.0
  0
LINE
  5
BB
330
1F
100
AcDbEntity
  8
0
  6
Continuous
 62
     7
370
    15
100
AcDbLine
 10
91.82301982489139
 20
222.0136290989176
 30
0.0
 11
83.77156942123844
 21
222.0136290989176
 31
0.0
  0
LINE
  5
BC
330
1F
100
AcDbEntity
  8
0
  6
Continuous
 62
     7
370
    15
100
AcDbLine
 10
-27.72843057876165
 20
202.7631872170282
 30
0.0
 11
-27.7284305787617
 21
218.2190608316024
 31
0.0
  0
LINE
  5
BD
330
1F
100
AcDbEntity
  8
0
  6
Continuous
 62
     7
370
    15
100
AcDbLine
 10
68.22011901758537
 20
202.7631872170282
 30
0.0
 11
68.22011901758532
 21
218.2190608316024
 31
0.0
  0
LINE
  5
BE
330
1F
100
AcDbEntity
  8
0
  6
Continuous
 62
     7
370
    15
100
AcDbLine
 10
80.77156942123826
 20
202.7631872170282
 30
0.0
 11
80.77156942123826
 21
218.2190608316024
 31
0.0
  0
LINE
  5
BF
330
1F
100
AcDbEntity
  8
0
  6
Continuous
 62
     7
370
    15
100
AcDbLine
 10
21.72011901758543
 20
202.7631872170282
 30
0.0
 11
21.72011901758541
 21
218.2190608316024
 31
0.0
  0
LINE
  5
C0
330
1F
100
AcDbEntity
  8
0
  6
Continuous
 62
     7
370
    15
100
AcDbLine
 10
52.72011901758543
 20
202.7631872170282
 30
0.0
 11
52.72011901758538
 21
218.2190608316024
 31
0.0
  0
LINE
  5
C1
330
1F
100
AcDbEntity
  8
0
  6
Continuous
 62
     7
370
    15
100
AcDbLine
 10
49.77156942123833
 20
202.7631872170282
 30
0.0
 11
49.77156942123821
 21
218.2190608316024
 31
0.0
  0
LINE
  5
C2
330
1F
100
AcDbEntity
  8
0
  6
Continuous
 62
     7
370
    15
100
AcDbLine
 10
6.220119017585403
 20
202.7631872170282
 30
0.0
 11
6.220119017585375
 21
218.2190608316024
 31
0.0
  0
LINE
  5
C3
330
1F
100
AcDbEntity
  8
0
  6
Continuous
 62
     7
370
    15
100
AcDbLine
 10
83.72011901758531
 20
202.7631872170282
 30
0.0
 11
83.72011901758531
 21
218.2190608316024
 31
0.0
  0
LINE
  5
C4
330
1F
100
AcDbEntity
  8
0
  6
Continuous
 62
     7
370
    15
100
AcDbLine
 10
-9.279880982414567
 20
202.7631872170282
 30
0.0
 11
-9.279880982414567
 21
218.2190608316024
 31
0.0
  0
LINE
  5
C5
330
1F
100
AcDbEntity
  8
0
  6
Continuous
 62
     7
370
    15
100
AcDbLine
 10
-12.22843057876161
 20
202.7631872170282
 30
0.0
 11
-12.22843057876173
 21
218.2190608316024
 31
0.0
  0
LINE
  5
C6
330
1F
100
AcDbEntity
  8
0
  6
Continuous
 62
     7
370
    15
100
AcDbLine
 10
-55.77988098241454
 20
202.7631872170282
 30
0.0
 11
-55.77988098241454
 21
218.2190608316024
 31
0.0
  0
LINE
  5
C7
330
1F
100
AcDbEntity
  8
0
  6
Continuous
 62
     7
370
    15
100
AcDbLine
 10
18.77156942123835
 20
202.7631872170282
 30
0.0
 11
18.77156942123824
 21
218.2190608316024
 31
0.0
  0
LINE
  5
C8
330
1F
100
AcDbEntity
  8
0
  6
Continuous
 62
     7
370
    15
100
AcDbLine
 10
-24.77988098241457
 20
202.7631872170282
 30
0.0
 11
-24.77988098241457
 21
218.2190608316024
 31
0.0
  0
LINE
  5
C9
330
1F
100
AcDbEntity
  8
0
  6
Continuous
 62
     7
370
    15
100
AcDbLine
 10
-105.2284305787616
 20
202.7631872170282
 30
0.0
 11
-105.2284305787616
 21
218.2190608316024
 31
0.0
  0
LINE
  5
CA
330
1F
100
AcDbEntity
  8
0
  6
Continuous
 62
     7
370
    15
100
AcDbLine
 10
-71.27988098241451
 20
202.7631872170282
 30
0.0
 11
-71.27988098241451
 21
218.2190608316024
 31
0.0
  0
LINE
  5
CB
330
1F
100
AcDbEntity
  8
0
  6
Continuous
 62
     7
370
    15
100
AcDbLine
 10
3.271569421238325
 20
202.7631872170282
 30
0.0
 11
3.271569421238268
 21
218.2190608316024
 31
0.0
  0
LINE
  5
CC
330
1F
100
AcDbEntity
  8
0
  6
Continuous
 62
     7
370
    15
100
AcDbLine
 10
-40.27988098241453
 20
202.7631872170282
 30
0.0
 11
-40.27988098241453
 21
218.2190608316024
 31
0.0
  0
LINE
  5
CD
330
1F
100
AcDbEntity
  8
0
  6
Continuous
 62
     7
370
    15
100
AcDbLine
 10
-43.22843057876162
 20
202.7631872170282
 30
0.0
 11
-43.22843057876167
 21
218.2190608316024
 31
0.0
  0
LINE
  5
CE
330
1F
100
AcDbEntity
  8
0
  6
Continuous
 62
     7
370
    15
100
AcDbLine
 10
-86.77988098241451
 20
202.7631872170282
 30
0.0
 11
-86.77988098241451
 21
218.2190608316024
 31
0.0
  0
LINE
  5
CF
330
1F
100
AcDbEntity
  8
0
  6
Continuous
 62
     7
370
    15
100
AcDbLine
 10
-89.72843057876159
 20
202.7631872170282
 30
0.0
 11
-89.72843057876163
 21
218.2190608316024
 31
0.0
  0
LINE
  5
D0
330
1F
100
AcDbEntity
  8
0
  6
Continuous
 62
     7
370
    15
100
AcDbLine
 10
-58.72843057876162
 20
202.7631872170282
 30
0.0
 11
-58.72843057876167
 21
218.2190608316024
 31
0.0
  0
LINE
  5
D1
330
1F
100
AcDbEntity
  8
0
  6
Continuous
 62
     7
370
    15
100
AcDbLine
 10
-102.2798809824144
 20
202.7631872170282
 30
0.0
 11
-102.2798809824144
 21
218.2190608316024
 31
0.0
  0
LINE
  5
D2
330
1F
100
AcDbEntity
  8
0
  6
Continuous
 62
     7
370
    15
100
AcDbLine
 10
34.2715694212383
 20
202.7631872170282
 30
0.0
 11
34.27156942123821
 21
218.2190608316024
 31
0.0
  0
LINE
  5
D3
330
1F
100
AcDbEntity
  8
0
  6
Continuous
 62
     7
370
    15
100
AcDbLine
 10
37.22011901758535
 20
202.7631872170282
 30
0.0
 11
37.22011901758535
 21
218.2190608316024
 31
0.0
  0
LINE
  5
D4
330
1F
100
AcDbEntity
  8
0
  6
Continuous
 62
     7
370
    15
100
AcDbLine
 10
-74.22843057876161
 20
202.7631872170282
 30
0.0
 11
-74.22843057876164
 21
218.2190608316024
 31
0.0
  0
SPLINE
  5
D5
330
1F
100
AcDbEntity
  8
0
  6
Continuous
 62
     7
370
    15
100
AcDbSpline
210
0.0
220
0.0
230
1.0
 70
     8
 71
     3
 72
    13
 73
     9
 74
     0
 42
0.0000000001
 43
0.0000000001
 40
0.0
 40
0.0
 40
0.0
 40
0.0
 40
0.085360657648755
 40
0.284178805995673
 40
0.4829970340927711
 40
0.6818192343383149
 40
0.8806416563058167
 40
1.0
 40
1.0
 40
1.0
 40
1.0
 10
139.7580737231322
 20
202.7631872170283
 30
0.0
 10
139.7475097722908
 20
203.2453138550042
 30
0.0
 10
139.7123407492374
 20
204.8503878562203
 30
0.0
 10
139.2642571848198
 20
207.557580619376
 30
0.0
 10
138.1941434509723
 20
210.7673448368654
 30
0.0
 10
136.5786601501848
 20
213.73953648302
 30
0.0
 10
134.7909407663463
 20
216.0712068678152
 30
0.0
 10
133.4783629098251
 20
217.300506055788
 30
0.0
 10
132.9859789072968
 20
217.7616499425844
 30
0.0
  0
LINE
  5
D6
330
1F
100
AcDbEntity
  8
0
  6
Continuous
 62
     7
370
    15
100
AcDbLine
 10
132.9859789072968
 20
217.7616499425844
 30
0.0
 11
131.8022174214895
 21
217.7616499425844
 31
0.0
  0
SPLINE
  5
D7
330
1F
100
AcDbEntity
  8
0
  6
Continuous
 62
     7
370
    15
100
AcDbSpline
210
0.0
220
0.0
230
1.0
 70
     8
 71
     3
 72
    13
 73
     9
 74
     0
 42
0.0000000001
 43
0.0000000001
 40
0.0
 40
0.0
 40
0.0
 40
0.0
 40
0.0431969498161307
 40
0.246622537296913
 40
0.4500263582963626
 40
0.6466789583906146
 40
0.8433236949068797
 40
1.0
 40
1.0
 40
1.0
 40
1.0
 10
131.8022174214895
 20
217.7616499425844
 30
0.0
 10
131.9872252524237
 20
217.6003295502879
 30
0.0
 10
133.0434827168733
 20
216.6793097876599
 30
0.0
 10
134.7719670642526
 20
214.7742902740588
 30
0.0
 10
136.6342755432897
 20
211.8741020572935
 30
0.0
 10
137.9286639407228
 20
208.7251932220635
 30
0.0
 10
138.6544795390339
 20
205.6633125800548
 30
0.0
 10
138.7347272598481
 20
203.6541348447438
 30
0.0
 10
138.7703122234042
 20
202.7631872170282
 30
0.0
  0
LINE
  5
D8
330
1F
100
AcDbEntity
  8
0
  6
Continuous
 62
     7
370
    15
100
AcDbLine
 10
138.7703122234042
 20
202.7631872170282
 30
0.0
 11
138.28790884883
 21
202.7631872170282
 31
0.0
  0
SPLINE
  5
D9
330
1F
100
AcDbEntity
  8
0
  6
Continuous
 62
     7
370
    15
100
AcDbSpline
210
0.0
220
0.0
230
1.0
 70
     8
 71
     3
 72
    13
 73
     9
 74
     0
 42
0.0000000001
 43
0.0000000001
 40
0.0
 40
0.0
 40
0.0
 40
0.0
 40
0.2260520417215133
 40
0.4162038977096607
 40
0.6063684756722455
 40
0.7978762892103662
 40
0.9894120267252992
 40
1.0
 40
1.0
 40
1.0
 40
1.0
 10
138.28790884883
 20
202.7631872170283
 30
0.0
 10
138.21407741677
 20
204.0541193576054
 30
0.0
 10
138.0781400035847
 20
206.4309657886093
 30
0.0
 10
137.0623077685967
 20
209.7614942687638
 30
0.0
 10
135.645341736381
 20
212.7096916862265
 30
0.0
 10
133.7341037722811
 20
215.3789556990667
 30
0.0
 10
132.1467166500227
 20
216.9805200235552
 30
0.0
 10
131.2656219395223
 20
217.7227682857392
 30
0.0
 10
131.2194670019802
 20
217.7616499425844
 30
0.0
  0
LINE
  5
DA
330
1F
100
AcDbEntity
  8
0
  6
Continuous
 62
     7
370
    15
100
AcDbLine
 10
131.2194670019802
 20
217.7616499425844
 30
0.0
 11
127.3648661683534
 21
217.7616499425844
 31
0.0
  0
SPLINE
  5
DB
330
1F
100
AcDbEntity
  8
0
  6
Continuous
 62
     7
370
    15
100
AcDbSpline
210
0.0
220
0.0
230
1.0
 70
     8
 71
     3
 72
    13
 73
     9
 74
     0
 42
0.0000000001
 43
0.0000000001
 40
0.0
 40
0.0
 40
0.0
 40
0.0
 40
0.2185885303286646
 40
0.4178551490440709
 40
0.617033907333796
 40
0.7988202230266847
 40
0.9805845081937242
 40
1.0
 40
1.0
 40
1.0
 40
1.0
 10
127.3648661683534
 20
217.7616499425844
 30
0.0
 10
128.352978216164
 20
216.947085053746
 30
0.0
 10
130.2418591487056
 20
215.3899579139102
 30
0.0
 10
132.4253508627718
 20
212.4870227068563
 30
0.0
 10
133.9834593919914
 20
209.4587066267528
 30
0.0
 10
134.9075376347435
 20
206.2872149436129
 30
0.0
 10
135.1612436072767
 20
204.0513607852466
 30
0.0
 10
135.1684064175108
 20
202.8765646412004
 30
0.0
 10
135.1690976872074
 20
202.7631872170282
 30
0.0
  0
LINE
  5
DC
330
1F
100
AcDbEntity
  8
0
  6
Continuous
 62
     7
370
    15
100
AcDbLine
 10
135.1690976872074
 20
202.7631872170282
 30
0.0
 11
134.1072402934086
 21
202.7631872170282
 31
0.0
  0
SPLINE
  5
DD
330
1F
100
AcDbEntity
  8
0
  6
Continuous
 62
     7
370
    15
100
AcDbSpline
210
0.0
220
0.0
230
1.0
 70
     8
 71
     3
 72
    14
 73
    10
 74
     0
 42
0.0000000001
 43
0.0000000001
 40
0.0
 40
0.0
 40
0.0
 40
0.0
 40
0.0275312930309433
 40
0.193317758069738
 40
0.3591248813128363
 40
0.5251133437534888
 40
0.6911542405334471
 40
0.8455493495615096
 40
1.0
 40
1.0
 40
1.0
 40
1.0
 10
134.1072402934086
 20
202.7631872170282
 30
0.0
 10
134.1057947413299
 20
202.9256309842218
 30
0.0
 10
134.0956444412071
 20
204.0662699237365
 30
0.0
 10
133.8453648198231
 20
206.182822991205
 30
0.0
 10
133.0323320929067
 20
209.0169046839636
 30
0.0
 10
131.7515005970602
 20
211.676392492177
 30
0.0
 10
130.1057815908628
 20
214.0398224408483
 30
0.0
 10
128.185767701005
 20
216.0988474118513
 30
0.0
 10
126.736052321507
 20
217.207315985032
 30
0.0
 10
126.0110642766627
 20
217.7616499425844
 30
0.0
  0
LINE
  5
DE
330
1F
100
AcDbEntity
  8
0
  6
Continuous
 62
     7
370
    15
100
AcDbLine
 10
126.0110642766627
 20
217.7616499425844
 30
0.0
 11
117.6069272805919
 21
217.7616499425844
 31
0.0
  0
SPLINE
  5
DF
330
1F
100
AcDbEntity
  8
0
  6
Continuous
 62
     7
370
    15
100
AcDbSpline
210
0.0
220
0.0
230
1.0
 70
     8
 71
     3
 72
    15
 73
    11
 74
     0
 42
0.0000000001
 43
0.0000000001
 40
0.0
 40
0.0
 40
0.0
 40
0.0
 40
0.0557954001997284
 40
0.1967824428256809
 40
0.3376758943158787
 40
0.4783888851019532
 40
0.6190005648439693
 40
0.7604308727416679
 40
0.9017936784213242
 40
1.0
 40
1.0
 40
1.0
 40
1.0
 10
117.6069272805919
 20
217.7616499425844
 30
0.0
 10
117.9255745219482
 20
217.5982460566634
 30
0.0
 10
119.0493980330134
 20
217.0219437858017
 30
0.0
 10
120.8850122007659
 20
215.8583353320122
 30
0.0
 10
122.9875677969033
 20
214.1328238461144
 30
0.0
 10
124.8132874912477
 20
212.1169605385908
 30
0.0
 10
126.3114504411805
 20
209.8389986734173
 30
0.0
 10
127.3817806254457
 20
207.328797576952
 30
0.0
 10
127.957540165124
 20
204.9323001082346
 30
0.0
 10
128.0169091054903
 20
203.3938446519238
 30
0.0
 10
128.0412461530728
 20
202.7631872170283
 30
0.0
  0
LINE
  5
E0
330
1F
100
AcDbEntity
  8
0
  6
Continuous
 62
     7
370
    15
100
AcDbLine
 10
128.0412461530728
 20
202.7631872170282
 30
0.0
 11
97.77156942123845
 21
202.7631872170282
 31
0.0
  0
LINE
  5
E1
330
1F
100
AcDbEntity
  8
0
  6
Continuous
 62
     7
370
    15
100
AcDbLine
 10
97.77156942123845
 20
222.7631872170282
 30
0.0
 11
119.7715694212384
 21
222.7631872170282
 31
0.0
  0
LINE
  5
E2
330
1F
100
AcDbEntity
  8
0
  6
Continuous
 62
     7
370
    15
100
AcDbLine
 10
97.77156942123845
 20
202.7631872170282
 30
0.0
 11
97.77156942123845
 21
181.7631872170282
 31
0.0
  0
LINE
  5
E3
330
1F
100
AcDbEntity
  8
0
  6
Continuous
 62
     7
370
    15
100
AcDbLine
 10
83.72011901758531
 20
188.9567720694401
 30
0.0
 11
80.77156942123826
 21
188.9567720694401
 31
0.0
  0
LINE
  5
E4
330
1F
100
AcDbEntity
  8
0
  6
Continuous
 62
     7
370
    15
100
AcDbLine
 10
-9.279880982414567
 20
188.9567720694401
 30
0.0
 11
-12.22843057876156
 21
188.9567720694401
 31
0.0
  0
LINE
  5
E5
330
1F
100
AcDbEntity
  8
0
  6
Continuous
 62
     7
370
    15
100
AcDbLine
 10
65.27156942123832
 20
188.9567720694401
 30
0.0
 11
65.27156942123832
 21
202.7631872170282
 31
0.0
  0
LINE
  5
E6
330
1F
100
AcDbEntity
  8
0
  6
Continuous
 62
     7
370
    15
100
AcDbLine
 10
52.72011901758538
 20
188.9567720694401
 30
0.0
 11
49.77156942123844
 21
188.9567720694401
 31
0.0
  0
LINE
  5
E7
330
1F
100
AcDbEntity
  8
0
  6
Continuous
 62
     7
370
    15
100
AcDbLine
 10
-27.72843057876159
 20
188.9567720694401
 30
0.0
 11
-27.72843057876165
 21
202.7631872170282
 31
0.0
  0
LINE
  5
E8
330
1F
100
AcDbEntity
  8
0
  6
Continuous
 62
     7
370
    15
100
AcDbLine
 10
68.22011901758532
 20
188.9567720694401
 30
0.0
 11
68.22011901758537
 21
202.7631872170282
 31
0.0
  0
LINE
  5
E9
330
1F
100
AcDbEntity
  8
0
  6
Continuous
 62
     7
370
    15
100
AcDbLine
 10
80.77156942123826
 20
188.9567720694401
 30
0.0
 11
80.77156942123826
 21
202.7631872170282
 31
0.0
  0
LINE
  5
EA
330
1F
100
AcDbEntity
  8
0
  6
Continuous
 62
     7
370
    15
100
AcDbLine
 10
21.72011901758541
 20
188.9567720694401
 30
0.0
 11
21.72011901758543
 21
202.7631872170282
 31
0.0
  0
LINE
  5
EB
330
1F
100
AcDbEntity
  8
0
  6
Continuous
 62
     7
370
    15
100
AcDbLine
 10
-86.77988098241451
 20
188.9567720694401
 30
0.0
 11
-89.72843057876158
 21
188.9567720694401
 31
0.0
  0
LINE
  5
EC
330
1F
100
AcDbEntity
  8
0
  6
Continuous
 62
     7
370
    15
100
AcDbLine
 10
52.72011901758538
 20
188.9567720694401
 30
0.0
 11
52.72011901758543
 21
202.7631872170282
 31
0.0
  0
LINE
  5
ED
330
1F
100
AcDbEntity
  8
0
  6
Continuous
 62
     7
370
    15
100
AcDbLine
 10
21.72011901758541
 20
188.9567720694401
 30
0.0
 11
18.77156942123841
 21
188.9567720694401
 31
0.0
  0
LINE
  5
EE
330
1F
100
AcDbEntity
  8
0
  6
Continuous
 62
     7
370
    15
100
AcDbLine
 10
49.77156942123844
 20
188.9567720694401
 30
0.0
 11
49.77156942123833
 21
202.7631872170282
 31
0.0
  0
LINE
  5
EF
330
1F
100
AcDbEntity
  8
0
  6
Continuous
 62
     7
370
    15
100
AcDbLine
 10
6.220119017585403
 20
188.9567720694401
 30
0.0
 11
6.220119017585403
 21
202.7631872170282
 31
0.0
  0
LINE
  5
F0
330
1F
100
AcDbEntity
  8
0
  6
Continuous
 62
     7
370
    15
100
AcDbLine
 10
-24.77988098241457
 20
188.9567720694401
 30
0.0
 11
-27.72843057876159
 21
188.9567720694401
 31
0.0
  0
LINE
  5
F1
330
1F
100
AcDbEntity
  8
0
  6
Continuous
 62
     7
370
    15
100
AcDbLine
 10
68.22011901758532
 20
188.9567720694401
 30
0.0
 11
65.27156942123832
 21
188.9567720694401
 31
0.0
  0
LINE
  5
F2
330
1F
100
AcDbEntity
  8
0
  6
Continuous
 62
     7
370
    15
100
AcDbLine
 10
6.220119017585403
 20
188.9567720694401
 30
0.0
 11
3.27156942123841
 21
188.9567720694401
 31
0.0
  0
LINE
  5
F3
330
1F
100
AcDbEntity
  8
0
  6
Continuous
 62
     7
370
    15
100
AcDbLine
 10
83.72011901758531
 20
188.9567720694401
 30
0.0
 11
83.72011901758531
 21
202.7631872170282
 31
0.0
  0
LINE
  5
F4
330
1F
100
AcDbEntity
  8
0
  6
Continuous
 62
     7
370
    15
100
AcDbLine
 10
-9.279880982414567
 20
188.9567720694401
 30
0.0
 11
-9.279880982414567
 21
202.7631872170282
 31
0.0
  0
LINE
  5
F5
330
1F
100
AcDbEntity
  8
0
  6
Continuous
 62
     7
370
    15
100
AcDbLine
 10
-40.27988098241453
 20
188.9567720694401
 30
0.0
 11
-43.22843057876156
 21
188.9567720694401
 31
0.0
  0
LINE
  5
F6
330
1F
100
AcDbEntity
  8
0
  6
Continuous
 62
     7
370
    15
100
AcDbLine
 10
-12.22843057876156
 20
188.9567720694401
 30
0.0
 11
-12.22843057876161
 21
202.7631872170282
 31
0.0
  0
LINE
  5
F7
330
1F
100
AcDbEntity
  8
0
  6
Continuous
 62
     7
370
    15
100
AcDbLine
 10
-55.77988098241454
 20
188.9567720694401
 30
0.0
 11
-55.77988098241454
 21
202.7631872170282
 31
0.0
  0
LINE
  5
F8
330
1F
100
AcDbEntity
  8
0
  6
Continuous
 62
     7
370
    15
100
AcDbLine
 10
18.77156942123841
 20
188.9567720694401
 30
0.0
 11
18.77156942123835
 21
202.7631872170282
 31
0.0
  0
LINE
  5
F9
330
1F
100
AcDbEntity
  8
0
  6
Continuous
 62
     7
370
    15
100
AcDbLine
 10
-24.77988098241457
 20
188.9567720694401
 30
0.0
 11
-24.77988098241457
 21
202.7631872170282
 31
0.0
  0
LINE
  5
FA
330
1F
100
AcDbEntity
  8
0
  6
Continuous
 62
     7
370
    15
100
AcDbLine
 10
-55.77988098241454
 20
188.9567720694401
 30
0.0
 11
-58.72843057876159
 21
188.9567720694401
 31
0.0
  0
LINE
  5
FB
330
1F
100
AcDbEntity
  8
0
  6
Continuous
 62
     7
370
    15
100
AcDbLine
 10
-105.2284305787615
 20
188.9567720694401
 30
0.0
 11
-105.2284305787616
 21
202.7631872170282
 31
0.0
  0
LINE
  5
FC
330
1F
100
AcDbEntity
  8
0
  6
Continuous
 62
     7
370
    15
100
AcDbLine
 10
-71.27988098241451
 20
188.9567720694401
 30
0.0
 11
-71.27988098241451
 21
202.7631872170282
 31
0.0
  0
LINE
  5
FD
330
1F
100
AcDbEntity
  8
0
  6
Continuous
 62
     7
370
    15
100
AcDbLine
 10
3.27156942123841
 20
188.9567720694401
 30
0.0
 11
3.271569421238325
 21
202.7631872170282
 31
0.0
  0
LINE
  5
FE
330
1F
100
AcDbEntity
  8
0
  6
Continuous
 62
     7
370
    15
100
AcDbLine
 10
-40.27988098241453
 20
188.9567720694401
 30
0.0
 11
-40.27988098241453
 21
202.7631872170282
 31
0.0
  0
LINE
  5
FF
330
1F
100
AcDbEntity
  8
0
  6
Continuous
 62
     7
370
    15
100
AcDbLine
 10
-71.27988098241451
 20
188.9567720694401
 30
0.0
 11
-74.22843057876156
 21
188.9567720694401
 31
0.0
  0
LINE
  5
100
330
1F
100
AcDbEntity
  8
0
  6
Continuous
 62
     7
370
    15
100
AcDbLine
 10
-43.22843057876156
 20
188.9567720694401
 30
0.0
 11
-43.22843057876162
 21
202.7631872170282
 31
0.0
  0
LINE
  5
101
330
1F
100
AcDbEntity
  8
0
  6
Continuous
 62
     7
370
    15
100
AcDbLine
 10
-86.77988098241451
 20
188.9567720694401
 30
0.0
 11
-86.77988098241451
 21
202.7631872170282
 31
0.0
  0
LINE
  5
102
330
1F
100
AcDbEntity
  8
0
  6
Continuous
 62
     7
370
    15
100
AcDbLine
 10
37.22011901758535
 20
188.9567720694401
 30
0.0
 11
34.27156942123841
 21
188.9567720694401
 31
0.0
  0
LINE
  5
103
330
1F
100
AcDbEntity
  8
0
  6
Continuous
 62
     7
370
    15
100
AcDbLine
 10
-89.72843057876158
 20
188.9567720694401
 30
0.0
 11
-89.72843057876159
 21
202.7631872170282
 31
0.0
  0
LINE
  5
104
330
1F
100
AcDbEntity
  8
0
  6
Continuous
 62
     7
370
    15
100
AcDbLine
 10
-122.2284305787615
 20
181.7631872170282
 30
0.0
 11
97.77156942123845
 21
181.7631872170282
 31
0.0
  0
LINE
  5
105
330
1F
100
AcDbEntity
  8
0
  6
Continuous
 62
     7
370
    15
100
AcDbLine
 10
-58.72843057876159
 20
188.9567720694401
 30
0.0
 11
-58.72843057876162
 21
202.7631872170282
 31
0.0
  0
LINE
  5
106
330
1F
100
AcDbEntity
  8
0
  6
Continuous
 62
     7
370
    15
100
AcDbLine
 10
-102.2798809824144
 20
188.9567720694401
 30
0.0
 11
-102.2798809824144
 21
202.7631872170282
 31
0.0
  0
LINE
  5
107
330
1F
100
AcDbEntity
  8
0
  6
Continuous
 62
     7
370
    15
100
AcDbLine
 10
34.27156942123841
 20
188.9567720694401
 30
0.0
 11
34.2715694212383
 21
202.7631872170282
 31
0.0
  0
LINE
  5
108
330
1F
100
AcDbEntity
  8
0
  6
Continuous
 62
     7
370
    15
100
AcDbLine
 10
37.22011901758535
 20
188.9567720694401
 30
0.0
 11
37.22011901758535
 21
202.7631872170282
 31
0.0
  0
LINE
  5
109
330
1F
100
AcDbEntity
  8
0
  6
Continuous
 62
     7
370
    15
100
AcDbLine
 10
-102.2798809824144
 20
188.9567720694401
 30
0.0
 11
-105.2284305787615
 21
188.9567720694401
 31
0.0
  0
LINE
  5
10A
330
1F
100
AcDbEntity
  8
0
  6
Continuous
 62
     7
370
    15
100
AcDbLine
 10
-74.22843057876156
 20
188.9567720694401
 30
0.0
 11
-74.22843057876161
 21
202.7631872170282
 31
0.0
  0
LINE
  5
10B
330
1F
100
AcDbEntity
  8
0
  6
Continuous
 62
     7
370
    15
100
AcDbLine
 10
128.0412461530728
 20
188.7631872170282
 30
0.0
 11
128.0412461530728
 21
202.7631872170282
 31
0.0
  0
LINE
  5
10C
330
1F
100
AcDbEntity
  8
0
  6
Continuous
 62
     7
370
    15
100
AcDbLine
 10
134.1072402934086
 20
188.7631872170282
 30
0.0
 11
128.0412461530728
 21
188.7631872170282
 31
0.0
  0
LINE
  5
10D
330
1F
100
AcDbEntity
  8
0
  6
Continuous
 62
     7
370
    15
100
AcDbLine
 10
134.1072402934086
 20
202.7631872170282
 30
0.0
 11
134.1072402934086
 21
188.7631872170282
 31
0.0
  0
LINE
  5
10E
330
1F
100
AcDbEntity
  8
0
  6
Continuous
 62
     7
370
    15
100
AcDbLine
 10
135.1690976872074
 20
188.7631872170282
 30
0.0
 11
135.1690976872074
 21
202.7631872170282
 31
0.0
  0
LINE
  5
10F
330
1F
100
AcDbEntity
  8
0
  6
Continuous
 62
     7
370
    15
100
AcDbLine
 10
138.28790884883
 20
188.7631872170282
 30
0.0
 11
135.1690976872074
 21
188.7631872170282
 31
0.0
  0
LINE
  5
110
330
1F
100
AcDbEntity
  8
0
  6
Continuous
 62
     7
370
    15
100
AcDbLine
 10
138.28790884883
 20
202.7631872170282
 30
0.0
 11
138.28790884883
 21
188.7631872170282
 31
0.0
  0
LINE
  5
111
330
1F
100
AcDbEntity
  8
0
  6
Continuous
 62
     7
370
    15
100
AcDbLine
 10
138.7703122234042
 20
188.7631872170282
 30
0.0
 11
138.7703122234042
 21
202.7631872170282
 31
0.0
  0
LINE
  5
112
330
1F
100
AcDbEntity
  8
0
  6
Continuous
 62
     7
370
    15
100
AcDbLine
 10
139.7580737231322
 20
188.7631872170282
 30
0.0
 11
138.7703122234042
 21
188.7631872170282
 31
0.0
  0
LINE
  5
113
330
1F
100
AcDbEntity
  8
0
  6
Continuous
 62
     7
370
    15
100
AcDbLine
 10
139.7580737231322
 20
202.7631872170282
 30
0.0
 11
139.7580737231322
 21
188.7631872170282
 31
0.0
  0
LINE
  5
114
330
1F
100
AcDbEntity
  8
0
  6
Continuous
 62
     7
370
    15
100
AcDbLine
 10
97.77156942123845
 20
181.7631872170282
 30
0.0
 11
139.7715694212384
 21
181.7631872170282
 31
0.0
  0
LINE
  5
115
330
1F
100
AcDbEntity
  8
0
  6
Continuous
 62
     7
370
    15
100
AcDbLine
 10
68.27156942123844
 20
222.0378222140389
 30
0.0
 11
76.32301982489133
 21
222.0378222140389
 31
0.0
  0
LINE
  5
116
330
1F
100
AcDbEntity
  8
0
  6
Continuous
 62
     7
370
    15
100
AcDbLine
 10
52.77156942123844
 20
222.0378222140389
 30
0.0
 11
60.82301982489133
 21
222.0378222140389
 31
0.0
  0
LINE
  5
117
330
1F
100
AcDbEntity
  8
0
  6
Continuous
 62
     7
370
    15
100
AcDbLine
 10
37.27156942123841
 20
222.0378222140389
 30
0.0
 11
45.32301982489139
 21
222.0378222140389
 31
0.0
  0
LINE
  5
118
330
1F
100
AcDbEntity
  8
0
  6
Continuous
 62
     7
370
    15
100
AcDbLine
 10
21.77156942123847
 20
222.0378222140389
 30
0.0
 11
29.82301982489136
 21
222.0378222140389
 31
0.0
  0
LINE
  5
119
330
1F
100
AcDbEntity
  8
0
  6
Continuous
 62
     7
370
    15
100
AcDbLine
 10
6.271569421238439
 20
222.0378222140389
 30
0.0
 11
14.32301982489136
 21
222.0378222140389
 31
0.0
  0
LINE
  5
11A
330
1F
100
AcDbEntity
  8
0
  6
Continuous
 62
     7
370
    15
100
AcDbLine
 10
-9.22843057876156
 20
222.0378222140389
 30
0.0
 11
-1.176980175108667
 21
222.0378222140389
 31
0.0
  0
LINE
  5
11B
330
1F
100
AcDbEntity
  8
0
  6
Continuous
 62
     7
370
    15
100
AcDbLine
 10
-24.72843057876156
 20
222.0378222140389
 30
0.0
 11
-16.67698017510864
 21
222.0378222140389
 31
0.0
  0
LINE
  5
11C
330
1F
100
AcDbEntity
  8
0
  6
Continuous
 62
     7
370
    15
100
AcDbLine
 10
-40.22843057876156
 20
222.0378222140389
 30
0.0
 11
-32.17698017510867
 21
222.0378222140389
 31
0.0
  0
LINE
  5
11D
330
1F
100
AcDbEntity
  8
0
  6
Continuous
 62
     7
370
    15
100
AcDbLine
 10
-55.72843057876156
 20
222.0378222140389
 30
0.0
 11
-47.67698017510864
 21
222.0378222140389
 31
0.0
  0
LINE
  5
11E
330
1F
100
AcDbEntity
  8
0
  6
Continuous
 62
     7
370
    15
100
AcDbLine
 10
-71.22843057876156
 20
222.0378222140389
 30
0.0
 11
-63.17698017510867
 21
222.0378222140389
 31
0.0
  0
LINE
  5
11F
330
1F
100
AcDbEntity
  8
0
  6
Continuous
 62
     7
370
    15
100
AcDbLine
 10
-86.72843057876155
 20
222.0378222140389
 30
0.0
 11
-78.67698017510864
 21
222.0378222140389
 31
0.0
  0
LINE
  5
120
330
1F
100
AcDbEntity
  8
0
  6
Continuous
 62
     7
370
    15
100
AcDbLine
 10
-102.2284305787615
 20
222.0378222140389
 30
0.0
 11
-94.17698017510865
 21
222.0378222140389
 31
0.0
  0
LINE
  5
121
330
1F
100
AcDbEntity
  8
0
  6
Continuous
 62
     7
370
    15
100
AcDbLine
 10
-117.7284305787615
 20
222.0378222140389
 30
0.0
 11
-109.6769801751086
 21
222.0378222140389
 31
0.0
  0
LINE
  5
122
330
1F
100
AcDbEntity
  8
0
  6
Continuous
 62
     7
370
    15
100
AcDbLine
 10
83.77156942123844
 20
222.0378222140389
 30
0.0
 11
91.82301982489139
 21
222.0378222140389
 31
0.0
  0
LINE
  5
123
330
1F
100
AcDbEntity
  8
0
  6
Continuous
 62
     7
370
    15
100
AcDbLine
 10
97.77156942123889
 20
140.7631872170282
 30
0.0
 11
-122.2284305787615
 21
140.7631872170282
 31
0.0
  0
LINE
  5
124
330
1F
100
AcDbEntity
  8
0
  6
Continuous
 62
     7
370
    15
100
AcDbLine
 10
-122.2284305787615
 20
140.7631872170282
 30
0.0
 11
-122.2284305787615
 21
170.7631872170282
 31
0.0
  0
LINE
  5
125
330
1F
100
AcDbEntity
  8
0
  6
Continuous
 62
     7
370
    15
100
AcDbLine
 10
-122.2284305787615
 20
170.7631872170282
 30
0.0
 11
97.77156942123889
 21
170.7631872170282
 31
0.0
  0
LINE
  5
126
330
1F
100
AcDbEntity
  8
0
  6
Continuous
 62
     7
370
    15
100
AcDbLine
 10
97.77156942123889
 20
140.7631872170282
 30
0.0
 11
97.77156942123889
 21
170.7631872170282
 31
0.0
  0
LINE
  5
127
330
1F
100
AcDbEntity
  8
0
  6
Continuous
 62
     7
370
    15
100
AcDbLine
 10
-122.2284305787615
 20
140.7631872170282
 30
0.0
 11
-134.2284305787615
 21
140.7631872170282
 31
0.0
  0
LINE
  5
128
330
1F
100
AcDbEntity
  8
0
  6
Continuous
 62
     7
370
    15
100
AcDbLine
 10
-122.2284305787615
 20
170.7631872170282
 30
0.0
 11
-122.2284305787615
 21
181.7631872170282
 31
0.0
  0
LINE
  5
129
330
1F
100
AcDbEntity
  8
0
  6
Continuous
 62
     7
370
    15
100
AcDbLine
 10
97.77156942123889
 20
170.7631872170282
 30
0.0
 11
97.77156942123889
 21
181.7631872170282
 31
0.0
  0
LINE
  5
12A
330
1F
100
AcDbEntity
  8
0
  6
Continuous
 62
     7
370
    15
100
AcDbLine
 10
109.7715694212389
 20
140.7631872170282
 30
0.0
 11
97.77156942123889
 21
140.7631872170282
 31
0.0
  0
LINE
  5
12B
330
1F
100
AcDbEntity
  8
0
  6
Continuous
 62
     8
370
    15
100
AcDbLine
 10
-164.2149348806553
 20
202.7631872170282
 30
0.0
 11
-164.2284305787616
 21
202.7631872170282
 31
0.0
  0
LINE
  5
12C
330
1F
100
AcDbEntity
  8
0
  6
Continuous
 62
     8
370
    15
100
AcDbLine
 10
-164.2284305787616
 20
170.7631872170282
 30
0.0
 11
-122.2284305787615
 21
170.7631872170282
 31
0.0
  0
LINE
  5
12D
330
1F
100
AcDbEntity
  8
0
  6
Continuous
 62
     8
370
    15
100
AcDbLine
 10
97.77156942123889
 20
170.7631872170282
 30
0.0
 11
139.7715694212389
 21
170.7631872170282
 31
0.0
  0
LINE
  5
12E
330
1F
100
AcDbEntity
  8
0
  6
Continuous
 62
     7
370
    15
100
AcDbLine
 10
76.32301982489133
 20
83.15948655139814
 30
0.0
 11
76.32301982489133
 21
77.82202969143106
 31
0.0
  0
LINE
  5
12F
330
1F
100
AcDbEntity
  8
0
  6
Continuous
 62
     7
370
    15
100
AcDbLine
 10
68.27156942123844
 20
83.15948655139814
 30
0.0
 11
76.32301982489133
 21
83.15948655139814
 31
0.0
  0
LINE
  5
130
330
1F
100
AcDbEntity
  8
0
  6
Continuous
 62
     7
370
    15
100
AcDbLine
 10
68.27156942123844
 20
77.82202969143106
 30
0.0
 11
68.27156942123844
 21
83.15948655139814
 31
0.0
  0
LINE
  5
131
330
1F
100
AcDbEntity
  8
0
  6
Continuous
 62
     7
370
    15
100
AcDbLine
 10
68.27156942123844
 20
77.82202969143106
 30
0.0
 11
60.82301982489133
 21
77.82202969143106
 31
0.0
  0
LINE
  5
132
330
1F
100
AcDbEntity
  8
0
  6
Continuous
 62
     7
370
    15
100
AcDbLine
 10
60.82301982489133
 20
83.15948655139814
 30
0.0
 11
60.82301982489133
 21
77.82202969143106
 31
0.0
  0
LINE
  5
133
330
1F
100
AcDbEntity
  8
0
  6
Continuous
 62
     7
370
    15
100
AcDbLine
 10
52.77156942123844
 20
83.15948655139814
 30
0.0
 11
60.82301982489133
 21
83.15948655139814
 31
0.0
  0
LINE
  5
134
330
1F
100
AcDbEntity
  8
0
  6
Continuous
 62
     7
370
    15
100
AcDbLine
 10
52.77156942123844
 20
77.82202969143106
 30
0.0
 11
52.77156942123844
 21
83.15948655139814
 31
0.0
  0
LINE
  5
135
330
1F
100
AcDbEntity
  8
0
  6
Continuous
 62
     7
370
    15
100
AcDbLine
 10
52.77156942123844
 20
77.82202969143106
 30
0.0
 11
45.32301982489139
 21
77.82202969143106
 31
0.0
  0
LINE
  5
136
330
1F
100
AcDbEntity
  8
0
  6
Continuous
 62
     7
370
    15
100
AcDbLine
 10
45.32301982489139
 20
83.15948655139814
 30
0.0
 11
45.32301982489139
 21
77.82202969143106
 31
0.0
  0
LINE
  5
137
330
1F
100
AcDbEntity
  8
0
  6
Continuous
 62
     7
370
    15
100
AcDbLine
 10
37.27156942123841
 20
83.15948655139814
 30
0.0
 11
45.32301982489139
 21
83.15948655139814
 31
0.0
  0
LINE
  5
138
330
1F
100
AcDbEntity
  8
0
  6
Continuous
 62
     7
370
    15
100
AcDbLine
 10
37.27156942123841
 20
77.82202969143106
 30
0.0
 11
37.27156942123841
 21
83.15948655139814
 31
0.0
  0
LINE
  5
139
330
1F
100
AcDbEntity
  8
0
  6
Continuous
 62
     7
370
    15
100
AcDbLine
 10
37.27156942123841
 20
77.82202969143106
 30
0.0
 11
29.82301982489136
 21
77.82202969143106
 31
0.0
  0
LINE
  5
13A
330
1F
100
AcDbEntity
  8
0
  6
Continuous
 62
     7
370
    15
100
AcDbLine
 10
29.82301982489136
 20
83.15948655139814
 30
0.0
 11
29.82301982489136
 21
77.82202969143106
 31
0.0
  0
LINE
  5
13B
330
1F
100
AcDbEntity
  8
0
  6
Continuous
 62
     7
370
    15
100
AcDbLine
 10
21.77156942123847
 20
83.15948655139814
 30
0.0
 11
29.82301982489136
 21
83.15948655139814
 31
0.0
  0
LINE
  5
13C
330
1F
100
AcDbEntity
  8
0
  6
Continuous
 62
     7
370
    15
100
AcDbLine
 10
21.77156942123847
 20
77.82202969143106
 30
0.0
 11
21.77156942123847
 21
83.15948655139814
 31
0.0
  0
LINE
  5
13D
330
1F
100
AcDbEntity
  8
0
  6
Continuous
 62
     7
370
    15
100
AcDbLine
 10
21.77156942123847
 20
77.82202969143106
 30
0.0
 11
14.32301982489136
 21
77.82202969143106
 31
0.0
  0
LINE
  5
13E
330
1F
100
AcDbEntity
  8
0
  6
Continuous
 62
     7
370
    15
100
AcDbLine
 10
14.32301982489136
 20
83.15948655139814
 30
0.0
 11
14.32301982489136
 21
77.82202969143106
 31
0.0
  0
LINE
  5
13F
330
1F
100
AcDbEntity
  8
0
  6
Continuous
 62
     7
370
    15
100
AcDbLine
 10
6.271569421238439
 20
83.15948655139814
 30
0.0
 11
14.32301982489136
 21
83.15948655139814
 31
0.0
  0
LINE
  5
140
330
1F
100
AcDbEntity
  8
0
  6
Continuous
 62
     7
370
    15
100
AcDbLine
 10
6.271569421238439
 20
77.82202969143106
 30
0.0
 11
6.271569421238439
 21
83.15948655139814
 31
0.0
  0
LINE
  5
141
330
1F
100
AcDbEntity
  8
0
  6
Continuous
 62
     7
370
    15
100
AcDbLine
 10
6.271569421238439
 20
77.82202969143106
 30
0.0
 11
-1.176980175108667
 21
77.82202969143106
 31
0.0
  0
LINE
  5
142
330
1F
100
AcDbEntity
  8
0
  6
Continuous
 62
     7
370
    15
100
AcDbLine
 10
-1.176980175108667
 20
83.15948655139814
 30
0.0
 11
-1.176980175108667
 21
77.82202969143106
 31
0.0
  0
LINE
  5
143
330
1F
100
AcDbEntity
  8
0
  6
Continuous
 62
     7
370
    15
100
AcDbLine
 10
-9.22843057876156
 20
83.15948655139814
 30
0.0
 11
-1.176980175108667
 21
83.15948655139814
 31
0.0
  0
LINE
  5
144
330
1F
100
AcDbEntity
  8
0
  6
Continuous
 62
     7
370
    15
100
AcDbLine
 10
-9.22843057876156
 20
77.82202969143106
 30
0.0
 11
-9.22843057876156
 21
83.15948655139814
 31
0.0
  0
LINE
  5
145
330
1F
100
AcDbEntity
  8
0
  6
Continuous
 62
     7
370
    15
100
AcDbLine
 10
-9.22843057876156
 20
77.82202969143106
 30
0.0
 11
-16.67698017510864
 21
77.82202969143106
 31
0.0
  0
LINE
  5
146
330
1F
100
AcDbEntity
  8
0
  6
Continuous
 62
     7
370
    15
100
AcDbLine
 10
-16.67698017510864
 20
83.15948655139814
 30
0.0
 11
-16.67698017510864
 21
77.82202969143106
 31
0.0
  0
LINE
  5
147
330
1F
100
AcDbEntity
  8
0
  6
Continuous
 62
     7
370
    15
100
AcDbLine
 10
-24.72843057876156
 20
83.15948655139814
 30
0.0
 11
-16.67698017510864
 21
83.15948655139814
 31
0.0
  0
LINE
  5
148
330
1F
100
AcDbEntity
  8
0
  6
Continuous
 62
     7
370
    15
100
AcDbLine
 10
-24.72843057876156
 20
77.82202969143106
 30
0.0
 11
-24.72843057876156
 21
83.15948655139814
 31
0.0
  0
LINE
  5
149
330
1F
100
AcDbEntity
  8
0
  6
Continuous
 62
     7
370
    15
100
AcDbLine
 10
-24.72843057876156
 20
77.82202969143106
 30
0.0
 11
-32.17698017510867
 21
77.82202969143106
 31
0.0
  0
LINE
  5
14A
330
1F
100
AcDbEntity
  8
0
  6
Continuous
 62
     7
370
    15
100
AcDbLine
 10
-32.17698017510867
 20
83.15948655139814
 30
0.0
 11
-32.17698017510867
 21
77.82202969143106
 31
0.0
  0
LINE
  5
14B
330
1F
100
AcDbEntity
  8
0
  6
Continuous
 62
     7
370
    15
100
AcDbLine
 10
-40.22843057876156
 20
83.15948655139814
 30
0.0
 11
-32.17698017510867
 21
83.15948655139814
 31
0.0
  0
LINE
  5
14C
330
1F
100
AcDbEntity
  8
0
  6
Continuous
 62
     7
370
    15
100
AcDbLine
 10
-40.22843057876156
 20
77.82202969143106
 30
0.0
 11
-40.22843057876156
 21
83.15948655139814
 31
0.0
  0
LINE
  5
14D
330
1F
100
AcDbEntity
  8
0
  6
Continuous
 62
     7
370
    15
100
AcDbLine
 10
-40.22843057876156
 20
77.82202969143106
 30
0.0
 11
-47.67698017510864
 21
77.82202969143106
 31
0.0
  0
LINE
  5
14E
330
1F
100
AcDbEntity
  8
0
  6
Continuous
 62
     7
370
    15
100
AcDbLine
 10
-47.67698017510864
 20
83.15948655139814
 30
0.0
 11
-47.67698017510864
 21
77.82202969143106
 31
0.0
  0
LINE
  5
14F
330
1F
100
AcDbEntity
  8
0
  6
Continuous
 62
     7
370
    15
100
AcDbLine
 10
-55.72843057876156
 20
83.15948655139814
 30
0.0
 11
-47.67698017510864
 21
83.15948655139814
 31
0.0
  0
LINE
  5
150
330
1F
100
AcDbEntity
  8
0
  6
Continuous
 62
     7
370
    15
100
AcDbLine
 10
-55.72843057876156
 20
77.82202969143106
 30
0.0
 11
-55.72843057876156
 21
83.15948655139814
 31
0.0
  0
LINE
  5
151
330
1F
100
AcDbEntity
  8
0
  6
Continuous
 62
     7
370
    15
100
AcDbLine
 10
-55.72843057876156
 20
77.82202969143106
 30
0.0
 11
-63.17698017510867
 21
77.82202969143106
 31
0.0
  0
LINE
  5
152
330
1F
100
AcDbEntity
  8
0
  6
Continuous
 62
     7
370
    15
100
AcDbLine
 10
-63.17698017510867
 20
83.15948655139814
 30
0.0
 11
-63.17698017510867
 21
77.82202969143106
 31
0.0
  0
LINE
  5
153
330
1F
100
AcDbEntity
  8
0
  6
Continuous
 62
     7
370
    15
100
AcDbLine
 10
-71.22843057876156
 20
83.15948655139814
 30
0.0
 11
-63.17698017510867
 21
83.15948655139814
 31
0.0
  0
LINE
  5
154
330
1F
100
AcDbEntity
  8
0
  6
Continuous
 62
     7
370
    15
100
AcDbLine
 10
-71.22843057876156
 20
77.82202969143106
 30
0.0
 11
-71.22843057876156
 21
83.15948655139814
 31
0.0
  0
LINE
  5
155
330
1F
100
AcDbEntity
  8
0
  6
Continuous
 62
     7
370
    15
100
AcDbLine
 10
-71.22843057876156
 20
77.82202969143106
 30
0.0
 11
-78.67698017510864
 21
77.82202969143106
 31
0.0
  0
LINE
  5
156
330
1F
100
AcDbEntity
  8
0
  6
Continuous
 62
     7
370
    15
100
AcDbLine
 10
-78.67698017510864
 20
83.15948655139814
 30
0.0
 11
-78.67698017510864
 21
77.82202969143106
 31
0.0
  0
LINE
  5
157
330
1F
100
AcDbEntity
  8
0
  6
Continuous
 62
     7
370
    15
100
AcDbLine
 10
-86.72843057876155
 20
83.15948655139814
 30
0.0
 11
-78.67698017510864
 21
83.15948655139814
 31
0.0
  0
LINE
  5
158
330
1F
100
AcDbEntity
  8
0
  6
Continuous
 62
     7
370
    15
100
AcDbLine
 10
-86.72843057876155
 20
77.82202969143106
 30
0.0
 11
-86.72843057876155
 21
83.15948655139814
 31
0.0
  0
LINE
  5
159
330
1F
100
AcDbEntity
  8
0
  6
Continuous
 62
     7
370
    15
100
AcDbLine
 10
-86.72843057876155
 20
77.82202969143106
 30
0.0
 11
-94.17698017510865
 21
77.82202969143106
 31
0.0
  0
LINE
  5
15A
330
1F
100
AcDbEntity
  8
0
  6
Continuous
 62
     7
370
    15
100
AcDbLine
 10
-94.17698017510865
 20
83.15948655139814
 30
0.0
 11
-94.17698017510865
 21
77.82202969143106
 31
0.0
  0
LINE
  5
15B
330
1F
100
AcDbEntity
  8
0
  6
Continuous
 62
     7
370
    15
100
AcDbLine
 10
-102.2284305787615
 20
83.15948655139814
 30
0.0
 11
-94.17698017510865
 21
83.15948655139814
 31
0.0
  0
LINE
  5
15C
330
1F
100
AcDbEntity
  8
0
  6
Continuous
 62
     7
370
    15
100
AcDbLine
 10
-102.2284305787615
 20
77.82202969143106
 30
0.0
 11
-102.2284305787615
 21
83.15948655139814
 31
0.0
  0
LINE
  5
15D
330
1F
100
AcDbEntity
  8
0
  6
Continuous
 62
     7
370
    15
100
AcDbLine
 10
-102.2284305787615
 20
77.82202969143106
 30
0.0
 11
-109.6769801751086
 21
77.82202969143103
 31
0.0
  0
LINE
  5
15E
330
1F
100
AcDbEntity
  8
0
  6
Continuous
 62
     7
370
    15
100
AcDbLine
 10
-109.6769801751086
 20
83.15948655139814
 30
0.0
 11
-109.6769801751086
 21
77.82202969143103
 31
0.0
  0
LINE
  5
15F
330
1F
100
AcDbEntity
  8
0
  6
Continuous
 62
     7
370
    15
100
AcDbLine
 10
-117.7284305787615
 20
83.15948655139814
 30
0.0
 11
-109.6769801751086
 21
83.15948655139814
 31
0.0
  0
LINE
  5
160
330
1F
100
AcDbEntity
  8
0
  6
Continuous
 62
     7
370
    15
100
AcDbLine
 10
-117.7284305787615
 20
77.82202969143103
 30
0.0
 11
-117.7284305787615
 21
83.15948655139814
 31
0.0
  0
LINE
  5
161
330
1F
100
AcDbEntity
  8
0
  6
Continuous
 62
     7
370
    15
100
AcDbLine
 10
-117.7284305787615
 20
77.82202969143103
 30
0.0
 11
-122.2284305787615
 21
77.82202969143103
 31
0.0
  0
LINE
  5
162
330
1F
100
AcDbEntity
  8
0
  6
Continuous
 62
     7
370
    15
100
AcDbLine
 10
-122.2284305787615
 20
97.82202969143106
 30
0.0
 11
-122.2284305787615
 21
77.82202969143103
 31
0.0
  0
LINE
  5
163
330
1F
100
AcDbEntity
  8
0
  6
Continuous
 62
     7
370
    15
100
AcDbLine
 10
-122.2284305787615
 20
97.82202969143106
 30
0.0
 11
-105.2284305787616
 21
97.82202969143106
 31
0.0
  0
LINE
  5
164
330
1F
100
AcDbEntity
  8
0
  6
Continuous
 62
     7
370
    15
100
AcDbLine
 10
-105.2284305787616
 20
90.51517629935721
 30
0.0
 11
-105.2284305787616
 21
97.82202969143106
 31
0.0
  0
LINE
  5
165
330
1F
100
AcDbEntity
  8
0
  6
Continuous
 62
     7
370
    15
100
AcDbLine
 10
-105.2284305787616
 20
90.51517629935721
 30
0.0
 11
-102.2798809824144
 21
90.51517629935721
 31
0.0
  0
LINE
  5
166
330
1F
100
AcDbEntity
  8
0
  6
Continuous
 62
     7
370
    15
100
AcDbLine
 10
-102.2798809824144
 20
90.51517629935721
 30
0.0
 11
-102.2798809824144
 21
97.82202969143106
 31
0.0
  0
LINE
  5
167
330
1F
100
AcDbEntity
  8
0
  6
Continuous
 62
     7
370
    15
100
AcDbLine
 10
-102.2798809824144
 20
97.82202969143106
 30
0.0
 11
-89.72843057876159
 21
97.82202969143106
 31
0.0
  0
LINE
  5
168
330
1F
100
AcDbEntity
  8
0
  6
Continuous
 62
     7
370
    15
100
AcDbLine
 10
-89.72843057876163
 20
90.51517629935721
 30
0.0
 11
-89.72843057876159
 21
97.82202969143106
 31
0.0
  0
LINE
  5
169
330
1F
100
AcDbEntity
  8
0
  6
Continuous
 62
     7
370
    15
100
AcDbLine
 10
-89.72843057876163
 20
90.51517629935721
 30
0.0
 11
-86.77988098241451
 21
90.51517629935721
 31
0.0
  0
LINE
  5
16A
330
1F
100
AcDbEntity
  8
0
  6
Continuous
 62
     7
370
    15
100
AcDbLine
 10
-86.77988098241451
 20
90.51517629935721
 30
0.0
 11
-86.77988098241451
 21
97.82202969143106
 31
0.0
  0
LINE
  5
16B
330
1F
100
AcDbEntity
  8
0
  6
Continuous
 62
     7
370
    15
100
AcDbLine
 10
-86.77988098241451
 20
97.82202969143106
 30
0.0
 11
-74.22843057876161
 21
97.82202969143106
 31
0.0
  0
LINE
  5
16C
330
1F
100
AcDbEntity
  8
0
  6
Continuous
 62
     7
370
    15
100
AcDbLine
 10
-74.22843057876164
 20
90.51517629935721
 30
0.0
 11
-74.22843057876161
 21
97.82202969143106
 31
0.0
  0
LINE
  5
16D
330
1F
100
AcDbEntity
  8
0
  6
Continuous
 62
     7
370
    15
100
AcDbLine
 10
-74.22843057876164
 20
90.51517629935721
 30
0.0
 11
-71.27988098241451
 21
90.51517629935721
 31
0.0
  0
LINE
  5
16E
330
1F
100
AcDbEntity
  8
0
  6
Continuous
 62
     7
370
    15
100
AcDbLine
 10
-71.27988098241451
 20
90.51517629935721
 30
0.0
 11
-71.27988098241451
 21
97.82202969143106
 31
0.0
  0
LINE
  5
16F
330
1F
100
AcDbEntity
  8
0
  6
Continuous
 62
     7
370
    15
100
AcDbLine
 10
-71.27988098241451
 20
97.82202969143106
 30
0.0
 11
-58.72843057876162
 21
97.82202969143106
 31
0.0
  0
LINE
  5
170
330
1F
100
AcDbEntity
  8
0
  6
Continuous
 62
     7
370
    15
100
AcDbLine
 10
-58.72843057876167
 20
90.51517629935721
 30
0.0
 11
-58.72843057876162
 21
97.82202969143106
 31
0.0
  0
LINE
  5
171
330
1F
100
AcDbEntity
  8
0
  6
Continuous
 62
     7
370
    15
100
AcDbLine
 10
-58.72843057876167
 20
90.51517629935721
 30
0.0
 11
-55.77988098241454
 21
90.51517629935721
 31
0.0
  0
LINE
  5
172
330
1F
100
AcDbEntity
  8
0
  6
Continuous
 62
     7
370
    15
100
AcDbLine
 10
-55.77988098241454
 20
90.51517629935721
 30
0.0
 11
-55.77988098241454
 21
97.82202969143106
 31
0.0
  0
LINE
  5
173
330
1F
100
AcDbEntity
  8
0
  6
Continuous
 62
     7
370
    15
100
AcDbLine
 10
-55.77988098241454
 20
97.82202969143106
 30
0.0
 11
-43.22843057876162
 21
97.82202969143106
 31
0.0
  0
LINE
  5
174
330
1F
100
AcDbEntity
  8
0
  6
Continuous
 62
     7
370
    15
100
AcDbLine
 10
-43.22843057876167
 20
90.51517629935721
 30
0.0
 11
-43.22843057876162
 21
97.82202969143106
 31
0.0
  0
LINE
  5
175
330
1F
100
AcDbEntity
  8
0
  6
Continuous
 62
     7
370
    15
100
AcDbLine
 10
-43.22843057876167
 20
90.51517629935721
 30
0.0
 11
-40.27988098241453
 21
90.51517629935721
 31
0.0
  0
LINE
  5
176
330
1F
100
AcDbEntity
  8
0
  6
Continuous
 62
     7
370
    15
100
AcDbLine
 10
-40.27988098241453
 20
90.51517629935721
 30
0.0
 11
-40.27988098241453
 21
97.82202969143106
 31
0.0
  0
LINE
  5
177
330
1F
100
AcDbEntity
  8
0
  6
Continuous
 62
     7
370
    15
100
AcDbLine
 10
-40.27988098241453
 20
97.82202969143106
 30
0.0
 11
-27.72843057876165
 21
97.82202969143106
 31
0.0
  0
LINE
  5
178
330
1F
100
AcDbEntity
  8
0
  6
Continuous
 62
     7
370
    15
100
AcDbLine
 10
-27.7284305787617
 20
90.51517629935721
 30
0.0
 11
-27.72843057876165
 21
97.82202969143106
 31
0.0
  0
LINE
  5
179
330
1F
100
AcDbEntity
  8
0
  6
Continuous
 62
     7
370
    15
100
AcDbLine
 10
-27.7284305787617
 20
90.51517629935721
 30
0.0
 11
-24.77988098241457
 21
90.51517629935721
 31
0.0
  0
LINE
  5
17A
330
1F
100
AcDbEntity
  8
0
  6
Continuous
 62
     7
370
    15
100
AcDbLine
 10
-24.77988098241457
 20
90.51517629935721
 30
0.0
 11
-24.77988098241457
 21
97.82202969143106
 31
0.0
  0
LINE
  5
17B
330
1F
100
AcDbEntity
  8
0
  6
Continuous
 62
     7
370
    15
100
AcDbLine
 10
-24.77988098241457
 20
97.82202969143106
 30
0.0
 11
-12.22843057876161
 21
97.82202969143106
 31
0.0
  0
LINE
  5
17C
330
1F
100
AcDbEntity
  8
0
  6
Continuous
 62
     7
370
    15
100
AcDbLine
 10
-12.22843057876173
 20
90.51517629935721
 30
0.0
 11
-12.22843057876161
 21
97.82202969143106
 31
0.0
  0
LINE
  5
17D
330
1F
100
AcDbEntity
  8
0
  6
Continuous
 62
     7
370
    15
100
AcDbLine
 10
-12.22843057876173
 20
90.51517629935721
 30
0.0
 11
-9.279880982414567
 21
90.51517629935721
 31
0.0
  0
LINE
  5
17E
330
1F
100
AcDbEntity
  8
0
  6
Continuous
 62
     7
370
    15
100
AcDbLine
 10
-9.279880982414567
 20
90.51517629935721
 30
0.0
 11
-9.279880982414567
 21
97.82202969143106
 31
0.0
  0
LINE
  5
17F
330
1F
100
AcDbEntity
  8
0
  6
Continuous
 62
     7
370
    15
100
AcDbLine
 10
-9.279880982414567
 20
97.82202969143106
 30
0.0
 11
3.271569421238325
 21
97.82202969143106
 31
0.0
  0
LINE
  5
180
330
1F
100
AcDbEntity
  8
0
  6
Continuous
 62
     7
370
    15
100
AcDbLine
 10
3.271569421238268
 20
90.51517629935721
 30
0.0
 11
3.271569421238325
 21
97.82202969143106
 31
0.0
  0
LINE
  5
181
330
1F
100
AcDbEntity
  8
0
  6
Continuous
 62
     7
370
    15
100
AcDbLine
 10
3.271569421238268
 20
90.51517629935721
 30
0.0
 11
6.220119017585375
 21
90.51517629935721
 31
0.0
  0
LINE
  5
182
330
1F
100
AcDbEntity
  8
0
  6
Continuous
 62
     7
370
    15
100
AcDbLine
 10
6.220119017585375
 20
90.51517629935721
 30
0.0
 11
6.220119017585403
 21
97.82202969143106
 31
0.0
  0
LINE
  5
183
330
1F
100
AcDbEntity
  8
0
  6
Continuous
 62
     7
370
    15
100
AcDbLine
 10
6.220119017585403
 20
97.82202969143106
 30
0.0
 11
18.77156942123835
 21
97.82202969143106
 31
0.0
  0
LINE
  5
184
330
1F
100
AcDbEntity
  8
0
  6
Continuous
 62
     7
370
    15
100
AcDbLine
 10
18.77156942123824
 20
90.51517629935721
 30
0.0
 11
18.77156942123835
 21
97.82202969143106
 31
0.0
  0
LINE
  5
185
330
1F
100
AcDbEntity
  8
0
  6
Continuous
 62
     7
370
    15
100
AcDbLine
 10
18.77156942123824
 20
90.51517629935721
 30
0.0
 11
21.72011901758541
 21
90.51517629935721
 31
0.0
  0
LINE
  5
186
330
1F
100
AcDbEntity
  8
0
  6
Continuous
 62
     7
370
    15
100
AcDbLine
 10
21.72011901758541
 20
90.51517629935721
 30
0.0
 11
21.72011901758541
 21
97.82202969143106
 31
0.0
  0
LINE
  5
187
330
1F
100
AcDbEntity
  8
0
  6
Continuous
 62
     7
370
    15
100
AcDbLine
 10
21.72011901758541
 20
97.82202969143106
 30
0.0
 11
34.2715694212383
 21
97.82202969143106
 31
0.0
  0
LINE
  5
188
330
1F
100
AcDbEntity
  8
0
  6
Continuous
 62
     7
370
    15
100
AcDbLine
 10
34.27156942123821
 20
90.51517629935721
 30
0.0
 11
34.2715694212383
 21
97.82202969143106
 31
0.0
  0
LINE
  5
189
330
1F
100
AcDbEntity
  8
0
  6
Continuous
 62
     7
370
    15
100
AcDbLine
 10
34.27156942123821
 20
90.51517629935721
 30
0.0
 11
37.22011901758535
 21
90.51517629935721
 31
0.0
  0
LINE
  5
18A
330
1F
100
AcDbEntity
  8
0
  6
Continuous
 62
     7
370
    15
100
AcDbLine
 10
37.22011901758535
 20
90.51517629935721
 30
0.0
 11
37.22011901758535
 21
97.82202969143106
 31
0.0
  0
LINE
  5
18B
330
1F
100
AcDbEntity
  8
0
  6
Continuous
 62
     7
370
    15
100
AcDbLine
 10
37.22011901758535
 20
97.82202969143106
 30
0.0
 11
49.77156942123833
 21
97.82202969143106
 31
0.0
  0
LINE
  5
18C
330
1F
100
AcDbEntity
  8
0
  6
Continuous
 62
     7
370
    15
100
AcDbLine
 10
49.77156942123821
 20
90.51517629935721
 30
0.0
 11
49.77156942123833
 21
97.82202969143106
 31
0.0
  0
LINE
  5
18D
330
1F
100
AcDbEntity
  8
0
  6
Continuous
 62
     7
370
    15
100
AcDbLine
 10
49.77156942123821
 20
90.51517629935721
 30
0.0
 11
52.72011901758538
 21
90.51517629935721
 31
0.0
  0
LINE
  5
18E
330
1F
100
AcDbEntity
  8
0
  6
Continuous
 62
     7
370
    15
100
AcDbLine
 10
52.72011901758538
 20
90.51517629935721
 30
0.0
 11
52.72011901758538
 21
97.82202969143106
 31
0.0
  0
LINE
  5
18F
330
1F
100
AcDbEntity
  8
0
  6
Continuous
 62
     7
370
    15
100
AcDbLine
 10
52.72011901758538
 20
97.82202969143106
 30
0.0
 11
65.27156942123832
 21
97.82202969143106
 31
0.0
  0
LINE
  5
190
330
1F
100
AcDbEntity
  8
0
  6
Continuous
 62
     7
370
    15
100
AcDbLine
 10
65.27156942123832
 20
90.51517629935721
 30
0.0
 11
65.27156942123832
 21
97.82202969143106
 31
0.0
  0
LINE
  5
191
330
1F
100
AcDbEntity
  8
0
  6
Continuous
 62
     7
370
    15
100
AcDbLine
 10
65.27156942123832
 20
90.51517629935721
 30
0.0
 11
68.22011901758532
 21
90.51517629935721
 31
0.0
  0
LINE
  5
192
330
1F
100
AcDbEntity
  8
0
  6
Continuous
 62
     7
370
    15
100
AcDbLine
 10
68.22011901758532
 20
90.51517629935721
 30
0.0
 11
68.22011901758532
 21
97.82202969143106
 31
0.0
  0
LINE
  5
193
330
1F
100
AcDbEntity
  8
0
  6
Continuous
 62
     7
370
    15
100
AcDbLine
 10
68.22011901758532
 20
97.82202969143106
 30
0.0
 11
80.77156942123826
 21
97.82202969143106
 31
0.0
  0
LINE
  5
194
330
1F
100
AcDbEntity
  8
0
  6
Continuous
 62
     7
370
    15
100
AcDbLine
 10
80.77156942123826
 20
90.51517629935721
 30
0.0
 11
80.77156942123826
 21
97.82202969143106
 31
0.0
  0
LINE
  5
195
330
1F
100
AcDbEntity
  8
0
  6
Continuous
 62
     7
370
    15
100
AcDbLine
 10
80.77156942123826
 20
90.51517629935721
 30
0.0
 11
83.72011901758531
 21
90.51517629935721
 31
0.0
  0
LINE
  5
196
330
1F
100
AcDbEntity
  8
0
  6
Continuous
 62
     7
370
    15
100
AcDbLine
 10
83.72011901758531
 20
90.51517629935721
 30
0.0
 11
83.72011901758531
 21
97.82202969143106
 31
0.0
  0
LINE
  5
197
330
1F
100
AcDbEntity
  8
0
  6
Continuous
 62
     7
370
    15
100
AcDbLine
 10
83.72011901758531
 20
97.82202969143106
 30
0.0
 11
97.77156942123845
 21
97.82202969143106
 31
0.0
  0
LINE
  5
198
330
1F
100
AcDbEntity
  8
0
  6
Continuous
 62
     7
370
    15
100
AcDbLine
 10
97.77156942123845
 20
97.82202969143106
 30
0.0
 11
97.77156942123845
 21
77.82202969143103
 31
0.0
  0
LINE
  5
199
330
1F
100
AcDbEntity
  8
0
  6
Continuous
 62
     7
370
    15
100
AcDbLine
 10
97.77156942123845
 20
77.82202969143103
 30
0.0
 11
91.82301982489139
 21
77.82202969143106
 31
0.0
  0
LINE
  5
19A
330
1F
100
AcDbEntity
  8
0
  6
Continuous
 62
     7
370
    15
100
AcDbLine
 10
91.82301982489139
 20
83.15948655139814
 30
0.0
 11
91.82301982489139
 21
77.82202969143106
 31
0.0
  0
LINE
  5
19B
330
1F
100
AcDbEntity
  8
0
  6
Continuous
 62
     7
370
    15
100
AcDbLine
 10
83.77156942123844
 20
83.15948655139814
 30
0.0
 11
91.82301982489139
 21
83.15948655139814
 31
0.0
  0
LINE
  5
19C
330
1F
100
AcDbEntity
  8
0
  6
Continuous
 62
     7
370
    15
100
AcDbLine
 10
83.77156942123844
 20
77.82202969143106
 30
0.0
 11
83.77156942123844
 21
83.15948655139814
 31
0.0
  0
LINE
  5
19D
330
1F
100
AcDbEntity
  8
0
  6
Continuous
 62
     7
370
    15
100
AcDbLine
 10
83.77156942123844
 20
77.82202969143106
 30
0.0
 11
76.32301982489133
 21
77.82202969143106
 31
0.0
  0
ARC
  5
19E
330
1F
100
AcDbEntity
  8
0
  6
Continuous
 62
     7
370
    15
100
AcDbCircle
 10
-122.2284305787615
 20
55.82202969143103
 30
0.0
 40
35.23049945657414
100
AcDbArc
 50
124.7832861152468
 51
143.6455158987095
  0
SPLINE
  5
19F
330
1F
100
AcDbEntity
  8
0
  6
Continuous
 62
     7
370
    15
100
AcDbSpline
210
0.0
220
0.0
230
1.0
 70
    24
 71
     3
 72
    15
 73
    11
 74
     0
 42
0.0000000001
 43
0.0000000001
 40
0.0
 40
0.0
 40
0.0
 40
0.0
 40
0.0348384702213081
 40
0.1802728108620097
 40
0.3281550149163175
 40
0.4685281947130261
 40
0.6123656358786127
 40
0.7528849283356364
 40
0.8980709379707771
 40
1.0
 40
1.0
 40
1.0
 40
1.0
 10
-142.3265146689432
 20
84.75739054737436
 30
0.0
 10
-142.5247259159949
 20
84.75739054737436
 30
0.0
 10
-143.5503765379507
 20
84.7573905473744
 30
0.0
 10
-145.3420620874353
 20
84.75739054737436
 30
0.0
 10
-147.5036814022376
 20
84.7573905473744
 30
0.0
 10
-149.3794481845997
 20
84.75739054737436
 30
0.0
 10
-150.8874058881876
 20
84.7573905473744
 30
0.0
 10
-151.9889319139972
 20
84.7573905473744
 30
0.0
 10
-152.5815561117998
 20
84.75739054737436
 30
0.0
 10
-152.6448205117588
 20
84.75739054737436
 30
0.0
 10
-152.6709155649834
 20
84.75739054737436
 30
0.0
  0
ARC
  5
1A0
330
1F
100
AcDbEntity
  8
0
  6
Continuous
 62
     7
370
    15
100
AcDbCircle
 10
-122.2284305787615
 20
55.82202969143103
 30
0.0
 40
42.00000000000002
100
AcDbArc
 50
90.0
 51
136.453965093745
  0
ARC
  5
1A1
330
1F
100
AcDbEntity
  8
0
  6
Continuous
 62
     7
370
    15
100
AcDbCircle
 10
-122.2284305787615
 20
55.82202969143103
 30
0.0
 40
22.00000000000003
100
AcDbArc
 50
90.0
 51
270.0000000000008
  0
LINE
  5
1A2
330
1F
100
AcDbEntity
  8
0
  6
Continuous
 62
     7
370
    15
100
AcDbLine
 10
-122.2284305787615
 20
33.822029691431
 30
0.0
 11
-122.2284305787615
 21
13.82202969143098
 31
0.0
  0
ARC
  5
1A3
330
1F
100
AcDbEntity
  8
0
  6
Continuous
 62
     7
370
    15
100
AcDbCircle
 10
-122.2284305787615
 20
55.82202969143103
 30
0.0
 40
42.00000000000004
100
AcDbArc
 50
223.8871514270865
 51
270.0000000000008
  0
SPLINE
  5
1A4
330
1F
100
AcDbEntity
  8
0
  6
Continuous
 62
     7
370
    15
100
AcDbSpline
210
0.0
220
0.0
230
1.0
 70
    24
 71
     3
 72
    14
 73
    10
 74
     0
 42
0.0000000001
 43
0.0000000001
 40
0.0
 40
0.0
 40
0.0
 40
0.0
 40
0.1232829790449403
 40
0.2500079217793587
 40
0.3759742060666655
 40
0.5050848548132058
 40
0.6624198277915193
 40
0.82920466751857
 40
1.0
 40
1.0
 40
1.0
 40
1.0
 10
-152.498107310596
 20
26.70594014372148
 30
0.0
 10
-152.4601951171373
 20
26.70594014372148
 30
0.0
 10
-152.3833122516345
 20
26.70594014372148
 30
0.0
 10
-151.7647156127861
 20
26.70594014372148
 30
0.0
 10
-150.7886764963064
 20
26.70594014372148
 30
0.0
 10
-149.3622240909342
 20
26.70594014372148
 30
0.0
 10
-147.4127102049102
 20
26.70594014372148
 30
0.0
 10
-144.9343651573816
 20
26.70594014372148
 30
0.0
 10
-143.0281958508594
 20
26.70594014372148
 30
0.0
 10
-142.063788438115
 20
26.70594014372148
 30
0.0
  0
ARC
  5
1A5
330
1F
100
AcDbEntity
  8
0
  6
Continuous
 62
     7
370
    15
100
AcDbCircle
 10
-122.2284305787615
 20
55.82202969143103
 30
0.0
 40
35.23049945657382
100
AcDbArc
 50
216.7203002057894
 51
235.7353228537125
  0
SPLINE
  5
1A6
330
1F
100
AcDbEntity
  8
0
  6
Continuous
 62
     7
370
    15
100
AcDbSpline
210
0.0
220
0.0
230
1.0
 70
    24
 71
     3
 72
    13
 73
     9
 74
     0
 42
0.0000000001
 43
0.0000000001
 40
0.0
 40
0.0
 40
0.0
 40
0.0
 40
0.1512880772518976
 40
0.3052540313115263
 40
0.4924659920639866
 40
0.6861092619253443
 40
0.8410520386754585
 40
1.0
 40
1.0
 40
1.0
 40
1.0
 10
-150.4679254341998
 20
34.7573905473744
 30
0.0
 10
-151.1787715390286
 20
34.7573905473744
 30
0.0
 10
-152.6130460904844
 20
34.7573905473744
 30
0.0
 10
-154.6077301983354
 20
34.7573905473744
 30
0.0
 10
-156.409545772557
 20
34.7573905473744
 30
0.0
 10
-157.6869474568888
 20
34.7573905473744
 30
0.0
 10
-158.4325204980637
 20
34.7573905473744
 30
0.0
 10
-158.5198696140832
 20
34.7573905473744
 30
0.0
 10
-158.5641014509318
 20
34.7573905473744
 30
0.0
  0
ARC
  5
1A7
330
1F
100
AcDbEntity
  8
0
  6
Continuous
 62
     7
370
    15
100
AcDbCircle
 10
-122.2284305787615
 20
55.82202969143103
 30
0.0
 40
42.00000000000004
100
AcDbArc
 50
207.0742634781596
 51
210.1018735651474
  0
SPLINE
  5
1A8
330
1F
100
AcDbEntity
  8
0
  6
Continuous
 62
     7
370
    15
100
AcDbSpline
210
0.0
220
0.0
230
1.0
 70
    24
 71
     3
 72
    13
 73
     9
 74
     0
 42
0.0000000001
 43
0.0000000001
 40
0.0
 40
0.0
 40
0.0
 40
0.0
 40
0.0685283958561412
 40
0.23793196859738
 40
0.4122027406868963
 40
0.5827560599701515
 40
0.7578501233667822
 40
1.0
 40
1.0
 40
1.0
 40
1.0
 10
-159.6259588447306
 20
36.70594014372148
 30
0.0
 10
-159.6176924178584
 20
36.70594014372148
 30
0.0
 10
-159.5889912175108
 20
36.70594014372151
 30
0.0
 10
-159.2117857402293
 20
36.70594014372151
 30
0.0
 10
-158.2717702919743
 20
36.70594014372148
 30
0.0
 10
-156.8461845057346
 20
36.70594014372151
 30
0.0
 10
-154.7924201806882
 20
36.70594014372151
 30
0.0
 10
-152.9126579505345
 20
36.70594014372148
 30
0.0
 10
-151.8217273258766
 20
36.70594014372148
 30
0.0
  0
ARC
  5
1A9
330
1F
100
AcDbEntity
  8
0
  6
Continuous
 62
     7
370
    15
100
AcDbCircle
 10
-122.2284305787615
 20
55.82202969143103
 30
0.0
 40
35.23049945657703
100
AcDbArc
 50
198.3043305366842
 51
212.8608478943914
  0
SPLINE
  5
1AA
330
1F
100
AcDbEntity
  8
0
  6
Continuous
 62
     7
370
    15
100
AcDbSpline
210
0.0
220
0.0
230
1.0
 70
    24
 71
     3
 72
    13
 73
     9
 74
     0
 42
0.0000000001
 43
0.0000000001
 40
0.0
 40
0.0
 40
0.0
 40
0.0
 40
0.1827728049944681
 40
0.381165267585162
 40
0.5857806787065794
 40
0.7766069106316708
 40
0.9731466051712031
 40
0.9999999999999998
 40
0.9999999999999998
 40
0.9999999999999998
 40
0.9999999999999998
 10
-155.6763281595017
 20
44.75739054737437
 30
0.0
 10
-156.445871983757
 20
44.75739054737437
 30
0.0
 10
-158.0507243998465
 20
44.75739054737437
 30
0.0
 10
-160.0153761453723
 20
44.75739054737437
 30
0.0
 10
-161.5227794985244
 20
44.7573905473744
 30
0.0
 10
-162.4645777805839
 20
44.75739054737437
 30
0.0
 10
-162.7338745022317
 20
44.7573905473744
 30
0.0
 10
-162.743600833987
 20
44.7573905473744
 30
0.0
 10
-162.7447700063531
 20
44.75739054737437
 30
0.0
  0
ARC
  5
1AB
330
1F
100
AcDbEntity
  8
0
  6
Continuous
 62
     7
370
    15
100
AcDbCircle
 10
-122.2284305787615
 20
55.82202969143103
 30
0.0
 40
42.00000000000004
100
AcDbArc
 50
192.5358095397537
 51
195.2745029827092
  0
SPLINE
  5
1AC
330
1F
100
AcDbEntity
  8
0
  6
Continuous
 62
     7
370
    15
100
AcDbSpline
210
0.0
220
0.0
230
1.0
 70
    24
 71
     3
 72
    13
 73
     9
 74
     0
 42
0.0000000001
 43
0.0000000001
 40
0.0
 40
0.0
 40
0.0
 40
0.0
 40
0.2153245297226773
 40
0.4056043624739223
 40
0.6013560948499359
 40
0.7925532207987432
 40
0.9891408803013165
 40
1.0
 40
1.0
 40
1.0
 40
1.0
 10
-163.2271733809273
 20
46.70594014372148
 30
0.0
 10
-163.1609000001126
 20
46.70594014372148
 30
0.0
 10
-163.0360615880238
 20
46.70594014372148
 30
0.0
 10
-162.0822538501327
 20
46.70594014372148
 30
0.0
 10
-160.6897698756857
 20
46.70594014372148
 30
0.0
 10
-158.7887751258192
 20
46.70594014372148
 30
0.0
 10
-157.2007809234717
 20
46.70594014372148
 30
0.0
 10
-156.3059213740564
 20
46.70594014372148
 30
0.0
 10
-156.2590785790127
 20
46.70594014372148
 30
0.0
  0
ARC
  5
1AD
330
1F
100
AcDbEntity
  8
0
  6
Continuous
 62
     7
370
    15
100
AcDbCircle
 10
-122.2284305787615
 20
55.82202969143103
 30
0.0
 40
35.23049945658085
100
AcDbArc
 50
181.7316989127095
 51
194.9962375425284
  0
SPLINE
  5
1AE
330
1F
100
AcDbEntity
  8
0
  6
Continuous
 62
     7
370
    15
100
AcDbSpline
210
0.0
220
0.0
230
1.0
 70
    24
 71
     3
 72
    12
 73
     8
 74
     0
 42
0.0000000001
 43
0.0000000001
 40
0.0
 40
0.0
 40
0.0
 40
0.0
 40
0.206784789709844
 40
0.4456434677901079
 40
0.6416757224581997
 40
0.8433926268706441
 40
1.0
 40
1.0
 40
1.0
 40
1.0
 10
-157.4428400648382
 20
54.7573905473744
 30
0.0
 10
-158.2799085983617
 20
54.7573905473744
 30
0.0
 10
-160.0838813401714
 20
54.7573905473744
 30
0.0
 10
-162.0337156162331
 20
54.7573905473744
 30
0.0
 10
-163.3943163214346
 20
54.7573905473744
 30
0.0
 10
-164.1011190638117
 20
54.7573905473744
 30
0.0
 10
-164.1803198087846
 20
54.7573905473744
 30
0.0
 10
-164.2149348806553
 20
54.7573905473744
 30
0.0
  0
ARC
  5
1AF
330
1F
100
AcDbEntity
  8
0
  6
Continuous
 62
     7
370
    15
100
AcDbCircle
 10
-122.2284305787615
 20
55.82202969143103
 30
0.0
 40
42.00000000000003
100
AcDbArc
 50
178.7940933897382
 51
181.4525205728236
  0
SPLINE
  5
1B0
330
1F
100
AcDbEntity
  8
0
  6
Continuous
 62
     7
370
    15
100
AcDbSpline
210
0.0
220
0.0
230
1.0
 70
    24
 71
     3
 72
    13
 73
     9
 74
     0
 42
0.0000000001
 43
0.0000000001
 40
0.0
 40
0.0
 40
0.0
 40
0.0
 40
0.1531144596021348
 40
0.3088842507304106
 40
0.5543558969139566
 40
0.7504270198734716
 40
0.9521852019943461
 40
1.0
 40
1.0
 40
1.0
 40
1.0
 10
-164.2191283856846
 20
56.70594014372148
 30
0.0
 10
-164.1865232451636
 20
56.70594014372148
 30
0.0
 10
-164.1207475213948
 20
56.70594014372148
 30
0.0
 10
-163.4883461724179
 20
56.70594014372148
 30
0.0
 10
-162.2806001015115
 20
56.70594014372148
 30
0.0
 10
-160.3589173988785
 20
56.70594014372148
 30
0.0
 10
-158.6931528817341
 20
56.70594014372148
 30
0.0
 10
-157.6480646495739
 20
56.70594014372148
 30
0.0
 10
-157.447839918942
 20
56.70594014372148
 30
0.0
  0
ARC
  5
1B1
330
1F
100
AcDbEntity
  8
0
  6
Continuous
 62
     7
370
    15
100
AcDbCircle
 10
-122.2284305787615
 20
55.82202969143103
 30
0.0
 40
35.23049945656262
100
AcDbArc
 50
165.3078320285189
 51
178.5623350818094
  0
SPLINE
  5
1B2
330
1F
100
AcDbEntity
  8
0
  6
Continuous
 62
     7
370
    15
100
AcDbSpline
210
0.0
220
0.0
230
1.0
 70
    24
 71
     3
 72
    13
 73
     9
 74
     0
 42
0.0000000001
 43
0.0000000001
 40
0.0
 40
0.0
 40
0.0
 40
0.0
 40
0.0307242548871816
 40
0.2311320518940879
 40
0.4377462433736997
 40
0.6317230890938618
 40
0.8314901969922617
 40
1.0
 40
1.0
 40
1.0
 40
1.0
 10
-156.3069783520005
 20
64.7573905473744
 30
0.0
 10
-156.4388049888482
 20
64.7573905473744
 30
0.0
 10
-157.4305088131001
 20
64.7573905473744
 30
0.0
 10
-159.1367446738646
 20
64.7573905473744
 30
0.0
 10
-161.0180476582948
 20
64.7573905473744
 30
0.0
 10
-162.3612464319678
 20
64.7573905473744
 30
0.0
 10
-163.1356414653721
 20
64.7573905473744
 30
0.0
 10
-163.2257229361294
 20
64.7573905473744
 30
0.0
 10
-163.2669408632989
 20
64.7573905473744
 30
0.0
  0
ARC
  5
1B3
330
1F
100
AcDbEntity
  8
0
  6
Continuous
 62
     7
370
    15
100
AcDbCircle
 10
-122.2284305787615
 20
55.82202969143103
 30
0.0
 40
42.00000000000002
100
AcDbArc
 50
164.9809180727412
 51
167.7166361269117
  0
SPLINE
  5
1B4
330
1F
100
AcDbEntity
  8
0
  6
Continuous
 62
     7
370
    15
100
AcDbSpline
210
0.0
220
0.0
230
1.0
 70
    24
 71
     3
 72
    13
 73
     9
 74
     0
 42
0.0000000001
 43
0.0000000001
 40
0.0
 40
0.0
 40
0.0
 40
0.0
 40
0.2180550756635363
 40
0.4058083170415216
 40
0.5989397315787201
 40
0.7880160588531852
 40
0.9823590089450842
 40
0.9999999999999998
 40
0.9999999999999998
 40
0.9999999999999998
 40
0.9999999999999998
 10
-162.7936927283708
 20
66.7059401437215
 30
0.0
 10
-162.7246918546741
 20
66.7059401437215
 30
0.0
 10
-162.596278753791
 20
66.7059401437215
 30
0.0
 10
-161.6268779926267
 20
66.70594014372148
 30
0.0
 10
-160.2346747047702
 20
66.7059401437215
 30
0.0
 10
-158.3398940936703
 20
66.7059401437215
 30
0.0
 10
-156.73391281446
 20
66.70594014372148
 30
0.0
 10
-155.8122705877767
 20
66.7059401437215
 30
0.0
 10
-155.7355728804467
 20
66.7059401437215
 30
0.0
  0
ARC
  5
1B5
330
1F
100
AcDbEntity
  8
0
  6
Continuous
 62
     7
370
    15
100
AcDbCircle
 10
-122.2284305787615
 20
55.82202969143103
 30
0.0
 40
35.2304994565695
100
AcDbArc
 50
147.4883768127899
 51
162.0049804918641
  0
SPLINE
  5
1B6
330
1F
100
AcDbEntity
  8
0
  6
Continuous
 62
     7
370
    15
100
AcDbSpline
210
0.0
220
0.0
230
1.0
 70
    24
 71
     3
 72
    13
 73
     9
 74
     0
 42
0.0000000001
 43
0.0000000001
 40
0.0
 40
0.0
 40
0.0
 40
0.0
 40
0.2102142719967367
 40
0.40676042202752
 40
0.6101326502990816
 40
0.7896356011466589
 40
0.9749016922399807
 40
1.0
 40
1.0
 40
1.0
 40
1.0
 10
-151.9376917815338
 20
74.7573905473744
 30
0.0
 10
-152.8865977493955
 20
74.7573905473744
 30
0.0
 10
-154.7227118642251
 20
74.7573905473744
 30
0.0
 10
-156.9063239352634
 20
74.7573905473744
 30
0.0
 10
-158.4758906690979
 20
74.7573905473744
 30
0.0
 10
-159.4366773457739
 20
74.7573905473744
 30
0.0
 10
-159.706941496219
 20
74.75739054737437
 30
0.0
 10
-159.7166341123676
 20
74.7573905473744
 30
0.0
 10
-159.7177905260213
 20
74.7573905473744
 30
0.0
  0
ARC
  5
1B7
330
1F
100
AcDbEntity
  8
0
  6
Continuous
 62
     7
370
    15
100
AcDbCircle
 10
-122.2284305787615
 20
55.82202969143103
 30
0.0
 40
42.00000000000003
100
AcDbArc
 50
150.1826993410598
 51
153.2022861667468
  0
SPLINE
  5
1B8
330
1F
100
AcDbEntity
  8
0
  6
Continuous
 62
     7
370
    15
100
AcDbSpline
210
0.0
220
0.0
230
1.0
 70
    24
 71
     3
 72
    14
 73
    10
 74
     0
 42
0.0000000001
 43
0.0000000001
 40
0.0
 40
0.0
 40
0.0
 40
0.0
 40
0.0247690249498568
 40
0.1888449152692446
 40
0.3576813883448857
 40
0.5221061811852709
 40
0.6908906468627089
 40
0.8439970055475212
 40
1.0
 40
1.0
 40
1.0
 40
1.0
 10
-158.668275312524
 20
76.70594014372148
 30
0.0
 10
-158.6670949891226
 20
76.70594014372148
 30
0.0
 10
-158.6580959238316
 20
76.7059401437215
 30
0.0
 10
-158.4222332483003
 20
76.7059401437215
 30
0.0
 10
-157.616152194085
 20
76.7059401437215
 30
0.0
 10
-156.3408985034995
 20
76.70594014372148
 30
0.0
 10
-154.7013310100295
 20
76.7059401437215
 30
0.0
 10
-152.7798812849088
 20
76.7059401437215
 30
0.0
 10
-151.3323754082238
 20
76.70594014372148
 30
0.0
 10
-150.6018402466103
 20
76.70594014372148
 30
0.0
  0
ARC
  5
1B9
330
1F
100
AcDbEntity
  8
0
  6
Continuous
 62
     7
370
    15
100
AcDbCircle
 10
97.77156942123845
 20
55.82202969143105
 30
0.0
 40
42.00000000000003
100
AcDbArc
 50
26.79771383325322
 51
29.8173006589402
  0
SPLINE
  5
1BA
330
1F
100
AcDbEntity
  8
0
  6
Continuous
 62
     7
370
    15
100
AcDbSpline
210
0.0
220
0.0
230
1.0
 70
    24
 71
     3
 72
    13
 73
     9
 74
     0
 42
0.0000000001
 43
0.0000000001
 40
0.0
 40
0.0
 40
0.0
 40
0.0
 40
0.1686985009042302
 40
0.3422109970370638
 40
0.5124858690085541
 40
0.687374142090987
 40
0.8422065176965444
 40
1.0
 40
1.0
 40
1.0
 40
1.0
 10
135.2609293684983
 20
74.7573905473744
 30
0.0
 10
135.2135701044945
 20
74.7573905473744
 30
0.0
 10
135.1175001283727
 20
74.7573905473744
 30
0.0
 10
134.3438890956772
 20
74.7573905473744
 30
0.0
 10
133.123072788114
 20
74.7573905473744
 30
0.0
 10
131.5131463715172
 20
74.7573905473744
 30
0.0
 10
129.6240017364675
 20
74.7573905473744
 30
0.0
 10
128.1997178042262
 20
74.7573905473744
 30
0.0
 10
127.4808306240025
 20
74.7573905473744
 30
0.0
  0
ARC
  5
1BB
330
1F
100
AcDbEntity
  8
0
  6
Continuous
 62
     7
370
    15
100
AcDbCircle
 10
97.77156942123845
 20
55.82202969143105
 30
0.0
 40
35.23049945656261
100
AcDbArc
 50
17.99501950813585
 51
32.51162318721704
  0
SPLINE
  5
1BC
330
1F
100
AcDbEntity
  8
0
  6
Continuous
 62
     7
370
    15
100
AcDbSpline
210
0.0
220
0.0
230
1.0
 70
    24
 71
     3
 72
    13
 73
     9
 74
     0
 42
0.0000000001
 43
0.0000000001
 40
0.0
 40
0.0
 40
0.0
 40
0.0
 40
0.1695480580048916
 40
0.3681857174748049
 40
0.5730487951505575
 40
0.7641888387205576
 40
0.9610514038920365
 40
1.0
 40
1.0
 40
1.0
 40
1.0
 10
131.2787117229236
 20
66.7059401437215
 30
0.0
 10
131.9935539965018
 20
66.7059401437215
 30
0.0
 10
133.5458850492768
 20
66.7059401437215
 30
0.0
 10
135.4958009727987
 20
66.7059401437215
 30
0.0
 10
137.0371795380284
 20
66.7059401437215
 30
0.0
 10
138.0140933433737
 20
66.70594014372148
 30
0.0
 10
138.319730758775
 20
66.7059401437215
 30
0.0
 10
138.3344074435707
 20
66.7059401437215
 30
0.0
 10
138.3368315708477
 20
66.7059401437215
 30
0.0
  0
ARC
  5
1BD
330
1F
100
AcDbEntity
  8
0
  6
Continuous
 62
     7
370
    15
100
AcDbCircle
 10
97.77156942123845
 20
55.82202969143105
 30
0.0
 40
42.00000000000001
100
AcDbArc
 50
12.28336387308825
 51
15.01908192725874
  0
SPLINE
  5
1BE
330
1F
100
AcDbEntity
  8
0
  6
Continuous
 62
     7
370
    15
100
AcDbSpline
210
0.0
220
0.0
230
1.0
 70
    24
 71
     3
 72
    13
 73
     9
 74
     0
 42
0.0000000001
 43
0.0000000001
 40
0.0
 40
0.0
 40
0.0
 40
0.0
 40
0.049881979024326
 40
0.2404820023594677
 40
0.436603638827703
 40
0.6273893198897352
 40
0.8236077650119984
 40
1.0
 40
1.0
 40
1.0
 40
1.0
 10
138.8100797057757
 20
64.7573905473744
 30
0.0
 10
138.8062176994089
 20
64.7573905473744
 30
0.0
 10
138.7875988907248
 20
64.7573905473744
 30
0.0
 10
138.4623306990912
 20
64.7573905473744
 30
0.0
 10
137.5076713012055
 20
64.7573905473744
 30
0.0
 10
136.0142025344503
 20
64.7573905473744
 30
0.0
 10
134.1369363227508
 20
64.7573905473744
 30
0.0
 10
132.5848621766189
 20
64.7573905473744
 30
0.0
 10
131.8501171944775
 20
64.7573905473744
 30
0.0
  0
ARC
  5
1BF
330
1F
100
AcDbEntity
  8
0
  6
Continuous
 62
     7
370
    15
100
AcDbCircle
 10
97.77156942123845
 20
55.82202969143105
 30
0.0
 40
35.23049945656265
100
AcDbArc
 50
1.437664918190636
 51
14.69216797148105
  0
SPLINE
  5
1C0
330
1F
100
AcDbEntity
  8
0
  6
Continuous
 62
     7
370
    15
100
AcDbSpline
210
0.0
220
0.0
230
1.0
 70
    24
 71
     3
 72
    12
 73
     8
 74
     0
 42
0.0000000001
 43
0.0000000001
 40
0.0
 40
0.0
 40
0.0
 40
0.0
 40
0.1920110014283347
 40
0.3893502726034146
 40
0.585427068582956
 40
0.7871917826619123
 40
0.9999999999999998
 40
0.9999999999999998
 40
0.9999999999999998
 40
0.9999999999999998
 10
132.9909787614188
 20
56.70594014372148
 30
0.0
 10
133.7710093585085
 20
56.70594014372148
 30
0.0
 10
135.3527162573666
 20
56.70594014372148
 30
0.0
 10
137.2142332316185
 20
56.70594014372148
 30
0.0
 10
138.6330709410554
 20
56.70594014372148
 30
0.0
 10
139.5772737129941
 20
56.70594014372148
 30
0.0
 10
139.6995172710421
 20
56.70594014372148
 30
0.0
 10
139.7622672281615
 20
56.70594014372148
 30
0.0
  0
ARC
  5
1C1
330
1F
100
AcDbEntity
  8
0
  6
Continuous
 62
     7
370
    15
100
AcDbCircle
 10
97.77156942123845
 20
55.82202969143105
 30
0.0
 40
42.00000000000005
100
AcDbArc
 50
358.5474794271776
 51
1.205906610261742
  0
SPLINE
  5
1C2
330
1F
100
AcDbEntity
  8
0
  6
Continuous
 62
     7
370
    15
100
AcDbSpline
210
0.0
220
0.0
230
1.0
 70
    24
 71
     3
 72
    13
 73
     9
 74
     0
 42
0.0000000001
 43
0.0000000001
 40
0.0
 40
0.0
 40
0.0
 40
0.0
 40
0.0853572997049803
 40
0.2813359062047223
 40
0.48299770577554
 40
0.6789810774456518
 40
0.8806463516610097
 40
1.0
 40
1.0
 40
1.0
 40
1.0
 10
139.7580737231322
 20
54.7573905473744
 30
0.0
 10
139.7474362001307
 20
54.7573905473744
 30
0.0
 10
139.7123751428606
 20
54.7573905473744
 30
0.0
 10
139.2718431225148
 20
54.7573905473744
 30
0.0
 10
138.2051591428217
 20
54.7573905473744
 30
0.0
 10
136.5909120896473
 20
54.7573905473744
 30
0.0
 10
134.8022193722323
 20
54.7573905473744
 30
0.0
 10
133.47823237647
 20
54.7573905473744
 30
0.0
 10
132.9859789072969
 20
54.7573905473744
 30
0.0
  0
ARC
  5
1C3
330
1F
100
AcDbEntity
  8
0
  6
Continuous
 62
     7
370
    15
100
AcDbCircle
 10
97.77156942123845
 20
55.82202969143105
 30
0.0
 40
35.2304994565626
100
AcDbArc
 50
345.0037624574727
 51
358.2683010872908
  0
SPLINE
  5
1C4
330
1F
100
AcDbEntity
  8
0
  6
Continuous
 62
     7
370
    15
100
AcDbSpline
210
0.0
220
0.0
230
1.0
 70
    24
 71
     3
 72
    13
 73
     9
 74
     0
 42
0.0000000001
 43
0.0000000001
 40
0.0
 40
0.0
 40
0.0
 40
0.0
 40
0.0431950023327158
 40
0.2435066722790535
 40
0.4500299755677052
 40
0.6437872396907635
 40
0.8433307584728716
 40
1.0
 40
1.0
 40
1.0
 40
1.0
 10
131.8022174214895
 20
46.70594014372148
 30
0.0
 10
131.9872047671483
 20
46.70594014372148
 30
0.0
 10
133.0300488584194
 20
46.70594014372148
 30
0.0
 10
134.7645256958056
 20
46.70594014372148
 30
0.0
 10
136.6167158110868
 20
46.70594014372148
 30
0.0
 10
137.927371304044
 20
46.70594014372148
 30
0.0
 10
138.652990927782
 20
46.70594014372148
 30
0.0
 10
138.7344742756223
 20
46.70594014372148
 30
0.0
 10
138.7703122234043
 20
46.70594014372148
 30
0.0
  0
ARC
  5
1C5
330
1F
100
AcDbEntity
  8
0
  6
Continuous
 62
     7
370
    15
100
AcDbCircle
 10
97.77156942123845
 20
55.82202969143105
 30
0.0
 40
42.00000000000001
100
AcDbArc
 50
344.7254970172925
 51
347.4641904602476
  0
SPLINE
  5
1C6
330
1F
100
AcDbEntity
  8
0
  6
Continuous
 62
     7
370
    15
100
AcDbSpline
210
0.0
220
0.0
230
1.0
 70
    24
 71
     3
 72
    13
 73
     9
 74
     0
 42
0.0000000001
 43
0.0000000001
 40
0.0
 40
0.0
 40
0.0
 40
0.0
 40
0.226043517976448
 40
0.4135215880255732
 40
0.6063647353017072
 40
0.7952631403213843
 40
0.9894124259660415
 40
1.0
 40
1.0
 40
1.0
 40
1.0
 10
138.28790884883
 20
44.75739054737437
 30
0.0
 10
138.2137653507181
 20
44.75739054737437
 30
0.0
 10
138.0781280302786
 20
44.75739054737437
 30
0.0
 10
137.0712608016506
 20
44.75739054737437
 30
0.0
 10
135.6591041800115
 20
44.75739054737437
 30
0.0
 10
133.7469463850698
 20
44.7573905473744
 30
0.0
 10
132.1581123501711
 20
44.75739054737437
 30
0.0
 10
131.2656205059939
 20
44.75739054737437
 30
0.0
 10
131.2194670019802
 20
44.75739054737437
 30
0.0
  0
ARC
  5
1C7
330
1F
100
AcDbEntity
  8
0
  6
Continuous
 62
     7
370
    15
100
AcDbCircle
 10
97.77156942123845
 20
55.82202969143105
 30
0.0
 40
35.23049945657862
100
AcDbArc
 50
327.13915210561
 51
341.6956694633183
  0
SPLINE
  5
1C8
330
1F
100
AcDbEntity
  8
0
  6
Continuous
 62
     7
370
    15
100
AcDbSpline
210
0.0
220
0.0
230
1.0
 70
    24
 71
     3
 72
    13
 73
     9
 74
     0
 42
0.0000000001
 43
0.0000000001
 40
0.0
 40
0.0
 40
0.0
 40
0.0
 40
0.218576268941221
 40
0.4144055147890631
 40
0.6170309936114857
 40
0.7959355325142209
 40
0.9805855972758783
 40
1.0
 40
1.0
 40
1.0
 40
1.0
 10
127.3648661683534
 20
36.70594014372151
 30
0.0
 10
128.3525797091415
 20
36.70594014372151
 30
0.0
 10
130.2252163879407
 20
36.70594014372151
 30
0.0
 10
132.4190613505062
 20
36.70594014372151
 30
0.0
 10
133.9676575080972
 20
36.70594014372151
 30
0.0
 10
134.9088310620666
 20
36.70594014372148
 30
0.0
 10
135.1610456254844
 20
36.70594014372151
 30
0.0
 10
135.1683981760236
 20
36.70594014372151
 30
0.0
 10
135.1690976872074
 20
36.70594014372151
 30
0.0
  0
ARC
  5
1C9
330
1F
100
AcDbEntity
  8
0
  6
Continuous
 62
     7
370
    15
100
AcDbCircle
 10
97.77156942123845
 20
55.82202969143105
 30
0.0
 40
41.99999999999999
100
AcDbArc
 50
329.898126434854
 51
332.9257365218422
  0
SPLINE
  5
1CA
330
1F
100
AcDbEntity
  8
0
  6
Continuous
 62
     7
370
    15
100
AcDbSpline
210
0.0
220
0.0
230
1.0
 70
    24
 71
     3
 72
    14
 73
    10
 74
     0
 42
0.0000000001
 43
0.0000000001
 40
0.0
 40
0.0
 40
0.0
 40
0.0
 40
0.027530134508061
 40
0.1909601307650034
 40
0.3591283576932637
 40
0.5229765942816011
 40
0.6911594543913031
 40
0.8441336037046946
 40
1.0
 40
1.0
 40
1.0
 40
1.0
 10
134.1072402934086
 20
34.7573905473744
 30
0.0
 10
134.1057803763977
 20
34.7573905473744
 30
0.0
 10
134.0956538024344
 20
34.7573905473744
 30
0.0
 10
133.8518861369681
 20
34.7573905473744
 30
0.0
 10
133.0402087539245
 20
34.7573905473744
 30
0.0
 10
131.7609796179276
 20
34.7573905473744
 30
0.0
 10
130.1182180840554
 20
34.7573905473744
 30
0.0
 10
128.1932708737001
 20
34.7573905473744
 30
0.0
 10
126.7429936876125
 20
34.7573905473744
 30
0.0
 10
126.0110642766627
 20
34.7573905473744
 30
0.0
  0
ARC
  5
1CB
330
1F
100
AcDbEntity
  8
0
  6
Continuous
 62
     7
370
    15
100
AcDbCircle
 10
97.77156942123845
 20
55.82202969143105
 30
0.0
 40
35.23049945656263
100
AcDbArc
 50
304.2646771462893
 51
323.2796997941984
  0
SPLINE
  5
1CC
330
1F
100
AcDbEntity
  8
0
  6
Continuous
 62
     7
370
    15
100
AcDbSpline
210
0.0
220
0.0
230
1.0
 70
    24
 71
     3
 72
    15
 73
    11
 74
     0
 42
0.0000000001
 43
0.0000000001
 40
0.0
 40
0.0
 40
0.0
 40
0.0
 40
0.0557932390613166
 40
0.1956139355231172
 40
0.3376672544786649
 40
0.4766184965779334
 40
0.6189928329977201
 40
0.7580887084838265
 40
0.901797482273489
 40
1.0
 40
1.0
 40
1.0
 40
1.0
 10
117.6069272805919
 20
26.70594014372148
 30
0.0
 10
117.925559571938
 20
26.70594014372148
 30
0.0
 10
119.0427006009157
 20
26.70594014372148
 30
0.0
 10
120.8797478857579
 20
26.70594014372148
 30
0.0
 10
122.972979027908
 20
26.70594014372148
 30
0.0
 10
124.8085853308731
 20
26.70594014372148
 30
0.0
 10
126.2970546723491
 20
26.70594014372148
 30
0.0
 10
127.3812489996665
 20
26.70594014372148
 30
0.0
 10
127.9561763692791
 20
26.70594014372148
 30
0.0
 10
128.016683589825
 20
26.70594014372148
 30
0.0
 10
128.0412461530728
 20
26.70594014372148
 30
0.0
  0
ARC
  5
1CD
330
1F
100
AcDbEntity
  8
0
  6
Continuous
 62
     7
370
    15
100
AcDbCircle
 10
97.77156942123845
 20
55.82202969143105
 30
0.0
 40
42.00000000000004
100
AcDbArc
 50
270.0000000000008
 51
316.112848572915
  0
LINE
  5
1CE
330
1F
100
AcDbEntity
  8
0
  6
Continuous
 62
     7
370
    15
100
AcDbLine
 10
97.77156942123845
 20
33.822029691431
 30
0.0
 11
97.77156942123845
 21
13.82202969143101
 31
0.0
  0
ARC
  5
1CF
330
1F
100
AcDbEntity
  8
0
  6
Continuous
 62
     7
370
    15
100
AcDbCircle
 10
97.77156942123845
 20
55.82202969143105
 30
0.0
 40
22.00000000000006
100
AcDbArc
 50
270.0000000000008
 51
90.0
  0
ARC
  5
1D0
330
1F
100
AcDbEntity
  8
0
  6
Continuous
 62
     7
370
    15
100
AcDbCircle
 10
97.77156942123845
 20
55.82202969143105
 30
0.0
 40
42.00000000000001
100
AcDbArc
 50
43.54603490625502
 51
90.0
  0
SPLINE
  5
1D1
330
1F
100
AcDbEntity
  8
0
  6
Continuous
 62
     7
370
    15
100
AcDbSpline
210
0.0
220
0.0
230
1.0
 70
    24
 71
     3
 72
    14
 73
    10
 74
     0
 42
0.0000000001
 43
0.0000000001
 40
0.0
 40
0.0
 40
0.0
 40
0.0
 40
0.1234959206205264
 40
0.2503891772153487
 40
0.3774395997558309
 40
0.5076703551730627
 40
0.6719008901078521
 40
0.8341274148264865
 40
1.0
 40
1.0
 40
1.0
 40
1.0
 10
128.2140544074603
 20
84.75739054737436
 30
0.0
 10
128.1764805981273
 20
84.75739054737436
 30
0.0
 10
128.1002993351638
 20
84.75739054737436
 30
0.0
 10
127.4858474956304
 20
84.7573905473744
 30
0.0
 10
126.5121388420156
 20
84.75739054737436
 30
0.0
 10
125.0638153969756
 20
84.7573905473744
 30
0.0
 10
123.1017408831541
 20
84.75739054737436
 30
0.0
 10
120.6428420445879
 20
84.7573905473744
 30
0.0
 10
118.8008727609407
 20
84.75739054737436
 30
0.0
 10
117.8696535113998
 20
84.75739054737436
 30
0.0
  0
ARC
  5
1D2
330
1F
100
AcDbEntity
  8
0
  6
Continuous
 62
     7
370
    15
100
AcDbCircle
 10
97.77156942123845
 20
55.82202969143105
 30
0.0
 40
35.23049945656258
100
AcDbArc
 50
36.35448410129046
 51
55.21671388478075
  0
SPLINE
  5
1D3
330
1F
100
AcDbEntity
  8
0
  6
Continuous
 62
     7
370
    15
100
AcDbSpline
210
0.0
220
0.0
230
1.0
 70
    24
 71
     3
 72
    13
 73
     9
 74
     0
 42
0.0000000001
 43
0.0000000001
 40
0.0
 40
0.0
 40
0.0
 40
0.0
 40
0.1475227297013849
 40
0.2975174790636561
 40
0.485583370383883
 40
0.6801171997621457
 40
0.837955597911487
 40
1.0
 40
1.0
 40
1.0
 40
1.0
 10
126.1449790890871
 20
76.70594014372148
 30
0.0
 10
126.8366541937083
 20
76.7059401437215
 30
0.0
 10
128.231594714905
 20
76.7059401437215
 30
0.0
 10
130.2023272207934
 20
76.70594014372148
 30
0.0
 10
132.0077143644988
 20
76.70594014372148
 30
0.0
 10
133.3089913747129
 20
76.7059401437215
 30
0.0
 10
134.0753597973904
 20
76.70594014372148
 30
0.0
 10
134.1656668991413
 20
76.70594014372148
 30
0.0
 10
134.2114141550009
 20
76.70594014372148
 30
0.0
  0
LINE
  5
1D4
330
1F
100
AcDbEntity
  8
0
  6
Continuous
 62
     7
370
    15
100
AcDbLine
 10
29.82301982489136
 20
33.822029691431
 30
0.0
 11
37.27156942123841
 21
33.822029691431
 31
0.0
  0
LINE
  5
1D5
330
1F
100
AcDbEntity
  8
0
  6
Continuous
 62
     7
370
    15
100
AcDbLine
 10
37.27156942123841
 20
77.82202969143106
 30
0.0
 11
37.27156942123841
 21
33.822029691431
 31
0.0
  0
LINE
  5
1D6
330
1F
100
AcDbEntity
  8
0
  6
Continuous
 62
     7
370
    15
100
AcDbLine
 10
29.82301982489136
 20
33.822029691431
 30
0.0
 11
29.82301982489136
 21
77.82202969143106
 31
0.0
  0
LINE
  5
1D7
330
1F
100
AcDbEntity
  8
0
  6
Continuous
 62
     7
370
    15
100
AcDbLine
 10
-16.67698017510864
 20
33.822029691431
 30
0.0
 11
-9.22843057876156
 21
33.822029691431
 31
0.0
  0
LINE
  5
1D8
330
1F
100
AcDbEntity
  8
0
  6
Continuous
 62
     7
370
    15
100
AcDbLine
 10
-16.67698017510864
 20
33.822029691431
 30
0.0
 11
-16.67698017510864
 21
77.82202969143106
 31
0.0
  0
LINE
  5
1D9
330
1F
100
AcDbEntity
  8
0
  6
Continuous
 62
     7
370
    15
100
AcDbLine
 10
-9.22843057876156
 20
77.82202969143106
 30
0.0
 11
-9.22843057876156
 21
33.822029691431
 31
0.0
  0
LINE
  5
1DA
330
1F
100
AcDbEntity
  8
0
  6
Continuous
 62
     7
370
    15
100
AcDbLine
 10
-94.17698017510865
 20
33.822029691431
 30
0.0
 11
-86.72843057876155
 21
33.822029691431
 31
0.0
  0
LINE
  5
1DB
330
1F
100
AcDbEntity
  8
0
  6
Continuous
 62
     7
370
    15
100
AcDbLine
 10
-94.17698017510865
 20
77.82202969143106
 30
0.0
 11
-94.17698017510865
 21
33.822029691431
 31
0.0
  0
LINE
  5
1DC
330
1F
100
AcDbEntity
  8
0
  6
Continuous
 62
     7
370
    15
100
AcDbLine
 10
-86.72843057876155
 20
77.82202969143106
 30
0.0
 11
-86.72843057876155
 21
33.822029691431
 31
0.0
  0
LINE
  5
1DD
330
1F
100
AcDbEntity
  8
0
  6
Continuous
 62
     7
370
    15
100
AcDbLine
 10
14.32301982489136
 20
33.822029691431
 30
0.0
 11
21.77156942123847
 21
33.822029691431
 31
0.0
  0
LINE
  5
1DE
330
1F
100
AcDbEntity
  8
0
  6
Continuous
 62
     7
370
    15
100
AcDbLine
 10
21.77156942123847
 20
77.82202969143106
 30
0.0
 11
21.77156942123847
 21
33.822029691431
 31
0.0
  0
LINE
  5
1DF
330
1F
100
AcDbEntity
  8
0
  6
Continuous
 62
     7
370
    15
100
AcDbLine
 10
14.32301982489136
 20
33.822029691431
 30
0.0
 11
14.32301982489136
 21
77.82202969143106
 31
0.0
  0
LINE
  5
1E0
330
1F
100
AcDbEntity
  8
0
  6
Continuous
 62
     7
370
    15
100
AcDbLine
 10
-63.17698017510867
 20
33.822029691431
 30
0.0
 11
-55.72843057876156
 21
33.822029691431
 31
0.0
  0
LINE
  5
1E1
330
1F
100
AcDbEntity
  8
0
  6
Continuous
 62
     7
370
    15
100
AcDbLine
 10
-63.17698017510867
 20
33.822029691431
 30
0.0
 11
-63.17698017510867
 21
77.82202969143106
 31
0.0
  0
LINE
  5
1E2
330
1F
100
AcDbEntity
  8
0
  6
Continuous
 62
     7
370
    15
100
AcDbLine
 10
-55.72843057876156
 20
77.82202969143106
 30
0.0
 11
-55.72843057876156
 21
33.822029691431
 31
0.0
  0
LINE
  5
1E3
330
1F
100
AcDbEntity
  8
0
  6
Continuous
 62
     7
370
    15
100
AcDbLine
 10
-32.17698017510867
 20
33.822029691431
 30
0.0
 11
-24.72843057876156
 21
33.822029691431
 31
0.0
  0
LINE
  5
1E4
330
1F
100
AcDbEntity
  8
0
  6
Continuous
 62
     7
370
    15
100
AcDbLine
 10
-24.72843057876156
 20
77.82202969143106
 30
0.0
 11
-24.72843057876156
 21
33.822029691431
 31
0.0
  0
LINE
  5
1E5
330
1F
100
AcDbEntity
  8
0
  6
Continuous
 62
     7
370
    15
100
AcDbLine
 10
-32.17698017510867
 20
33.822029691431
 30
0.0
 11
-32.17698017510867
 21
77.82202969143106
 31
0.0
  0
LINE
  5
1E6
330
1F
100
AcDbEntity
  8
0
  6
Continuous
 62
     7
370
    15
100
AcDbLine
 10
60.82301982489133
 20
33.822029691431
 30
0.0
 11
68.27156942123844
 21
33.822029691431
 31
0.0
  0
LINE
  5
1E7
330
1F
100
AcDbEntity
  8
0
  6
Continuous
 62
     7
370
    15
100
AcDbLine
 10
68.27156942123844
 20
77.82202969143106
 30
0.0
 11
68.27156942123844
 21
33.822029691431
 31
0.0
  0
LINE
  5
1E8
330
1F
100
AcDbEntity
  8
0
  6
Continuous
 62
     7
370
    15
100
AcDbLine
 10
60.82301982489133
 20
33.822029691431
 30
0.0
 11
60.82301982489133
 21
77.82202969143106
 31
0.0
  0
LINE
  5
1E9
330
1F
100
AcDbEntity
  8
0
  6
Continuous
 62
     7
370
    15
100
AcDbLine
 10
-109.6769801751086
 20
33.822029691431
 30
0.0
 11
-102.2284305787615
 21
33.822029691431
 31
0.0
  0
LINE
  5
1EA
330
1F
100
AcDbEntity
  8
0
  6
Continuous
 62
     7
370
    15
100
AcDbLine
 10
-102.2284305787615
 20
33.822029691431
 30
0.0
 11
-102.2284305787615
 21
77.82202969143106
 31
0.0
  0
LINE
  5
1EB
330
1F
100
AcDbEntity
  8
0
  6
Continuous
 62
     7
370
    15
100
AcDbLine
 10
-109.6769801751086
 20
33.822029691431
 30
0.0
 11
-109.6769801751086
 21
77.82202969143103
 31
0.0
  0
LINE
  5
1EC
330
1F
100
AcDbEntity
  8
0
  6
Continuous
 62
     7
370
    15
100
AcDbLine
 10
91.82301982489139
 20
33.822029691431
 30
0.0
 11
97.77156942123845
 21
33.822029691431
 31
0.0
  0
LINE
  5
1ED
330
1F
100
AcDbEntity
  8
0
  6
Continuous
 62
     7
370
    15
100
AcDbLine
 10
91.82301982489139
 20
33.822029691431
 30
0.0
 11
91.82301982489139
 21
77.82202969143106
 31
0.0
  0
LINE
  5
1EE
330
1F
100
AcDbEntity
  8
0
  6
Continuous
 62
     7
370
    15
100
AcDbLine
 10
-78.67698017510867
 20
33.822029691431
 30
0.0
 11
-71.22843057876156
 21
33.822029691431
 31
0.0
  0
LINE
  5
1EF
330
1F
100
AcDbEntity
  8
0
  6
Continuous
 62
     7
370
    15
100
AcDbLine
 10
-71.22843057876156
 20
77.82202969143106
 30
0.0
 11
-71.22843057876156
 21
33.822029691431
 31
0.0
  0
LINE
  5
1F0
330
1F
100
AcDbEntity
  8
0
  6
Continuous
 62
     7
370
    15
100
AcDbLine
 10
-78.67698017510867
 20
33.822029691431
 30
0.0
 11
-78.67698017510864
 21
77.82202969143106
 31
0.0
  0
LINE
  5
1F1
330
1F
100
AcDbEntity
  8
0
  6
Continuous
 62
     7
370
    15
100
AcDbLine
 10
-47.67698017510864
 20
33.822029691431
 30
0.0
 11
-40.22843057876156
 21
33.822029691431
 31
0.0
  0
LINE
  5
1F2
330
1F
100
AcDbEntity
  8
0
  6
Continuous
 62
     7
370
    15
100
AcDbLine
 10
-40.22843057876156
 20
77.82202969143106
 30
0.0
 11
-40.22843057876156
 21
33.822029691431
 31
0.0
  0
LINE
  5
1F3
330
1F
100
AcDbEntity
  8
0
  6
Continuous
 62
     7
370
    15
100
AcDbLine
 10
-47.67698017510864
 20
33.822029691431
 30
0.0
 11
-47.67698017510864
 21
77.82202969143106
 31
0.0
  0
LINE
  5
1F4
330
1F
100
AcDbEntity
  8
0
  6
Continuous
 62
     7
370
    15
100
AcDbLine
 10
-122.2284305787615
 20
33.822029691431
 30
0.0
 11
-117.7284305787615
 21
33.822029691431
 31
0.0
  0
LINE
  5
1F5
330
1F
100
AcDbEntity
  8
0
  6
Continuous
 62
     7
370
    15
100
AcDbLine
 10
-117.7284305787615
 20
77.82202969143103
 30
0.0
 11
-117.7284305787615
 21
33.822029691431
 31
0.0
  0
LINE
  5
1F6
330
1F
100
AcDbEntity
  8
0
  6
Continuous
 62
     7
370
    15
100
AcDbLine
 10
76.32301982489133
 20
33.822029691431
 30
0.0
 11
83.77156942123844
 21
33.822029691431
 31
0.0
  0
LINE
  5
1F7
330
1F
100
AcDbEntity
  8
0
  6
Continuous
 62
     7
370
    15
100
AcDbLine
 10
76.32301982489133
 20
33.822029691431
 30
0.0
 11
76.32301982489133
 21
77.82202969143106
 31
0.0
  0
LINE
  5
1F8
330
1F
100
AcDbEntity
  8
0
  6
Continuous
 62
     7
370
    15
100
AcDbLine
 10
83.77156942123844
 20
77.82202969143106
 30
0.0
 11
83.77156942123844
 21
33.822029691431
 31
0.0
  0
LINE
  5
1F9
330
1F
100
AcDbEntity
  8
0
  6
Continuous
 62
     7
370
    15
100
AcDbLine
 10
-1.176980175108667
 20
33.822029691431
 30
0.0
 11
6.271569421238439
 21
33.822029691431
 31
0.0
  0
LINE
  5
1FA
330
1F
100
AcDbEntity
  8
0
  6
Continuous
 62
     7
370
    15
100
AcDbLine
 10
-1.176980175108667
 20
33.822029691431
 30
0.0
 11
-1.176980175108667
 21
77.82202969143106
 31
0.0
  0
LINE
  5
1FB
330
1F
100
AcDbEntity
  8
0
  6
Continuous
 62
     7
370
    15
100
AcDbLine
 10
6.271569421238439
 20
77.82202969143106
 30
0.0
 11
6.271569421238439
 21
33.822029691431
 31
0.0
  0
LINE
  5
1FC
330
1F
100
AcDbEntity
  8
0
  6
Continuous
 62
     7
370
    15
100
AcDbLine
 10
45.32301982489133
 20
33.822029691431
 30
0.0
 11
52.77156942123844
 21
33.822029691431
 31
0.0
  0
LINE
  5
1FD
330
1F
100
AcDbEntity
  8
0
  6
Continuous
 62
     7
370
    15
100
AcDbLine
 10
52.77156942123844
 20
77.82202969143106
 30
0.0
 11
52.77156942123844
 21
33.822029691431
 31
0.0
  0
LINE
  5
1FE
330
1F
100
AcDbEntity
  8
0
  6
Continuous
 62
     7
370
    15
100
AcDbLine
 10
45.32301982489133
 20
33.822029691431
 30
0.0
 11
45.32301982489139
 21
77.82202969143106
 31
0.0
  0
LINE
  5
1FF
330
1F
100
AcDbEntity
  8
0
  6
Continuous
 62
     7
370
    15
100
AcDbLine
 10
97.77156942123845
 20
13.82202969143101
 30
0.0
 11
83.72011901758531
 21
13.82202969143098
 31
0.0
  0
LINE
  5
200
330
1F
100
AcDbEntity
  8
0
  6
Continuous
 62
     7
370
    15
100
AcDbLine
 10
83.72011901758531
 20
13.82202969143098
 30
0.0
 11
83.72011901758531
 21
21.12888308350483
 31
0.0
  0
LINE
  5
201
330
1F
100
AcDbEntity
  8
0
  6
Continuous
 62
     7
370
    15
100
AcDbLine
 10
83.72011901758531
 20
21.12888308350483
 30
0.0
 11
80.77156942123826
 21
21.12888308350481
 31
0.0
  0
LINE
  5
202
330
1F
100
AcDbEntity
  8
0
  6
Continuous
 62
     7
370
    15
100
AcDbLine
 10
80.77156942123826
 20
13.82202969143098
 30
0.0
 11
80.77156942123826
 21
21.12888308350481
 31
0.0
  0
LINE
  5
203
330
1F
100
AcDbEntity
  8
0
  6
Continuous
 62
     7
370
    15
100
AcDbLine
 10
80.77156942123826
 20
13.82202969143098
 30
0.0
 11
68.22011901758537
 21
13.82202969143098
 31
0.0
  0
LINE
  5
204
330
1F
100
AcDbEntity
  8
0
  6
Continuous
 62
     7
370
    15
100
AcDbLine
 10
68.22011901758537
 20
13.82202969143098
 30
0.0
 11
68.22011901758532
 21
21.12888308350483
 31
0.0
  0
LINE
  5
205
330
1F
100
AcDbEntity
  8
0
  6
Continuous
 62
     7
370
    15
100
AcDbLine
 10
68.22011901758532
 20
21.12888308350483
 30
0.0
 11
65.27156942123832
 21
21.12888308350481
 31
0.0
  0
LINE
  5
206
330
1F
100
AcDbEntity
  8
0
  6
Continuous
 62
     7
370
    15
100
AcDbLine
 10
65.27156942123832
 20
13.82202969143098
 30
0.0
 11
65.27156942123832
 21
21.12888308350481
 31
0.0
  0
LINE
  5
207
330
1F
100
AcDbEntity
  8
0
  6
Continuous
 62
     7
370
    15
100
AcDbLine
 10
65.27156942123832
 20
13.82202969143098
 30
0.0
 11
52.72011901758543
 21
13.82202969143098
 31
0.0
  0
LINE
  5
208
330
1F
100
AcDbEntity
  8
0
  6
Continuous
 62
     7
370
    15
100
AcDbLine
 10
52.72011901758543
 20
13.82202969143098
 30
0.0
 11
52.72011901758538
 21
21.12888308350483
 31
0.0
  0
LINE
  5
209
330
1F
100
AcDbEntity
  8
0
  6
Continuous
 62
     7
370
    15
100
AcDbLine
 10
52.72011901758538
 20
21.12888308350483
 30
0.0
 11
49.77156942123821
 21
21.12888308350481
 31
0.0
  0
LINE
  5
20A
330
1F
100
AcDbEntity
  8
0
  6
Continuous
 62
     7
370
    15
100
AcDbLine
 10
49.77156942123833
 20
13.82202969143098
 30
0.0
 11
49.77156942123821
 21
21.12888308350481
 31
0.0
  0
LINE
  5
20B
330
1F
100
AcDbEntity
  8
0
  6
Continuous
 62
     7
370
    15
100
AcDbLine
 10
49.77156942123833
 20
13.82202969143098
 30
0.0
 11
37.22011901758535
 21
13.82202969143098
 31
0.0
  0
LINE
  5
20C
330
1F
100
AcDbEntity
  8
0
  6
Continuous
 62
     7
370
    15
100
AcDbLine
 10
37.22011901758535
 20
13.82202969143098
 30
0.0
 11
37.22011901758535
 21
21.12888308350483
 31
0.0
  0
LINE
  5
20D
330
1F
100
AcDbEntity
  8
0
  6
Continuous
 62
     7
370
    15
100
AcDbLine
 10
37.22011901758535
 20
21.12888308350483
 30
0.0
 11
34.27156942123821
 21
21.12888308350481
 31
0.0
  0
LINE
  5
20E
330
1F
100
AcDbEntity
  8
0
  6
Continuous
 62
     7
370
    15
100
AcDbLine
 10
34.2715694212383
 20
13.82202969143098
 30
0.0
 11
34.27156942123821
 21
21.12888308350481
 31
0.0
  0
LINE
  5
20F
330
1F
100
AcDbEntity
  8
0
  6
Continuous
 62
     7
370
    15
100
AcDbLine
 10
34.2715694212383
 20
13.82202969143098
 30
0.0
 11
21.72011901758543
 21
13.82202969143098
 31
0.0
  0
LINE
  5
210
330
1F
100
AcDbEntity
  8
0
  6
Continuous
 62
     7
370
    15
100
AcDbLine
 10
21.72011901758543
 20
13.82202969143098
 30
0.0
 11
21.72011901758541
 21
21.12888308350483
 31
0.0
  0
LINE
  5
211
330
1F
100
AcDbEntity
  8
0
  6
Continuous
 62
     7
370
    15
100
AcDbLine
 10
21.72011901758541
 20
21.12888308350483
 30
0.0
 11
18.77156942123824
 21
21.12888308350481
 31
0.0
  0
LINE
  5
212
330
1F
100
AcDbEntity
  8
0
  6
Continuous
 62
     7
370
    15
100
AcDbLine
 10
18.77156942123835
 20
13.82202969143098
 30
0.0
 11
18.77156942123824
 21
21.12888308350481
 31
0.0
  0
LINE
  5
213
330
1F
100
AcDbEntity
  8
0
  6
Continuous
 62
     7
370
    15
100
AcDbLine
 10
18.77156942123835
 20
13.82202969143098
 30
0.0
 11
6.220119017585403
 21
13.82202969143098
 31
0.0
  0
LINE
  5
214
330
1F
100
AcDbEntity
  8
0
  6
Continuous
 62
     7
370
    15
100
AcDbLine
 10
6.220119017585403
 20
13.82202969143098
 30
0.0
 11
6.220119017585375
 21
21.12888308350483
 31
0.0
  0
LINE
  5
215
330
1F
100
AcDbEntity
  8
0
  6
Continuous
 62
     7
370
    15
100
AcDbLine
 10
6.220119017585375
 20
21.12888308350483
 30
0.0
 11
3.271569421238268
 21
21.12888308350481
 31
0.0
  0
LINE
  5
216
330
1F
100
AcDbEntity
  8
0
  6
Continuous
 62
     7
370
    15
100
AcDbLine
 10
3.271569421238325
 20
13.82202969143098
 30
0.0
 11
3.271569421238268
 21
21.12888308350481
 31
0.0
  0
LINE
  5
217
330
1F
100
AcDbEntity
  8
0
  6
Continuous
 62
     7
370
    15
100
AcDbLine
 10
3.271569421238325
 20
13.82202969143098
 30
0.0
 11
-9.279880982414567
 21
13.82202969143098
 31
0.0
  0
LINE
  5
218
330
1F
100
AcDbEntity
  8
0
  6
Continuous
 62
     7
370
    15
100
AcDbLine
 10
-9.279880982414567
 20
13.82202969143098
 30
0.0
 11
-9.279880982414567
 21
21.12888308350483
 31
0.0
  0
LINE
  5
219
330
1F
100
AcDbEntity
  8
0
  6
Continuous
 62
     7
370
    15
100
AcDbLine
 10
-9.279880982414567
 20
21.12888308350483
 30
0.0
 11
-12.22843057876173
 21
21.12888308350481
 31
0.0
  0
LINE
  5
21A
330
1F
100
AcDbEntity
  8
0
  6
Continuous
 62
     7
370
    15
100
AcDbLine
 10
-12.22843057876161
 20
13.82202969143098
 30
0.0
 11
-12.22843057876173
 21
21.12888308350481
 31
0.0
  0
LINE
  5
21B
330
1F
100
AcDbEntity
  8
0
  6
Continuous
 62
     7
370
    15
100
AcDbLine
 10
-12.22843057876161
 20
13.82202969143098
 30
0.0
 11
-24.77988098241457
 21
13.82202969143098
 31
0.0
  0
LINE
  5
21C
330
1F
100
AcDbEntity
  8
0
  6
Continuous
 62
     7
370
    15
100
AcDbLine
 10
-24.77988098241457
 20
13.82202969143098
 30
0.0
 11
-24.77988098241457
 21
21.12888308350483
 31
0.0
  0
LINE
  5
21D
330
1F
100
AcDbEntity
  8
0
  6
Continuous
 62
     7
370
    15
100
AcDbLine
 10
-24.77988098241457
 20
21.12888308350483
 30
0.0
 11
-27.7284305787617
 21
21.12888308350481
 31
0.0
  0
LINE
  5
21E
330
1F
100
AcDbEntity
  8
0
  6
Continuous
 62
     7
370
    15
100
AcDbLine
 10
-27.72843057876165
 20
13.82202969143098
 30
0.0
 11
-27.7284305787617
 21
21.12888308350481
 31
0.0
  0
LINE
  5
21F
330
1F
100
AcDbEntity
  8
0
  6
Continuous
 62
     7
370
    15
100
AcDbLine
 10
-27.72843057876165
 20
13.82202969143098
 30
0.0
 11
-40.27988098241453
 21
13.82202969143098
 31
0.0
  0
LINE
  5
220
330
1F
100
AcDbEntity
  8
0
  6
Continuous
 62
     7
370
    15
100
AcDbLine
 10
-40.27988098241453
 20
13.82202969143098
 30
0.0
 11
-40.27988098241453
 21
21.12888308350483
 31
0.0
  0
LINE
  5
221
330
1F
100
AcDbEntity
  8
0
  6
Continuous
 62
     7
370
    15
100
AcDbLine
 10
-40.27988098241453
 20
21.12888308350483
 30
0.0
 11
-43.22843057876167
 21
21.12888308350481
 31
0.0
  0
LINE
  5
222
330
1F
100
AcDbEntity
  8
0
  6
Continuous
 62
     7
370
    15
100
AcDbLine
 10
-43.22843057876162
 20
13.82202969143098
 30
0.0
 11
-43.22843057876167
 21
21.12888308350481
 31
0.0
  0
LINE
  5
223
330
1F
100
AcDbEntity
  8
0
  6
Continuous
 62
     7
370
    15
100
AcDbLine
 10
-43.22843057876162
 20
13.82202969143098
 30
0.0
 11
-55.77988098241454
 21
13.82202969143098
 31
0.0
  0
LINE
  5
224
330
1F
100
AcDbEntity
  8
0
  6
Continuous
 62
     7
370
    15
100
AcDbLine
 10
-55.77988098241454
 20
13.82202969143098
 30
0.0
 11
-55.77988098241454
 21
21.12888308350483
 31
0.0
  0
LINE
  5
225
330
1F
100
AcDbEntity
  8
0
  6
Continuous
 62
     7
370
    15
100
AcDbLine
 10
-55.77988098241454
 20
21.12888308350483
 30
0.0
 11
-58.72843057876167
 21
21.12888308350481
 31
0.0
  0
LINE
  5
226
330
1F
100
AcDbEntity
  8
0
  6
Continuous
 62
     7
370
    15
100
AcDbLine
 10
-58.72843057876162
 20
13.82202969143098
 30
0.0
 11
-58.72843057876167
 21
21.12888308350481
 31
0.0
  0
LINE
  5
227
330
1F
100
AcDbEntity
  8
0
  6
Continuous
 62
     7
370
    15
100
AcDbLine
 10
-58.72843057876162
 20
13.82202969143098
 30
0.0
 11
-71.27988098241451
 21
13.82202969143098
 31
0.0
  0
LINE
  5
228
330
1F
100
AcDbEntity
  8
0
  6
Continuous
 62
     7
370
    15
100
AcDbLine
 10
-71.27988098241451
 20
13.82202969143098
 30
0.0
 11
-71.27988098241451
 21
21.12888308350483
 31
0.0
  0
LINE
  5
229
330
1F
100
AcDbEntity
  8
0
  6
Continuous
 62
     7
370
    15
100
AcDbLine
 10
-71.27988098241451
 20
21.12888308350483
 30
0.0
 11
-74.22843057876164
 21
21.12888308350481
 31
0.0
  0
LINE
  5
22A
330
1F
100
AcDbEntity
  8
0
  6
Continuous
 62
     7
370
    15
100
AcDbLine
 10
-74.22843057876161
 20
13.82202969143098
 30
0.0
 11
-74.22843057876164
 21
21.12888308350481
 31
0.0
  0
LINE
  5
22B
330
1F
100
AcDbEntity
  8
0
  6
Continuous
 62
     7
370
    15
100
AcDbLine
 10
-74.22843057876161
 20
13.82202969143098
 30
0.0
 11
-86.77988098241451
 21
13.82202969143098
 31
0.0
  0
LINE
  5
22C
330
1F
100
AcDbEntity
  8
0
  6
Continuous
 62
     7
370
    15
100
AcDbLine
 10
-86.77988098241451
 20
13.82202969143098
 30
0.0
 11
-86.77988098241451
 21
21.12888308350483
 31
0.0
  0
LINE
  5
22D
330
1F
100
AcDbEntity
  8
0
  6
Continuous
 62
     7
370
    15
100
AcDbLine
 10
-86.77988098241451
 20
21.12888308350483
 30
0.0
 11
-89.72843057876163
 21
21.12888308350481
 31
0.0
  0
LINE
  5
22E
330
1F
100
AcDbEntity
  8
0
  6
Continuous
 62
     7
370
    15
100
AcDbLine
 10
-89.72843057876159
 20
13.82202969143098
 30
0.0
 11
-89.72843057876163
 21
21.12888308350481
 31
0.0
  0
LINE
  5
22F
330
1F
100
AcDbEntity
  8
0
  6
Continuous
 62
     7
370
    15
100
AcDbLine
 10
-89.72843057876159
 20
13.82202969143098
 30
0.0
 11
-102.2798809824144
 21
13.82202969143098
 31
0.0
  0
LINE
  5
230
330
1F
100
AcDbEntity
  8
0
  6
Continuous
 62
     7
370
    15
100
AcDbLine
 10
-102.2798809824144
 20
13.82202969143098
 30
0.0
 11
-102.2798809824144
 21
21.12888308350483
 31
0.0
  0
LINE
  5
231
330
1F
100
AcDbEntity
  8
0
  6
Continuous
 62
     7
370
    15
100
AcDbLine
 10
-102.2798809824144
 20
21.12888308350483
 30
0.0
 11
-105.2284305787616
 21
21.12888308350481
 31
0.0
  0
LINE
  5
232
330
1F
100
AcDbEntity
  8
0
  6
Continuous
 62
     7
370
    15
100
AcDbLine
 10
-105.2284305787616
 20
13.82202969143098
 30
0.0
 11
-105.2284305787616
 21
21.12888308350481
 31
0.0
  0
LINE
  5
233
330
1F
100
AcDbEntity
  8
0
  6
Continuous
 62
     7
370
    15
100
AcDbLine
 10
-105.2284305787616
 20
13.82202969143098
 30
0.0
 11
-122.2284305787615
 21
13.82202969143098
 31
0.0
  0
LINE
  5
234
330
1F
100
AcDbEntity
  8
0
  6
Continuous
 62
     7
370
    15
100
AcDbLine
 10
-109.6769801751086
 20
28.39796411734369
 30
0.0
 11
-117.7284305787615
 21
28.39796411734369
 31
0.0
  0
LINE
  5
235
330
1F
100
AcDbEntity
  8
0
  6
Continuous
 62
     7
370
    15
100
AcDbLine
 10
-94.17698017510865
 20
28.39796411734369
 30
0.0
 11
-102.2284305787615
 21
28.39796411734369
 31
0.0
  0
LINE
  5
236
330
1F
100
AcDbEntity
  8
0
  6
Continuous
 62
     7
370
    15
100
AcDbLine
 10
-78.67698017510864
 20
28.39796411734369
 30
0.0
 11
-86.72843057876155
 21
28.39796411734369
 31
0.0
  0
LINE
  5
237
330
1F
100
AcDbEntity
  8
0
  6
Continuous
 62
     7
370
    15
100
AcDbLine
 10
-63.17698017510867
 20
28.39796411734369
 30
0.0
 11
-71.22843057876156
 21
28.39796411734369
 31
0.0
  0
LINE
  5
238
330
1F
100
AcDbEntity
  8
0
  6
Continuous
 62
     7
370
    15
100
AcDbLine
 10
-47.67698017510864
 20
28.39796411734369
 30
0.0
 11
-55.72843057876156
 21
28.39796411734369
 31
0.0
  0
LINE
  5
239
330
1F
100
AcDbEntity
  8
0
  6
Continuous
 62
     7
370
    15
100
AcDbLine
 10
-32.17698017510867
 20
28.39796411734369
 30
0.0
 11
-40.22843057876156
 21
28.39796411734369
 31
0.0
  0
LINE
  5
23A
330
1F
100
AcDbEntity
  8
0
  6
Continuous
 62
     7
370
    15
100
AcDbLine
 10
-16.67698017510864
 20
28.39796411734369
 30
0.0
 11
-24.72843057876156
 21
28.39796411734369
 31
0.0
  0
LINE
  5
23B
330
1F
100
AcDbEntity
  8
0
  6
Continuous
 62
     7
370
    15
100
AcDbLine
 10
-1.176980175108667
 20
28.39796411734369
 30
0.0
 11
-9.22843057876156
 21
28.39796411734369
 31
0.0
  0
LINE
  5
23C
330
1F
100
AcDbEntity
  8
0
  6
Continuous
 62
     7
370
    15
100
AcDbLine
 10
14.32301982489136
 20
28.39796411734369
 30
0.0
 11
6.271569421238439
 21
28.39796411734369
 31
0.0
  0
LINE
  5
23D
330
1F
100
AcDbEntity
  8
0
  6
Continuous
 62
     7
370
    15
100
AcDbLine
 10
29.82301982489136
 20
28.39796411734369
 30
0.0
 11
21.77156942123847
 21
28.39796411734369
 31
0.0
  0
LINE
  5
23E
330
1F
100
AcDbEntity
  8
0
  6
Continuous
 62
     7
370
    15
100
AcDbLine
 10
45.32301982489133
 20
28.39796411734369
 30
0.0
 11
37.27156942123841
 21
28.39796411734369
 31
0.0
  0
LINE
  5
23F
330
1F
100
AcDbEntity
  8
0
  6
Continuous
 62
     7
370
    15
100
AcDbLine
 10
60.82301982489133
 20
28.39796411734369
 30
0.0
 11
52.77156942123844
 21
28.39796411734369
 31
0.0
  0
LINE
  5
240
330
1F
100
AcDbEntity
  8
0
  6
Continuous
 62
     7
370
    15
100
AcDbLine
 10
76.32301982489133
 20
28.39796411734369
 30
0.0
 11
68.27156942123844
 21
28.39796411734369
 31
0.0
  0
LINE
  5
241
330
1F
100
AcDbEntity
  8
0
  6
Continuous
 62
     7
370
    15
100
AcDbLine
 10
91.82301982489139
 20
28.39796411734369
 30
0.0
 11
83.77156942123844
 21
28.39796411734369
 31
0.0
  0
LINE
  5
242
330
1F
100
AcDbEntity
  8
0
  6
Continuous
 62
     7
370
    15
100
AcDbLine
 10
-16.67698017510864
 20
33.822029691431
 30
0.0
 11
-16.67698017510864
 21
28.39796411734369
 31
0.0
  0
LINE
  5
243
330
1F
100
AcDbEntity
  8
0
  6
Continuous
 62
     7
370
    15
100
AcDbLine
 10
-1.176980175108667
 20
33.822029691431
 30
0.0
 11
-1.176980175108667
 21
28.39796411734369
 31
0.0
  0
LINE
  5
244
330
1F
100
AcDbEntity
  8
0
  6
Continuous
 62
     7
370
    15
100
AcDbLine
 10
-117.7284305787615
 20
28.39796411734369
 30
0.0
 11
-117.7284305787615
 21
33.822029691431
 31
0.0
  0
LINE
  5
245
330
1F
100
AcDbEntity
  8
0
  6
Continuous
 62
     7
370
    15
100
AcDbLine
 10
-94.17698017510865
 20
33.822029691431
 30
0.0
 11
-94.17698017510865
 21
28.39796411734369
 31
0.0
  0
LINE
  5
246
330
1F
100
AcDbEntity
  8
0
  6
Continuous
 62
     7
370
    15
100
AcDbLine
 10
91.82301982489139
 20
33.822029691431
 30
0.0
 11
91.82301982489139
 21
28.39796411734369
 31
0.0
  0
LINE
  5
247
330
1F
100
AcDbEntity
  8
0
  6
Continuous
 62
     7
370
    15
100
AcDbLine
 10
-102.2284305787615
 20
28.39796411734369
 30
0.0
 11
-102.2284305787615
 21
33.822029691431
 31
0.0
  0
LINE
  5
248
330
1F
100
AcDbEntity
  8
0
  6
Continuous
 62
     7
370
    15
100
AcDbLine
 10
-63.17698017510867
 20
33.822029691431
 30
0.0
 11
-63.17698017510867
 21
28.39796411734369
 31
0.0
  0
LINE
  5
249
330
1F
100
AcDbEntity
  8
0
  6
Continuous
 62
     7
370
    15
100
AcDbLine
 10
-24.72843057876156
 20
28.39796411734369
 30
0.0
 11
-24.72843057876156
 21
33.822029691431
 31
0.0
  0
LINE
  5
24A
330
1F
100
AcDbEntity
  8
0
  6
Continuous
 62
     7
370
    15
100
AcDbLine
 10
76.32301982489133
 20
33.822029691431
 30
0.0
 11
76.32301982489133
 21
28.39796411734369
 31
0.0
  0
LINE
  5
24B
330
1F
100
AcDbEntity
  8
0
  6
Continuous
 62
     7
370
    15
100
AcDbLine
 10
68.27156942123844
 20
28.39796411734369
 30
0.0
 11
68.27156942123844
 21
33.822029691431
 31
0.0
  0
LINE
  5
24C
330
1F
100
AcDbEntity
  8
0
  6
Continuous
 62
     7
370
    15
100
AcDbLine
 10
-32.17698017510867
 20
33.822029691431
 30
0.0
 11
-32.17698017510867
 21
28.39796411734369
 31
0.0
  0
LINE
  5
24D
330
1F
100
AcDbEntity
  8
0
  6
Continuous
 62
     7
370
    15
100
AcDbLine
 10
-40.22843057876156
 20
28.39796411734369
 30
0.0
 11
-40.22843057876156
 21
33.822029691431
 31
0.0
  0
LINE
  5
24E
330
1F
100
AcDbEntity
  8
0
  6
Continuous
 62
     7
370
    15
100
AcDbLine
 10
60.82301982489133
 20
33.822029691431
 30
0.0
 11
60.82301982489133
 21
28.39796411734369
 31
0.0
  0
LINE
  5
24F
330
1F
100
AcDbEntity
  8
0
  6
Continuous
 62
     7
370
    15
100
AcDbLine
 10
52.77156942123844
 20
28.39796411734369
 30
0.0
 11
52.77156942123844
 21
33.822029691431
 31
0.0
  0
LINE
  5
250
330
1F
100
AcDbEntity
  8
0
  6
Continuous
 62
     7
370
    15
100
AcDbLine
 10
-47.67698017510864
 20
33.822029691431
 30
0.0
 11
-47.67698017510864
 21
28.39796411734369
 31
0.0
  0
LINE
  5
251
330
1F
100
AcDbEntity
  8
0
  6
Continuous
 62
     7
370
    15
100
AcDbLine
 10
-55.72843057876156
 20
28.39796411734369
 30
0.0
 11
-55.72843057876156
 21
33.822029691431
 31
0.0
  0
LINE
  5
252
330
1F
100
AcDbEntity
  8
0
  6
Continuous
 62
     7
370
    15
100
AcDbLine
 10
45.32301982489133
 20
33.822029691431
 30
0.0
 11
45.32301982489133
 21
28.39796411734369
 31
0.0
  0
LINE
  5
253
330
1F
100
AcDbEntity
  8
0
  6
Continuous
 62
     7
370
    15
100
AcDbLine
 10
37.27156942123841
 20
28.39796411734369
 30
0.0
 11
37.27156942123841
 21
33.822029691431
 31
0.0
  0
LINE
  5
254
330
1F
100
AcDbEntity
  8
0
  6
Continuous
 62
     7
370
    15
100
AcDbLine
 10
83.77156942123844
 20
28.39796411734369
 30
0.0
 11
83.77156942123844
 21
33.822029691431
 31
0.0
  0
LINE
  5
255
330
1F
100
AcDbEntity
  8
0
  6
Continuous
 62
     7
370
    15
100
AcDbLine
 10
-71.22843057876156
 20
28.39796411734369
 30
0.0
 11
-71.22843057876156
 21
33.822029691431
 31
0.0
  0
LINE
  5
256
330
1F
100
AcDbEntity
  8
0
  6
Continuous
 62
     7
370
    15
100
AcDbLine
 10
29.82301982489136
 20
33.822029691431
 30
0.0
 11
29.82301982489136
 21
28.39796411734369
 31
0.0
  0
LINE
  5
257
330
1F
100
AcDbEntity
  8
0
  6
Continuous
 62
     7
370
    15
100
AcDbLine
 10
21.77156942123847
 20
28.39796411734369
 30
0.0
 11
21.77156942123847
 21
33.822029691431
 31
0.0
  0
LINE
  5
258
330
1F
100
AcDbEntity
  8
0
  6
Continuous
 62
     7
370
    15
100
AcDbLine
 10
-78.67698017510867
 20
33.822029691431
 30
0.0
 11
-78.67698017510864
 21
28.39796411734369
 31
0.0
  0
LINE
  5
259
330
1F
100
AcDbEntity
  8
0
  6
Continuous
 62
     7
370
    15
100
AcDbLine
 10
-86.72843057876155
 20
28.39796411734369
 30
0.0
 11
-86.72843057876155
 21
33.822029691431
 31
0.0
  0
LINE
  5
25A
330
1F
100
AcDbEntity
  8
0
  6
Continuous
 62
     7
370
    15
100
AcDbLine
 10
14.32301982489136
 20
33.822029691431
 30
0.0
 11
14.32301982489136
 21
28.39796411734369
 31
0.0
  0
LINE
  5
25B
330
1F
100
AcDbEntity
  8
0
  6
Continuous
 62
     7
370
    15
100
AcDbLine
 10
6.271569421238439
 20
28.39796411734369
 30
0.0
 11
6.271569421238439
 21
33.822029691431
 31
0.0
  0
LINE
  5
25C
330
1F
100
AcDbEntity
  8
0
  6
Continuous
 62
     7
370
    15
100
AcDbLine
 10
-109.6769801751086
 20
33.822029691431
 30
0.0
 11
-109.6769801751086
 21
28.39796411734369
 31
0.0
  0
LINE
  5
25D
330
1F
100
AcDbEntity
  8
0
  6
Continuous
 62
     7
370
    15
100
AcDbLine
 10
-9.22843057876156
 20
28.39796411734369
 30
0.0
 11
-9.22843057876156
 21
33.822029691431
 31
0.0
  0
LINE
  5
25E
330
1F
100
AcDbEntity
  8
0
  6
Continuous
 62
     7
370
    15
100
AcDbLine
 10
-86.77988098241451
 20
91.82202969143105
 30
0.0
 11
-89.72843057876158
 21
91.82202969143105
 31
0.0
  0
LINE
  5
25F
330
1F
100
AcDbEntity
  8
0
  6
Continuous
 62
     7
370
    15
100
AcDbLine
 10
-86.77988098241451
 20
97.82202969143106
 30
0.0
 11
-89.72843057876158
 21
97.82202969143106
 31
0.0
  0
LINE
  5
260
330
1F
100
AcDbEntity
  8
0
  6
Continuous
 62
     7
370
    15
100
AcDbLine
 10
37.22011901758535
 20
91.82202969143105
 30
0.0
 11
34.27156942123841
 21
91.82202969143105
 31
0.0
  0
LINE
  5
261
330
1F
100
AcDbEntity
  8
0
  6
Continuous
 62
     7
370
    15
100
AcDbLine
 10
37.22011901758535
 20
97.82202969143106
 30
0.0
 11
34.27156942123841
 21
97.82202969143106
 31
0.0
  0
LINE
  5
262
330
1F
100
AcDbEntity
  8
0
  6
Continuous
 62
     7
370
    15
100
AcDbLine
 10
-102.2798809824144
 20
91.82202969143105
 30
0.0
 11
-105.2284305787615
 21
91.82202969143105
 31
0.0
  0
LINE
  5
263
330
1F
100
AcDbEntity
  8
0
  6
Continuous
 62
     7
370
    15
100
AcDbLine
 10
-102.2798809824144
 20
97.82202969143106
 30
0.0
 11
-105.2284305787615
 21
97.82202969143106
 31
0.0
  0
LINE
  5
264
330
1F
100
AcDbEntity
  8
0
  6
Continuous
 62
     7
370
    15
100
AcDbLine
 10
-24.77988098241457
 20
91.82202969143105
 30
0.0
 11
-27.72843057876159
 21
91.82202969143105
 31
0.0
  0
LINE
  5
265
330
1F
100
AcDbEntity
  8
0
  6
Continuous
 62
     7
370
    15
100
AcDbLine
 10
-24.77988098241457
 20
97.82202969143106
 30
0.0
 11
-27.72843057876159
 21
97.82202969143106
 31
0.0
  0
LINE
  5
266
330
1F
100
AcDbEntity
  8
0
  6
Continuous
 62
     7
370
    15
100
AcDbLine
 10
-9.279880982414567
 20
91.82202969143105
 30
0.0
 11
-12.22843057876156
 21
91.82202969143105
 31
0.0
  0
LINE
  5
267
330
1F
100
AcDbEntity
  8
0
  6
Continuous
 62
     7
370
    15
100
AcDbLine
 10
-9.279880982414567
 20
97.82202969143106
 30
0.0
 11
-12.22843057876156
 21
97.82202969143106
 31
0.0
  0
LINE
  5
268
330
1F
100
AcDbEntity
  8
0
  6
Continuous
 62
     7
370
    15
100
AcDbLine
 10
21.72011901758541
 20
91.82202969143105
 30
0.0
 11
18.77156942123841
 21
91.82202969143105
 31
0.0
  0
LINE
  5
269
330
1F
100
AcDbEntity
  8
0
  6
Continuous
 62
     7
370
    15
100
AcDbLine
 10
21.72011901758541
 20
97.82202969143106
 30
0.0
 11
18.77156942123841
 21
97.82202969143106
 31
0.0
  0
LINE
  5
26A
330
1F
100
AcDbEntity
  8
0
  6
Continuous
 62
     7
370
    15
100
AcDbLine
 10
-40.27988098241453
 20
91.82202969143105
 30
0.0
 11
-43.22843057876156
 21
91.82202969143105
 31
0.0
  0
LINE
  5
26B
330
1F
100
AcDbEntity
  8
0
  6
Continuous
 62
     7
370
    15
100
AcDbLine
 10
-40.27988098241453
 20
97.82202969143106
 30
0.0
 11
-43.22843057876156
 21
97.82202969143106
 31
0.0
  0
LINE
  5
26C
330
1F
100
AcDbEntity
  8
0
  6
Continuous
 62
     7
370
    15
100
AcDbLine
 10
52.72011901758538
 20
91.82202969143105
 30
0.0
 11
49.77156942123844
 21
91.82202969143105
 31
0.0
  0
LINE
  5
26D
330
1F
100
AcDbEntity
  8
0
  6
Continuous
 62
     7
370
    15
100
AcDbLine
 10
52.72011901758538
 20
97.82202969143106
 30
0.0
 11
49.77156942123844
 21
97.82202969143106
 31
0.0
  0
LINE
  5
26E
330
1F
100
AcDbEntity
  8
0
  6
Continuous
 62
     7
370
    15
100
AcDbLine
 10
-71.27988098241451
 20
91.82202969143105
 30
0.0
 11
-74.22843057876156
 21
91.82202969143105
 31
0.0
  0
LINE
  5
26F
330
1F
100
AcDbEntity
  8
0
  6
Continuous
 62
     7
370
    15
100
AcDbLine
 10
-71.27988098241451
 20
97.82202969143106
 30
0.0
 11
-74.22843057876156
 21
97.82202969143106
 31
0.0
  0
LINE
  5
270
330
1F
100
AcDbEntity
  8
0
  6
Continuous
 62
     7
370
    15
100
AcDbLine
 10
83.72011901758531
 20
91.82202969143105
 30
0.0
 11
80.77156942123826
 21
91.82202969143105
 31
0.0
  0
LINE
  5
271
330
1F
100
AcDbEntity
  8
0
  6
Continuous
 62
     7
370
    15
100
AcDbLine
 10
83.72011901758531
 20
97.82202969143106
 30
0.0
 11
80.77156942123826
 21
97.82202969143106
 31
0.0
  0
LINE
  5
272
330
1F
100
AcDbEntity
  8
0
  6
Continuous
 62
     7
370
    15
100
AcDbLine
 10
6.220119017585403
 20
91.82202969143105
 30
0.0
 11
3.27156942123841
 21
91.82202969143105
 31
0.0
  0
LINE
  5
273
330
1F
100
AcDbEntity
  8
0
  6
Continuous
 62
     7
370
    15
100
AcDbLine
 10
6.220119017585403
 20
97.82202969143106
 30
0.0
 11
3.27156942123841
 21
97.82202969143106
 31
0.0
  0
LINE
  5
274
330
1F
100
AcDbEntity
  8
0
  6
Continuous
 62
     7
370
    15
100
AcDbLine
 10
68.22011901758532
 20
91.82202969143105
 30
0.0
 11
65.27156942123832
 21
91.82202969143105
 31
0.0
  0
LINE
  5
275
330
1F
100
AcDbEntity
  8
0
  6
Continuous
 62
     7
370
    15
100
AcDbLine
 10
68.22011901758532
 20
97.82202969143106
 30
0.0
 11
65.27156942123832
 21
97.82202969143106
 31
0.0
  0
LINE
  5
276
330
1F
100
AcDbEntity
  8
0
  6
Continuous
 62
     7
370
    15
100
AcDbLine
 10
-55.77988098241454
 20
91.82202969143105
 30
0.0
 11
-58.72843057876159
 21
91.82202969143105
 31
0.0
  0
LINE
  5
277
330
1F
100
AcDbEntity
  8
0
  6
Continuous
 62
     7
370
    15
100
AcDbLine
 10
-55.77988098241454
 20
97.82202969143106
 30
0.0
 11
-58.72843057876159
 21
97.82202969143106
 31
0.0
  0
LINE
  5
278
330
1F
100
AcDbEntity
  8
0
  6
Continuous
 62
     7
370
    15
100
AcDbLine
 10
-86.77988098241451
 20
13.82202969143098
 30
0.0
 11
-89.72843057876158
 21
13.82202969143098
 31
0.0
  0
LINE
  5
279
330
1F
100
AcDbEntity
  8
0
  6
Continuous
 62
     7
370
    15
100
AcDbLine
 10
-89.72843057876158
 20
19.822029691431
 30
0.0
 11
-86.77988098241451
 21
19.822029691431
 31
0.0
  0
LINE
  5
27A
330
1F
100
AcDbEntity
  8
0
  6
Continuous
 62
     7
370
    15
100
AcDbLine
 10
68.22011901758532
 20
13.82202969143098
 30
0.0
 11
65.27156942123832
 21
13.82202969143098
 31
0.0
  0
LINE
  5
27B
330
1F
100
AcDbEntity
  8
0
  6
Continuous
 62
     7
370
    15
100
AcDbLine
 10
65.27156942123832
 20
19.822029691431
 30
0.0
 11
68.22011901758532
 21
19.822029691431
 31
0.0
  0
LINE
  5
27C
330
1F
100
AcDbEntity
  8
0
  6
Continuous
 62
     7
370
    15
100
AcDbLine
 10
-71.27988098241451
 20
13.82202969143098
 30
0.0
 11
-74.22843057876156
 21
13.82202969143098
 31
0.0
  0
LINE
  5
27D
330
1F
100
AcDbEntity
  8
0
  6
Continuous
 62
     7
370
    15
100
AcDbLine
 10
-74.22843057876156
 20
19.822029691431
 30
0.0
 11
-71.27988098241451
 21
19.822029691431
 31
0.0
  0
LINE
  5
27E
330
1F
100
AcDbEntity
  8
0
  6
Continuous
 62
     7
370
    15
100
AcDbLine
 10
21.72011901758541
 20
13.82202969143098
 30
0.0
 11
18.77156942123841
 21
13.82202969143098
 31
0.0
  0
LINE
  5
27F
330
1F
100
AcDbEntity
  8
0
  6
Continuous
 62
     7
370
    15
100
AcDbLine
 10
18.77156942123841
 20
19.822029691431
 30
0.0
 11
21.72011901758541
 21
19.822029691431
 31
0.0
  0
LINE
  5
280
330
1F
100
AcDbEntity
  8
0
  6
Continuous
 62
     7
370
    15
100
AcDbLine
 10
83.72011901758531
 20
13.82202969143098
 30
0.0
 11
80.77156942123826
 21
13.82202969143098
 31
0.0
  0
LINE
  5
281
330
1F
100
AcDbEntity
  8
0
  6
Continuous
 62
     7
370
    15
100
AcDbLine
 10
80.77156942123826
 20
19.822029691431
 30
0.0
 11
83.72011901758531
 21
19.822029691431
 31
0.0
  0
LINE
  5
282
330
1F
100
AcDbEntity
  8
0
  6
Continuous
 62
     7
370
    15
100
AcDbLine
 10
-102.2798809824144
 20
13.82202969143098
 30
0.0
 11
-105.2284305787615
 21
13.82202969143098
 31
0.0
  0
LINE
  5
283
330
1F
100
AcDbEntity
  8
0
  6
Continuous
 62
     7
370
    15
100
AcDbLine
 10
-105.2284305787615
 20
19.822029691431
 30
0.0
 11
-102.2798809824144
 21
19.822029691431
 31
0.0
  0
LINE
  5
284
330
1F
100
AcDbEntity
  8
0
  6
Continuous
 62
     7
370
    15
100
AcDbLine
 10
52.72011901758538
 20
13.82202969143098
 30
0.0
 11
49.77156942123844
 21
13.82202969143098
 31
0.0
  0
LINE
  5
285
330
1F
100
AcDbEntity
  8
0
  6
Continuous
 62
     7
370
    15
100
AcDbLine
 10
49.77156942123844
 20
19.822029691431
 30
0.0
 11
52.72011901758538
 21
19.822029691431
 31
0.0
  0
LINE
  5
286
330
1F
100
AcDbEntity
  8
0
  6
Continuous
 62
     7
370
    15
100
AcDbLine
 10
-40.27988098241453
 20
13.82202969143098
 30
0.0
 11
-43.22843057876156
 21
13.82202969143098
 31
0.0
  0
LINE
  5
287
330
1F
100
AcDbEntity
  8
0
  6
Continuous
 62
     7
370
    15
100
AcDbLine
 10
-43.22843057876156
 20
19.822029691431
 30
0.0
 11
-40.27988098241453
 21
19.822029691431
 31
0.0
  0
LINE
  5
288
330
1F
100
AcDbEntity
  8
0
  6
Continuous
 62
     7
370
    15
100
AcDbLine
 10
-9.279880982414567
 20
13.82202969143098
 30
0.0
 11
-12.22843057876156
 21
13.82202969143098
 31
0.0
  0
LINE
  5
289
330
1F
100
AcDbEntity
  8
0
  6
Continuous
 62
     7
370
    15
100
AcDbLine
 10
-12.22843057876156
 20
19.822029691431
 30
0.0
 11
-9.279880982414567
 21
19.822029691431
 31
0.0
  0
LINE
  5
28A
330
1F
100
AcDbEntity
  8
0
  6
Continuous
 62
     7
370
    15
100
AcDbLine
 10
6.220119017585403
 20
13.82202969143098
 30
0.0
 11
3.27156942123841
 21
13.82202969143098
 31
0.0
  0
LINE
  5
28B
330
1F
100
AcDbEntity
  8
0
  6
Continuous
 62
     7
370
    15
100
AcDbLine
 10
3.27156942123841
 20
19.822029691431
 30
0.0
 11
6.220119017585403
 21
19.822029691431
 31
0.0
  0
LINE
  5
28C
330
1F
100
AcDbEntity
  8
0
  6
Continuous
 62
     7
370
    15
100
AcDbLine
 10
-24.77988098241457
 20
13.82202969143098
 30
0.0
 11
-27.72843057876159
 21
13.82202969143098
 31
0.0
  0
LINE
  5
28D
330
1F
100
AcDbEntity
  8
0
  6
Continuous
 62
     7
370
    15
100
AcDbLine
 10
-27.72843057876159
 20
19.822029691431
 30
0.0
 11
-24.77988098241457
 21
19.822029691431
 31
0.0
  0
LINE
  5
28E
330
1F
100
AcDbEntity
  8
0
  6
Continuous
 62
     7
370
    15
100
AcDbLine
 10
-55.77988098241454
 20
13.82202969143098
 30
0.0
 11
-58.72843057876159
 21
13.82202969143098
 31
0.0
  0
LINE
  5
28F
330
1F
100
AcDbEntity
  8
0
  6
Continuous
 62
     7
370
    15
100
AcDbLine
 10
-58.72843057876159
 20
19.822029691431
 30
0.0
 11
-55.77988098241454
 21
19.822029691431
 31
0.0
  0
LINE
  5
290
330
1F
100
AcDbEntity
  8
0
  6
Continuous
 62
     7
370
    15
100
AcDbLine
 10
37.22011901758535
 20
13.82202969143098
 30
0.0
 11
34.27156942123841
 21
13.82202969143098
 31
0.0
  0
LINE
  5
291
330
1F
100
AcDbEntity
  8
0
  6
Continuous
 62
     7
370
    15
100
AcDbLine
 10
34.27156942123841
 20
19.822029691431
 30
0.0
 11
37.22011901758535
 21
19.822029691431
 31
0.0
  0
ARC
  5
292
330
1F
100
AcDbEntity
  8
0
  6
Continuous
 62
     7
370
    15
100
AcDbCircle
 10
97.77156942123845
 20
55.82202969143105
 30
0.0
 40
36.0
100
AcDbArc
 50
35.45818301203447
 51
53.49067330266096
  0
ARC
  5
293
330
1F
100
AcDbEntity
  8
0
  6
Continuous
 62
     7
370
    15
100
AcDbCircle
 10
97.77156942123845
 20
55.82202969143105
 30
0.0
 40
42.00000000000001
100
AcDbArc
 50
29.8173006589402
 51
43.54603490625502
  0
ARC
  5
294
330
1F
100
AcDbEntity
  8
0
  6
Continuous
 62
     7
370
    15
100
AcDbCircle
 10
-122.2284305787615
 20
55.82202969143103
 30
0.0
 40
36.00000000000001
100
AcDbArc
 50
126.509326697339
 51
144.5418169879655
  0
ARC
  5
295
330
1F
100
AcDbEntity
  8
0
  6
Continuous
 62
     7
370
    15
100
AcDbCircle
 10
-122.2284305787615
 20
55.82202969143103
 30
0.0
 40
42.00000000000001
100
AcDbArc
 50
136.453965093745
 51
150.1826993410598
  0
ARC
  5
296
330
1F
100
AcDbEntity
  8
0
  6
Continuous
 62
     7
370
    15
100
AcDbCircle
 10
97.77156942123845
 20
55.82202969143105
 30
0.0
 40
36.00000000000002
100
AcDbArc
 50
17.59765305005744
 51
31.73439113496267
  0
ARC
  5
297
330
1F
100
AcDbEntity
  8
0
  6
Continuous
 62
     7
370
    15
100
AcDbCircle
 10
97.77156942123845
 20
55.82202969143105
 30
0.0
 40
42.00000000000003
100
AcDbArc
 50
15.01908192725874
 51
26.79771383325322
  0
ARC
  5
298
330
1F
100
AcDbEntity
  8
0
  6
Continuous
 62
     7
370
    15
100
AcDbCircle
 10
-122.2284305787615
 20
55.82202969143103
 30
0.0
 40
36.00000000000004
100
AcDbArc
 50
148.2656088650373
 51
162.4023469499421
  0
ARC
  5
299
330
1F
100
AcDbEntity
  8
0
  6
Continuous
 62
     7
370
    15
100
AcDbCircle
 10
-122.2284305787615
 20
55.82202969143103
 30
0.0
 40
42.00000000000005
100
AcDbArc
 50
153.2022861667468
 51
164.9809180727412
  0
ARC
  5
29A
330
1F
100
AcDbEntity
  8
0
  6
Continuous
 62
     7
370
    15
100
AcDbCircle
 10
-122.2284305787615
 20
55.82202969143103
 30
0.0
 40
36.00000000000004
100
AcDbArc
 50
165.6287127320573
 51
178.5930714366333
  0
ARC
  5
29B
330
1F
100
AcDbEntity
  8
0
  6
Continuous
 62
     7
370
    15
100
AcDbCircle
 10
-122.2284305787615
 20
55.82202969143103
 30
0.0
 40
42.00000000000003
100
AcDbArc
 50
167.7166361269117
 51
178.7940933897382
  0
ARC
  5
29C
330
1F
100
AcDbEntity
  8
0
  6
Continuous
 62
     7
370
    15
100
AcDbCircle
 10
97.77156942123845
 20
55.82202969143105
 30
0.0
 40
36.00000000000004
100
AcDbArc
 50
1.406928563366241
 51
14.3712872679427
  0
ARC
  5
29D
330
1F
100
AcDbEntity
  8
0
  6
Continuous
 62
     7
370
    15
100
AcDbCircle
 10
97.77156942123845
 20
55.82202969143105
 30
0.0
 40
42.00000000000005
100
AcDbArc
 50
1.205906610261742
 51
12.28336387308825
  0
ARC
  5
29E
330
1F
100
AcDbEntity
  8
0
  6
Continuous
 62
     7
370
    15
100
AcDbCircle
 10
-122.2284305787615
 20
55.82202969143103
 30
0.0
 40
36.00000000000006
100
AcDbArc
 50
181.6946729064491
 51
194.668416290906
  0
ARC
  5
29F
330
1F
100
AcDbEntity
  8
0
  6
Continuous
 62
     7
370
    15
100
AcDbCircle
 10
-122.2284305787615
 20
55.82202969143103
 30
0.0
 40
42.00000000000002
100
AcDbArc
 50
181.4525205728236
 51
192.5358095397537
  0
ARC
  5
2A0
330
1F
100
AcDbEntity
  8
0
  6
Continuous
 62
     7
370
    15
100
AcDbCircle
 10
97.77156942123845
 20
55.82202969143105
 30
0.0
 40
36.00000000000001
100
AcDbArc
 50
345.3315837090955
 51
358.3053270935525
  0
ARC
  5
2A1
330
1F
100
AcDbEntity
  8
0
  6
Continuous
 62
     7
370
    15
100
AcDbCircle
 10
97.77156942123845
 20
55.82202969143105
 30
0.0
 40
42.00000000000001
100
AcDbArc
 50
347.4641904602476
 51
358.5474794271776
  0
ARC
  5
2A2
330
1F
100
AcDbEntity
  8
0
  6
Continuous
 62
     7
370
    15
100
AcDbCircle
 10
-122.2284305787615
 20
55.82202969143103
 30
0.0
 40
36.00000000000006
100
AcDbArc
 50
197.8996670093917
 51
212.0732139169372
  0
ARC
  5
2A3
330
1F
100
AcDbEntity
  8
0
  6
Continuous
 62
     7
370
    15
100
AcDbCircle
 10
-122.2284305787615
 20
55.82202969143103
 30
0.0
 40
42.00000000000004
100
AcDbArc
 50
195.2745029827092
 51
207.0742634781596
  0
ARC
  5
2A4
330
1F
100
AcDbEntity
  8
0
  6
Continuous
 62
     7
370
    15
100
AcDbCircle
 10
97.77156942123845
 20
55.82202969143105
 30
0.0
 40
36.00000000000003
100
AcDbArc
 50
327.9267860830646
 51
342.1003329906098
  0
ARC
  5
2A5
330
1F
100
AcDbEntity
  8
0
  6
Continuous
 62
     7
370
    15
100
AcDbCircle
 10
97.77156942123845
 20
55.82202969143105
 30
0.0
 40
42.00000000000001
100
AcDbArc
 50
332.9257365218422
 51
344.7254970172925
  0
ARC
  5
2A6
330
1F
100
AcDbEntity
  8
0
  6
Continuous
 62
     7
370
    15
100
AcDbCircle
 10
97.77156942123845
 20
55.82202969143105
 30
0.0
 40
36.00000000000006
100
AcDbArc
 50
306.0230693519713
 51
324.1879057378724
  0
ARC
  5
2A7
330
1F
100
AcDbEntity
  8
0
  6
Continuous
 62
     7
370
    15
100
AcDbCircle
 10
97.77156942123845
 20
55.82202969143105
 30
0.0
 40
42.00000000000001
100
AcDbArc
 50
316.112848572915
 51
329.898126434854
  0
ARC
  5
2A8
330
1F
100
AcDbEntity
  8
0
  6
Continuous
 62
     7
370
    15
100
AcDbCircle
 10
-122.2284305787615
 20
55.82202969143103
 30
0.0
 40
36.00000000000005
100
AcDbArc
 50
215.8120942621291
 51
233.9769306480305
  0
ARC
  5
2A9
330
1F
100
AcDbEntity
  8
0
  6
Continuous
 62
     7
370
    15
100
AcDbCircle
 10
-122.2284305787615
 20
55.82202969143103
 30
0.0
 40
42.00000000000003
100
AcDbArc
 50
210.1018735651474
 51
223.8871514270865
  0
LINE
  5
2AA
330
1F
100
AcDbEntity
  8
0
  6
Continuous
 62
     8
370
    15
100
AcDbLine
 10
-117.7284305787615
 20
67.82202969143108
 30
0.0
 11
-109.6769801751086
 21
67.82202969143108
 31
0.0
  0
LINE
  5
2AB
330
1F
100
AcDbEntity
  8
0
  6
Continuous
 62
     8
370
    15
100
AcDbLine
 10
-102.2284305787615
 20
67.82202969143108
 30
0.0
 11
-94.17698017510863
 21
67.82202969143108
 31
0.0
  0
LINE
  5
2AC
330
1F
100
AcDbEntity
  8
0
  6
Continuous
 62
     8
370
    15
100
AcDbLine
 10
-86.72843057876155
 20
67.82202969143108
 30
0.0
 11
-78.67698017510864
 21
67.82202969143111
 31
0.0
  0
LINE
  5
2AD
330
1F
100
AcDbEntity
  8
0
  6
Continuous
 62
     8
370
    15
100
AcDbLine
 10
-71.22843057876156
 20
67.82202969143111
 30
0.0
 11
-63.17698017510867
 21
67.82202969143111
 31
0.0
  0
LINE
  5
2AE
330
1F
100
AcDbEntity
  8
0
  6
Continuous
 62
     8
370
    15
100
AcDbLine
 10
-55.72843057876156
 20
67.82202969143111
 30
0.0
 11
-47.67698017510864
 21
67.82202969143111
 31
0.0
  0
LINE
  5
2AF
330
1F
100
AcDbEntity
  8
0
  6
Continuous
 62
     8
370
    15
100
AcDbLine
 10
-40.22843057876156
 20
67.82202969143111
 30
0.0
 11
-32.17698017510867
 21
67.82202969143111
 31
0.0
  0
LINE
  5
2B0
330
1F
100
AcDbEntity
  8
0
  6
Continuous
 62
     8
370
    15
100
AcDbLine
 10
-24.72843057876156
 20
67.82202969143111
 30
0.0
 11
-16.67698017510864
 21
67.82202969143111
 31
0.0
  0
LINE
  5
2B1
330
1F
100
AcDbEntity
  8
0
  6
Continuous
 62
     8
370
    15
100
AcDbLine
 10
-9.22843057876156
 20
67.82202969143111
 30
0.0
 11
-1.176980175108667
 21
67.82202969143114
 31
0.0
  0
LINE
  5
2B2
330
1F
100
AcDbEntity
  8
0
  6
Continuous
 62
     8
370
    15
100
AcDbLine
 10
6.271569421238439
 20
67.82202969143114
 30
0.0
 11
14.32301982489136
 21
67.82202969143114
 31
0.0
  0
LINE
  5
2B3
330
1F
100
AcDbEntity
  8
0
  6
Continuous
 62
     8
370
    15
100
AcDbLine
 10
21.77156942123847
 20
67.82202969143114
 30
0.0
 11
29.82301982489136
 21
67.82202969143114
 31
0.0
  0
LINE
  5
2B4
330
1F
100
AcDbEntity
  8
0
  6
Continuous
 62
     8
370
    15
100
AcDbLine
 10
37.27156942123841
 20
67.82202969143114
 30
0.0
 11
45.32301982489139
 21
67.82202969143114
 31
0.0
  0
LINE
  5
2B5
330
1F
100
AcDbEntity
  8
0
  6
Continuous
 62
     8
370
    15
100
AcDbLine
 10
52.77156942123844
 20
67.82202969143114
 30
0.0
 11
60.82301982489133
 21
67.82202969143114
 31
0.0
  0
LINE
  5
2B6
330
1F
100
AcDbEntity
  8
0
  6
Continuous
 62
     8
370
    15
100
AcDbLine
 10
68.27156942123844
 20
67.82202969143114
 30
0.0
 11
76.32301982489133
 21
67.82202969143114
 31
0.0
  0
LINE
  5
2B7
330
1F
100
AcDbEntity
  8
0
  6
Continuous
 62
     8
370
    15
100
AcDbLine
 10
83.7715694212385
 20
67.82202969143114
 30
0.0
 11
91.82301982489139
 21
67.82202969143117
 31
0.0
  0
LINE
  5
2B8
330
1F
100
AcDbEntity
  8
0
  6
Continuous
 62
     8
370
    15
100
AcDbLine
 10
91.82301982489139
 20
43.82202969143103
 30
0.0
 11
83.77156942123844
 21
43.82202969143103
 31
0.0
  0
LINE
  5
2B9
330
1F
100
AcDbEntity
  8
0
  6
Continuous
 62
     8
370
    15
100
AcDbLine
 10
76.32301982489133
 20
43.82202969143103
 30
0.0
 11
68.27156942123844
 21
43.82202969143103
 31
0.0
  0
LINE
  5
2BA
330
1F
100
AcDbEntity
  8
0
  6
Continuous
 62
     8
370
    15
100
AcDbLine
 10
60.82301982489133
 20
43.82202969143103
 30
0.0
 11
52.77156942123844
 21
43.82202969143103
 31
0.0
  0
LINE
  5
2BB
330
1F
100
AcDbEntity
  8
0
  6
Continuous
 62
     8
370
    15
100
AcDbLine
 10
45.32301982489133
 20
43.82202969143103
 30
0.0
 11
37.27156942123841
 21
43.82202969143103
 31
0.0
  0
LINE
  5
2BC
330
1F
100
AcDbEntity
  8
0
  6
Continuous
 62
     8
370
    15
100
AcDbLine
 10
29.82301982489136
 20
43.82202969143103
 30
0.0
 11
21.77156942123847
 21
43.82202969143103
 31
0.0
  0
LINE
  5
2BD
330
1F
100
AcDbEntity
  8
0
  6
Continuous
 62
     8
370
    15
100
AcDbLine
 10
14.32301982489136
 20
43.82202969143103
 30
0.0
 11
6.271569421238439
 21
43.822029691431
 31
0.0
  0
LINE
  5
2BE
330
1F
100
AcDbEntity
  8
0
  6
Continuous
 62
     8
370
    15
100
AcDbLine
 10
-1.176980175108667
 20
43.822029691431
 30
0.0
 11
-9.22843057876156
 21
43.822029691431
 31
0.0
  0
LINE
  5
2BF
330
1F
100
AcDbEntity
  8
0
  6
Continuous
 62
     8
370
    15
100
AcDbLine
 10
-16.67698017510864
 20
43.822029691431
 30
0.0
 11
-24.72843057876156
 21
43.822029691431
 31
0.0
  0
LINE
  5
2C0
330
1F
100
AcDbEntity
  8
0
  6
Continuous
 62
     8
370
    15
100
AcDbLine
 10
-32.17698017510867
 20
43.822029691431
 30
0.0
 11
-40.22843057876158
 21
43.822029691431
 31
0.0
  0
LINE
  5
2C1
330
1F
100
AcDbEntity
  8
0
  6
Continuous
 62
     8
370
    15
100
AcDbLine
 10
-47.67698017510864
 20
43.822029691431
 30
0.0
 11
-55.72843057876156
 21
43.822029691431
 31
0.0
  0
LINE
  5
2C2
330
1F
100
AcDbEntity
  8
0
  6
Continuous
 62
     8
370
    15
100
AcDbLine
 10
-63.17698017510867
 20
43.822029691431
 30
0.0
 11
-71.22843057876156
 21
43.822029691431
 31
0.0
  0
LINE
  5
2C3
330
1F
100
AcDbEntity
  8
0
  6
Continuous
 62
     8
370
    15
100
AcDbLine
 10
-78.67698017510867
 20
43.822029691431
 30
0.0
 11
-86.72843057876155
 21
43.822029691431
 31
0.0
  0
LINE
  5
2C4
330
1F
100
AcDbEntity
  8
0
  6
Continuous
 62
     8
370
    15
100
AcDbLine
 10
-94.17698017510865
 20
43.822029691431
 30
0.0
 11
-102.2284305787615
 21
43.82202969143096
 31
0.0
  0
LINE
  5
2C5
330
1F
100
AcDbEntity
  8
0
  6
Continuous
 62
     8
370
    15
100
AcDbLine
 10
-109.6769801751086
 20
43.82202969143096
 30
0.0
 11
-117.7284305787615
 21
43.82202969143096
 31
0.0
  0
LINE
  5
2C6
330
1F
100
AcDbEntity
  8
0
  6
Continuous
 62
     7
370
    15
100
AcDbLine
 10
224.0933557840481
 20
188.7631872170282
 30
0.0
 11
224.0933557840481
 21
202.7631872170282
 31
0.0
  0
LINE
  5
2C7
330
1F
100
AcDbEntity
  8
0
  6
Continuous
 62
     7
370
    15
100
AcDbLine
 10
232.144806187701
 20
188.7631872170282
 30
0.0
 11
224.0933557840481
 21
188.7631872170282
 31
0.0
  0
LINE
  5
2C8
330
1F
100
AcDbEntity
  8
0
  6
Continuous
 62
     7
370
    15
100
AcDbLine
 10
232.144806187701
 20
202.7631872170282
 30
0.0
 11
232.144806187701
 21
188.7631872170282
 31
0.0
  0
LINE
  5
2C9
330
1F
100
AcDbEntity
  8
0
  6
Continuous
 62
     7
370
    15
100
AcDbLine
 10
234.0933557840481
 20
202.7631872170282
 30
0.0
 11
232.144806187701
 21
202.7631872170282
 31
0.0
  0
LINE
  5
2CA
330
1F
100
AcDbEntity
  8
0
  6
Continuous
 62
     7
370
    15
100
AcDbLine
 10
234.0933557840481
 20
188.7631872170282
 30
0.0
 11
234.0933557840481
 21
202.7631872170282
 31
0.0
  0
LINE
  5
2CB
330
1F
100
AcDbEntity
  8
0
  6
Continuous
 62
     7
370
    15
100
AcDbLine
 10
242.144806187701
 20
188.7631872170282
 30
0.0
 11
234.0933557840481
 21
188.7631872170282
 31
0.0
  0
LINE
  5
2CC
330
1F
100
AcDbEntity
  8
0
  6
Continuous
 62
     7
370
    15
100
AcDbLine
 10
242.144806187701
 20
202.7631872170282
 30
0.0
 11
242.144806187701
 21
188.7631872170282
 31
0.0
  0
LINE
  5
2CD
330
1F
100
AcDbEntity
  8
0
  6
Continuous
 62
     7
370
    15
100
AcDbLine
 10
244.0933557840481
 20
202.7631872170282
 30
0.0
 11
242.144806187701
 21
202.7631872170282
 31
0.0
  0
LINE
  5
2CE
330
1F
100
AcDbEntity
  8
0
  6
Continuous
 62
     7
370
    15
100
AcDbLine
 10
244.0933557840481
 20
188.7631872170282
 30
0.0
 11
244.0933557840481
 21
202.7631872170282
 31
0.0
  0
LINE
  5
2CF
330
1F
100
AcDbEntity
  8
0
  6
Continuous
 62
     7
370
    15
100
AcDbLine
 10
252.144806187701
 20
188.7631872170282
 30
0.0
 11
244.0933557840481
 21
188.7631872170282
 31
0.0
  0
LINE
  5
2D0
330
1F
100
AcDbEntity
  8
0
  6
Continuous
 62
     7
370
    15
100
AcDbLine
 10
252.144806187701
 20
202.7631872170282
 30
0.0
 11
252.144806187701
 21
188.7631872170282
 31
0.0
  0
LINE
  5
2D1
330
1F
100
AcDbEntity
  8
0
  6
Continuous
 62
     7
370
    15
100
AcDbLine
 10
254.0933557840481
 20
202.7631872170282
 30
0.0
 11
252.144806187701
 21
202.7631872170282
 31
0.0
  0
LINE
  5
2D2
330
1F
100
AcDbEntity
  8
0
  6
Continuous
 62
     7
370
    15
100
AcDbLine
 10
254.0933557840481
 20
188.7631872170282
 30
0.0
 11
254.0933557840481
 21
202.7631872170282
 31
0.0
  0
LINE
  5
2D3
330
1F
100
AcDbEntity
  8
0
  6
Continuous
 62
     7
370
    15
100
AcDbLine
 10
262.144806187701
 20
188.7631872170282
 30
0.0
 11
254.0933557840481
 21
188.7631872170282
 31
0.0
  0
LINE
  5
2D4
330
1F
100
AcDbEntity
  8
0
  6
Continuous
 62
     7
370
    15
100
AcDbLine
 10
262.144806187701
 20
202.7631872170282
 30
0.0
 11
262.144806187701
 21
188.7631872170282
 31
0.0
  0
LINE
  5
2D5
330
1F
100
AcDbEntity
  8
0
  6
Continuous
 62
     7
370
    15
100
AcDbLine
 10
264.0933557840481
 20
202.7631872170282
 30
0.0
 11
262.144806187701
 21
202.7631872170282
 31
0.0
  0
LINE
  5
2D6
330
1F
100
AcDbEntity
  8
0
  6
Continuous
 62
     7
370
    15
100
AcDbLine
 10
264.0933557840481
 20
188.7631872170282
 30
0.0
 11
264.0933557840481
 21
202.7631872170282
 31
0.0
  0
LINE
  5
2D7
330
1F
100
AcDbEntity
  8
0
  6
Continuous
 62
     7
370
    15
100
AcDbLine
 10
272.144806187701
 20
188.7631872170282
 30
0.0
 11
264.0933557840481
 21
188.7631872170282
 31
0.0
  0
LINE
  5
2D8
330
1F
100
AcDbEntity
  8
0
  6
Continuous
 62
     7
370
    15
100
AcDbLine
 10
272.144806187701
 20
202.7631872170282
 30
0.0
 11
272.144806187701
 21
188.7631872170282
 31
0.0
  0
LINE
  5
2D9
330
1F
100
AcDbEntity
  8
0
  6
Continuous
 62
     7
370
    15
100
AcDbLine
 10
285.0287166399915
 20
202.7631872170282
 30
0.0
 11
272.144806187701
 21
202.7631872170282
 31
0.0
  0
LINE
  5
2DA
330
1F
100
AcDbEntity
  8
0
  6
Continuous
 62
     7
370
    15
100
AcDbLine
 10
285.0287166399915
 20
202.7631872170282
 30
0.0
 11
285.0287166399915
 21
181.7631872170282
 31
0.0
  0
LINE
  5
2DB
330
1F
100
AcDbEntity
  8
0
  6
Continuous
 62
     7
370
    15
100
AcDbLine
 10
201.0287166399915
 20
181.7631872170282
 30
0.0
 11
285.0287166399915
 21
181.7631872170282
 31
0.0
  0
LINE
  5
2DC
330
1F
100
AcDbEntity
  8
0
  6
Continuous
 62
     7
370
    15
100
AcDbLine
 10
201.0287166399915
 20
202.7631872170282
 30
0.0
 11
201.0287166399915
 21
181.7631872170282
 31
0.0
  0
LINE
  5
2DD
330
1F
100
AcDbEntity
  8
0
  6
Continuous
 62
     7
370
    15
100
AcDbLine
 10
214.0933557840481
 20
202.7631872170282
 30
0.0
 11
201.0287166399915
 21
202.7631872170282
 31
0.0
  0
LINE
  5
2DE
330
1F
100
AcDbEntity
  8
0
  6
Continuous
 62
     7
370
    15
100
AcDbLine
 10
214.0933557840481
 20
188.7631872170282
 30
0.0
 11
214.0933557840481
 21
202.7631872170282
 31
0.0
  0
LINE
  5
2DF
330
1F
100
AcDbEntity
  8
0
  6
Continuous
 62
     7
370
    15
100
AcDbLine
 10
222.144806187701
 20
188.7631872170282
 30
0.0
 11
214.0933557840481
 21
188.7631872170282
 31
0.0
  0
LINE
  5
2E0
330
1F
100
AcDbEntity
  8
0
  6
Continuous
 62
     7
370
    15
100
AcDbLine
 10
222.144806187701
 20
202.7631872170282
 30
0.0
 11
222.144806187701
 21
188.7631872170282
 31
0.0
  0
LINE
  5
2E1
330
1F
100
AcDbEntity
  8
0
  6
Continuous
 62
     7
370
    15
100
AcDbLine
 10
224.0933557840481
 20
202.7631872170282
 30
0.0
 11
222.144806187701
 21
202.7631872170282
 31
0.0
  0
LINE
  5
2E2
330
1F
100
AcDbEntity
  8
0
  6
Continuous
 62
     7
370
    15
100
AcDbLine
 10
222.144806187701
 20
217.7616499425844
 30
0.0
 11
214.0933557840481
 21
217.7616499425742
 31
0.0
  0
SPLINE
  5
2E3
330
1F
100
AcDbEntity
  8
0
  6
Continuous
 62
     7
370
    15
100
AcDbSpline
210
0.0
220
0.0
230
1.0
 70
    24
 71
     3
 72
    15
 73
    11
 74
     0
 42
0.0000000001
 43
0.0000000001
 40
0.0
 40
0.0
 40
0.0
 40
0.0
 40
0.0348384702213081
 40
0.1802728108620097
 40
0.3281550149163175
 40
0.4685281947130261
 40
0.6123656358786127
 40
0.7528849283356364
 40
0.8980709379707771
 40
1.0
 40
1.0
 40
1.0
 40
1.0
 10
214.0933557840481
 20
217.7616499425742
 30
0.0
 10
214.0933557840481
 20
217.6598273775665
 30
0.0
 10
214.0933557840481
 20
217.1329431634633
 30
0.0
 10
214.0933557840481
 20
216.0277534646839
 30
0.0
 10
214.0933557840481
 20
214.2750792361737
 30
0.0
 10
214.0933557840481
 20
212.2316588855778
 30
0.0
 10
214.0933557840481
 20
209.95534171222
 30
0.0
 10
214.0933557840481
 20
207.4262505206389
 30
0.0
 10
214.0933557840481
 20
204.9970997188766
 30
0.0
 10
214.0933557840481
 20
203.4155419882121
 30
0.0
 10
214.0933557840481
 20
202.7631872170282
 30
0.0
  0
ARC
  5
2E4
330
1F
100
AcDbEntity
  8
0
  6
Continuous
 62
     7
370
    15
100
AcDbCircle
 10
221.0287166399914
 20
202.7631872170282
 30
0.0
 40
20.0
100
AcDbArc
 50
90.0
 51
180.0
  0
LINE
  5
2E5
330
1F
100
AcDbEntity
  8
0
  6
Continuous
 62
     7
370
    15
100
AcDbLine
 10
221.0287166399914
 20
222.7631872170282
 30
0.0
 11
265.0287166399915
 21
222.7631872170282
 31
0.0
  0
ARC
  5
2E6
330
1F
100
AcDbEntity
  8
0
  6
Continuous
 62
     7
370
    15
100
AcDbCircle
 10
265.0287166399915
 20
202.7631872170282
 30
0.0
 40
20.0
100
AcDbArc
 50
0.0
 51
90.0
  0
SPLINE
  5
2E7
330
1F
100
AcDbEntity
  8
0
  6
Continuous
 62
     7
370
    15
100
AcDbSpline
210
0.0
220
0.0
230
1.0
 70
    24
 71
     3
 72
    14
 73
    10
 74
     0
 42
0.0000000001
 43
0.0000000001
 40
0.0
 40
0.0
 40
0.0
 40
0.0
 40
0.1232829790449403
 40
0.2500079217793587
 40
0.3759742060666655
 40
0.5050848548132058
 40
0.6624198277915193
 40
0.82920466751857
 40
1.0
 40
1.0
 40
1.0
 40
1.0
 10
272.144806187701
 20
202.7631872170282
 30
0.0
 10
272.144806187701
 20
203.5551854794109
 30
0.0
 10
272.144806187701
 20
205.1612939719626
 30
0.0
 10
272.144806187701
 20
207.5108888625706
 30
0.0
 10
272.144806187701
 20
209.7664410114237
 30
0.0
 10
272.144806187701
 20
212.0094708504118
 30
0.0
 10
272.144806187701
 20
214.1840179604159
 30
0.0
 10
272.144806187701
 20
216.2000582983643
 30
0.0
 10
272.144806187701
 20
217.2370130125705
 30
0.0
 10
272.144806187701
 20
217.7616499425844
 30
0.0
  0
LINE
  5
2E8
330
1F
100
AcDbEntity
  8
0
  6
Continuous
 62
     7
370
    15
100
AcDbLine
 10
272.144806187701
 20
217.7616499425844
 30
0.0
 11
264.0933557840481
 21
217.7616499425745
 31
0.0
  0
SPLINE
  5
2E9
330
1F
100
AcDbEntity
  8
0
  6
Continuous
 62
     7
370
    15
100
AcDbSpline
210
0.0
220
0.0
230
1.0
 70
    24
 71
     3
 72
    13
 73
     9
 74
     0
 42
0.0000000001
 43
0.0000000001
 40
0.0
 40
0.0
 40
0.0
 40
0.0
 40
0.1512880772518976
 40
0.3052540313115263
 40
0.4924659920639866
 40
0.6861092619253443
 40
0.8410520386754585
 40
1.0
 40
1.0
 40
1.0
 40
1.0
 10
264.0933557840481
 20
217.7616499425745
 30
0.0
 10
264.0933557840481
 20
217.219651817441
 30
0.0
 10
264.0933557840481
 20
216.1260619214916
 30
0.0
 10
264.0933557840481
 20
213.9958191611066
 30
0.0
 10
264.0933557840481
 20
211.3860318533614
 30
0.0
 10
264.0933557840481
 20
208.4750303533678
 30
0.0
 10
264.0933557840481
 20
205.5562350071915
 30
0.0
 10
264.0933557840481
 20
203.7020893261249
 30
0.0
 10
264.0933557840481
 20
202.7631872170282
 30
0.0
  0
SPLINE
  5
2EA
330
1F
100
AcDbEntity
  8
0
  6
Continuous
 62
     7
370
    15
100
AcDbSpline
210
0.0
220
0.0
230
1.0
 70
    24
 71
     3
 72
    13
 73
     9
 74
     0
 42
0.0000000001
 43
0.0000000001
 40
0.0
 40
0.0
 40
0.0
 40
0.0
 40
0.0685283958561412
 40
0.23793196859738
 40
0.4122027406868963
 40
0.5827560599701515
 40
0.7578501233667822
 40
1.0
 40
1.0
 40
1.0
 40
1.0
 10
262.144806187701
 20
202.7631872170283
 30
0.0
 10
262.144806187701
 20
203.1634807952049
 30
0.0
 10
262.144806187701
 20
204.5533081489987
 30
0.0
 10
262.144806187701
 20
206.9453371178284
 30
0.0
 10
262.144806187701
 20
209.8125817365107
 30
0.0
 10
262.144806187701
 20
212.5059699691576
 30
0.0
 10
262.144806187701
 20
215.286539518662
 30
0.0
 10
262.144806187701
 20
216.8527125691048
 30
0.0
 10
262.144806187701
 20
217.7616499425844
 30
0.0
  0
LINE
  5
2EB
330
1F
100
AcDbEntity
  8
0
  6
Continuous
 62
     7
370
    15
100
AcDbLine
 10
262.144806187701
 20
217.7616499425844
 30
0.0
 11
254.0933557840481
 21
217.7616499425716
 31
0.0
  0
SPLINE
  5
2EC
330
1F
100
AcDbEntity
  8
0
  6
Continuous
 62
     7
370
    15
100
AcDbSpline
210
0.0
220
0.0
230
1.0
 70
    24
 71
     3
 72
    13
 73
     9
 74
     0
 42
0.0000000001
 43
0.0000000001
 40
0.0
 40
0.0
 40
0.0
 40
0.0
 40
0.1827728049944681
 40
0.381165267585162
 40
0.5857806787065794
 40
0.7766069106316708
 40
0.9731466051712031
 40
0.9999999999999998
 40
0.9999999999999998
 40
0.9999999999999998
 40
0.9999999999999998
 10
254.0933557840481
 20
217.7616499425716
 30
0.0
 10
254.0933557840481
 20
217.0561339943051
 30
0.0
 10
254.0933557840481
 20
215.5848091152303
 30
0.0
 10
254.0933557840481
 20
212.8551976973942
 30
0.0
 10
254.0933557840481
 20
209.806800168124
 30
0.0
 10
254.0933557840481
 20
206.5499193774344
 30
0.0
 10
254.0933557840481
 20
204.1896577542634
 30
0.0
 10
254.0933557840481
 20
202.9162586045081
 30
0.0
 10
254.0933557840481
 20
202.7631872170282
 30
0.0
  0
SPLINE
  5
2ED
330
1F
100
AcDbEntity
  8
0
  6
Continuous
 62
     7
370
    15
100
AcDbSpline
210
0.0
220
0.0
230
1.0
 70
    24
 71
     3
 72
    13
 73
     9
 74
     0
 42
0.0000000001
 43
0.0000000001
 40
0.0
 40
0.0
 40
0.0
 40
0.0
 40
0.2153245297226773
 40
0.4056043624739223
 40
0.6013560948499359
 40
0.7925532207987432
 40
0.9891408803013165
 40
1.0
 40
1.0
 40
1.0
 40
1.0
 10
252.144806187701
 20
202.7631872170282
 30
0.0
 10
252.144806187701
 20
203.9885666154895
 30
0.0
 10
252.144806187701
 20
206.2967998220902
 30
0.0
 10
252.144806187701
 20
209.6033434802023
 30
0.0
 10
252.144806187701
 20
212.5866937973852
 30
0.0
 10
252.144806187701
 20
215.3219213796051
 30
0.0
 10
252.144806187701
 20
216.9543561334071
 30
0.0
 10
252.144806187701
 20
217.7214929878248
 30
0.0
 10
252.144806187701
 20
217.7616499425844
 30
0.0
  0
LINE
  5
2EE
330
1F
100
AcDbEntity
  8
0
  6
Continuous
 62
     7
370
    15
100
AcDbLine
 10
252.144806187701
 20
217.7616499425844
 30
0.0
 11
244.0933557840481
 21
217.7616499425682
 31
0.0
  0
SPLINE
  5
2EF
330
1F
100
AcDbEntity
  8
0
  6
Continuous
 62
     7
370
    15
100
AcDbSpline
210
0.0
220
0.0
230
1.0
 70
    24
 71
     3
 72
    12
 73
     8
 74
     0
 42
0.0000000001
 43
0.0000000001
 40
0.0
 40
0.0
 40
0.0
 40
0.0
 40
0.206784789709844
 40
0.4456434677901079
 40
0.6416757224581997
 40
0.8433926268706441
 40
1.0
 40
1.0
 40
1.0
 40
1.0
 10
244.0933557840481
 20
217.7616499425682
 30
0.0
 10
244.0933557840481
 20
216.9437362470362
 30
0.0
 10
244.0933557840481
 20
215.1810442417811
 30
0.0
 10
244.0933557840481
 20
212.0815332271132
 30
0.0
 10
244.0933557840481
 20
208.7453617348094
 30
0.0
 10
244.0933557840481
 20
205.6721631886938
 30
0.0
 10
244.0933557840481
 20
203.64790091607
 30
0.0
 10
244.0933557840481
 20
202.7631872170282
 30
0.0
  0
SPLINE
  5
2F0
330
1F
100
AcDbEntity
  8
0
  6
Continuous
 62
     7
370
    15
100
AcDbSpline
210
0.0
220
0.0
230
1.0
 70
    24
 71
     3
 72
    13
 73
     9
 74
     0
 42
0.0000000001
 43
0.0000000001
 40
0.0
 40
0.0
 40
0.0
 40
0.0
 40
0.1531144596021348
 40
0.3088842507304106
 40
0.5543558969139566
 40
0.7504270198734716
 40
0.9521852019943461
 40
1.0
 40
1.0
 40
1.0
 40
1.0
 10
242.144806187701
 20
202.7631872170282
 30
0.0
 10
242.144806187701
 20
203.6284659888107
 30
0.0
 10
242.144806187701
 20
205.3740293130681
 30
0.0
 10
242.144806187701
 20
208.4523478965217
 30
0.0
 10
242.144806187701
 20
211.6280837512091
 30
0.0
 10
242.144806187701
 20
214.7284790413404
 30
0.0
 10
242.144806187701
 20
216.6349643718974
 30
0.0
 10
242.144806187701
 20
217.5804984395985
 30
0.0
 10
242.144806187701
 20
217.7616499425844
 30
0.0
  0
LINE
  5
2F1
330
1F
100
AcDbEntity
  8
0
  6
Continuous
 62
     7
370
    15
100
AcDbLine
 10
242.144806187701
 20
217.7616499425844
 30
0.0
 11
234.0933557840481
 21
217.7616499425844
 31
0.0
  0
SPLINE
  5
2F2
330
1F
100
AcDbEntity
  8
0
  6
Continuous
 62
     7
370
    15
100
AcDbSpline
210
0.0
220
0.0
230
1.0
 70
    24
 71
     3
 72
    13
 73
     9
 74
     0
 42
0.0000000001
 43
0.0000000001
 40
0.0
 40
0.0
 40
0.0
 40
0.0
 40
0.0307242548871816
 40
0.2311320518940879
 40
0.4377462433736997
 40
0.6317230890938618
 40
0.8314901969922617
 40
1.0
 40
1.0
 40
1.0
 40
1.0
 10
234.0933557840481
 20
217.7616499425844
 30
0.0
 10
234.0933557840481
 20
217.647261172802
 30
0.0
 10
234.0933557840481
 20
216.786738723339
 30
0.0
 10
234.0933557840481
 20
214.9582077693341
 30
0.0
 10
234.0933557840481
 20
212.0871149648019
 30
0.0
 10
234.0933557840481
 20
208.9380885717052
 30
0.0
 10
234.0933557840481
 20
205.8150762972366
 30
0.0
 10
234.0933557840481
 20
203.7212460034644
 30
0.0
 10
234.0933557840481
 20
202.7631872170282
 30
0.0
  0
SPLINE
  5
2F3
330
1F
100
AcDbEntity
  8
0
  6
Continuous
 62
     7
370
    15
100
AcDbSpline
210
0.0
220
0.0
230
1.0
 70
    24
 71
     3
 72
    13
 73
     9
 74
     0
 42
0.0000000001
 43
0.0000000001
 40
0.0
 40
0.0
 40
0.0
 40
0.0
 40
0.2180550756635363
 40
0.4058083170415216
 40
0.5989397315787201
 40
0.7880160588531852
 40
0.9823590089450842
 40
0.9999999999999998
 40
0.9999999999999998
 40
0.9999999999999998
 40
0.9999999999999998
 10
232.144806187701
 20
202.7631872170283
 30
0.0
 10
232.144806187701
 20
204.0078321127467
 30
0.0
 10
232.144806187701
 20
206.3241609067859
 30
0.0
 10
232.144806187701
 20
209.6222803506644
 30
0.0
 10
232.144806187701
 20
212.5702537243582
 30
0.0
 10
232.144806187701
 20
215.2726142323841
 30
0.0
 10
232.144806187701
 20
216.9158361216861
 30
0.0
 10
232.144806187701
 20
217.6966700908517
 30
0.0
 10
232.144806187701
 20
217.7616499425844
 30
0.0
  0
LINE
  5
2F4
330
1F
100
AcDbEntity
  8
0
  6
Continuous
 62
     7
370
    15
100
AcDbLine
 10
232.144806187701
 20
217.7616499425844
 30
0.0
 11
224.0933557840481
 21
217.7616499425783
 31
0.0
  0
SPLINE
  5
2F5
330
1F
100
AcDbEntity
  8
0
  6
Continuous
 62
     7
370
    15
100
AcDbSpline
210
0.0
220
0.0
230
1.0
 70
    24
 71
     3
 72
    13
 73
     9
 74
     0
 42
0.0000000001
 43
0.0000000001
 40
0.0
 40
0.0
 40
0.0
 40
0.0
 40
0.2102142719967367
 40
0.40676042202752
 40
0.6101326502990816
 40
0.7896356011466589
 40
0.9749016922399807
 40
1.0
 40
1.0
 40
1.0
 40
1.0
 10
224.0933557840481
 20
217.7616499425783
 30
0.0
 10
224.0933557840481
 20
216.9787695431908
 30
0.0
 10
224.0933557840481
 20
215.4639115907448
 30
0.0
 10
224.0933557840481
 20
212.6166252445561
 30
0.0
 10
224.0933557840481
 20
209.6013044759668
 30
0.0
 10
224.0933557840481
 20
206.4112042370675
 30
0.0
 10
224.0933557840481
 20
204.1371490045415
 30
0.0
 10
224.0933557840481
 20
202.9096397754376
 30
0.0
 10
224.0933557840481
 20
202.7631872170282
 30
0.0
  0
SPLINE
  5
2F6
330
1F
100
AcDbEntity
  8
0
  6
Continuous
 62
     7
370
    15
100
AcDbSpline
210
0.0
220
0.0
230
1.0
 70
    24
 71
     3
 72
    14
 73
    10
 74
     0
 42
0.0000000001
 43
0.0000000001
 40
0.0
 40
0.0
 40
0.0
 40
0.0
 40
0.0247690249498568
 40
0.1888449152692446
 40
0.3576813883448857
 40
0.5221061811852709
 40
0.6908906468627089
 40
0.8439970055475212
 40
1.0
 40
1.0
 40
1.0
 40
1.0
 10
222.144806187701
 20
202.7631872170282
 30
0.0
 10
222.144806187701
 20
202.9091873768254
 30
0.0
 10
222.144806187701
 20
204.0223271900401
 30
0.0
 10
222.144806187701
 20
206.1295550630914
 30
0.0
 10
222.144806187701
 20
208.9616956919651
 30
0.0
 10
222.144806187701
 20
211.6476404364675
 30
0.0
 10
222.144806187701
 20
214.0118592440293
 30
0.0
 10
222.144806187701
 20
216.0895494562749
 30
0.0
 10
222.144806187701
 20
217.2008119337862
 30
0.0
 10
222.144806187701
 20
217.7616499425844
 30
0.0
  0
LINE
  5
2F7
330
1F
100
AcDbEntity
  8
0
  6
Continuous
 62
     7
370
    15
100
AcDbLine
 10
255.0287166399916
 20
140.7631872170282
 30
0.0
 11
231.0287166399914
 21
140.7631872170282
 31
0.0
  0
ARC
  5
2F8
330
1F
100
AcDbEntity
  8
0
  6
Continuous
 62
     7
370
    15
100
AcDbCircle
 10
231.0287166399914
 20
170.7631872170282
 30
0.0
 40
30.0
100
AcDbArc
 50
180.0
 51
270.0000000000008
  0
LINE
  5
2F9
330
1F
100
AcDbEntity
  8
0
  6
Continuous
 62
     7
370
    15
100
AcDbLine
 10
201.0287166399914
 20
170.7631872170282
 30
0.0
 11
285.0287166399915
 21
170.7631872170282
 31
0.0
  0
ARC
  5
2FA
330
1F
100
AcDbEntity
  8
0
  6
Continuous
 62
     7
370
    15
100
AcDbCircle
 10
255.0287166399916
 20
170.7631872170282
 30
0.0
 40
30.0
100
AcDbArc
 50
270.0000000000008
 51
0.0
  0
LINE
  5
2FB
330
1F
100
AcDbEntity
  8
0
  6
Continuous
 62
     7
370
    15
100
AcDbLine
 10
285.0287166399915
 20
170.7631872170282
 30
0.0
 11
285.0287166399915
 21
181.7631872170282
 31
0.0
  0
LINE
  5
2FC
330
1F
100
AcDbEntity
  8
0
  6
Continuous
 62
     7
370
    15
100
AcDbLine
 10
201.0287166399914
 20
170.7631872170282
 30
0.0
 11
201.0287166399914
 21
181.7631872170282
 31
0.0
  0
ENDSEC
  0
SECTION
  2
OBJECTS
  0
DICTIONARY
  5
C
330
0
100
AcDbDictionary
281
     1
  3
ACAD_COLOR
350
328
  3
ACAD_GROUP
350
D
  3
ACAD_LAYOUT
350
1A
  3
ACAD_MATERIAL
350
2FE
  3
ACAD_MLEADERSTYLE
350
33D
  3
ACAD_MLINESTYLE
350
17
  3
ACAD_PLOTSETTINGS
350
19
  3
ACAD_PLOTSTYLENAME
350
E
  3
ACAD_SCALELIST
350
32B
  3
ACAD_TABLESTYLE
350
329
  3
ACAD_VISUALSTYLE
350
317
  3
ACDB_RECOMPOSE_DATA
350
365
  3
AcDbVariableDictionary
350
35B
  0
DICTIONARY
  5
359
330
10
100
AcDbDictionary
280
     1
281
     1
  3
ADSK_XREC_LAYER_RECONCILED
360
35A
  0
DICTIONARY
  5
328
102
{ACAD_REACTORS
330
C
102
}
330
C
100
AcDbDictionary
281
     1
  0
DICTIONARY
  5
D
102
{ACAD_REACTORS
330
C
102
}
330
C
100
AcDbDictionary
281
     1
  0
DICTIONARY
  5
1A
102
{ACAD_REACTORS
330
C
102
}
330
C
100
AcDbDictionary
281
     1
  3
Layout1
350
1E
  3
Layout2
350
26
  3
Model
350
22
  0
DICTIONARY
  5
2FE
102
{ACAD_REACTORS
330
C
102
}
330
C
100
AcDbDictionary
281
     1
  3
ByBlock
350
307
  3
ByLayer
350
2FF
  3
Global
350
30F
  0
DICTIONARY
  5
33D
102
{ACAD_REACTORS
330
C
102
}
330
C
100
AcDbDictionary
281
     1
  3
Standard
350
33E
  0
DICTIONARY
  5
17
102
{ACAD_REACTORS
330
C
102
}
330
C
100
AcDbDictionary
281
     1
  3
Standard
350
18
  0
DICTIONARY
  5
19
102
{ACAD_REACTORS
330
C
102
}
330
C
100
AcDbDictionary
281
     1
  0
ACDBDICTIONARYWDFLT
  5
E
102
{ACAD_REACTORS
330
C
102
}
330
C
100
AcDbDictionary
281
     1
  3
Normal
350
F
100
AcDbDictionaryWithDefault
340
F
  0
DICTIONARY
  5
32B
102
{ACAD_REACTORS
330
C
102
}
330
C
100
AcDbDictionary
281
     1
  3
A0
350
32C
  3
A1
350
32D
  3
A2
350
32E
  3
A3
350
32F
  3
A4
350
330
  3
A5
350
331
  3
A6
350
332
  3
A7
350
333
  3
A8
350
334
  3
A9
350
335
  3
B0
350
336
  3
B1
350
337
  3
B2
350
338
  3
B3
350
339
  3
B4
350
33A
  3
B5
350
33B
  3
B6
350
33C
  0
DICTIONARY
  5
329
102
{ACAD_REACTORS
330
C
102
}
330
C
100
AcDbDictionary
281
     1
  3
Standard
350
32A
  0
DICTIONARY
  5
317
102
{ACAD_REACTORS
330
C
102
}
330
C
100
AcDbDictionary
281
     1
  3
2dWireframe
350
31D
  3
3D Hidden
350
31F
  3
3dWireframe
350
31E
  3
Basic
350
31C
  3
Brighten
350
323
  3
ColorChange
350
327
  3
Conceptual
350
320
  3
Dim
350
322
  3
Facepattern
350
326
  3
Flat
350
318
  3
FlatWithEdges
350
319
  3
Gouraud
350
31A
  3
GouraudWithEdges
350
31B
  3
Linepattern
350
325
  3
Realistic
350
321
  3
Thicken
350
324
  0
XRECORD
  5
365
102
{ACAD_REACTORS
330
C
102
}
330
C
100
AcDbXrecord
280
     1
 90
        1
330
32A
  0
DICTIONARY
  5
35B
102
{ACAD_REACTORS
330
C
102
}
330
C
100
AcDbDictionary
281
     1
  3
CANNOSCALE
350
35F
  3
CMLEADERSTYLE
350
35D
  3
CTABLESTYLE
350
35C
  3
LAYEREVAL
350
361
  3
LAYERNOTIFY
350
362
  3
LIGHTINGUNITS
350
360
  3
MSLTSCALE
350
35E
  0
XRECORD
  5
35A
102
{ACAD_REACTORS
330
359
102
}
330
359
100
AcDbXrecord
280
     1
290
     1
  0
LAYOUT
  5
1E
102
{ACAD_REACTORS
330
1A
102
}
330
1A
100
AcDbPlotSettings
  1

  2
none_device
  4

  6

 40
0.0
 41
0.0
 42
0.0
 43
0.0
 44
0.0
 45
0.0
 46
0.0
 47
0.0
 48
0.0
 49
0.0
140
0.0
141
0.0
142
1.0
143
1.0
 70
   688
 72
     0
 73
     0
 74
     5
  7

 75
    16
147
1.0
 76
     0
 77
     2
 78
   300
148
0.0
149
0.0
100
AcDbLayout
  1
Layout1
 70
     1
 71
     1
 10
0.0
 20
0.0
 11
420.0
 21
297.0
 12
0.0
 22
0.0
 32
0.0
 14
1.000000000000000E+20
 24
1.000000000000000E+20
 34
1.000000000000000E+20
 15
-1.000000000000000E+20
 25
-1.000000000000000E+20
 35
-1.000000000000000E+20
146
0.0
 13
0.0
 23
0.0
 33
0.0
 16
1.0
 26
0.0
 36
0.0
 17
0.0
 27
1.0
 37
0.0
 76
     0
330
1B
  0
LAYOUT
  5
26
102
{ACAD_REACTORS
330
1A
102
}
330
1A
100
AcDbPlotSettings
  1

  2
none_device
  4

  6

 40
0.0
 41
0.0
 42
0.0
 43
0.0
 44
0.0
 45
0.0
 46
0.0
 47
0.0
 48
0.0
 49
0.0
140
0.0
141
0.0
142
1.0
143
1.0
 70
   688
 72
     0
 73
     0
 74
     5
  7

 75
    16
147
1.0
 76
     0
 77
     2
 78
   300
148
0.0
149
0.0
100
AcDbLayout
  1
Layout2
 70
     1
 71
     2
 10
0.0
 20
0.0
 11
0.0
 21
0.0
 12
0.0
 22
0.0
 32
0.0
 14
0.0
 24
0.0
 34
0.0
 15
0.0
 25
0.0
 35
0.0
146
0.0
 13
0.0
 23
0.0
 33
0.0
 16
1.0
 26
0.0
 36
0.0
 17
0.0
 27
1.0
 37
0.0
 76
     0
330
23
  0
LAYOUT
  5
22
102
{ACAD_REACTORS
330
1A
102
}
330
1A
100
AcDbPlotSettings
  1

  2
none_device
  4

  6

 40
0.0
 41
0.0
 42
0.0
 43
0.0
 44
0.0
 45
0.0
 46
0.0
 47
0.0
 48
0.0
 49
0.0
140
0.0
141
0.0
142
1.0
143
1.0
 70
  1712
 72
     0
 73
     0
 74
     0
  7

 75
     0
147
1.0
 76
     0
 77
     2
 78
   300
148
0.0
149
0.0
100
AcDbLayout
  1
Model
 70
     1
 71
     0
 10
0.0
 20
0.0
 11
279.4
 21
215.9
 12
0.0
 22
0.0
 32
0.0
 14
0.0
 24
0.0
 34
0.0
 15
279.4
 25
215.9
 35
0.0
146
0.0
 13
0.0
 23
0.0
 33
0.0
 16
1.0
 26
0.0
 36
0.0
 17
0.0
 27
1.0
 37
0.0
 76
     0
330
1F
331
29
  0
MATERIAL
  5
307
102
{ACAD_XDICTIONARY
360
308
102
}
102
{ACAD_REACTORS
330
2FE
102
}
330
2FE
100
AcDbMaterial
  1
ByBlock
 72
     0
 43
0.0008202099737533
 43
0.0
 43
0.0
 43
0.0
 43
0.0
 43
0.0008202099737533
 43
0.0
 43
0.0
 43
0.0
 43
0.0
 43
1.0
 43
0.0
 43
0.0
 43
0.0
 43
0.0
 43
1.0
 77
     0
 47
0.0008202099737533
 47
0.0
 47
0.0
 47
0.0
 47
0.0
 47
0.0008202099737533
 47
0.0
 47
0.0
 47
0.0
 47
0.0
 47
1.0
 47
0.0
 47
0.0
 47
0.0
 47
0.0
 47
1.0
171
     0
 49
0.0008202099737533
 49
0.0
 49
0.0
 49
0.0
 49
0.0
 49
0.0008202099737533
 49
0.0
 49
0.0
 49
0.0
 49
0.0
 49
1.0
 49
0.0
 49
0.0
 49
0.0
 49
0.0
 49
1.0
175
     0
142
0.0008202099737533
142
0.0
142
0.0
142
0.0
142
0.0
142
0.0008202099737533
142
0.0
142
0.0
142
0.0
142
0.0
142
1.0
142
0.0
142
0.0
142
0.0
142
0.0
142
1.0
179
     0
144
0.0008202099737533
144
0.0
144
0.0
144
0.0
144
0.0
144
0.0008202099737533
144
0.0
144
0.0
144
0.0
144
0.0
144
1.0
144
0.0
144
0.0
144
0.0
144
0.0
144
1.0
147
0.0008202099737533
147
0.0
147
0.0
147
0.0
147
0.0
147
0.0008202099737533
147
0.0
147
0.0
147
0.0
147
0.0
147
1.0
147
0.0
147
0.0
147
0.0
147
0.0
147
1.0
  0
MATERIAL
  5
2FF
102
{ACAD_XDICTIONARY
360
300
102
}
102
{ACAD_REACTORS
330
2FE
102
}
330
2FE
100
AcDbMaterial
  1
ByLayer
 72
     0
 43
0.0008202099737533
 43
0.0
 43
0.0
 43
0.0
 43
0.0
 43
0.0008202099737533
 43
0.0
 43
0.0
 43
0.0
 43
0.0
 43
1.0
 43
0.0
 43
0.0
 43
0.0
 43
0.0
 43
1.0
 77
     0
 47
0.0008202099737533
 47
0.0
 47
0.0
 47
0.0
 47
0.0
 47
0.0008202099737533
 47
0.0
 47
0.0
 47
0.0
 47
0.0
 47
1.0
 47
0.0
 47
0.0
 47
0.0
 47
0.0
 47
1.0
171
     0
 49
0.0008202099737533
 49
0.0
 49
0.0
 49
0.0
 49
0.0
 49
0.0008202099737533
 49
0.0
 49
0.0
 49
0.0
 49
0.0
 49
1.0
 49
0.0
 49
0.0
 49
0.0
 49
0.0
 49
1.0
175
     0
142
0.0008202099737533
142
0.0
142
0.0
142
0.0
142
0.0
142
0.0008202099737533
142
0.0
142
0.0
142
0.0
142
0.0
142
1.0
142
0.0
142
0.0
142
0.0
142
0.0
142
1.0
179
     0
144
0.0008202099737533
144
0.0
144
0.0
144
0.0
144
0.0
144
0.0008202099737533
144
0.0
144
0.0
144
0.0
144
0.0
144
1.0
144
0.0
144
0.0
144
0.0
144
0.0
144
1.0
147
0.0008202099737533
147
0.0
147
0.0
147
0.0
147
0.0
147
0.0008202099737533
147
0.0
147
0.0
147
0.0
147
0.0
147
1.0
147
0.0
147
0.0
147
0.0
147
0.0
147
1.0
  0
MATERIAL
  5
30F
102
{ACAD_XDICTIONARY
360
310
102
}
102
{ACAD_REACTORS
330
2FE
102
}
330
2FE
100
AcDbMaterial
  1
Global
 72
     0
 43
0.0008202099737533
 43
0.0
 43
0.0
 43
0.0
 43
0.0
 43
0.0008202099737533
 43
0.0
 43
0.0
 43
0.0
 43
0.0
 43
1.0
 43
0.0
 43
0.0
 43
0.0
 43
0.0
 43
1.0
 77
     0
 47
0.0008202099737533
 47
0.0
 47
0.0
 47
0.0
 47
0.0
 47
0.0008202099737533
 47
0.0
 47
0.0
 47
0.0
 47
0.0
 47
1.0
 47
0.0
 47
0.0
 47
0.0
 47
0.0
 47
1.0
171
     0
 49
0.0008202099737533
 49
0.0
 49
0.0
 49
0.0
 49
0.0
 49
0.0008202099737533
 49
0.0
 49
0.0
 49
0.0
 49
0.0
 49
1.0
 49
0.0
 49
0.0
 49
0.0
 49
0.0
 49
1.0
175
     0
142
0.0008202099737533
142
0.0
142
0.0
142
0.0
142
0.0
142
0.0008202099737533
142
0.0
142
0.0
142
0.0
142
0.0
142
1.0
142
0.0
142
0.0
142
0.0
142
0.0
142
1.0
179
     0
144
0.0008202099737533
144
0.0
144
0.0
144
0.0
144
0.0
144
0.0008202099737533
144
0.0
144
0.0
144
0.0
144
0.0
144
1.0
144
0.0
144
0.0
144
0.0
144
0.0
144
1.0
147
0.0008202099737533
147
0.0
147
0.0
147
0.0
147
0.0
147
0.0008202099737533
147
0.0
147
0.0
147
0.0
147
0.0
147
1.0
147
0.0
147
0.0
147
0.0
147
0.0
147
1.0
  0
MLEADERSTYLE
  5
33E
102
{ACAD_REACTORS
330
33D
102
}
330
33D
100
AcDbMLeaderStyle
170
     2
171
     1
172
     0
 90
        2
 40
0.0
 41
0.0
173
     1
 91
-1056964608
340
14
 92
       -2
290
     1
 42
2.0
291
     1
 43
0.36
  3
Standard
 44
4.0
300

342
11
174
     1
178
     6
175
     1
176
     0
 93
-1056964608
 45
4.0
292
     0
297
     0
 46
4.0
 94
-1056964608
 47
1.0
 49
1.0
140
1.0
293
     1
141
0.0
294
     1
177
     0
142
1.0
295
     1
296
     0
143
0.125
1001
ACAD_MLEADERVER
1070
     2
  0
MLINESTYLE
  5
18
102
{ACAD_REACTORS
330
17
102
}
330
17
100
AcDbMlineStyle
  2
STANDARD
 70
     0
  3

 62
   256
 51
90.0
 52
90.0
 71
     2
 49
0.5
 62
   256
  6
BYLAYER
 49
-0.5
 62
   256
  6
BYLAYER
  0
ACDBPLACEHOLDER
  5
F
102
{ACAD_REACTORS
330
E
102
}
330
E
  0
SCALE
  5
32C
102
{ACAD_REACTORS
330
32B
102
}
330
32B
100
AcDbScale
 70
     0
300
1:1
140
1.0
141
1.0
290
     1
  0
SCALE
  5
32D
102
{ACAD_REACTORS
330
32B
102
}
330
32B
100
AcDbScale
 70
     0
300
1:2
140
1.0
141
2.0
290
     0
  0
SCALE
  5
32E
102
{ACAD_REACTORS
330
32B
102
}
330
32B
100
AcDbScale
 70
     0
300
1:4
140
1.0
141
4.0
290
     0
  0
SCALE
  5
32F
102
{ACAD_REACTORS
330
32B
102
}
330
32B
100
AcDbScale
 70
     0
300
1:5
140
1.0
141
5.0
290
     0
  0
SCALE
  5
330
102
{ACAD_REACTORS
330
32B
102
}
330
32B
100
AcDbScale
 70
     0
300
1:8
140
1.0
141
8.0
290
     0
  0
SCALE
  5
331
102
{ACAD_REACTORS
330
32B
102
}
330
32B
100
AcDbScale
 70
     0
300
1:10
140
1.0
141
10.0
290
     0
  0
SCALE
  5
332
102
{ACAD_REACTORS
330
32B
102
}
330
32B
100
AcDbScale
 70
     0
300
1:16
140
1.0
141
16.0
290
     0
  0
SCALE
  5
333
102
{ACAD_REACTORS
330
32B
102
}
330
32B
100
AcDbScale
 70
     0
300
1:20
140
1.0
141
20.0
290
     0
  0
SCALE
  5
334
102
{ACAD_REACTORS
330
32B
102
}
330
32B
100
AcDbScale
 70
     0
300
1:30
140
1.0
141
30.0
290
     0
  0
SCALE
  5
335
102
{ACAD_REACTORS
330
32B
102
}
330
32B
100
AcDbScale
 70
     0
300
1:40
140
1.0
141
40.0
290
     0
  0
SCALE
  5
336
102
{ACAD_REACTORS
330
32B
102
}
330
32B
100
AcDbScale
 70
     0
300
1:50
140
1.0
141
50.0
290
     0
  0
SCALE
  5
337
102
{ACAD_REACTORS
330
32B
102
}
330
32B
100
AcDbScale
 70
     0
300
1:100
140
1.0
141
100.0
290
     0
  0
SCALE
  5
338
102
{ACAD_REACTORS
330
32B
102
}
330
32B
100
AcDbScale
 70
     0
300
2:1
140
2.0
141
1.0
290
     0
  0
SCALE
  5
339
102
{ACAD_REACTORS
330
32B
102
}
330
32B
100
AcDbScale
 70
     0
300
4:1
140
4.0
141
1.0
290
     0
  0
SCALE
  5
33A
102
{ACAD_REACTORS
330
32B
102
}
330
32B
100
AcDbScale
 70
     0
300
8:1
140
8.0
141
1.0
290
     0
  0
SCALE
  5
33B
102
{ACAD_REACTORS
330
32B
102
}
330
32B
100
AcDbScale
 70
     0
300
10:1
140
10.0
141
1.0
290
     0
  0
SCALE
  5
33C
102
{ACAD_REACTORS
330
32B
102
}
330
32B
100
AcDbScale
 70
     0
300
100:1
140
100.0
141
1.0
290
     0
  0
TABLESTYLE
  5
32A
102
{ACAD_XDICTIONARY
360
363
102
}
102
{ACAD_REACTORS
330
329
102
}
330
329
100
AcDbTableStyle
  3
Standard
 70
     0
 71
     0
 40
1.5
 41
1.5
280
     0
281
     0
  7
Standard
140
4.5
170
     2
 62
     0
 63
     7
283
     0
 90
      512
 91
        0
  1

274
    -2
284
     1
 64
     0
275
    -2
285
     1
 65
     0
276
    -2
286
     1
 66
     0
277
    -2
287
     1
 67
     0
278
    -2
288
     1
 68
     0
279
    -2
289
     1
 69
     0
  7
Standard
140
6.0
170
     5
 62
     0
 63
     7
283
     0
 90
      512
 91
        0
  1

274
    -2
284
     1
 64
     0
275
    -2
285
     1
 65
     0
276
    -2
286
     1
 66
     0
277
    -2
287
     1
 67
     0
278
    -2
288
     1
 68
     0
279
    -2
289
     1
 69
     0
  7
Standard
140
4.5
170
     5
 62
     0
 63
     7
283
     0
 90
      512
 91
        0
  1

274
    -2
284
     1
 64
     0
275
    -2
285
     1
 65
     0
276
    -2
286
     1
 66
     0
277
    -2
287
     1
 67
     0
278
    -2
288
     1
 68
     0
279
    -2
289
     1
 69
     0
  0
VISUALSTYLE
  5
31D
102
{ACAD_REACTORS
330
317
102
}
330
317
100
AcDbVisualStyle
  2
2dWireframe
 70
     4
 71
     0
 72
     2
 73
     0
 90
        0
 40
-0.6
 41
-30.0
 62
     5
 63
     7
421
 16777215
 74
     1
 91
        4
 64
     7
 65
   257
 75
     1
175
     1
 42
1.0
 92
        0
 66
   257
 43
1.0
 76
     1
 77
     6
 78
     2
 67
     7
 79
     5
170
     0
171
     0
290
     0
174
     0
 93
        1
 44
0.0
173
     0
291
     0
 45
0.0
  0
VISUALSTYLE
  5
31F
102
{ACAD_REACTORS
330
317
102
}
330
317
100
AcDbVisualStyle
  2
3D Hidden
 70
     6
 71
     1
 72
     2
 73
     2
 90
        0
 40
-0.6
 41
-30.0
 62
     5
 63
     7
421
 16777215
 74
     2
 91
        2
 64
     7
 65
   257
 75
     2
175
     1
 42
40.0
 92
        0
 66
   257
 43
1.0
 76
     1
 77
     6
 78
     2
 67
     7
 79
     3
170
     0
171
     0
290
     0
174
     0
 93
        1
 44
0.0
173
     0
291
     0
 45
0.0
  0
VISUALSTYLE
  5
31E
102
{ACAD_REACTORS
330
317
102
}
330
317
100
AcDbVisualStyle
  2
3dWireframe
 70
     5
 71
     0
 72
     2
 73
     0
 90
        0
 40
-0.6
 41
-30.0
 62
     5
 63
     7
421
 16777215
 74
     1
 91
        4
 64
     7
 65
   257
 75
     1
175
     1
 42
1.0
 92
        0
 66
   257
 43
1.0
 76
     1
 77
     6
 78
     2
 67
     7
 79
     5
170
     0
171
     0
290
     0
174
     0
 93
        1
 44
0.0
173
     0
291
     0
 45
0.0
  0
VISUALSTYLE
  5
31C
102
{ACAD_REACTORS
330
317
102
}
330
317
100
AcDbVisualStyle
  2
Basic
 70
     7
 71
     1
 72
     0
 73
     1
 90
        0
 40
-0.6
 41
-30.0
 62
     5
 63
     7
421
 16777215
 74
     0
 91
        4
 64
     7
 65
   257
 75
     1
175
     1
 42
1.0
 92
        8
 66
     7
 43
1.0
 76
     1
 77
     6
 78
     2
 67
     7
 79
     5
170
     0
171
     0
290
     0
174
     0
 93
        1
 44
0.0
173
     0
291
     1
 45
0.0
  0
VISUALSTYLE
  5
323
102
{ACAD_REACTORS
330
317
102
}
330
317
100
AcDbVisualStyle
  2
Brighten
 70
    12
 71
     2
 72
     2
 73
     0
 90
        0
 40
-0.6
 41
-30.0
 62
     5
 63
     7
421
 16777215
 74
     1
 91
        4
 64
     7
 65
   257
 75
     1
175
     1
 42
1.0
 92
        8
 66
     7
 43
1.0
 76
     1
 77
     6
 78
     2
 67
     7
 79
     5
170
     0
171
     0
290
     0
174
     0
 93
        1
 44
50.0
173
     0
291
     1
 45
0.0
  0
VISUALSTYLE
  5
327
102
{ACAD_REACTORS
330
317
102
}
330
317
100
AcDbVisualStyle
  2
ColorChange
 70
    16
 71
     2
 72
     2
 73
     3
 90
        0
 40
-0.6
 41
-30.0
 62
     5
 63
     8
421
  8421504
 74
     1
 91
        4
 64
     7
 65
   257
 75
     1
175
     1
 42
1.0
 92
        8
 66
     8
424
  8421504
 43
1.0
 76
     1
 77
     6
 78
     2
 67
     7
 79
     5
170
     0
171
     0
290
     0
174
     0
 93
        1
 44
0.0
173
     0
291
     1
 45
0.0
  0
VISUALSTYLE
  5
320
102
{ACAD_REACTORS
330
317
102
}
330
317
100
AcDbVisualStyle
  2
Conceptual
 70
     9
 71
     3
 72
     2
 73
     0
 90
        0
 40
-0.6
 41
-30.0
 62
     5
 63
     7
421
 16777215
 74
     2
 91
        2
 64
     7
 65
   257
 75
     1
175
     1
 42
40.0
 92
        8
 66
     7
 43
1.0
 76
     1
 77
     6
 78
     2
 67
     7
 79
     3
170
     0
171
     0
290
     0
174
     0
 93
        1
 44
0.0
173
     0
291
     0
 45
0.0
  0
VISUALSTYLE
  5
322
102
{ACAD_REACTORS
330
317
102
}
330
317
100
AcDbVisualStyle
  2
Dim
 70
    11
 71
     2
 72
     2
 73
     0
 90
        0
 40
-0.6
 41
-30.0
 62
     5
 63
     7
421
 16777215
 74
     1
 91
        4
 64
     7
 65
   257
 75
     1
175
     1
 42
1.0
 92
        8
 66
     7
 43
1.0
 76
     1
 77
     6
 78
     2
 67
     7
 79
     5
170
     0
171
     0
290
     0
174
     0
 93
        1
 44
-50.0
173
     0
291
     1
 45
0.0
  0
VISUALSTYLE
  5
326
102
{ACAD_REACTORS
330
317
102
}
330
317
100
AcDbVisualStyle
  2
Facepattern
 70
    15
 71
     2
 72
     2
 73
     0
 90
        0
 40
-0.6
 41
-30.0
 62
     5
 63
     7
421
 16777215
 74
     1
 91
        4
 64
     7
 65
   257
 75
     1
175
     1
 42
1.0
 92
        8
 66
     7
 43
1.0
 76
     1
 77
     6
 78
     2
 67
     7
 79
     5
170
     0
171
     0
290
     0
174
     0
 93
        1
 44
0.0
173
     0
291
     1
 45
0.0
  0
VISUALSTYLE
  5
318
102
{ACAD_REACTORS
330
317
102
}
330
317
100
AcDbVisualStyle
  2
Flat
 70
     0
 71
     2
 72
     1
 73
     1
 90
        2
 40
-0.6
 41
30.0
 62
     5
 63
     7
421
 16777215
 74
     0
 91
        4
 64
     7
 65
   257
 75
     1
175
     1
 42
1.0
 92
        8
 66
     7
 43
1.0
 76
     1
 77
     6
 78
     2
 67
     7
 79
     5
170
     0
171
     0
290
     0
174
     0
 93
       13
 44
0.0
173
     0
291
     1
 45
0.0
  0
VISUALSTYLE
  5
319
102
{ACAD_REACTORS
330
317
102
}
330
317
100
AcDbVisualStyle
  2
FlatWithEdges
 70
     1
 71
     2
 72
     1
 73
     1
 90
        2
 40
-0.6
 41
30.0
 62
     5
 63
     7
421
 16777215
 74
     1
 91
        4
 64
     7
 65
   257
 75
     1
175
     1
 42
1.0
 92
        0
 66
   257
 43
1.0
 76
     1
 77
     6
 78
     2
 67
     7
 79
     5
170
     0
171
     0
290
     0
174
     0
 93
       13
 44
0.0
173
     0
291
     1
 45
0.0
  0
VISUALSTYLE
  5
31A
102
{ACAD_REACTORS
330
317
102
}
330
317
100
AcDbVisualStyle
  2
Gouraud
 70
     2
 71
     2
 72
     2
 73
     1
 90
        2
 40
-0.6
 41
30.0
 62
     5
 63
     7
421
 16777215
 74
     0
 91
        4
 64
     7
 65
   257
 75
     1
175
     1
 42
1.0
 92
        0
 66
     7
 43
1.0
 76
     1
 77
     6
 78
     2
 67
     7
 79
     5
170
     0
171
     0
290
     0
174
     0
 93
       13
 44
0.0
173
     0
291
     1
 45
0.0
  0
VISUALSTYLE
  5
31B
102
{ACAD_REACTORS
330
317
102
}
330
317
100
AcDbVisualStyle
  2
GouraudWithEdges
 70
     3
 71
     2
 72
     2
 73
     1
 90
        2
 40
-0.6
 41
30.0
 62
     5
 63
     7
421
 16777215
 74
     1
 91
        4
 64
     7
 65
   257
 75
     1
175
     1
 42
1.0
 92
        0
 66
   257
 43
1.0
 76
     1
 77
     6
 78
     2
 67
     7
 79
     5
170
     0
171
     0
290
     0
174
     0
 93
       13
 44
0.0
173
     0
291
     1
 45
0.0
  0
VISUALSTYLE
  5
325
102
{ACAD_REACTORS
330
317
102
}
330
317
100
AcDbVisualStyle
  2
Linepattern
 70
    14
 71
     2
 72
     2
 73
     0
 90
        0
 40
-0.6
 41
-30.0
 62
     5
 63
     7
421
 16777215
 74
     1
 91
        4
 64
     7
 65
   257
 75
     7
175
     7
 42
1.0
 92
        8
 66
     7
 43
1.0
 76
     1
 77
     6
 78
     2
 67
     7
 79
     5
170
     0
171
     0
290
     0
174
     0
 93
        1
 44
0.0
173
     0
291
     1
 45
0.0
  0
VISUALSTYLE
  5
321
102
{ACAD_REACTORS
330
317
102
}
330
317
100
AcDbVisualStyle
  2
Realistic
 70
     8
 71
     2
 72
     2
 73
     0
 90
        0
 40
-0.6
 41
-30.0
 62
     5
 63
     7
421
 16777215
 74
     1
 91
        0
 64
     7
 65
   257
 75
     1
175
     1
 42
1.0
 92
        8
 66
     8
424
  7895160
 43
1.0
 76
     1
 77
     6
 78
     2
 67
     7
 79
     5
170
     0
171
     0
290
     0
174
     0
 93
       13
 44
0.0
173
     0
291
     0
 45
0.0
  0
VISUALSTYLE
  5
324
102
{ACAD_REACTORS
330
317
102
}
330
317
100
AcDbVisualStyle
  2
Thicken
 70
    13
 71
     2
 72
     2
 73
     0
 90
        0
 40
-0.6
 41
-30.0
 62
     5
 63
     7
421
 16777215
 74
     1
 91
        4
 64
     7
 65
   257
 75
     1
175
     1
 42
1.0
 92
       12
 66
     7
 43
1.0
 76
     1
 77
     6
 78
     2
 67
     7
 79
     5
170
     0
171
     0
290
     0
174
     0
 93
        1
 44
0.0
173
     0
291
     1
 45
0.0
  0
DICTIONARYVAR
  5
35F
102
{ACAD_REACTORS
330
35B
102
}
330
35B
100
DictionaryVariables
280
     0
  1
1:1
  0
DICTIONARYVAR
  5
35D
102
{ACAD_REACTORS
330
35B
102
}
330
35B
100
DictionaryVariables
280
     0
  1
STANDARD
  0
DICTIONARYVAR
  5
35C
102
{ACAD_REACTORS
330
35B
102
}
330
35B
100
DictionaryVariables
280
     0
  1
STANDARD
  0
DICTIONARYVAR
  5
361
102
{ACAD_REACTORS
330
35B
102
}
330
35B
100
DictionaryVariables
280
     0
  1
1
  0
DICTIONARYVAR
  5
362
102
{ACAD_REACTORS
330
35B
102
}
330
35B
100
DictionaryVariables
280
     0
  1
15
  0
DICTIONARYVAR
  5
360
102
{ACAD_REACTORS
330
35B
102
}
330
35B
100
DictionaryVariables
280
     0
  1
0
  0
DICTIONARYVAR
  5
35E
102
{ACAD_REACTORS
330
35B
102
}
330
35B
100
DictionaryVariables
280
     0
  1
0
  0
DICTIONARY
  5
308
330
307
100
AcDbDictionary
280
     1
281
     1
  3
BUMPTILE
360
30A
  3
DIFFUSETILE
360
309
  3
OPACITYTILE
360
30D
  3
REFLECTIONTILE
360
30C
  3
REFRACTIONTILE
360
30E
  3
SPECULARTILE
360
30B
  0
DICTIONARY
  5
300
330
2FF
100
AcDbDictionary
280
     1
281
     1
  3
BUMPTILE
360
302
  3
DIFFUSETILE
360
301
  3
OPACITYTILE
360
305
  3
REFLECTIONTILE
360
304
  3
REFRACTIONTILE
360
306
  3
SPECULARTILE
360
303
  0
DICTIONARY
  5
310
330
30F
100
AcDbDictionary
280
     1
281
     1
  3
BUMPTILE
360
312
  3
DIFFUSETILE
360
311
  3
OPACITYTILE
360
315
  3
REFLECTIONTILE
360
314
  3
REFRACTIONTILE
360
316
  3
SPECULARTILE
360
313
  0
DICTIONARY
  5
363
330
32A
100
AcDbDictionary
280
     1
281
     1
  3
ACAD_ROUNDTRIP_2008_TABLESTYLE_CELLSTYLEMAP
360
364
  0
XRECORD
  5
30A
102
{ACAD_REACTORS
330
308
102
}
330
308
100
AcDbXrecord
280
     1
270
     1
271
     1
  0
XRECORD
  5
309
102
{ACAD_REACTORS
330
308
102
}
330
308
100
AcDbXrecord
280
     1
270
     1
271
     1
  0
XRECORD
  5
30D
102
{ACAD_REACTORS
330
308
102
}
330
308
100
AcDbXrecord
280
     1
270
     1
271
     1
  0
XRECORD
  5
30C
102
{ACAD_REACTORS
330
308
102
}
330
308
100
AcDbXrecord
280
     1
270
     1
271
     1
  0
XRECORD
  5
30E
102
{ACAD_REACTORS
330
308
102
}
330
308
100
AcDbXrecord
280
     1
270
     1
271
     1
  0
XRECORD
  5
30B
102
{ACAD_REACTORS
330
308
102
}
330
308
100
AcDbXrecord
280
     1
270
     1
271
     1
  0
XRECORD
  5
302
102
{ACAD_REACTORS
330
300
102
}
330
300
100
AcDbXrecord
280
     1
270
     1
271
     1
  0
XRECORD
  5
301
102
{ACAD_REACTORS
330
300
102
}
330
300
100
AcDbXrecord
280
     1
270
     1
271
     1
  0
XRECORD
  5
305
102
{ACAD_REACTORS
330
300
102
}
330
300
100
AcDbXrecord
280
     1
270
     1
271
     1
  0
XRECORD
  5
304
102
{ACAD_REACTORS
330
300
102
}
330
300
100
AcDbXrecord
280
     1
270
     1
271
     1
  0
XRECORD
  5
306
102
{ACAD_REACTORS
330
300
102
}
330
300
100
AcDbXrecord
280
     1
270
     1
271
     1
  0
XRECORD
  5
303
102
{ACAD_REACTORS
330
300
102
}
330
300
100
AcDbXrecord
280
     1
270
     1
271
     1
  0
XRECORD
  5
312
102
{ACAD_REACTORS
330
310
102
}
330
310
100
AcDbXrecord
280
     1
270
     1
271
     1
  0
XRECORD
  5
311
102
{ACAD_REACTORS
330
310
102
}
330
310
100
AcDbXrecord
280
     1
270
     1
271
     1
  0
XRECORD
  5
315
102
{ACAD_REACTORS
330
310
102
}
330
310
100
AcDbXrecord
280
     1
270
     1
271
     1
  0
XRECORD
  5
314
102
{ACAD_REACTORS
330
310
102
}
330
310
100
AcDbXrecord
280
     1
270
     1
271
     1
  0
XRECORD
  5
316
102
{ACAD_REACTORS
330
310
102
}
330
310
100
AcDbXrecord
280
     1
270
     1
271
     1
  0
XRECORD
  5
313
102
{ACAD_REACTORS
330
310
102
}
330
310
100
AcDbXrecord
280
     1
270
     1
271
     1
  0
CELLSTYLEMAP
  5
364
102
{ACAD_REACTORS
330
363
102
}
330
363
100
AcDbCellStyleMap
 90
        3
300
CELLSTYLE
  1
TABLEFORMAT_BEGIN
 90
        5
170
     1
 91
        0
 92
    32768
 62
   257
 93
        1
300
CONTENTFORMAT
  1
CONTENTFORMAT_BEGIN
 90
        0
 91
        0
 92
      512
 93
        0
300

 40
0.0
140
1.0
 94
        5
 62
     0
340
11
144
6.0
309
CONTENTFORMAT_END
171
     1
301
MARGIN
  1
CELLMARGIN_BEGIN
 40
1.5
 40
1.5
 40
1.5
 40
1.5
 40
4.5
 40
4.5
309
CELLMARGIN_END
 94
        6
 95
        1
302
GRIDFORMAT
  1
GRIDFORMAT_BEGIN
 90
        0
 91
        1
 62
     0
 92
       -2
340
0
 93
        0
 40
1.125
309
GRIDFORMAT_END
 95
        2
302
GRIDFORMAT
  1
GRIDFORMAT_BEGIN
 90
        0
 91
        1
 62
     0
 92
       -2
340
0
 93
        0
 40
1.125
309
GRIDFORMAT_END
 95
        4
302
GRIDFORMAT
  1
GRIDFORMAT_BEGIN
 90
        0
 91
        1
 62
     0
 92
       -2
340
0
 93
        0
 40
1.125
309
GRIDFORMAT_END
 95
        8
302
GRIDFORMAT
  1
GRIDFORMAT_BEGIN
 90
        0
 91
        1
 62
     0
 92
       -2
340
0
 93
        0
 40
1.125
309
GRIDFORMAT_END
 95
       16
302
GRIDFORMAT
  1
GRIDFORMAT_BEGIN
 90
        0
 91
        1
 62
     0
 92
       -2
340
0
 93
        0
 40
1.125
309
GRIDFORMAT_END
 95
       32
302
GRIDFORMAT
  1
GRIDFORMAT_BEGIN
 90
        0
 91
        1
 62
     0
 92
       -2
340
0
 93
        0
 40
1.125
309
GRIDFORMAT_END
309
TABLEFORMAT_END
  1
CELLSTYLE_BEGIN
 90
        1
 91
        1
300
_TITLE
309
CELLSTYLE_END
300
CELLSTYLE
  1
TABLEFORMAT_BEGIN
 90
        5
170
     1
 91
        0
 92
        0
 62
   257
 93
        1
300
CONTENTFORMAT
  1
CONTENTFORMAT_BEGIN
 90
        0
 91
        0
 92
      512
 93
        0
300

 40
0.0
140
1.0
 94
        5
 62
     0
340
11
144
4.5
309
CONTENTFORMAT_END
171
     1
301
MARGIN
  1
CELLMARGIN_BEGIN
 40
1.5
 40
1.5
 40
1.5
 40
1.5
 40
4.5
 40
4.5
309
CELLMARGIN_END
 94
        6
 95
        1
302
GRIDFORMAT
  1
GRIDFORMAT_BEGIN
 90
        0
 91
        1
 62
     0
 92
       -2
340
0
 93
        0
 40
1.125
309
GRIDFORMAT_END
 95
        2
302
GRIDFORMAT
  1
GRIDFORMAT_BEGIN
 90
        0
 91
        1
 62
     0
 92
       -2
340
0
 93
        0
 40
1.125
309
GRIDFORMAT_END
 95
        4
302
GRIDFORMAT
  1
GRIDFORMAT_BEGIN
 90
        0
 91
        1
 62
     0
 92
       -2
340
0
 93
        0
 40
1.125
309
GRIDFORMAT_END
 95
        8
302
GRIDFORMAT
  1
GRIDFORMAT_BEGIN
 90
        0
 91
        1
 62
     0
 92
       -2
340
0
 93
        0
 40
1.125
309
GRIDFORMAT_END
 95
       16
302
GRIDFORMAT
  1
GRIDFORMAT_BEGIN
 90
        0
 91
        1
 62
     0
 92
       -2
340
0
 93
        0
 40
1.125
309
GRIDFORMAT_END
 95
       32
302
GRIDFORMAT
  1
GRIDFORMAT_BEGIN
 90
        0
 91
        1
 62
     0
 92
       -2
340
0
 93
        0
 40
1.125
309
GRIDFORMAT_END
309
TABLEFORMAT_END
  1
CELLSTYLE_BEGIN
 90
        2
 91
        1
300
_HEADER
309
CELLSTYLE_END
300
CELLSTYLE
  1
TABLEFORMAT_BEGIN
 90
        5
170
     1
 91
        0
 92
        0
 62
   257
 93
        1
300
CONTENTFORMAT
  1
CONTENTFORMAT_BEGIN
 90
        0
 91
        0
 92
      512
 93
        0
300

 40
0.0
140
1.0
 94
        2
 62
     0
340
11
144
4.5
309
CONTENTFORMAT_END
171
     1
301
MARGIN
  1
CELLMARGIN_BEGIN
 40
1.5
 40
1.5
 40
1.5
 40
1.5
 40
4.5
 40
4.5
309
CELLMARGIN_END
 94
        6
 95
        1
302
GRIDFORMAT
  1
GRIDFORMAT_BEGIN
 90
        0
 91
        1
 62
     0
 92
       -2
340
0
 93
        0
 40
1.125
309
GRIDFORMAT_END
 95
        2
302
GRIDFORMAT
  1
GRIDFORMAT_BEGIN
 90
        0
 91
        1
 62
     0
 92
       -2
340
0
 93
        0
 40
1.125
309
GRIDFORMAT_END
 95
        4
302
GRIDFORMAT
  1
GRIDFORMAT_BEGIN
 90
        0
 91
        1
 62
     0
 92
       -2
340
0
 93
        0
 40
1.125
309
GRIDFORMAT_END
 95
        8
302
GRIDFORMAT
  1
GRIDFORMAT_BEGIN
 90
        0
 91
        1
 62
     0
 92
       -2
340
0
 93
        0
 40
1.125
309
GRIDFORMAT_END
 95
       16
302
GRIDFORMAT
  1
GRIDFORMAT_BEGIN
 90
        0
 91
        1
 62
     0
 92
       -2
340
0
 93
        0
 40
1.125
309
GRIDFORMAT_END
 95
       32
302
GRIDFORMAT
  1
GRIDFORMAT_BEGIN
 90
        0
 91
        1
 62
     0
 92
       -2
340
0
 93
        0
 40
1.125
309
GRIDFORMAT_END
309
TABLEFORMAT_END
  1
CELLSTYLE_BEGIN
 90
        3
 91
        2
300
_DATA
309
CELLSTYLE_END
  0
ENDSEC
  0
EOF
