ISO-10303-21;
HEADER;
FILE_DESCRIPTION (( 'STEP AP214' ),
    '1' );
FILE_NAME ('C 360_118 HF ES1.STEP',
    '2018-07-14T09:07:44',
    ( '' ),
    ( '' ),
    'SwSTEP 2.0',
    'SolidWorks 2013',
    '' );
FILE_SCHEMA (( 'AUTOMOTIVE_DESIGN' ));
ENDSEC;

DATA;
#1 = CIRCLE ( 'NONE', #24, 180.0000000000000300 ) ;
#2 = VECTOR ( 'NONE', #54, 1000.000000000000100 ) ;
#3 = DIRECTION ( 'NONE',  ( 0.0000000000000000000, 0.0000000000000000000, 1.000000000000000000 ) ) ;
#4 = AXIS2_PLACEMENT_3D ( 'NONE', #240, #69, #204 ) ;
#5 = DIRECTION ( 'NONE',  ( 0.0000000000000000000, -0.7071067811865484600, -0.7071067811865465700 ) ) ;
#6 =( GEOMETRIC_REPRESENTATION_CONTEXT ( 3 ) GLOBAL_UNCERTAINTY_ASSIGNED_CONTEXT ( ( #47 ) ) GLOBAL_UNIT_ASSIGNED_CONTEXT ( ( #25, #23, #153 ) ) REPRESENTATION_CONTEXT ( 'NONE', 'WORKASPACE' ) );
#7 =( GEOMETRIC_REPRESENTATION_CONTEXT ( 3 ) GLOBAL_UNCERTAINTY_ASSIGNED_CONTEXT ( ( #166 ) ) GLOBAL_UNIT_ASSIGNED_CONTEXT ( ( #186, #185, #233 ) ) REPRESENTATION_CONTEXT ( 'NONE', 'WORKASPACE' ) );
#8 = MECHANICAL_DESIGN_GEOMETRIC_PRESENTATION_REPRESENTATION (  '', ( #11 ), #7 ) ;
#9 = PRESENTATION_LAYER_ASSIGNMENT (  '', '', ( #11 ) ) ;
#10 = CARTESIAN_POINT ( 'NONE',  ( 0.0000000000000000000, 0.0000000000000000000, 0.0000000000000000000 ) ) ;
#11 = STYLED_ITEM ( 'NONE', ( #101 ), #227 ) ;
#12 = AXIS2_PLACEMENT_3D ( 'NONE', #156, #144, #131 ) ;
#13 = ORIENTED_EDGE ( 'NONE', *, *, #62, .F. ) ;
#14 = AXIS2_PLACEMENT_3D ( 'NONE', #158, #222, #221 ) ;
#15 = AXIS2_PLACEMENT_3D ( 'NONE', #232, #217, #210 ) ;
#16 = AXIS2_PLACEMENT_3D ( 'NONE', #157, #105, #100 ) ;
#17 = AXIS2_PLACEMENT_3D ( 'NONE', #26, #51, #3 ) ;
#18 = AXIS2_PLACEMENT_3D ( 'NONE', #38, #180, #179 ) ;
#19 = AXIS2_PLACEMENT_3D ( 'NONE', #111, #175, #115 ) ;
#20 = AXIS2_PLACEMENT_3D ( 'NONE', #31, #32, #30 ) ;
#21 = AXIS2_PLACEMENT_3D ( 'NONE', #55, #73, #80 ) ;
#22 = VERTEX_POINT ( 'NONE', #139 ) ;
#23 =( NAMED_UNIT ( * ) PLANE_ANGLE_UNIT ( ) SI_UNIT ( $, .RADIAN. ) );
#24 = AXIS2_PLACEMENT_3D ( 'NONE', #190, #50, #78 ) ;
#25 =( LENGTH_UNIT ( ) NAMED_UNIT ( * ) SI_UNIT ( .MILLI., .METRE. ) );
#26 = CARTESIAN_POINT ( 'NONE',  ( 0.0000000000000000000, 20.00000000000007500, 0.0000000000000000000 ) ) ;
#27 = CARTESIAN_POINT ( 'NONE',  ( 0.0000000000000000000, 87.00000000000005700, -180.0000000000000300 ) ) ;
#28 = DIRECTION ( 'NONE',  ( -0.0000000000000000000, -1.000000000000000000, -0.0000000000000000000 ) ) ;
#29 = DIRECTION ( 'NONE',  ( 0.0000000000000000000, 0.0000000000000000000, 1.000000000000000000 ) ) ;
#30 = DIRECTION ( 'NONE',  ( 0.0000000000000000000, 0.0000000000000000000, 1.000000000000000000 ) ) ;
#31 = CARTESIAN_POINT ( 'NONE',  ( 0.0000000000000000000, 0.0000000000000000000, 0.0000000000000000000 ) ) ;
#32 = DIRECTION ( 'NONE',  ( -0.0000000000000000000, -1.000000000000000000, -0.0000000000000000000 ) ) ;
#33 = AXIS2_PLACEMENT_3D ( 'NONE', #225, #219, #235 ) ;
#34 = AXIS2_PLACEMENT_3D ( 'NONE', #10, #149, #151 ) ;
#35 = EDGE_LOOP ( 'NONE', ( #205, #154, #214, #193 ) ) ;
#36 = FILL_AREA_STYLE ('',( #39 ) ) ;
#37 = CARTESIAN_POINT ( 'NONE',  ( 2.204364238465236100E-014, 20.00000000000007500, -180.0000000000000300 ) ) ;
#38 = CARTESIAN_POINT ( 'NONE',  ( 0.0000000000000000000, 107.0000000000000000, 0.0000000000000000000 ) ) ;
#39 = FILL_AREA_STYLE_COLOUR ( '', #72 ) ;
#40 = APPLICATION_CONTEXT ( 'automotive_design' ) ;
#41 = SURFACE_SIDE_STYLE ('',( #68 ) ) ;
#42 = AXIS2_PLACEMENT_3D ( 'NONE', #168, #163, #169 ) ;
#43 = APPLICATION_CONTEXT ( 'automotive_design' ) ;
#44 = SURFACE_STYLE_USAGE ( .BOTH. , #41 ) ;
#45 = APPLICATION_PROTOCOL_DEFINITION ( 'draft international standard', 'automotive_design', 1998, #43 ) ;
#46 = APPLICATION_PROTOCOL_DEFINITION ( 'draft international standard', 'automotive_design', 1998, #40 ) ;
#47 = UNCERTAINTY_MEASURE_WITH_UNIT (LENGTH_MEASURE( 1.000000000000000100E-005 ), #25, 'distance_accuracy_value', 'NONE');
#48 = PRODUCT_CONTEXT ( 'NONE', #40, 'mechanical' ) ;
#49 = AXIS2_PLACEMENT_3D ( 'NONE', #213, #196, #29 ) ;
#50 = DIRECTION ( 'NONE',  ( -0.0000000000000000000, 1.000000000000000000, -0.0000000000000000000 ) ) ;
#51 = DIRECTION ( 'NONE',  ( -0.0000000000000000000, 1.000000000000000000, -0.0000000000000000000 ) ) ;
#52 = CARTESIAN_POINT ( 'NONE',  ( 0.0000000000000000000, 20.00000000000007500, 180.0000000000000300 ) ) ;
#53 = ADVANCED_FACE ( 'NONE', ( #134 ), #66, .F. ) ;
#54 = DIRECTION ( 'NONE',  ( 8.659560562354951300E-017, 0.7071067811865460200, -0.7071067811865489100 ) ) ;
#55 = CARTESIAN_POINT ( 'NONE',  ( 0.0000000000000000000, 0.0000000000000000000, 0.0000000000000000000 ) ) ;
#56 = PRESENTATION_STYLE_ASSIGNMENT (( #44 ) ) ;
#57 = CLOSED_SHELL ( 'NONE', ( #230, #143, #117, #145, #181, #53, #174, #209 ) ) ;
#58 = EDGE_CURVE ( 'NONE', #197, #167, #129, .T. ) ;
#59 = EDGE_CURVE ( 'NONE', #167, #178, #133, .T. ) ;
#60 = EDGE_CURVE ( 'NONE', #141, #197, #132, .T. ) ;
#61 = EDGE_CURVE ( 'NONE', #141, #178, #128, .T. ) ;
#62 = EDGE_CURVE ( 'NONE', #167, #22, #127, .T. ) ;
#63 = EDGE_CURVE ( 'NONE', #212, #22, #126, .T. ) ;
#64 = EDGE_CURVE ( 'NONE', #215, #22, #124, .T. ) ;
#65 = CARTESIAN_POINT ( 'NONE',  ( 0.0000000000000000000, 107.0000000000000000, -160.0000000000001400 ) ) ;
#66 = PLANE ( 'NONE',  #34 ) ;
#67 = CONICAL_SURFACE ( 'NONE', #4, 160.0000000000001400, 0.7853981633974469500 ) ;
#68 = SURFACE_STYLE_FILL_AREA ( #36 ) ;
#69 = DIRECTION ( 'NONE',  ( 0.0000000000000000000, -1.000000000000000000, 0.0000000000000000000 ) ) ;
#70 = EDGE_CURVE ( 'NONE', #192, #215, #122, .T. ) ;
#71 = DIRECTION ( 'NONE',  ( 0.0000000000000000000, 0.0000000000000000000, 1.000000000000000000 ) ) ;
#72 = COLOUR_RGB ( '',0.7921568627450980000, 0.8196078431372548800, 0.9333333333333333500 ) ;
#73 = DIRECTION ( 'NONE',  ( -0.0000000000000000000, -1.000000000000000000, -0.0000000000000000000 ) ) ;
#74 =( NAMED_UNIT ( * ) PLANE_ANGLE_UNIT ( ) SI_UNIT ( $, .RADIAN. ) );
#75 = CARTESIAN_POINT ( 'NONE',  ( 2.081899558550499700E-014, 0.0000000000000000000, -159.9999999999998600 ) ) ;
#76 = CARTESIAN_POINT ( 'NONE',  ( 2.204364238465236100E-014, 20.00000000000007500, 180.0000000000000300 ) ) ;
#77 = CARTESIAN_POINT ( 'NONE',  ( 0.0000000000000000000, 0.0000000000000000000, 0.0000000000000000000 ) ) ;
#78 = DIRECTION ( 'NONE',  ( 0.0000000000000000000, 0.0000000000000000000, 1.000000000000000000 ) ) ;
#79 =( LENGTH_UNIT ( ) NAMED_UNIT ( * ) SI_UNIT ( .MILLI., .METRE. ) );
#80 = DIRECTION ( 'NONE',  ( 0.0000000000000000000, 0.0000000000000000000, 1.000000000000000000 ) ) ;
#81 = EDGE_CURVE ( 'NONE', #22, #215, #1, .T. ) ;
#82 = AXIS2_PLACEMENT_3D ( 'NONE', #83, #150, #71 ) ;
#83 = CARTESIAN_POINT ( 'NONE',  ( 0.0000000000000000000, 20.00000000000007500, 0.0000000000000000000 ) ) ;
#84 = EDGE_CURVE ( 'NONE', #212, #192, #119, .T. ) ;
#85 = EDGE_CURVE ( 'NONE', #197, #141, #121, .T. ) ;
#86 = CARTESIAN_POINT ( 'NONE',  ( 2.204364238465236100E-014, 107.0000000000000000, 180.0000000000000300 ) ) ;
#87 = EDGE_CURVE ( 'NONE', #192, #212, #114, .T. ) ;
#88 = EDGE_CURVE ( 'NONE', #178, #215, #113, .T. ) ;
#89 = PRODUCT_DEFINITION_CONTEXT ( 'detailed design', #43, 'design' ) ;
#90 = CONICAL_SURFACE ( 'NONE', #12, 160.0000000000001400, 0.7853981633974469500 ) ;
#91 = SHAPE_DEFINITION_REPRESENTATION ( #172, #130 ) ;
#92 = SURFACE_STYLE_FILL_AREA ( #104 ) ;
#93 = FACE_OUTER_BOUND ( 'NONE', #162, .T. ) ;
#94 = CONICAL_SURFACE ( 'NONE', #17, 180.0000000000000300, 0.7853981633974503900 ) ;
#95 = DIRECTION ( 'NONE',  ( -0.0000000000000000000, -1.000000000000000000, -0.0000000000000000000 ) ) ;
#96 = COLOUR_RGB ( '',0.7921568627450980000, 0.8196078431372548800, 0.9333333333333333500 ) ;
#97 = CIRCLE ( 'NONE', #15, 180.0000000000000300 ) ;
#98 = FACE_OUTER_BOUND ( 'NONE', #187, .T. ) ;
#99 = CONICAL_SURFACE ( 'NONE', #19, 180.0000000000000300, 0.7853981633974503900 ) ;
#100 = DIRECTION ( 'NONE',  ( 0.0000000000000000000, 0.0000000000000000000, -1.000000000000000000 ) ) ;
#101 = PRESENTATION_STYLE_ASSIGNMENT (( #191 ) ) ;
#102 = FACE_OUTER_BOUND ( 'NONE', #199, .T. ) ;
#103 = CYLINDRICAL_SURFACE ( 'NONE', #18, 180.0000000000000300 ) ;
#104 = FILL_AREA_STYLE ('',( #200 ) ) ;
#105 = DIRECTION ( 'NONE',  ( -0.0000000000000000000, -1.000000000000000000, -0.0000000000000000000 ) ) ;
#106 = FACE_OUTER_BOUND ( 'NONE', #142, .T. ) ;
#107 = FACE_OUTER_BOUND ( 'NONE', #195, .T. ) ;
#108 = VECTOR ( 'NONE', #5, 1000.000000000000000 ) ;
#109 = FACE_OUTER_BOUND ( 'NONE', #140, .T. ) ;
#110 = VECTOR ( 'NONE', #95, 1000.000000000000000 ) ;
#111 = CARTESIAN_POINT ( 'NONE',  ( 0.0000000000000000000, 20.00000000000007500, 0.0000000000000000000 ) ) ;
#112 = CYLINDRICAL_SURFACE ( 'NONE', #16, 180.0000000000000300 ) ;
#113 = LINE ( 'NONE', #86, #110 ) ;
#114 = CIRCLE ( 'NONE', #20, 159.9999999999998600 ) ;
#115 = DIRECTION ( 'NONE',  ( 0.0000000000000000000, 0.0000000000000000000, 1.000000000000000000 ) ) ;
#116 = CARTESIAN_POINT ( 'NONE',  ( 0.0000000000000000000, 107.0000000000000000, -180.0000000000000300 ) ) ;
#117 = ADVANCED_FACE ( 'NONE', ( #107 ), #103, .T. ) ;
#118 = FACE_OUTER_BOUND ( 'NONE', #35, .T. ) ;
#119 = CIRCLE ( 'NONE', #21, 159.9999999999998600 ) ;
#120 = VECTOR ( 'NONE', #228, 1000.000000000000100 ) ;
#121 = CIRCLE ( 'NONE', #42, 160.0000000000001400 ) ;
#122 = LINE ( 'NONE', #52, #120 ) ;
#123 = VECTOR ( 'NONE', #28, 1000.000000000000000 ) ;
#124 = CIRCLE ( 'NONE', #82, 180.0000000000000300 ) ;
#125 = VECTOR ( 'NONE', #194, 1000.000000000000000 ) ;
#126 = LINE ( 'NONE', #37, #2 ) ;
#127 = LINE ( 'NONE', #116, #123 ) ;
#128 = LINE ( 'NONE', #218, #125 ) ;
#129 = LINE ( 'NONE', #208, #108 ) ;
#130 = ADVANCED_BREP_SHAPE_REPRESENTATION ( 'C 360_118 HF ES1', ( #227, #234 ), #6 ) ;
#131 = DIRECTION ( 'NONE',  ( 0.0000000000000000000, 0.0000000000000000000, -1.000000000000000000 ) ) ;
#132 = CIRCLE ( 'NONE', #33, 160.0000000000001400 ) ;
#133 = CIRCLE ( 'NONE', #49, 180.0000000000000300 ) ;
#134 = FACE_OUTER_BOUND ( 'NONE', #207, .T. ) ;
#135 = UNCERTAINTY_MEASURE_WITH_UNIT (LENGTH_MEASURE( 1.000000000000000100E-005 ), #79, 'distance_accuracy_value', 'NONE');
#136 = ORIENTED_EDGE ( 'NONE', *, *, #70, .T. ) ;
#137 = ORIENTED_EDGE ( 'NONE', *, *, #87, .F. ) ;
#138 = ORIENTED_EDGE ( 'NONE', *, *, #88, .F. ) ;
#139 = CARTESIAN_POINT ( 'NONE',  ( 0.0000000000000000000, 20.00000000000007500, -180.0000000000000300 ) ) ;
#140 = EDGE_LOOP ( 'NONE', ( #138, #202, #147, #203 ) ) ;
#141 = VERTEX_POINT ( 'NONE', #170 ) ;
#142 = EDGE_LOOP ( 'NONE', ( #171, #173, #206, #164 ) ) ;
#143 = ADVANCED_FACE ( 'NONE', ( #106 ), #99, .T. ) ;
#144 = DIRECTION ( 'NONE',  ( 0.0000000000000000000, -1.000000000000000000, 0.0000000000000000000 ) ) ;
#145 = ADVANCED_FACE ( 'NONE', ( #109 ), #112, .T. ) ;
#146 = ORIENTED_EDGE ( 'NONE', *, *, #63, .F. ) ;
#147 = ORIENTED_EDGE ( 'NONE', *, *, #62, .T. ) ;
#148 = PRODUCT ( 'C 360_118 HF ES1', 'C 360_118 HF ES1', '', ( #48 ) ) ;
#149 = DIRECTION ( 'NONE',  ( 0.0000000000000000000, 1.000000000000000000, 0.0000000000000000000 ) ) ;
#150 = DIRECTION ( 'NONE',  ( -0.0000000000000000000, 1.000000000000000000, -0.0000000000000000000 ) ) ;
#151 = DIRECTION ( 'NONE',  ( 0.0000000000000000000, -0.0000000000000000000, 1.000000000000000000 ) ) ;
#152 = ORIENTED_EDGE ( 'NONE', *, *, #61, .T. ) ;
#153 =( NAMED_UNIT ( * ) SI_UNIT ( $, .STERADIAN. ) SOLID_ANGLE_UNIT ( ) );
#154 = ORIENTED_EDGE ( 'NONE', *, *, #85, .F. ) ;
#155 = CARTESIAN_POINT ( 'NONE',  ( 2.204364238465236100E-014, 87.00000000000005700, 180.0000000000000300 ) ) ;
#156 = CARTESIAN_POINT ( 'NONE',  ( 0.0000000000000000000, 107.0000000000000000, 0.0000000000000000000 ) ) ;
#157 = CARTESIAN_POINT ( 'NONE',  ( 0.0000000000000000000, 107.0000000000000000, 0.0000000000000000000 ) ) ;
#158 = CARTESIAN_POINT ( 'NONE',  ( 0.0000000000000000000, 107.0000000000000000, 0.0000000000000000000 ) ) ;
#159 = ORIENTED_EDGE ( 'NONE', *, *, #81, .F. ) ;
#160 = ORIENTED_EDGE ( 'NONE', *, *, #59, .T. ) ;
#161 = ORIENTED_EDGE ( 'NONE', *, *, #58, .F. ) ;
#162 = EDGE_LOOP ( 'NONE', ( #211, #184 ) ) ;
#163 = DIRECTION ( 'NONE',  ( 0.0000000000000000000, 1.000000000000000000, 0.0000000000000000000 ) ) ;
#164 = ORIENTED_EDGE ( 'NONE', *, *, #70, .F. ) ;
#165 = ORIENTED_EDGE ( 'NONE', *, *, #84, .T. ) ;
#166 = UNCERTAINTY_MEASURE_WITH_UNIT (LENGTH_MEASURE( 1.000000000000000100E-005 ), #186, 'distance_accuracy_value', 'NONE');
#167 = VERTEX_POINT ( 'NONE', #27 ) ;
#168 = CARTESIAN_POINT ( 'NONE',  ( 0.0000000000000000000, 107.0000000000000000, 0.0000000000000000000 ) ) ;
#169 = DIRECTION ( 'NONE',  ( 0.0000000000000000000, 0.0000000000000000000, 1.000000000000000000 ) ) ;
#170 = CARTESIAN_POINT ( 'NONE',  ( 2.081899558550501300E-014, 107.0000000000000000, 160.0000000000001400 ) ) ;
#171 = ORIENTED_EDGE ( 'NONE', *, *, #84, .F. ) ;
#172 = PRODUCT_DEFINITION_SHAPE ( 'NONE', 'NONE',  #231 ) ;
#173 = ORIENTED_EDGE ( 'NONE', *, *, #63, .T. ) ;
#174 = ADVANCED_FACE ( 'NONE', ( #102 ), #94, .T. ) ;
#175 = DIRECTION ( 'NONE',  ( -0.0000000000000000000, 1.000000000000000000, -0.0000000000000000000 ) ) ;
#176 = DIRECTION ( 'NONE',  ( 1.000000000000000000, 0.0000000000000000000, 0.0000000000000000000 ) ) ;
#177 = DIRECTION ( 'NONE',  ( 0.0000000000000000000, 0.0000000000000000000, 1.000000000000000000 ) ) ;
#178 = VERTEX_POINT ( 'NONE', #155 ) ;
#179 = DIRECTION ( 'NONE',  ( 0.0000000000000000000, 0.0000000000000000000, -1.000000000000000000 ) ) ;
#180 = DIRECTION ( 'NONE',  ( -0.0000000000000000000, -1.000000000000000000, -0.0000000000000000000 ) ) ;
#181 = ADVANCED_FACE ( 'NONE', ( #93 ), #226, .T. ) ;
#182 = ORIENTED_EDGE ( 'NONE', *, *, #87, .T. ) ;
#183 =( NAMED_UNIT ( * ) SI_UNIT ( $, .STERADIAN. ) SOLID_ANGLE_UNIT ( ) );
#184 = ORIENTED_EDGE ( 'NONE', *, *, #60, .T. ) ;
#185 =( NAMED_UNIT ( * ) PLANE_ANGLE_UNIT ( ) SI_UNIT ( $, .RADIAN. ) );
#186 =( LENGTH_UNIT ( ) NAMED_UNIT ( * ) SI_UNIT ( .MILLI., .METRE. ) );
#187 = EDGE_LOOP ( 'NONE', ( #198, #152, #188, #161 ) ) ;
#188 = ORIENTED_EDGE ( 'NONE', *, *, #59, .F. ) ;
#189 = SURFACE_SIDE_STYLE ('',( #92 ) ) ;
#190 = CARTESIAN_POINT ( 'NONE',  ( 0.0000000000000000000, 20.00000000000007500, 0.0000000000000000000 ) ) ;
#191 = SURFACE_STYLE_USAGE ( .BOTH. , #189 ) ;
#192 = VERTEX_POINT ( 'NONE', #224 ) ;
#193 = ORIENTED_EDGE ( 'NONE', *, *, #201, .F. ) ;
#194 = DIRECTION ( 'NONE',  ( 8.659560562354921800E-017, -0.7071067811865484600, 0.7071067811865465700 ) ) ;
#195 = EDGE_LOOP ( 'NONE', ( #160, #216, #220, #13 ) ) ;
#196 = DIRECTION ( 'NONE',  ( 0.0000000000000000000, -1.000000000000000000, 0.0000000000000000000 ) ) ;
#197 = VERTEX_POINT ( 'NONE', #65 ) ;
#198 = ORIENTED_EDGE ( 'NONE', *, *, #60, .F. ) ;
#199 = EDGE_LOOP ( 'NONE', ( #146, #137, #136, #159 ) ) ;
#200 = FILL_AREA_STYLE_COLOUR ( '', #96 ) ;
#201 = EDGE_CURVE ( 'NONE', #178, #167, #97, .T. ) ;
#202 = ORIENTED_EDGE ( 'NONE', *, *, #201, .T. ) ;
#203 = ORIENTED_EDGE ( 'NONE', *, *, #81, .T. ) ;
#204 = DIRECTION ( 'NONE',  ( 0.0000000000000000000, 0.0000000000000000000, -1.000000000000000000 ) ) ;
#205 = ORIENTED_EDGE ( 'NONE', *, *, #61, .F. ) ;
#206 = ORIENTED_EDGE ( 'NONE', *, *, #64, .F. ) ;
#207 = EDGE_LOOP ( 'NONE', ( #182, #165 ) ) ;
#208 = CARTESIAN_POINT ( 'NONE',  ( 0.0000000000000000000, 107.0000000000000000, -160.0000000000001400 ) ) ;
#209 = ADVANCED_FACE ( 'NONE', ( #118 ), #90, .T. ) ;
#210 = DIRECTION ( 'NONE',  ( 0.0000000000000000000, 0.0000000000000000000, 1.000000000000000000 ) ) ;
#211 = ORIENTED_EDGE ( 'NONE', *, *, #85, .T. ) ;
#212 = VERTEX_POINT ( 'NONE', #75 ) ;
#213 = CARTESIAN_POINT ( 'NONE',  ( 0.0000000000000000000, 87.00000000000005700, 0.0000000000000000000 ) ) ;
#214 = ORIENTED_EDGE ( 'NONE', *, *, #58, .T. ) ;
#215 = VERTEX_POINT ( 'NONE', #76 ) ;
#216 = ORIENTED_EDGE ( 'NONE', *, *, #88, .T. ) ;
#217 = DIRECTION ( 'NONE',  ( 0.0000000000000000000, -1.000000000000000000, 0.0000000000000000000 ) ) ;
#218 = CARTESIAN_POINT ( 'NONE',  ( 1.959434878635767100E-014, 107.0000000000000000, 160.0000000000001400 ) ) ;
#219 = DIRECTION ( 'NONE',  ( 0.0000000000000000000, 1.000000000000000000, 0.0000000000000000000 ) ) ;
#220 = ORIENTED_EDGE ( 'NONE', *, *, #64, .T. ) ;
#221 = DIRECTION ( 'NONE',  ( 0.0000000000000000000, -0.0000000000000000000, 1.000000000000000000 ) ) ;
#222 = DIRECTION ( 'NONE',  ( 0.0000000000000000000, 1.000000000000000000, 0.0000000000000000000 ) ) ;
#223 = PRODUCT_RELATED_PRODUCT_CATEGORY ( 'part', '', ( #148 ) ) ;
#224 = CARTESIAN_POINT ( 'NONE',  ( 0.0000000000000000000, 0.0000000000000000000, 159.9999999999998600 ) ) ;
#225 = CARTESIAN_POINT ( 'NONE',  ( 0.0000000000000000000, 107.0000000000000000, 0.0000000000000000000 ) ) ;
#226 = PLANE ( 'NONE',  #14 ) ;
#227 = MANIFOLD_SOLID_BREP ( 'Ôàñêà1', #57 ) ;
#228 = DIRECTION ( 'NONE',  ( 0.0000000000000000000, 0.7071067811865460200, 0.7071067811865489100 ) ) ;
#229 = PRODUCT_DEFINITION_FORMATION_WITH_SPECIFIED_SOURCE ( 'ANY', '', #148, .NOT_KNOWN. ) ;
#230 = ADVANCED_FACE ( 'NONE', ( #98 ), #67, .T. ) ;
#231 = PRODUCT_DEFINITION ( 'UNKNOWN', '', #229, #89 ) ;
#232 = CARTESIAN_POINT ( 'NONE',  ( 0.0000000000000000000, 87.00000000000005700, 0.0000000000000000000 ) ) ;
#233 =( NAMED_UNIT ( * ) SI_UNIT ( $, .STERADIAN. ) SOLID_ANGLE_UNIT ( ) );
#234 = AXIS2_PLACEMENT_3D ( 'NONE', #77, #177, #176 ) ;
#235 = DIRECTION ( 'NONE',  ( 0.0000000000000000000, 0.0000000000000000000, 1.000000000000000000 ) ) ;
#236 =( GEOMETRIC_REPRESENTATION_CONTEXT ( 3 ) GLOBAL_UNCERTAINTY_ASSIGNED_CONTEXT ( ( #135 ) ) GLOBAL_UNIT_ASSIGNED_CONTEXT ( ( #79, #74, #183 ) ) REPRESENTATION_CONTEXT ( 'NONE', 'WORKASPACE' ) );
#237 = MECHANICAL_DESIGN_GEOMETRIC_PRESENTATION_REPRESENTATION (  '', ( #239 ), #236 ) ;
#238 = PRESENTATION_LAYER_ASSIGNMENT (  '', '', ( #239 ) ) ;
#239 = STYLED_ITEM ( 'NONE', ( #56 ), #130 ) ;
#240 = CARTESIAN_POINT ( 'NONE',  ( 0.0000000000000000000, 107.0000000000000000, 0.0000000000000000000 ) ) ;
ENDSEC;
END-ISO-10303-21;
