  0
SECTION
  2
HEADER
  9
$ACADVER
  1
AC1021
  9
$ACADMAINTVER
 70
    50
  9
$DWGCODEPAGE
  3
ANSI_1251
  9
$LASTSAVEDBY
  1
Игорь
  9
$INSBASE
 10
0.0
 20
0.0
 30
0.0
  9
$EXTMIN
 10
-221.3167232399302
 20
-117.9780697030226
 30
-0.0015258207003583
  9
$EXTMAX
 10
356.5530433428859
 20
278.7632177389498
 30
0.0000000349246037
  9
$LIMMIN
 10
0.0
 20
0.0
  9
$LIMMAX
 10
279.4
 20
215.9
  9
$ORTHOMODE
 70
     0
  9
$REGENMODE
 70
     1
  9
$FILLMODE
 70
     1
  9
$QTEXTMODE
 70
     0
  9
$MIRRTEXT
 70
     1
  9
$LTSCALE
 40
1.0
  9
$ATTMODE
 70
     1
  9
$TEXTSIZE
 40
3.5
  9
$TRACEWID
 40
1.0
  9
$TEXTSTYLE
  7
Standard
  9
$CLAYER
  8
0
  9
$CELTYPE
  6
ByLayer
  9
$CECOLOR
 62
   256
  9
$CELTSCALE
 40
1.0
  9
$DISPSILH
 70
     0
  9
$DIMSCALE
 40
1.0
  9
$DIMASZ
 40
3.5
  9
$DIMEXO
 40
0.01
  9
$DIMDLI
 40
3.75
  9
$DIMRND
 40
0.0
  9
$DIMDLE
 40
0.0
  9
$DIMEXE
 40
1.0
  9
$DIMTP
 40
0.0
  9
$DIMTM
 40
0.0
  9
$DIMTXT
 40
3.5
  9
$DIMCEN
 40
2.5
  9
$DIMTSZ
 40
0.0
  9
$DIMTOL
 70
     0
  9
$DIMLIM
 70
     0
  9
$DIMTIH
 70
     1
  9
$DIMTOH
 70
     1
  9
$DIMSE1
 70
     0
  9
$DIMSE2
 70
     0
  9
$DIMTAD
 70
     1
  9
$DIMZIN
 70
     0
  9
$DIMBLK
  1

  9
$DIMASO
 70
     1
  9
$DIMSHO
 70
     1
  9
$DIMPOST
  1

  9
$DIMAPOST
  1

  9
$DIMALT
 70
     0
  9
$DIMALTD
 70
     3
  9
$DIMALTF
 40
0.0393700787401575
  9
$DIMLFAC
 40
1.0
  9
$DIMTOFL
 70
     1
  9
$DIMTVP
 40
0.0
  9
$DIMTIX
 70
     0
  9
$DIMSOXD
 70
     0
  9
$DIMSAH
 70
     0
  9
$DIMBLK1
  1

  9
$DIMBLK2
  1

  9
$DIMSTYLE
  2
ISO-25
  9
$DIMCLRD
 70
     0
  9
$DIMCLRE
 70
     0
  9
$DIMCLRT
 70
     0
  9
$DIMTFAC
 40
1.0
  9
$DIMGAP
 40
3.0
  9
$DIMJUST
 70
     0
  9
$DIMSD1
 70
     0
  9
$DIMSD2
 70
     0
  9
$DIMTOLJ
 70
     0
  9
$DIMTZIN
 70
     0
  9
$DIMALTZ
 70
     0
  9
$DIMALTTZ
 70
     0
  9
$DIMUPT
 70
     0
  9
$DIMDEC
 70
     2
  9
$DIMTDEC
 70
     3
  9
$DIMALTU
 70
     2
  9
$DIMALTTD
 70
     3
  9
$DIMTXSTY
  7
Standard
  9
$DIMAUNIT
 70
     0
  9
$DIMADEC
 70
     2
  9
$DIMALTRND
 40
0.0
  9
$DIMAZIN
 70
     0
  9
$DIMDSEP
 70
    44
  9
$DIMATFIT
 70
     3
  9
$DIMFRAC
 70
     0
  9
$DIMLDRBLK
  1

  9
$DIMLUNIT
 70
     2
  9
$DIMLWD
 70
    -2
  9
$DIMLWE
 70
    -2
  9
$DIMTMOVE
 70
     0
  9
$DIMFXL
 40
1.0
  9
$DIMFXLON
 70
     0
  9
$DIMJOGANG
 40
0.7853981633974483
  9
$DIMTFILL
 70
     0
  9
$DIMTFILLCLR
 70
     0
  9
$DIMARCSYM
 70
     0
  9
$DIMLTYPE
  6

  9
$DIMLTEX1
  6

  9
$DIMLTEX2
  6

  9
$LUNITS
 70
     2
  9
$LUPREC
 70
     2
  9
$SKETCHINC
 40
1.0
  9
$FILLETRAD
 40
10.0
  9
$AUNITS
 70
     0
  9
$AUPREC
 70
     2
  9
$MENU
  1
.
  9
$ELEVATION
 40
0.0
  9
$PELEVATION
 40
0.0
  9
$THICKNESS
 40
0.0
  9
$LIMCHECK
 70
     0
  9
$CHAMFERA
 40
10.0
  9
$CHAMFERB
 40
10.0
  9
$CHAMFERC
 40
20.0
  9
$CHAMFERD
 40
0.0
  9
$SKPOLY
 70
     0
  9
$TDCREATE
 40
2458050.445571840
  9
$TDUCREATE
 40
2458050.320571840
  9
$TDUPDATE
 40
2458050.448990613
  9
$TDUUPDATE
 40
2458050.323990613
  9
$TDINDWG
 40
0.0003395949
  9
$TDUSRTIMER
 40
0.0003395949
  9
$USRTIMER
 70
     1
  9
$ANGBASE
 50
0.0
  9
$ANGDIR
 70
     0
  9
$PDMODE
 70
     0
  9
$PDSIZE
 40
-1.0
  9
$PLINEWID
 40
0.0
  9
$SPLFRAME
 70
     0
  9
$SPLINETYPE
 70
     6
  9
$SPLINESEGS
 70
     8
  9
$HANDSEED
  5
28F
  9
$SURFTAB1
 70
     6
  9
$SURFTAB2
 70
     6
  9
$SURFTYPE
 70
     6
  9
$SURFU
 70
     6
  9
$SURFV
 70
     6
  9
$UCSBASE
  2

  9
$UCSNAME
  2

  9
$UCSORG
 10
0.0
 20
0.0
 30
0.0
  9
$UCSXDIR
 10
1.0
 20
0.0
 30
0.0
  9
$UCSYDIR
 10
0.0
 20
1.0
 30
0.0
  9
$UCSORTHOREF
  2

  9
$UCSORTHOVIEW
 70
     0
  9
$UCSORGTOP
 10
0.0
 20
0.0
 30
0.0
  9
$UCSORGBOTTOM
 10
0.0
 20
0.0
 30
0.0
  9
$UCSORGLEFT
 10
0.0
 20
0.0
 30
0.0
  9
$UCSORGRIGHT
 10
0.0
 20
0.0
 30
0.0
  9
$UCSORGFRONT
 10
0.0
 20
0.0
 30
0.0
  9
$UCSORGBACK
 10
0.0
 20
0.0
 30
0.0
  9
$PUCSBASE
  2

  9
$PUCSNAME
  2

  9
$PUCSORG
 10
0.0
 20
0.0
 30
0.0
  9
$PUCSXDIR
 10
1.0
 20
0.0
 30
0.0
  9
$PUCSYDIR
 10
0.0
 20
1.0
 30
0.0
  9
$PUCSORTHOREF
  2

  9
$PUCSORTHOVIEW
 70
     0
  9
$PUCSORGTOP
 10
0.0
 20
0.0
 30
0.0
  9
$PUCSORGBOTTOM
 10
0.0
 20
0.0
 30
0.0
  9
$PUCSORGLEFT
 10
0.0
 20
0.0
 30
0.0
  9
$PUCSORGRIGHT
 10
0.0
 20
0.0
 30
0.0
  9
$PUCSORGFRONT
 10
0.0
 20
0.0
 30
0.0
  9
$PUCSORGBACK
 10
0.0
 20
0.0
 30
0.0
  9
$USERI1
 70
     0
  9
$USERI2
 70
     0
  9
$USERI3
 70
     0
  9
$USERI4
 70
     0
  9
$USERI5
 70
     0
  9
$USERR1
 40
0.0
  9
$USERR2
 40
0.0
  9
$USERR3
 40
0.0
  9
$USERR4
 40
0.0
  9
$USERR5
 40
0.0
  9
$WORLDVIEW
 70
     1
  9
$SHADEDGE
 70
     3
  9
$SHADEDIF
 70
    70
  9
$TILEMODE
 70
     1
  9
$MAXACTVP
 70
    64
  9
$PINSBASE
 10
0.0
 20
0.0
 30
0.0
  9
$PLIMCHECK
 70
     0
  9
$PEXTMIN
 10
1.000000000000000E+20
 20
1.000000000000000E+20
 30
1.000000000000000E+20
  9
$PEXTMAX
 10
-1.000000000000000E+20
 20
-1.000000000000000E+20
 30
-1.000000000000000E+20
  9
$PLIMMIN
 10
0.0
 20
0.0
  9
$PLIMMAX
 10
420.0
 20
297.0
  9
$UNITMODE
 70
     0
  9
$VISRETAIN
 70
     1
  9
$PLINEGEN
 70
     0
  9
$PSLTSCALE
 70
     1
  9
$TREEDEPTH
 70
  3020
  9
$CMLSTYLE
  2
Standard
  9
$CMLJUST
 70
     0
  9
$CMLSCALE
 40
20.0
  9
$PROXYGRAPHICS
 70
     1
  9
$MEASUREMENT
 70
     1
  9
$CELWEIGHT
370
    -1
  9
$ENDCAPS
280
     0
  9
$JOINSTYLE
280
     0
  9
$LWDISPLAY
290
     1
  9
$INSUNITS
 70
     4
  9
$HYPERLINKBASE
  1

  9
$STYLESHEET
  1

  9
$XEDIT
290
     1
  9
$CEPSNTYPE
380
     0
  9
$PSTYLEMODE
290
     1
  9
$FINGERPRINTGUID
  2
{26E7F22D-963C-4F04-80FE-9F410E5F2BA2}
  9
$VERSIONGUID
  2
{60EF5B5A-D721-4ED4-8AB2-907C283E6CD9}
  9
$EXTNAMES
290
     1
  9
$PSVPSCALE
 40
0.0
  9
$OLESTARTUP
290
     0
  9
$SORTENTS
280
   127
  9
$INDEXCTL
280
     0
  9
$HIDETEXT
280
     0
  9
$XCLIPFRAME
290
     0
  9
$HALOGAP
280
     0
  9
$OBSCOLOR
 70
   257
  9
$OBSLTYPE
280
     0
  9
$INTERSECTIONDISPLAY
280
     0
  9
$INTERSECTIONCOLOR
 70
   257
  9
$DIMASSOC
280
     1
  9
$PROJECTNAME
  1

  9
$CAMERADISPLAY
290
     0
  9
$LENSLENGTH
 40
50.0
  9
$CAMERAHEIGHT
 40
0.0
  9
$STEPSPERSEC
 40
2.0
  9
$STEPSIZE
 40
6.0
  9
$3DDWFPREC
 40
2.0
  9
$PSOLWIDTH
 40
0.25
  9
$PSOLHEIGHT
 40
4.0
  9
$LOFTANG1
 40
1.570796326794896
  9
$LOFTANG2
 40
1.570796326794896
  9
$LOFTMAG1
 40
0.0
  9
$LOFTMAG2
 40
0.0
  9
$LOFTPARAM
 70
     7
  9
$LOFTNORMALS
280
     1
  9
$LATITUDE
 40
37.795
  9
$LONGITUDE
 40
-122.394
  9
$NORTHDIRECTION
 40
0.0
  9
$TIMEZONE
 70
 -8000
  9
$LIGHTGLYPHDISPLAY
280
     1
  9
$TILEMODELIGHTSYNCH
280
     1
  9
$CMATERIAL
347
23F
  9
$SOLIDHIST
280
     1
  9
$SHOWHIST
280
     1
  9
$DWFFRAME
280
     2
  9
$DGNFRAME
280
     0
  9
$REALWORLDSCALE
290
     1
  9
$INTERFERECOLOR
 62
     1
  9
$INTERFEREOBJVS
345
261
  9
$INTERFEREVPVS
346
25E
  9
$CSHADOW
280
     0
  9
$SHADOWPLANELOCATION
 40
0.0
  0
ENDSEC
  0
SECTION
  2
CLASSES
  0
CLASS
  1
ACDBDICTIONARYWDFLT
  2
AcDbDictionaryWithDefault
  3
ObjectDBX Classes
 90
        0
 91
        1
280
     0
281
     0
  0
CLASS
  1
VISUALSTYLE
  2
AcDbVisualStyle
  3
ObjectDBX Classes
 90
     4095
 91
       16
280
     0
281
     0
  0
CLASS
  1
MATERIAL
  2
AcDbMaterial
  3
ObjectDBX Classes
 90
     1153
 91
        3
280
     0
281
     0
  0
CLASS
  1
TABLESTYLE
  2
AcDbTableStyle
  3
ObjectDBX Classes
 90
     4095
 91
        1
280
     0
281
     0
  0
CLASS
  1
SCALE
  2
AcDbScale
  3
ObjectDBX Classes
 90
     1153
 91
       17
280
     0
281
     0
  0
CLASS
  1
MLEADERSTYLE
  2
AcDbMLeaderStyle
  3
ACDB_MLEADERSTYLE_CLASS
 90
     4095
 91
        1
280
     0
281
     0
  0
CLASS
  1
DICTIONARYVAR
  2
AcDbDictionaryVar
  3
ObjectDBX Classes
 90
        0
 91
        7
280
     0
281
     0
  0
CLASS
  1
CELLSTYLEMAP
  2
AcDbCellStyleMap
  3
ObjectDBX Classes
 90
     1152
 91
        1
280
     0
281
     0
  0
ENDSEC
  0
SECTION
  2
TABLES
  0
TABLE
  2
VPORT
  5
8
330
0
100
AcDbSymbolTable
 70
     1
  0
VPORT
  5
29
330
8
100
AcDbSymbolTableRecord
100
AcDbViewportTableRecord
  2
*Active
 70
     0
 10
0.0
 20
0.0
 11
1.0
 21
1.0
 12
67.61816005147778
 22
80.3925740179636
 13
0.0
 23
0.0
 14
10.0
 24
10.0
 15
10.0
 25
10.0
 16
0.0
 26
0.0
 36
1.0
 17
0.0
 27
0.0
 37
0.0
 40
401.6393280276757
 41
2.604123711340206
 42
50.0
 43
0.0
 44
0.0
 50
0.0
 51
0.0
 71
     0
 72
  2000
 73
     1
 74
     3
 75
     0
 76
     0
 77
     0
 78
     0
281
     0
 65
     1
110
0.0
120
0.0
130
0.0
111
1.0
121
0.0
131
0.0
112
0.0
122
1.0
132
0.0
 79
     0
146
0.0
348
25D
 60
     3
 61
     5
292
     1
282
     1
141
0.0
142
0.0
 63
   250
421
  3355443
  0
ENDTAB
  0
TABLE
  2
LTYPE
  5
5
330
0
100
AcDbSymbolTable
 70
     6
  0
LTYPE
  5
14
330
5
100
AcDbSymbolTableRecord
100
AcDbLinetypeTableRecord
  2
ByBlock
 70
     0
  3

 72
    65
 73
     0
 40
0.0
  0
LTYPE
  5
15
330
5
100
AcDbSymbolTableRecord
100
AcDbLinetypeTableRecord
  2
ByLayer
 70
     0
  3

 72
    65
 73
     0
 40
0.0
  0
LTYPE
  5
16
330
5
100
AcDbSymbolTableRecord
100
AcDbLinetypeTableRecord
  2
Continuous
 70
     0
  3
Solid line
 72
    65
 73
     0
 40
0.0
  0
LTYPE
  5
3F
330
5
100
AcDbSymbolTableRecord
100
AcDbLinetypeTableRecord
  2
HIDDEN
 70
     0
  3
Hidden __ __ __ __ __ __ __ __ __ __ __ __ __ __
 72
    65
 73
     2
 40
1.905
 49
1.27
 74
     0
 49
-0.635
 74
     0
  0
LTYPE
  5
40
330
5
100
AcDbSymbolTableRecord
100
AcDbLinetypeTableRecord
  2
PHANTOM
 70
     0
  3
Phantom ______  __  __  ______  __  __  ______
 72
    65
 73
     6
 40
12.7
 49
6.349999999999999
 74
     0
 49
-1.27
 74
     0
 49
1.27
 74
     0
 49
-1.27
 74
     0
 49
1.27
 74
     0
 49
-1.27
 74
     0
  0
LTYPE
  5
41
330
5
100
AcDbSymbolTableRecord
100
AcDbLinetypeTableRecord
  2
CENTER
 70
     0
  3
Center ____ _ ____ _ ____ _ ____ _ ____ _ ____
 72
    65
 73
     4
 40
10.16
 49
6.349999999999999
 74
     0
 49
-1.27
 74
     0
 49
1.27
 74
     0
 49
-1.27
 74
     0
  0
LTYPE
  5
42
330
5
100
AcDbSymbolTableRecord
100
AcDbLinetypeTableRecord
  2
CENTERX2
 70
     0
  3
Center (2x) ________  __  ________  __  _____
 72
    65
 73
     4
 40
20.32
 49
12.7
 74
     0
 49
-2.54
 74
     0
 49
2.54
 74
     0
 49
-2.54
 74
     0
  0
LTYPE
  5
43
330
5
100
AcDbSymbolTableRecord
100
AcDbLinetypeTableRecord
  2
DOT2
 70
     0
  3
Dot (.5x) ........................................
 72
    65
 73
     2
 40
0.635
 49
0.0
 74
     0
 49
-0.635
 74
     0
  0
ENDTAB
  0
TABLE
  2
LAYER
  5
2
330
0
100
AcDbSymbolTable
 70
     1
  0
LAYER
  5
10
102
{ACAD_XDICTIONARY
360
282
102
}
330
2
100
AcDbSymbolTableRecord
100
AcDbLayerTableRecord
  2
0
 70
     0
 62
     7
  6
Continuous
370
    -3
390
F
347
24F
  0
ENDTAB
  0
TABLE
  2
STYLE
  5
3
330
0
100
AcDbSymbolTable
 70
     1
  0
STYLE
  5
11
330
3
100
AcDbSymbolTableRecord
100
AcDbTextStyleTableRecord
  2
Standard
 70
     0
 40
0.0
 41
1.0
 50
0.0
 71
     0
 42
3.5
  3
txt
  4

  0
ENDTAB
  0
TABLE
  2
VIEW
  5
6
330
0
100
AcDbSymbolTable
 70
     0
  0
ENDTAB
  0
TABLE
  2
UCS
  5
7
330
0
100
AcDbSymbolTable
 70
     0
  0
ENDTAB
  0
TABLE
  2
APPID
  5
9
330
0
100
AcDbSymbolTable
 70
     2
  0
APPID
  5
12
330
9
100
AcDbSymbolTableRecord
100
AcDbRegAppTableRecord
  2
ACAD
 70
     0
  0
APPID
  5
27F
330
9
100
AcDbSymbolTableRecord
100
AcDbRegAppTableRecord
  2
ACAD_MLEADERVER
 70
     0
  0
ENDTAB
  0
TABLE
  2
DIMSTYLE
  5
A
330
0
100
AcDbSymbolTable
 70
     1
100
AcDbDimStyleTable
 71
     0
  0
DIMSTYLE
105
27
330
A
100
AcDbSymbolTableRecord
100
AcDbDimStyleTableRecord
  2
ISO-25
 70
     0
 41
2.5
 42
0.625
 43
3.75
 44
1.25
 73
     0
 74
     0
 77
     1
 78
     8
140
2.5
141
2.5
143
0.03937007874016
147
0.625
171
     3
172
     1
271
     2
272
     2
274
     3
278
    44
283
     0
284
     8
340
11
  0
ENDTAB
  0
TABLE
  2
BLOCK_RECORD
  5
1
330
0
100
AcDbSymbolTable
 70
     1
  0
BLOCK_RECORD
  5
1F
330
1
100
AcDbSymbolTableRecord
100
AcDbBlockTableRecord
  2
*Model_Space
340
22
 70
     0
280
     1
281
     0
  0
BLOCK_RECORD
  5
1B
330
1
100
AcDbSymbolTableRecord
100
AcDbBlockTableRecord
  2
*Paper_Space
340
1E
 70
     0
280
     1
281
     0
  0
BLOCK_RECORD
  5
23
330
1
100
AcDbSymbolTableRecord
100
AcDbBlockTableRecord
  2
*Paper_Space0
340
26
 70
     0
280
     1
281
     0
  0
ENDTAB
  0
ENDSEC
  0
SECTION
  2
BLOCKS
  0
BLOCK
  5
20
330
1F
100
AcDbEntity
  8
0
100
AcDbBlockBegin
  2
*Model_Space
 70
     0
 10
0.0
 20
0.0
 30
0.0
  3
*Model_Space
  1

  0
ENDBLK
  5
21
330
1F
100
AcDbEntity
  8
0
100
AcDbBlockEnd
  0
BLOCK
  5
1C
330
1B
100
AcDbEntity
 67
     1
  8
0
100
AcDbBlockBegin
  2
*Paper_Space
 70
     0
 10
0.0
 20
0.0
 30
0.0
  3
*Paper_Space
  1

  0
ENDBLK
  5
1D
330
1B
100
AcDbEntity
 67
     1
  8
0
100
AcDbBlockEnd
  0
BLOCK
  5
24
330
23
100
AcDbEntity
 67
     1
  8
0
100
AcDbBlockBegin
  2
*Paper_Space0
 70
     0
 10
0.0
 20
0.0
 30
0.0
  3
*Paper_Space0
  1

  0
ENDBLK
  5
25
330
23
100
AcDbEntity
 67
     1
  8
0
100
AcDbBlockEnd
  0
ENDSEC
  0
SECTION
  2
ENTITIES
  0
LINE
  5
44
330
1F
100
AcDbEntity
  8
0
  6
Continuous
 62
     7
370
    15
100
AcDbLine
 10
-23.83577648217198
 20
278.750063176561
 30
0.0
 11
-23.83577648217198
 21
267.750063176561
 31
0.0
  0
LINE
  5
45
330
1F
100
AcDbEntity
  8
0
  6
Continuous
 62
     7
370
    15
100
AcDbLine
 10
29.35052615929595
 20
267.750063176561
 30
0.0
 11
29.35052615929595
 21
278.750063176561
 31
0.0
  0
LINE
  5
46
330
1F
100
AcDbEntity
  8
0
  6
Continuous
 62
     7
370
    15
100
AcDbLine
 10
-52.24947384070407
 20
278.750063176561
 30
0.0
 11
-52.24947384070407
 21
267.750063176561
 31
0.0
  0
LINE
  5
47
330
1F
100
AcDbEntity
  8
0
  6
Continuous
 62
     7
370
    15
100
AcDbLine
 10
26.4370760569916
 20
244.750063176561
 30
0.0
 11
26.4370760569916
 21
264.750063176561
 31
0.0
  0
LINE
  5
48
330
1F
100
AcDbEntity
  8
0
  6
Continuous
 62
     7
370
    15
100
AcDbLine
 10
-49.70517769283762
 20
264.750063176561
 30
0.0
 11
-49.70517769283762
 21
244.750063176561
 31
0.0
  0
LINE
  5
49
330
1F
100
AcDbEntity
  8
0
  6
Continuous
 62
     7
370
    15
100
AcDbLine
 10
23.81833691737325
 20
242.6557360228676
 30
0.0
 11
23.81833691737325
 21
244.750063176561
 31
0.0
  0
LINE
  5
4A
330
1F
100
AcDbEntity
  8
0
  6
Continuous
 62
     7
370
    15
100
AcDbLine
 10
23.81833691737325
 20
214.7500631765611
 30
0.0
 11
23.81833691737325
 21
216.9322746960399
 31
0.0
  0
LINE
  5
4B
330
1F
100
AcDbEntity
  8
0
  6
Continuous
 62
     7
370
    15
100
AcDbLine
 10
-46.18166308262675
 20
216.9322746960398
 30
0.0
 11
-46.18166308262675
 21
214.7500631765611
 31
0.0
  0
LINE
  5
4C
330
1F
100
AcDbEntity
  8
0
  6
Continuous
 62
     7
370
    15
100
AcDbLine
 10
-46.18166308262675
 20
244.750063176561
 30
0.0
 11
-46.18166308262675
 21
242.6557360228676
 31
0.0
  0
LINE
  5
4D
330
1F
100
AcDbEntity
  8
0
  6
Continuous
 62
     7
370
    15
100
AcDbLine
 10
20.24502543977974
 20
264.750063176561
 30
0.0
 11
20.24502543977974
 21
267.750063176561
 31
0.0
  0
LINE
  5
4E
330
1F
100
AcDbEntity
  8
0
  6
Continuous
 62
     7
370
    15
100
AcDbLine
 10
-43.14397312118785
 20
267.750063176561
 30
0.0
 11
-43.14397312118785
 21
264.750063176561
 31
0.0
  0
LINE
  5
4F
330
1F
100
AcDbEntity
  8
0
  6
Continuous
 62
     7
370
    15
100
AcDbLine
 10
70.68734973205909
 20
246.572559683884
 30
0.0
 11
50.68734973205909
 21
246.572559683884
 31
0.0
  0
LINE
  5
50
330
1F
100
AcDbEntity
  8
0
  6
Continuous
 62
     7
370
    15
100
AcDbLine
 10
100.6873497320591
 20
246.8484537013226
 30
0.0
 11
80.68734973205909
 21
246.8484537013226
 31
0.0
  0
LINE
  5
51
330
1F
100
AcDbEntity
  8
0
  6
Continuous
 62
     7
370
    15
100
AcDbLine
 10
80.68734973205909
 20
245.0345538397559
 30
0.0
 11
70.68734973205909
 21
245.0345538397559
 31
0.0
  0
LINE
  5
52
330
1F
100
AcDbEntity
  8
0
  6
Continuous
 62
     7
370
    15
100
AcDbLine
 10
70.68734973205909
 20
214.9256571560183
 30
0.0
 11
80.68734973205909
 21
214.9256571560183
 31
0.0
  0
LINE
  5
53
330
1F
100
AcDbEntity
  8
0
  6
Continuous
 62
     7
370
    15
100
AcDbLine
 10
50.68734973205909
 20
242.6557360228676
 30
0.0
 11
23.71767440684653
 21
242.6557360228676
 31
0.0
  0
LINE
  5
54
330
1F
100
AcDbEntity
  8
0
  6
Continuous
 62
     7
370
    15
100
AcDbLine
 10
23.71262073445388
 20
216.9322746960399
 30
0.0
 11
50.68734973205909
 21
216.9322746960399
 31
0.0
  0
LINE
  5
55
330
1F
100
AcDbEntity
  8
0
  6
Continuous
 62
     7
370
    15
100
AcDbLine
 10
-46.08892816580385
 20
242.6557360228676
 30
0.0
 11
-69.31265026794091
 21
242.6557360228676
 31
0.0
  0
LINE
  5
56
330
1F
100
AcDbEntity
  8
0
  6
Continuous
 62
     7
370
    15
100
AcDbLine
 10
-69.31265026794091
 20
216.9322746960398
 30
0.0
 11
-46.08559483249274
 21
216.9322746960398
 31
0.0
  0
LINE
  5
57
330
1F
100
AcDbEntity
  8
0
  6
Continuous
 62
     7
370
    15
100
AcDbLine
 10
31.32304193347602
 20
267.7500631765611
 30
0.0
 11
31.32304193347602
 21
278.7500631765611
 31
0.0
  0
LINE
  5
58
330
1F
100
AcDbEntity
  8
0
  6
Continuous
 62
     7
370
    15
100
AcDbLine
 10
-211.312650267941
 20
161.9149629133864
 30
0.0
 11
-221.312650267941
 21
161.9149629133864
 31
0.0
  0
LINE
  5
59
330
1F
100
AcDbEntity
  8
0
  6
Continuous
 62
     7
370
    15
100
AcDbLine
 10
-221.312650267941
 20
113.5416826552542
 30
0.0
 11
-211.312650267941
 21
113.5416826552542
 31
0.0
  0
LINE
  5
5A
330
1F
100
AcDbEntity
  8
0
  6
Continuous
 62
     7
370
    15
100
AcDbLine
 10
-211.312650267941
 20
178.8281967504788
 30
0.0
 11
-221.312650267941
 21
178.8281967504788
 31
0.0
  0
LINE
  5
5B
330
1F
100
AcDbEntity
  8
0
  6
Continuous
 62
     7
370
    15
100
AcDbLine
 10
-221.312650267941
 20
109.1162432181416
 30
0.0
 11
-211.312650267941
 21
109.1162432181416
 31
0.0
  0
LINE
  5
5C
330
1F
100
AcDbEntity
  8
0
  6
Continuous
 62
     7
370
    15
100
AcDbLine
 10
168.687349732059
 20
194.750063176561
 30
0.0
 11
-191.312650267941
 21
194.750063176561
 31
0.0
  0
LINE
  5
5D
330
1F
100
AcDbEntity
  8
0
  6
Continuous
 62
     7
370
    15
100
AcDbLine
 10
-191.312650267941
 20
64.75006317656109
 30
0.0
 11
168.687349732059
 21
64.75006317656109
 31
0.0
  0
LINE
  5
5E
330
1F
100
AcDbEntity
  8
0
  6
Continuous
 62
     7
370
    15
100
AcDbLine
 10
168.687349732059
 20
64.75006317656109
 30
0.0
 11
168.687349732059
 21
194.750063176561
 31
0.0
  0
CIRCLE
  5
5F
330
1F
100
AcDbEntity
  8
0
  6
Continuous
 62
     7
370
    15
100
AcDbCircle
 10
-174.2944207265205
 20
205.5195769571152
 30
0.0
 40
4.830847513862664
  0
CIRCLE
  5
60
330
1F
100
AcDbEntity
  8
0
  6
Continuous
 62
     7
370
    15
100
AcDbCircle
 10
179.5028191304339
 20
170.263558300041
 30
0.0
 40
4.830847513862636
  0
CIRCLE
  5
61
330
1F
100
AcDbEntity
  8
0
  6
Continuous
 62
     7
370
    15
100
AcDbCircle
 10
-64.29442072652054
 20
205.5195769571152
 30
0.0
 40
4.830847513862664
  0
CIRCLE
  5
62
330
1F
100
AcDbEntity
  8
0
  6
Continuous
 62
     7
370
    15
100
AcDbCircle
 10
45.70557927347943
 20
205.5195769571152
 30
0.0
 40
4.830847513862693
  0
CIRCLE
  5
63
330
1F
100
AcDbEntity
  8
0
  6
Continuous
 62
     7
370
    15
100
AcDbCircle
 10
155.7055792734794
 20
205.5195769571152
 30
0.0
 40
4.830847513862636
  0
CIRCLE
  5
64
330
1F
100
AcDbEntity
  8
0
  6
Continuous
 62
     7
370
    15
100
AcDbCircle
 10
155.7055792734794
 20
55.51957695711519
 30
0.0
 40
4.830847513862636
  0
CIRCLE
  5
65
330
1F
100
AcDbEntity
  8
0
  6
Continuous
 62
     7
370
    15
100
AcDbCircle
 10
-174.2944207265205
 20
55.51957695711519
 30
0.0
 40
4.830847513862664
  0
CIRCLE
  5
66
330
1F
100
AcDbEntity
  8
0
  6
Continuous
 62
     7
370
    15
100
AcDbCircle
 10
179.5028191304339
 20
90.26355830004105
 30
0.0
 40
4.830847513862636
  0
CIRCLE
  5
67
330
1F
100
AcDbEntity
  8
0
  6
Continuous
 62
     7
370
    15
100
AcDbCircle
 10
-200.4971808695661
 20
90.26355830004106
 30
0.0
 40
4.830847513862678
  0
CIRCLE
  5
68
330
1F
100
AcDbEntity
  8
0
  6
Continuous
 62
     7
370
    15
100
AcDbCircle
 10
-200.4971808695661
 20
170.263558300041
 30
0.0
 40
4.830847513862678
  0
LINE
  5
69
330
1F
100
AcDbEntity
  8
0
  6
Continuous
 62
     7
370
    15
100
AcDbLine
 10
168.6873497320589
 20
214.7500631765611
 30
0.0
 11
-191.3126502679409
 21
214.7500631765611
 31
0.0
  0
ARC
  5
6A
330
1F
100
AcDbEntity
  8
0
  6
Continuous
 62
     7
370
    15
100
AcDbCircle
 10
-191.312650267941
 20
194.750063176561
 30
0.0
 40
20.00000000000006
100
AcDbArc
 50
90.0
 51
180.0000000000008
  0
CIRCLE
  5
6B
330
1F
100
AcDbEntity
  8
0
  6
Continuous
 62
     7
370
    15
100
AcDbCircle
 10
45.70557927347943
 20
55.51957695711519
 30
0.0
 40
4.83084751386275
  0
LINE
  5
6C
330
1F
100
AcDbEntity
  8
0
  6
Continuous
 62
     7
370
    15
100
AcDbLine
 10
-191.312650267941
 20
194.750063176561
 30
0.0
 11
-191.312650267941
 21
64.75006317656109
 31
0.0
  0
LINE
  5
6D
330
1F
100
AcDbEntity
  8
0
  6
Continuous
 62
     7
370
    15
100
AcDbLine
 10
-191.3126502679409
 20
44.75006317656107
 30
0.0
 11
168.6873497320589
 21
44.75006317656107
 31
0.0
  0
ARC
  5
6E
330
1F
100
AcDbEntity
  8
0
  6
Continuous
 62
     7
370
    15
100
AcDbCircle
 10
168.687349732059
 20
194.750063176561
 30
0.0
 40
20.00000000000006
100
AcDbArc
 50
0.0000000000008142
 51
90.0
  0
CIRCLE
  5
6F
330
1F
100
AcDbEntity
  8
0
  6
Continuous
 62
     7
370
    15
100
AcDbCircle
 10
-64.29442072652054
 20
55.51957695711519
 30
0.0
 40
4.830847513862693
  0
ARC
  5
70
330
1F
100
AcDbEntity
  8
0
  6
Continuous
 62
     7
370
    15
100
AcDbCircle
 10
168.687349732059
 20
64.75006317656109
 30
0.0
 40
20.00000000000003
100
AcDbArc
 50
270.0
 51
0.0
  0
LINE
  5
71
330
1F
100
AcDbEntity
  8
0
  6
Continuous
 62
     7
370
    15
100
AcDbLine
 10
188.687349732059
 20
64.75006317656121
 30
0.0
 11
188.687349732059
 21
194.7500631765609
 31
0.0
  0
LINE
  5
72
330
1F
100
AcDbEntity
  8
0
  6
Continuous
 62
     7
370
    15
100
AcDbLine
 10
-211.312650267941
 20
194.7500631765609
 30
0.0
 11
-211.312650267941
 21
64.75006317656121
 31
0.0
  0
ARC
  5
73
330
1F
100
AcDbEntity
  8
0
  6
Continuous
 62
     7
370
    15
100
AcDbCircle
 10
-191.312650267941
 20
64.75006317656109
 30
0.0
 40
20.00000000000003
100
AcDbArc
 50
180.0
 51
270.0000000000017
  0
LINE
  5
74
330
1F
100
AcDbEntity
  8
0
  6
Continuous
 62
     7
370
    15
100
AcDbLine
 10
-110.5911284982364
 20
147.3581827921339
 30
0.0
 11
-105.5203454536984
 21
146.176920832895
 31
0.0
  0
SPLINE
  5
75
330
1F
100
AcDbEntity
  8
0
  6
Continuous
 62
     7
370
    15
100
AcDbSpline
210
0.0
220
0.0
230
1.0
 70
     8
 71
     3
 72
    31
 73
    27
 74
     0
 42
0.0000000001
 43
0.0000000001
 40
0.0
 40
0.0
 40
0.0
 40
0.0
 40
0.0491959188678577
 40
0.0962478839423338
 40
0.1413486305545653
 40
0.1846561193487506
 40
0.226058682310063
 40
0.2661730836384067
 40
0.3052898413966903
 40
0.3432450951047078
 40
0.3808772760868659
 40
0.4184957931350259
 40
0.4563187508918002
 40
0.4942367370918763
 40
0.5330235289576672
 40
0.5724731943339441
 40
0.6130788090898914
 40
0.6549344546107936
 40
0.6973967795046185
 40
0.7398840686663999
 40
0.7821947798191175
 40
0.8250615348667032
 40
0.8679874655774055
 40
0.9114105439600777
 40
0.9553719455228144
 40
0.9999999999999998
 40
0.9999999999999998
 40
0.9999999999999998
 40
0.9999999999999998
 10
-120.1996861422897
 20
134.2058392703637
 30
0.0
 10
-120.6656654644447
 20
134.2126091132234
 30
0.0
 10
-121.5773167711063
 20
134.2258537697898
 30
0.0
 10
-122.9128333762322
 20
134.33358228735
 30
0.0
 10
-124.1830408090139
 20
134.5204206360655
 30
0.0
 10
-125.3855669859883
 20
134.7800057818568
 30
0.0
 10
-126.5244594671669
 20
135.1009666771672
 30
0.0
 10
-127.5949955758588
 20
135.5047639242523
 30
0.0
 10
-128.5953002312072
 20
135.9884839767385
 30
0.0
 10
-129.5337173032244
 20
136.5385986896808
 30
0.0
 10
-130.4062610145946
 20
137.1635537758016
 30
0.0
 10
-131.232773314055
 20
137.8464833958799
 30
0.0
 10
-131.993189231083
 20
138.6061878478758
 30
0.0
 10
-132.7065220397057
 20
139.4247298051475
 30
0.0
 10
-133.3572350918868
 20
140.3129069733064
 30
0.0
 10
-133.9692682630724
 20
141.2586530924703
 30
0.0
 10
-134.5127485667957
 20
142.2786321694509
 30
0.0
 10
-135.0078169632046
 20
143.3539337661499
 30
0.0
 10
-135.4423490763528
 20
144.4741470312397
 30
0.0
 10
-135.8267580054372
 20
145.6171446584387
 30
0.0
 10
-136.1410333200916
 20
146.7852041938387
 30
0.0
 10
-136.4116040856498
 20
147.9684966195455
 30
0.0
 10
-136.6081606364567
 20
149.1769785278634
 30
0.0
 10
-136.7642204522462
 20
150.4015826061985
 30
0.0
 10
-136.8500252765441
 20
151.6498167369656
 30
0.0
 10
-136.8613162861513
 20
152.4888706069949
 30
0.0
 10
-136.8670042744784
 20
152.9115545639219
 30
0.0
  0
SPLINE
  5
76
330
1F
100
AcDbEntity
  8
0
  6
Continuous
 62
     7
370
    15
100
AcDbSpline
210
0.0
220
0.0
230
1.0
 70
     8
 71
     3
 72
    31
 73
    27
 74
     0
 42
0.0000000001
 43
0.0000000001
 40
0.0
 40
0.0
 40
0.0
 40
0.0
 40
0.0494014326173352
 40
0.0976047534771127
 40
0.1442547055445423
 40
0.1894721438466751
 40
0.2339150059350923
 40
0.2772371111508618
 40
0.3198588355644325
 40
0.3619566544332703
 40
0.4034857542265479
 40
0.4439336363338552
 40
0.4836491750513748
 40
0.5228932833172716
 40
0.5618583840947373
 40
0.600794866898195
 40
0.6401043361891357
 40
0.6796434268265382
 40
0.7193997691904884
 40
0.7588541926680974
 40
0.7983154646830743
 40
0.8378024081343657
 40
0.8774685864444087
 40
0.9176827969423325
 40
0.9583928898538525
 40
1.0
 40
1.0
 40
1.0
 40
1.0
 10
-136.8670042744784
 20
152.9115545639219
 30
0.0
 10
-136.8588692529295
 20
153.3678589399655
 30
0.0
 10
-136.8427965050204
 20
154.2694011377242
 30
0.0
 10
-136.7520661037539
 20
155.5996528197866
 30
0.0
 10
-136.5854272437485
 20
156.8835084287466
 30
0.0
 10
-136.354014336868
 20
158.1218124573106
 30
0.0
 10
-136.0611844314851
 20
159.3155677538267
 30
0.0
 10
-135.6997187381437
 20
160.4653559107407
 30
0.0
 10
-135.2741897826264
 20
161.5697057864112
 30
0.0
 10
-134.7858948584991
 20
162.6298351478697
 30
0.0
 10
-134.2315898210211
 20
163.6339101558508
 30
0.0
 10
-133.6278184076164
 20
164.5833581843121
 30
0.0
 10
-132.9601783515231
 20
165.4625897189709
 30
0.0
 10
-132.2484641873067
 20
166.2884027204328
 30
0.0
 10
-131.4749003767514
 20
167.0470464753534
 30
0.0
 10
-130.6418490437218
 20
167.7402394894873
 30
0.0
 10
-129.7564974004912
 20
168.3743045616369
 30
0.0
 10
-128.8189746750001
 20
168.9433552872489
 30
0.0
 10
-127.8415353809943
 20
169.4426675256224
 30
0.0
 10
-126.8386976377351
 20
169.8874092871862
 30
0.0
 10
-125.8064727331719
 20
170.2519356157664
 30
0.0
 10
-124.7530444379103
 20
170.5550246042856
 30
0.0
 10
-123.6761448164219
 20
170.7963115947752
 30
0.0
 10
-122.5732575758842
 20
170.9576609578408
 30
0.0
 10
-121.4454018019869
 20
171.0628087039248
 30
0.0
 10
-120.6849133539739
 20
171.0770587483171
 30
0.0
 10
-120.3005255778346
 20
171.0842614124577
 30
0.0
  0
SPLINE
  5
77
330
1F
100
AcDbEntity
  8
0
  6
Continuous
 62
     7
370
    15
100
AcDbSpline
210
0.0
220
0.0
230
1.0
 70
     8
 71
     3
 72
    23
 73
    19
 74
     0
 42
0.0000000001
 43
0.0000000001
 40
0.0
 40
0.0
 40
0.0
 40
0.0
 40
0.0686494919759953
 40
0.1349373737851551
 40
0.1988418982006105
 40
0.2614093284183089
 40
0.3225167637069046
 40
0.3823768656987776
 40
0.4424709047536869
 40
0.5022278334792906
 40
0.5621014330908563
 40
0.6217316080948803
 40
0.6818513124344153
 40
0.7420491672939586
 40
0.8039081304743813
 40
0.8671621602461708
 40
0.93236059793853
 40
1.0
 40
1.0
 40
1.0
 40
1.0
 10
-120.3005255778346
 20
171.0842614124577
 30
0.0
 10
-119.8704474396695
 20
171.0761546523395
 30
0.0
 10
-119.0250862750641
 20
171.060220012639
 30
0.0
 10
-117.7846693801843
 20
170.9291544578531
 30
0.0
 10
-116.5966738606736
 20
170.7096340108029
 30
0.0
 10
-115.4559519181693
 20
170.4216439439892
 30
0.0
 10
-114.374363425479
 20
170.0273255934562
 30
0.0
 10
-113.3401658723526
 20
169.5585263944357
 30
0.0
 10
-112.3636474764464
 20
168.9953209439608
 30
0.0
 10
-111.4372100914496
 20
168.3531871463774
 30
0.0
 10
-110.575934695546
 20
167.6309407568566
 30
0.0
 10
-109.7677686547717
 20
166.845836044049
 30
0.0
 10
-109.0456647347873
 20
165.9782511173009
 30
0.0
 10
-108.3810232305635
 20
165.049183077771
 30
0.0
 10
-107.7947559801812
 20
164.0457489222746
 30
0.0
 10
-107.2652948044907
 20
162.9766975192067
 30
0.0
 10
-106.8099736031919
 20
161.8340816936909
 30
0.0
 10
-106.5663540843375
 20
161.0382181665416
 30
0.0
 10
-106.4423060072508
 20
160.6329741999228
 30
0.0
  0
LINE
  5
78
330
1F
100
AcDbEntity
  8
0
  6
Continuous
 62
     7
370
    15
100
AcDbLine
 10
-106.4423060072508
 20
160.6329741999228
 30
0.0
 11
-111.5130890517887
 21
159.545348859404
 31
0.0
  0
SPLINE
  5
79
330
1F
100
AcDbEntity
  8
0
  6
Continuous
 62
     7
370
    15
100
AcDbSpline
210
0.0
220
0.0
230
1.0
 70
     8
 71
     3
 72
    23
 73
    19
 74
     0
 42
0.0000000001
 43
0.0000000001
 40
0.0
 40
0.0
 40
0.0
 40
0.0
 40
0.0772311103286296
 40
0.1511651795217238
 40
0.2207847057253992
 40
0.2871495176777686
 40
0.3506324812950836
 40
0.4113067715078916
 40
0.4699644151376487
 40
0.5267072266832781
 40
0.5824983333641269
 40
0.6385087274080252
 40
0.6949179812139088
 40
0.7524203526591526
 40
0.811250975415507
 40
0.8718561089908078
 40
0.9346441878526857
 40
1.0
 40
1.0
 40
1.0
 40
1.0
 10
-111.5130890517887
 20
159.545348859404
 30
0.0
 10
-111.6126713156172
 20
159.8563527969152
 30
0.0
 10
-111.8075846183619
 20
160.46508373249
 30
0.0
 10
-112.1536722537434
 20
161.3326334985563
 30
0.0
 10
-112.5274353608008
 20
162.1380031255153
 30
0.0
 10
-112.9377772839197
 20
162.8757180727632
 30
0.0
 10
-113.3855873199112
 20
163.54595504487
 30
0.0
 10
-113.8605535932766
 20
164.1568597759091
 30
0.0
 10
-114.3740558199671
 20
164.6970296355582
 30
0.0
 10
-114.9156489355724
 20
165.1789195975839
 30
0.0
 10
-115.4993184643849
 20
165.5894437301333
 30
0.0
 10
-116.1113806579879
 20
165.9532356704642
 30
0.0
 10
-116.7647408404128
 20
166.2542180258599
 30
0.0
 10
-117.4499999441926
 20
166.5087869211824
 30
0.0
 10
-118.1735630134345
 20
166.7025412809788
 30
0.0
 10
-118.9324836028798
 20
166.8388551162639
 30
0.0
 10
-119.7274285180824
 20
166.9177468857562
 30
0.0
 10
-120.269138828606
 20
166.9294633186991
 30
0.0
 10
-120.5454213498719
 20
166.9354389214721
 30
0.0
  0
SPLINE
  5
7A
330
1F
100
AcDbEntity
  8
0
  6
Continuous
 62
     7
370
    15
100
AcDbSpline
210
0.0
220
0.0
230
1.0
 70
     8
 71
     3
 72
    27
 73
    23
 74
     0
 42
0.0000000001
 43
0.0000000001
 40
0.0
 40
0.0
 40
0.0
 40
0.0
 40
0.0467628351215621
 40
0.0919686966072124
 40
0.1358043853805049
 40
0.1782315801839236
 40
0.2194414332265377
 40
0.260176943268592
 40
0.3002796061140322
 40
0.3405476414666165
 40
0.3803111902076685
 40
0.4196419535698122
 40
0.4590173240985173
 40
0.4981819588897613
 40
0.5376702145628711
 40
0.5779133315743609
 40
0.6186488416164153
 40
0.6607616027603176
 40
0.7452991770631803
 40
0.8297447416906312
 40
0.9146020866092539
 40
1.0
 40
1.0
 40
1.0
 40
1.0
 10
-120.5454213498719
 20
166.9354389214721
 30
0.0
 10
-120.8626189595447
 20
166.9308366992078
 30
0.0
 10
-121.4864530502857
 20
166.9217854861655
 30
0.0
 10
-122.4029403758191
 20
166.8227209635261
 30
0.0
 10
-123.2830869766254
 20
166.6768085884642
 30
0.0
 10
-124.1203331501914
 20
166.4580004387132
 30
0.0
 10
-124.9192603673686
 20
166.1852035757893
 30
0.0
 10
-125.6751276537739
 20
165.8455232134853
 30
0.0
 10
-126.394364753498
 20
165.4473779844295
 30
0.0
 10
-127.0689446140835
 20
164.9883769780832
 30
0.0
 10
-127.6931980017655
 20
164.4723715113672
 30
0.0
 10
-128.2840653466553
 20
163.9268729970858
 30
0.0
 10
-128.8131784607731
 20
163.3264406303107
 30
0.0
 10
-129.3007140116716
 20
162.6908730443471
 30
0.0
 10
-129.7324749809418
 20
162.0089392996866
 30
0.0
 10
-130.1211321804484
 20
161.2899281594678
 30
0.0
 10
-130.4642082168863
 20
160.5279467630789
 30
0.0
 10
-130.838184392954
 20
159.4555156617601
 30
0.0
 10
-131.2195032286129
 20
158.0742492054919
 30
0.0
 10
-131.5502977887868
 20
156.3840267564753
 30
0.0
 10
-131.7610061246502
 20
154.6671749682805
 30
0.0
 10
-131.7844580411968
 20
153.5123891654801
 30
0.0
 10
-131.7962212299405
 20
152.9331630143957
 30
0.0
  0
SPLINE
  5
7B
330
1F
100
AcDbEntity
  8
0
  6
Continuous
 62
     7
370
    15
100
AcDbSpline
210
0.0
220
0.0
230
1.0
 70
     8
 71
     3
 72
    27
 73
    23
 74
     0
 42
0.0000000001
 43
0.0000000001
 40
0.0
 40
0.0
 40
0.0
 40
0.0
 40
0.105343260998403
 40
0.2043754661654296
 40
0.298068661249065
 40
0.3870699389029771
 40
0.4297257277325172
 40
0.4709012389537421
 40
0.5111216710274207
 40
0.5501787824700683
 40
0.5883543698960262
 40
0.6266830105708975
 40
0.6644516852874775
 40
0.7025148539501572
 40
0.7404811716294031
 40
0.7776181215946419
 40
0.8147160450669577
 40
0.851526510015082
 40
0.8880984508373163
 40
0.9251116757437156
 40
0.9621036957071506
 40
1.0
 40
1.0
 40
1.0
 40
1.0
 10
-131.7962212299405
 20
152.9331630143957
 30
0.0
 10
-131.7829540225521
 20
152.2048830628975
 30
0.0
 10
-131.7572144387478
 20
150.7919540043537
 30
0.0
 10
-131.5032280119833
 20
148.7443864112053
 30
0.0
 10
-131.1159908753277
 20
146.8345569915768
 30
0.0
 10
-130.6486514411364
 20
145.344509512342
 30
0.0
 10
-130.1798630331232
 20
144.2454224367197
 30
0.0
 10
-129.8007305231103
 20
143.475715906909
 30
0.0
 10
-129.3679658880625
 20
142.7634668248503
 30
0.0
 10
-128.8923335617722
 20
142.1046302413127
 30
0.0
 10
-128.3677069006568
 20
141.5011279631879
 30
0.0
 10
-127.8013950162241
 20
140.949754143961
 30
0.0
 10
-127.1932714098433
 20
140.4452032693908
 30
0.0
 10
-126.5361303814146
 20
140.011094282824
 30
0.0
 10
-125.8552661152525
 20
139.625643356358
 30
0.0
 10
-125.1592705697984
 20
139.2828930317149
 30
0.0
 10
-124.4477055386225
 20
138.9930099769578
 30
0.0
 10
-123.7177001573519
 20
138.7678229327228
 30
0.0
 10
-122.9795056543385
 20
138.5732300195816
 30
0.0
 10
-122.224991577895
 20
138.4461127957165
 30
0.0
 10
-121.4543730861067
 20
138.3743718395238
 30
0.0
 10
-120.9369218231764
 20
138.3612844645469
 30
0.0
 10
-120.6750720527152
 20
138.3546617613493
 30
0.0
  0
SPLINE
  5
7C
330
1F
100
AcDbEntity
  8
0
  6
Continuous
 62
     7
370
    15
100
AcDbSpline
210
0.0
220
0.0
230
1.0
 70
     8
 71
     3
 72
    23
 73
    19
 74
     0
 42
0.0000000001
 43
0.0000000001
 40
0.0
 40
0.0
 40
0.0
 40
0.0
 40
0.0633358805656869
 40
0.1251107589802125
 40
0.1846884118917147
 40
0.2432104439678641
 40
0.3008880404131167
 40
0.3583701155312991
 40
0.4157614077031938
 40
0.4743866229897773
 40
0.5339662649724068
 40
0.594007564198807
 40
0.6550724073076798
 40
0.7186100426051382
 40
0.7843747830517759
 40
0.8529914722129189
 40
0.9249004292977557
 40
0.9999999999999998
 40
0.9999999999999998
 40
0.9999999999999998
 40
0.9999999999999998
 10
-120.6750720527152
 20
138.3546617613493
 30
0.0
 10
-120.3625902058713
 20
138.361215162956
 30
0.0
 10
-119.7453280682487
 20
138.3741604483392
 30
0.0
 10
-118.8403433970439
 20
138.4874712594405
 30
0.0
 10
-117.9679506499338
 20
138.6544495607572
 30
0.0
 10
-117.1387187431093
 20
138.9121139408746
 30
0.0
 10
-116.3414935699988
 20
139.2275937856807
 30
0.0
 10
-115.5828070252576
 20
139.6166356085861
 30
0.0
 10
-114.8650450605501
 20
140.0845393728008
 30
0.0
 10
-114.1797652175321
 20
140.6158001466318
 30
0.0
 10
-113.5396046620027
 20
141.2202841221899
 30
0.0
 10
-112.9529319277294
 20
141.8931212831185
 30
0.0
 10
-112.4266202004022
 20
142.637378995507
 30
0.0
 10
-111.9385967856665
 20
143.4411130095421
 30
0.0
 10
-111.5285674232813
 20
144.3283338288917
 30
0.0
 10
-111.1487834179738
 20
145.2725973064134
 30
0.0
 10
-110.8323199498201
 20
146.2894232513867
 30
0.0
 10
-110.6726805649741
 20
146.9968119855763
 30
0.0
 10
-110.5911284982364
 20
147.3581827921339
 30
0.0
  0
SPLINE
  5
7D
330
1F
100
AcDbEntity
  8
0
  6
Continuous
 62
     7
370
    15
100
AcDbSpline
210
0.0
220
0.0
230
1.0
 70
     8
 71
     3
 72
    23
 73
    19
 74
     0
 42
0.0000000001
 43
0.0000000001
 40
0.0
 40
0.0
 40
0.0
 40
0.0
 40
0.0715783870982363
 40
0.1400162090753556
 40
0.206197439946981
 40
0.270156103805654
 40
0.3320010402688307
 40
0.3927550109285568
 40
0.4525790344906385
 40
0.5122527988479044
 40
0.5715322524285599
 40
0.6301517528722201
 40
0.6887691695485567
 40
0.7481639008503606
 40
0.8087033721996512
 40
0.8702562984804199
 40
0.9339000275070025
 40
1.0
 40
1.0
 40
1.0
 40
1.0
 10
-105.5203454536984
 20
146.176920832895
 30
0.0
 10
-105.6473827237863
 20
145.701650424514
 30
0.0
 10
-105.8958833912372
 20
144.7719625178017
 30
0.0
 10
-106.3871993966765
 20
143.4414762128776
 30
0.0
 10
-106.9386413586654
 20
142.192871567913
 30
0.0
 10
-107.5635897562401
 20
141.0294376291774
 30
0.0
 10
-108.2688845920894
 20
139.9578634193074
 30
0.0
 10
-109.035838402426
 20
138.9643771425591
 30
0.0
 10
-109.8948291479275
 20
138.0698131461631
 30
0.0
 10
-110.8143394319588
 20
137.2535253600612
 30
0.0
 10
-111.8015286457679
 20
136.5335617108541
 30
0.0
 10
-112.8444946697231
 20
135.9118598918859
 30
0.0
 10
-113.9381960303222
 20
135.3829178438232
 30
0.0
 10
-115.0870531275129
 20
134.9479483819016
 30
0.0
 10
-116.2918107753747
 20
134.620596568574
 30
0.0
 10
-117.5462656571763
 20
134.3820033889417
 30
0.0
 10
-118.8540756804519
 20
134.2350438864993
 30
0.0
 10
-119.7455238367559
 20
134.2156962357875
 30
0.0
 10
-120.1996861422897
 20
134.2058392703637
 30
0.0
  0
SPLINE
  5
7E
330
1F
100
AcDbEntity
  8
0
  6
Continuous
 62
     7
370
    15
100
AcDbSpline
210
0.0
220
0.0
230
1.0
 70
     8
 71
     3
 72
    23
 73
    19
 74
     0
 42
0.0000000001
 43
0.0000000001
 40
0.0
 40
0.0
 40
0.0
 40
0.0
 40
0.0610549117432831
 40
0.1195453450847435
 40
0.1768063562451032
 40
0.2329564830316849
 40
0.288583489946503
 40
0.3446666617212998
 40
0.4016615108374459
 40
0.4605400973082775
 40
0.5204770623221876
 40
0.5812128653554001
 40
0.6434307597220098
 40
0.7079608695212421
 40
0.7753707435336734
 40
0.8464136772813294
 40
0.9211518871893689
 40
0.9999999999999998
 40
0.9999999999999998
 40
0.9999999999999998
 40
0.9999999999999998
 10
-136.3724963536631
 20
91.52707937380768
 30
0.0
 10
-136.0974010024543
 20
91.53396491719609
 30
0.0
 10
-135.5587650802578
 20
91.54744679174081
 30
0.0
 10
-134.768240427649
 20
91.66029873468222
 30
0.0
 10
-134.0171535142264
 20
91.85242435722342
 30
0.0
 10
-133.2980597263953
 20
92.1081870825731
 30
0.0
 10
-132.623959584156
 20
92.4539346869218
 30
0.0
 10
-131.9790878108811
 20
92.85880323962956
 30
0.0
 10
-131.3810236942703
 20
93.35354101453967
 30
0.0
 10
-130.8150864524996
 20
93.90928019622476
 30
0.0
 10
-130.3074788697834
 20
94.54097984492685
 30
0.0
 10
-129.8570840009583
 20
95.23307918564231
 30
0.0
 10
-129.4912149119206
 20
95.9959579490459
 30
0.0
 10
-129.1753363344233
 20
96.81281096035299
 30
0.0
 10
-128.9440318348695
 20
97.6990770522481
 30
0.0
 10
-128.7730836355809
 20
98.64468116063903
 30
0.0
 10
-128.6700666315274
 20
99.65266499648109
 30
0.0
 10
-128.6592184098947
 20
100.3446271967414
 30
0.0
 10
-128.6536491522424
 20
100.6998665999711
 30
0.0
  0
SPLINE
  5
7F
330
1F
100
AcDbEntity
  8
0
  6
Continuous
 62
     7
370
    15
100
AcDbSpline
210
0.0
220
0.0
230
1.0
 70
     8
 71
     3
 72
    31
 73
    27
 74
     0
 42
0.0000000001
 43
0.0000000001
 40
0.0
 40
0.0
 40
0.0
 40
0.0
 40
0.0508516157922844
 40
0.0997524678094163
 40
0.1474376477769317
 40
0.1940857839327039
 40
0.2391709270841438
 40
0.2833398222454338
 40
0.3265771497238438
 40
0.368936281499902
 40
0.4105718726814495
 40
0.4510505934949121
 40
0.4908768629924158
 40
0.5300443324843858
 40
0.5689366633103305
 40
0.6075778621311338
 40
0.6464200964505127
 40
0.6856793513063943
 40
0.7247985849801968
 40
0.7635130084045113
 40
0.802172526378755
 40
0.8407403615726124
 40
0.8796493769005859
 40
0.91907061286634
 40
0.9590978622172244
 40
1.0
 40
1.0
 40
1.0
 40
1.0
 10
-128.6536491522424
 20
100.6998665999711
 30
0.0
 10
-128.6556173257515
 20
100.928404509776
 30
0.0
 10
-128.6594781699264
 20
101.37671318465
 30
0.0
 10
-128.7106086866216
 20
102.0375253009827
 30
0.0
 10
-128.7765604922244
 20
102.6777823768688
 30
0.0
 10
-128.8769731415713
 20
103.2966582515215
 30
0.0
 10
-129.0153545125382
 20
103.8915900192198
 30
0.0
 10
-129.1686575720026
 20
104.4671069077027
 30
0.0
 10
-129.3603576868111
 20
105.018249428879
 30
0.0
 10
-129.5778681832072
 20
105.5471789531426
 30
0.0
 10
-129.8212587456363
 20
106.0511800566541
 30
0.0
 10
-130.0957709297021
 20
106.5260038094549
 30
0.0
 10
-130.3982143406822
 20
106.9698042020193
 30
0.0
 10
-130.7204287026986
 20
107.3909952401029
 30
0.0
 10
-131.0802564250965
 20
107.7732751055895
 30
0.0
 10
-131.4603715895071
 20
108.1327914773978
 30
0.0
 10
-131.8694084988422
 20
108.4621166682462
 30
0.0
 10
-132.3032851147897
 20
108.7613367032703
 30
0.0
 10
-132.7558463349602
 20
109.0306818918697
 30
0.0
 10
-133.2261592075068
 20
109.2612064260235
 30
0.0
 10
-133.7067309790447
 20
109.4636932666626
 30
0.0
 10
-134.2056057411625
 20
109.618907928386
 30
0.0
 10
-134.7158949948499
 20
109.7440908311232
 30
0.0
 10
-135.2396616011064
 20
109.8391789048183
 30
0.0
 10
-135.7788496424568
 20
109.8884199346167
 30
0.0
 10
-136.1424347208664
 20
109.8964019613305
 30
0.0
 10
-136.3261925312191
 20
109.9004361196009
 30
0.0
  0
SPLINE
  5
80
330
1F
100
AcDbEntity
  8
0
  6
Continuous
 62
     7
370
    15
100
AcDbSpline
210
0.0
220
0.0
230
1.0
 70
     8
 71
     3
 72
    23
 73
    19
 74
     0
 42
0.0000000001
 43
0.0000000001
 40
0.0
 40
0.0
 40
0.0
 40
0.0
 40
0.0559431333569183
 40
0.1103820356898407
 40
0.1640478588828495
 40
0.2167594775435856
 40
0.2696011346144474
 40
0.3230085051908688
 40
0.377581443672136
 40
0.4334493367080538
 40
0.490921858049893
 40
0.5506247708713254
 40
0.6131168723098183
 40
0.6798607463518504
 40
0.7513577440202002
 40
0.828261101258994
 40
0.9107950320656289
 40
1.0
 40
1.0
 40
1.0
 40
1.0
 10
-136.3261925312191
 20
109.9004361196009
 30
0.0
 10
-136.585909129158
 20
109.895278250447
 30
0.0
 10
-137.0983589163382
 20
109.8851011998804
 30
0.0
 10
-137.8527460078491
 20
109.7719674814152
 30
0.0
 10
-138.5800569580116
 20
109.6029302481189
 30
0.0
 10
-139.2814204757409
 20
109.3666071888385
 30
0.0
 10
-139.950837906616
 20
109.0536783184298
 30
0.0
 10
-140.5917774452845
 20
108.6699138847712
 30
0.0
 10
-141.209928369347
 20
108.2257631872092
 30
0.0
 10
-141.7955433200825
 20
107.7104045946605
 30
0.0
 10
-142.3414645459041
 20
107.1183833763464
 30
0.0
 10
-142.8029861740898
 20
106.4204085013653
 30
0.0
 10
-143.1919692114902
 20
105.6331420956
 30
0.0
 10
-143.5167628821267
 20
104.758579696556
 30
0.0
 10
-143.7644084910605
 20
103.7899483964695
 30
0.0
 10
-143.935562582721
 20
102.7314166706512
 30
0.0
 10
-144.0436257841865
 20
101.5818690872723
 30
0.0
 10
-144.0567462187976
 20
100.7850137038872
 30
0.0
 10
-144.0635612616174
 20
100.3711094606184
 30
0.0
  0
SPLINE
  5
81
330
1F
100
AcDbEntity
  8
0
  6
Continuous
 62
     7
370
    15
100
AcDbSpline
210
0.0
220
0.0
230
1.0
 70
     8
 71
     3
 72
    23
 73
    19
 74
     0
 42
0.0000000001
 43
0.0000000001
 40
0.0
 40
0.0
 40
0.0
 40
0.0
 40
0.0759644026221997
 40
0.1481252239748711
 40
0.2172006111446031
 40
0.283299909372361
 40
0.3472018681362411
 40
0.4092995407059238
 40
0.4704256161074025
 40
0.5315880640528348
 40
0.5917391729173695
 40
0.650257744290573
 40
0.7073030399522859
 40
0.7642084640229152
 40
0.8211475320101305
 40
0.879118812155254
 40
0.9384228183936663
 40
1.0
 40
1.0
 40
1.0
 40
1.0
 10
-144.0635612616174
 20
100.3711094606184
 30
0.0
 10
-144.0585657893035
 20
100.0373957543749
 30
0.0
 10
-144.0488249708436
 20
99.38667757882839
 30
0.0
 10
-143.9373847352819
 20
98.43796508252593
 30
0.0
 10
-143.7682919764048
 20
97.54280652858916
 30
0.0
 10
-143.5352154574126
 20
96.69868899176094
 30
0.0
 10
-143.2219035382241
 20
95.91396066978152
 30
0.0
 10
-142.8472985720964
 20
95.18108108599481
 30
0.0
 10
-142.3987875218075
 20
94.50492200562377
 30
0.0
 10
-141.8862658775611
 20
93.88737491271729
 30
0.0
 10
-141.3225508242489
 20
93.33261687833251
 30
0.0
 10
-140.7201640812225
 20
92.84806524579606
 30
0.0
 10
-140.0789702349201
 20
92.4422875282597
 30
0.0
 10
-139.4060780596533
 20
92.10723139882063
 30
0.0
 10
-138.6966544853008
 20
91.84568953793933
 30
0.0
 10
-137.9528242427525
 20
91.66204143271796
 30
0.0
 10
-137.1740408075796
 20
91.5471844507266
 30
0.0
 10
-136.6430065448528
 20
91.53386455980035
 30
0.0
 10
-136.3724963536631
 20
91.52707937380768
 30
0.0
  0
SPLINE
  5
82
330
1F
100
AcDbEntity
  8
0
  6
Continuous
 62
     7
370
    15
100
AcDbSpline
210
0.0
220
0.0
230
1.0
 70
     8
 71
     3
 72
    23
 73
    19
 74
     0
 42
0.0000000001
 43
0.0000000001
 40
0.0
 40
0.0
 40
0.0
 40
0.0
 40
0.0752263466908988
 40
0.1465747215268522
 40
0.2145002518264753
 40
0.2795299716530228
 40
0.3424029515883815
 40
0.4034960527288085
 40
0.4637616065030392
 40
0.5238643590795869
 40
0.5832517242549665
 40
0.6413020392831351
 40
0.6988977748564887
 40
0.756295243811309
 40
0.8146278048129691
 40
0.8743247683399982
 40
0.935783283862545
 40
0.9999999999999998
 40
0.9999999999999998
 40
0.9999999999999998
 40
0.9999999999999998
 10
-147.3233503616775
 20
100.4081525185736
 30
0.0
 10
-147.3153165229952
 20
100.8715857021869
 30
0.0
 10
-147.2996629957479
 20
101.7745617580829
 30
0.0
 10
-147.1534036544872
 20
103.0894112468428
 30
0.0
 10
-146.9159160257042
 20
104.3265126237669
 30
0.0
 10
-146.576406446112
 20
105.485769509887
 30
0.0
 10
-146.1460770783013
 20
106.5689984685897
 30
0.0
 10
-145.6229295261016
 20
107.578652306167
 30
0.0
 10
-144.9912278570175
 20
108.5033024680609
 30
0.0
 10
-144.2766122951345
 20
109.3517510230798
 30
0.0
 10
-143.478419535592
 20
110.1018417337068
 30
0.0
 10
-142.6285711141664
 20
110.768029751239
 30
0.0
 10
-141.7164550899949
 20
111.323709317963
 30
0.0
 10
-140.7504987151744
 20
111.7825174473262
 30
0.0
 10
-139.7265980578177
 20
112.1347770433088
 30
0.0
 10
-138.6476279198244
 20
112.3813908135879
 30
0.0
 10
-137.5147422526163
 20
112.5404806608461
 30
0.0
 10
-136.7403883853954
 20
112.5583867532309
 30
0.0
 10
-136.3447140601967
 20
112.5675362923774
 30
0.0
  0
SPLINE
  5
83
330
1F
100
AcDbEntity
  8
0
  6
Continuous
 62
     7
370
    15
100
AcDbSpline
210
0.0
220
0.0
230
1.0
 70
     8
 71
     3
 72
    31
 73
    27
 74
     0
 42
0.0000000001
 43
0.0000000001
 40
0.0
 40
0.0
 40
0.0
 40
0.0
 40
0.0430989705688971
 40
0.0855867603450731
 40
0.1269076657436392
 40
0.167967485621521
 40
0.2084495586010659
 40
0.2490254246415442
 40
0.289280534171679
 40
0.330009848982731
 40
0.3705977240995772
 40
0.4104659863326996
 40
0.4500332158929484
 40
0.4896882096042474
 40
0.5291164230741914
 40
0.5690368070925097
 40
0.6097030542359445
 40
0.6507589174942192
 40
0.6925092624061776
 40
0.7342191213706862
 40
0.7767069111468621
 40
0.8195518402403212
 40
0.8633507288313333
 40
0.9078385251300616
 40
0.9533337036124182
 40
0.9999999999999998
 40
0.9999999999999998
 40
0.9999999999999998
 40
0.9999999999999998
 10
-136.3447140601967
 20
112.5675362923774
 30
0.0
 10
-136.0837396538325
 20
112.5629791879374
 30
0.0
 10
-135.5654916845918
 20
112.5539296027521
 30
0.0
 10
-134.7993083159873
 20
112.485074345034
 30
0.0
 10
-134.0528131653087
 20
112.3621796384963
 30
0.0
 10
-133.3267413431549
 20
112.1974869504208
 30
0.0
 10
-132.6191164776045
 20
111.9814173057718
 30
0.0
 10
-131.9295159883692
 20
111.726353665027
 30
0.0
 10
-131.2639765571866
 20
111.410293899125
 30
0.0
 10
-130.6180705276403
 20
111.0564335399394
 30
0.0
 10
-129.9994223420149
 20
110.6606254274965
 30
0.0
 10
-129.418018326219
 20
110.2233770088742
 30
0.0
 10
-128.8752511266023
 20
109.747995174509
 30
0.0
 10
-128.3638299074584
 20
109.242293906054
 30
0.0
 10
-127.9008200749693
 20
108.6892064914983
 30
0.0
 10
-127.4670935156907
 20
108.1055809210658
 30
0.0
 10
-127.0751136169969
 20
107.4810685676512
 30
0.0
 10
-126.7234895479758
 20
106.8207862526647
 30
0.0
 10
-126.4091018984119
 20
106.1349319156752
 30
0.0
 10
-126.1403969418658
 20
105.420662969851
 30
0.0
 10
-125.9096648987162
 20
104.6865475709876
 30
0.0
 10
-125.7165227125924
 20
103.9282405401626
 30
0.0
 10
-125.5779379829396
 20
103.1460011187716
 30
0.0
 10
-125.4675814643655
 20
102.3431998991943
 30
0.0
 10
-125.4094977797027
 20
101.5172130570162
 30
0.0
 10
-125.3991166000667
 20
100.9592442259702
 30
0.0
 10
-125.3938600521823
 20
100.6767146887491
 30
0.0
  0
SPLINE
  5
84
330
1F
100
AcDbEntity
  8
0
  6
Continuous
 62
     7
370
    15
100
AcDbSpline
210
0.0
220
0.0
230
1.0
 70
     8
 71
     3
 72
    31
 73
    27
 74
     0
 42
0.0000000001
 43
0.0000000001
 40
0.0
 40
0.0
 40
0.0
 40
0.0
 40
0.044696999889917
 40
0.0885335629185874
 40
0.1314091332352277
 40
0.1738139421467785
 40
0.215714533269445
 40
0.2572471603264208
 40
0.2988479641797118
 40
0.3406041827148142
 40
0.3820294481091345
 40
0.4229697500404859
 40
0.4636322295306196
 40
0.5040475437003945
 40
0.5445912057564576
 40
0.5849639251690935
 40
0.6262652162680828
 40
0.6679794005009903
 40
0.7099427472053506
 40
0.7513818550852255
 40
0.7926185649779644
 40
0.8339484357458205
 40
0.8750080506311038
 40
0.9164455302232756
 40
0.9579066137283069
 40
1.0
 40
1.0
 40
1.0
 40
1.0
 10
-136.3586052069299
 20
88.85997920103125
 30
0.0
 10
-136.6242689844025
 20
88.86390972953611
 30
0.0
 10
-137.1504823950562
 20
88.8716951221474
 30
0.0
 10
-137.9282399881335
 20
88.94940661135811
 30
0.0
 10
-138.6866481946911
 20
89.06795819519055
 30
0.0
 10
-139.4235021870847
 20
89.23911086625869
 30
0.0
 10
-140.1377950835697
 20
89.46239161826538
 30
0.0
 10
-140.8303720561176
 20
89.73264357561536
 30
0.0
 10
-141.5036689710395
 20
90.04625490470814
 30
0.0
 10
-142.1493313278728
 20
90.412205324821
 30
0.0
 10
-142.7651615556153
 20
90.81910285531838
 30
0.0
 10
-143.3451908053295
 20
91.26492482648094
 30
0.0
 10
-143.8890983421062
 20
91.74556259316728
 30
0.0
 10
-144.388156676555
 20
92.26896052417657
 30
0.0
 10
-144.8585287369271
 20
92.81614524145314
 30
0.0
 10
-145.281406935063
 20
93.40745526173293
 30
0.0
 10
-145.6706018130066
 20
94.02948029274591
 30
0.0
 10
-146.0145964564352
 20
94.68821638638983
 30
0.0
 10
-146.3253441373133
 20
95.36408840355685
 30
0.0
 10
-146.5871557706546
 20
96.05731253748599
 30
0.0
 10
-146.8172374555559
 20
96.75767250710578
 30
0.0
 10
-147.0004742274808
 20
97.46948503841776
 30
0.0
 10
-147.1464916365812
 20
98.19110814205187
 30
0.0
 10
-147.2446777630502
 20
98.92134106236703
 30
0.0
 10
-147.3155885301569
 20
99.66127135705219
 30
0.0
 10
-147.3207500644448
 20
100.1579392780162
 30
0.0
 10
-147.3233503616775
 20
100.4081525185736
 30
0.0
  0
SPLINE
  5
85
330
1F
100
AcDbEntity
  8
0
  6
Continuous
 62
     7
370
    15
100
AcDbSpline
210
0.0
220
0.0
230
1.0
 70
     8
 71
     3
 72
    31
 73
    27
 74
     0
 42
0.0000000001
 43
0.0000000001
 40
0.0
 40
0.0
 40
0.0
 40
0.0
 40
0.0475595569054264
 40
0.0939621052432107
 40
0.1391115332408221
 40
0.1836263101269046
 40
0.2274570284004935
 40
0.2707025105518546
 40
0.3136105321155538
 40
0.3562604510849768
 40
0.3983661529550378
 40
0.4395565149792805
 40
0.4800453830214205
 40
0.5198884957050128
 40
0.5596577503171975
 40
0.5994212546627415
 40
0.6392077550883985
 40
0.6796683749857807
 40
0.7200198525128485
 40
0.759858865562458
 40
0.799559884832381
 40
0.8391991446364386
 40
0.8789560762302791
 40
0.9187942693024663
 40
0.9590833628432751
 40
1.0
 40
1.0
 40
1.0
 40
1.0
 10
-125.3938600521823
 20
100.6767146887491
 30
0.0
 10
-125.3986761946378
 20
100.3895262331482
 30
0.0
 10
-125.4081913144942
 20
99.82213591991493
 30
0.0
 10
-125.4725745089193
 20
98.98392682870676
 30
0.0
 10
-125.585782543244
 20
98.1697809820892
 30
0.0
 10
-125.7359337261237
 20
97.37727074439774
 30
0.0
 10
-125.9371317271362
 20
96.60804595709368
 30
0.0
 10
-126.1762246329033
 20
95.85990120557836
 30
0.0
 10
-126.4654210103411
 20
95.13729258937345
 30
0.0
 10
-126.792036210668
 20
94.43847847211666
 30
0.0
 10
-127.1616011713427
 20
93.77306997303833
 30
0.0
 10
-127.5692563995715
 20
93.14571994230812
 30
0.0
 10
-128.0152906928881
 20
92.56229674373404
 30
0.0
 10
-128.4929288421251
 20
92.01564326385812
 30
0.0
 10
-129.0133249631874
 20
91.5155346893597
 30
0.0
 10
-129.570071089233
 20
91.05729463808714
 30
0.0
 10
-130.1610265345179
 20
90.63660138561877
 30
0.0
 10
-130.788176608842
 20
90.26484862083293
 30
0.0
 10
-131.4402662487163
 20
89.9389940436726
 30
0.0
 10
-132.1043916281778
 20
89.64990232717221
 30
0.0
 10
-132.7810460743891
 20
89.4033534070675
 30
0.0
 10
-133.472542185046
 20
89.20355001275893
 30
0.0
 10
-134.1769936266466
 20
89.05256418666292
 30
0.0
 10
-134.8924179890888
 20
88.93950440754784
 30
0.0
 10
-135.6211605325566
 20
88.87440419849159
 30
0.0
 10
-136.1115271597657
 20
88.86481224183649
 30
0.0
 10
-136.3586052069299
 20
88.85997920103125
 30
0.0
  0
LINE
  5
86
330
1F
100
AcDbEntity
  8
0
  6
Continuous
 62
     7
370
    15
100
AcDbLine
 10
96.38901577426622
 20
150.8011292343059
 30
0.0
 11
96.38901577426622
 21
134.6668195471399
 31
0.0
  0
LINE
  5
87
330
1F
100
AcDbEntity
  8
0
  6
Continuous
 62
     7
370
    15
100
AcDbLine
 10
91.19578484370959
 20
150.8011292343059
 30
0.0
 11
96.38901577426622
 21
150.8011292343059
 31
0.0
  0
SPLINE
  5
88
330
1F
100
AcDbEntity
  8
0
  6
Continuous
 62
     7
370
    15
100
AcDbSpline
210
0.0
220
0.0
230
1.0
 70
     8
 71
     3
 72
    11
 73
     7
 74
     0
 42
0.0000000001
 43
0.0000000001
 40
0.0
 40
0.0
 40
0.0
 40
0.0
 40
0.1774946570818524
 40
0.4052256231013777
 40
0.6783881083348638
 40
1.0
 40
1.0
 40
1.0
 40
1.0
 10
88.69640740556377
 20
150.6354644473396
 30
0.0
 10
88.8425600669708
 20
150.6618207393504
 30
0.0
 10
89.17623097436768
 20
150.7219929441275
 30
0.0
 10
89.74280334249744
 20
150.7612915070013
 30
0.0
 10
90.42927527453826
 20
150.8030016738605
 30
0.0
 10
90.92677318238589
 20
150.8017863794944
 30
0.0
 10
91.19578484370959
 20
150.8011292343059
 30
0.0
  0
SPLINE
  5
89
330
1F
100
AcDbEntity
  8
0
  6
Continuous
 62
     7
370
    15
100
AcDbSpline
210
0.0
220
0.0
230
1.0
 70
     8
 71
     3
 72
    21
 73
    17
 74
     0
 42
0.0000000001
 43
0.0000000001
 40
0.0
 40
0.0
 40
0.0
 40
0.0
 40
0.0807692180630327
 40
0.1565174824176895
 40
0.2279004148225904
 40
0.2942656778107669
 40
0.3568137356501536
 40
0.4143493211949587
 40
0.4675789203754849
 40
0.5163175384894652
 40
0.604285514293779
 40
0.6815253489285098
 40
0.7476063910689473
 40
0.8044293290602428
 40
0.9054203970298789
 40
1.0
 40
1.0
 40
1.0
 40
1.0
 10
81.14785537335393
 20
142.2585884802975
 30
0.0
 10
81.30894576674768
 20
142.5249503384073
 30
0.0
 10
81.62111249833589
 20
143.0411158831931
 30
0.0
 10
82.07191757257424
 20
143.7950243413727
 30
0.0
 10
82.51431676798507
 20
144.488850735887
 30
0.0
 10
82.92329424647624
 20
145.1436233675636
 30
0.0
 10
83.32072656986554
 20
145.7423176108803
 30
0.0
 10
83.68429554032344
 20
146.3027938924691
 30
0.0
 10
84.0419734904359
 20
146.8028962812083
 30
0.0
 10
84.45795762972057
 20
147.4052123704956
 30
0.0
 10
84.95948674542365
 20
148.060786860641
 30
0.0
 10
85.54869806648218
 20
148.7300352490988
 30
0.0
 10
86.09542216603006
 20
149.2764946098906
 30
0.0
 10
86.77944853130112
 20
149.8044023526419
 30
0.0
 10
87.62823220181422
 20
150.2963050496252
 30
0.0
 10
88.34821684447348
 20
150.5249094554481
 30
0.0
 10
88.69640740556377
 20
150.6354644473396
 30
0.0
  0
LINE
  5
8A
330
1F
100
AcDbEntity
  8
0
  6
Continuous
 62
     7
370
    15
100
AcDbLine
 10
76.66770330843547
 20
134.6668195471399
 30
0.0
 11
81.14785537335393
 21
142.2585884802975
 31
0.0
  0
LINE
  5
8B
330
1F
100
AcDbEntity
  8
0
  6
Continuous
 62
     7
370
    15
100
AcDbLine
 10
70.85503013096086
 20
134.6668195471399
 30
0.0
 11
76.66770330843547
 21
134.6668195471399
 31
0.0
  0
LINE
  5
8C
330
1F
100
AcDbEntity
  8
0
  6
Continuous
 62
     7
370
    15
100
AcDbLine
 10
76.75413711033098
 20
144.5923011314769
 30
0.0
 11
70.85503013096086
 21
134.6668195471399
 31
0.0
  0
SPLINE
  5
8D
330
1F
100
AcDbEntity
  8
0
  6
Continuous
 62
     7
370
    15
100
AcDbSpline
210
0.0
220
0.0
230
1.0
 70
     8
 71
     3
 72
    11
 73
     7
 74
     0
 42
0.0000000001
 43
0.0000000001
 40
0.0
 40
0.0
 40
0.0
 40
0.0
 40
0.2295426438440584
 40
0.4707541631011963
 40
0.7281684972329762
 40
1.0
 40
1.0
 40
1.0
 40
1.0
 10
80.5428187600852
 20
149.4902165722237
 30
0.0
 10
80.20257487111832
 20
149.1577034672794
 30
0.0
 10
79.50479068375085
 20
148.4757738448929
 30
0.0
 10
78.55257302508903
 20
147.3034760475813
 30
0.0
 10
77.61036500283836
 20
146.0142839899941
 30
0.0
 10
77.04468298300338
 20
145.0748259991768
 30
0.0
 10
76.75413711033098
 20
144.5923011314769
 30
0.0
  0
SPLINE
  5
8E
330
1F
100
AcDbEntity
  8
0
  6
Continuous
 62
     7
370
    15
100
AcDbSpline
210
0.0
220
0.0
230
1.0
 70
     8
 71
     3
 72
    11
 73
     7
 74
     0
 42
0.0000000001
 43
0.0000000001
 40
0.0
 40
0.0
 40
0.0
 40
0.0
 40
0.2931027018690508
 40
0.5547385117716687
 40
0.7918948234355796
 40
1.0
 40
1.0
 40
1.0
 40
1.0
 10
83.33751168804075
 20
151.2621095110822
 30
0.0
 10
83.0476760683029
 20
151.1164486050603
 30
0.0
 10
82.49912097370117
 20
150.8407646426995
 30
0.0
 10
81.74248377856958
 20
150.3981749309319
 30
0.0
 10
81.0927448050972
 20
149.9601818805747
 30
0.0
 10
80.71797684950331
 20
149.6399062009478
 30
0.0
 10
80.5428187600852
 20
149.4902165722237
 30
0.0
  0
SPLINE
  5
8F
330
1F
100
AcDbEntity
  8
0
  6
Continuous
 62
     7
370
    15
100
AcDbSpline
210
0.0
220
0.0
230
1.0
 70
     8
 71
     3
 72
    23
 73
    19
 74
     0
 42
0.0000000001
 43
0.0000000001
 40
0.0
 40
0.0
 40
0.0
 40
0.0
 40
0.0614177481322547
 40
0.1213042644096585
 40
0.1792376967343456
 40
0.2359560699971086
 40
0.292239096201313
 40
0.3482231672652674
 40
0.4044755521318194
 40
0.4620607339620592
 40
0.5207138638482142
 40
0.5803927339450891
 40
0.6422449964543191
 40
0.7063601780770839
 40
0.7742965329506037
 40
0.8452599260881219
 40
0.9206206845448853
 40
1.0
 40
1.0
 40
1.0
 40
1.0
 10
73.80098221223369
 20
160.9282896897326
 30
0.0
 10
73.80801831897611
 20
160.62071239444
 30
0.0
 10
73.82191511230797
 20
160.0132261434911
 30
0.0
 10
73.92836441546001
 20
159.1200577874346
 30
0.0
 10
74.1209798981647
 20
158.2666750117872
 30
0.0
 10
74.3679579706191
 20
157.445586853812
 30
0.0
 10
74.70604531256578
 20
156.6684895186583
 30
0.0
 10
75.09752826907146
 20
155.9192772744776
 30
0.0
 10
75.58319474684157
 20
155.2194009377734
 30
0.0
 10
76.12550242121546
 20
154.5455577024645
 30
0.0
 10
76.75597232326203
 20
153.9278242943434
 30
0.0
 10
77.45778630105604
 20
153.3578979731807
 30
0.0
 10
78.24860762422639
 20
152.8654965905069
 30
0.0
 10
79.11388381715847
 20
152.4229857464127
 30
0.0
 10
80.05518495445244
 20
152.0357583152542
 30
0.0
 10
81.0787705180715
 20
151.7101813967822
 30
0.0
 10
82.18101611030551
 20
151.4552883167118
 30
0.0
 10
82.94539624841092
 20
151.3276077228824
 30
0.0
 10
83.33751168804075
 20
151.2621095110822
 30
0.0
  0
SPLINE
  5
90
330
1F
100
AcDbEntity
  8
0
  6
Continuous
 62
     7
370
    15
100
AcDbSpline
210
0.0
220
0.0
230
1.0
 70
     8
 71
     3
 72
    27
 73
    23
 74
     0
 42
0.0000000001
 43
0.0000000001
 40
0.0
 40
0.0
 40
0.0
 40
0.0
 40
0.0621061165292715
 40
0.1201991193133532
 40
0.1743664957113209
 40
0.2250163311637262
 40
0.2723261893682161
 40
0.3163514369568903
 40
0.3568284293346182
 40
0.3939333102717031
 40
0.4295405551075578
 40
0.4646304759106853
 40
0.4999800050926294
 40
0.5354226207535289
 40
0.5715899210807143
 40
0.6081310828424686
 40
0.6458808167766359
 40
0.6847317079287539
 40
0.7626039808122817
 40
0.8405143247750544
 40
0.91908163632263
 40
1.0
 40
1.0
 40
1.0
 40
1.0
 10
85.85849757666045
 20
170.6232811356815
 30
0.0
 10
85.49113295347359
 20
170.6204163348541
 30
0.0
 10
84.78014172359786
 20
170.6148718481641
 30
0.0
 10
83.7490861606534
 20
170.575252273984
 30
0.0
 10
82.78897309304648
 20
170.4910804595535
 30
0.0
 10
81.8937514706775
 20
170.3970708410455
 30
0.0
 10
81.06495317687274
 20
170.2582637867716
 30
0.0
 10
80.30218314235259
 20
170.0954181249689
 30
0.0
 10
79.60836704328932
 20
169.9029533245485
 30
0.0
 10
78.97822476795415
 20
169.6754524986138
 30
0.0
 10
78.39354506485631
 20
169.418151846318
 30
0.0
 10
77.8517365616998
 20
169.1005159680545
 30
0.0
 10
77.32957772784363
 20
168.7530289891893
 30
0.0
 10
76.84772467196626
 20
168.3414806612536
 30
0.0
 10
76.38508526954405
 20
167.898954778871
 30
0.0
 10
75.95746885478082
 20
167.4035748258243
 30
0.0
 10
75.56278849944499
 20
166.8623367908146
 30
0.0
 10
75.07578818455669
 20
166.0885608076672
 30
0.0
 10
74.56335290692255
 20
165.0527824082299
 30
0.0
 10
74.12599063913489
 20
163.7340829078289
 30
0.0
 10
73.8463630320897
 20
162.3517676937708
 30
0.0
 10
73.81625708740569
 20
161.4074226999076
 30
0.0
 10
73.80098221223363
 20
160.9282896897326
 30
0.0
  0
LINE
  5
91
330
1F
100
AcDbEntity
  8
0
  6
Continuous
 62
     7
370
    15
100
AcDbLine
 10
101.459798818804
 20
170.6232811356815
 30
0.0
 11
85.85849757666045
 21
170.6232811356815
 31
0.0
  0
LINE
  5
92
330
1F
100
AcDbEntity
  8
0
  6
Continuous
 62
     7
370
    15
100
AcDbLine
 10
101.459798818804
 20
134.6668195471399
 30
0.0
 11
101.459798818804
 21
170.6232811356815
 31
0.0
  0
LINE
  5
93
330
1F
100
AcDbEntity
  8
0
  6
Continuous
 62
     7
370
    15
100
AcDbLine
 10
96.38901577426622
 20
134.6668195471399
 30
0.0
 11
101.459798818804
 21
134.6668195471399
 31
0.0
  0
SPLINE
  5
94
330
1F
100
AcDbEntity
  8
0
  6
Continuous
 62
     7
370
    15
100
AcDbSpline
210
0.0
220
0.0
230
1.0
 70
     8
 71
     3
 72
    23
 73
    19
 74
     0
 42
0.0000000001
 43
0.0000000001
 40
0.0
 40
0.0
 40
0.0
 40
0.0
 40
0.0603255293380431
 40
0.1181599905079971
 40
0.1741866762963805
 40
0.2295388181457996
 40
0.2834498146386372
 40
0.3378265119505921
 40
0.3926321025334836
 40
0.4484655764151907
 40
0.5059654091573055
 40
0.5650585322290049
 40
0.6266544786228428
 40
0.6922320330373625
 40
0.7611310781257633
 40
0.8353098773394197
 40
0.9153255598321999
 40
1.0
 40
1.0
 40
1.0
 40
1.0
 10
78.87176525677154
 20
160.8202474373632
 30
0.0
 10
78.87845773996179
 20
161.0220762918648
 30
0.0
 10
78.89156634852128
 20
161.4173997277939
 30
0.0
 10
78.96028601003087
 20
161.997624774648
 30
0.0
 10
79.0938933474406
 20
162.5489726831892
 30
0.0
 10
79.27032150863084
 20
163.0743579404337
 30
0.0
 10
79.50606533354289
 20
163.5699324749757
 30
0.0
 10
79.78611938013006
 20
164.0395364415967
 30
0.0
 10
80.12031031370929
 20
164.4805671055238
 30
0.0
 10
80.50310679899229
 20
164.894367913748
 30
0.0
 10
80.94262672900317
 20
165.2708862096986
 30
0.0
 10
81.44466181786089
 20
165.5957398343296
 30
0.0
 10
82.00525254431193
 20
165.8717953337864
 30
0.0
 10
82.62505050385721
 20
166.0908914321537
 30
0.0
 10
83.30210321968037
 20
166.2661326463803
 30
0.0
 10
84.0402650037293
 20
166.382714973993
 30
0.0
 10
84.83616008453145
 20
166.4670735576795
 30
0.0
 10
85.38766922028941
 20
166.4719509583527
 30
0.0
 10
85.67122433922014
 20
166.4744586446959
 30
0.0
  0
SPLINE
  5
95
330
1F
100
AcDbEntity
  8
0
  6
Continuous
 62
     7
370
    15
100
AcDbSpline
210
0.0
220
0.0
230
1.0
 70
     8
 71
     3
 72
    19
 73
    15
 74
     0
 42
0.0000000001
 43
0.0000000001
 40
0.0
 40
0.0
 40
0.0
 40
0.0
 40
0.1288172496139557
 40
0.2408117658933623
 40
0.3379313496265722
 40
0.420590640877537
 40
0.4945039292430379
 40
0.5659986308697244
 40
0.6371279226505377
 40
0.7094472666673742
 40
0.7822163217272273
 40
0.8543339456778166
 40
0.9261950543250366
 40
1.0
 40
1.0
 40
1.0
 40
1.0
 10
86.75884967973894
 20
154.9499517252915
 30
0.0
 10
86.27596301124777
 20
154.9575373264216
 30
0.0
 10
85.37325167628138
 20
154.9717178962518
 30
0.0
 10
84.11085950468583
 20
155.0919555941692
 30
0.0
 10
83.03306495423084
 20
155.2851222904511
 30
0.0
 10
82.11975087673051
 20
155.562356301968
 30
0.0
 10
81.35284731084153
 20
155.9489942304966
 30
0.0
 10
80.6940049904743
 20
156.4293777279258
 30
0.0
 10
80.1335153496077
 20
157.0138753304469
 30
0.0
 10
79.67544090914259
 20
157.6859708040228
 30
0.0
 10
79.31465004698634
 20
158.4192970260304
 30
0.0
 10
79.06835235827253
 20
159.1950558618068
 30
0.0
 10
78.89675821463152
 20
159.996465765149
 30
0.0
 10
78.88017002959867
 20
160.5432214905794
 30
0.0
 10
78.87176525677154
 20
160.8202474373631
 30
0.0
  0
LINE
  5
96
330
1F
100
AcDbEntity
  8
0
  6
Continuous
 62
     7
370
    15
100
AcDbLine
 10
96.38901577426622
 20
154.9499517252915
 30
0.0
 11
86.75884967973894
 21
154.9499517252915
 31
0.0
  0
LINE
  5
97
330
1F
100
AcDbEntity
  8
0
  6
Continuous
 62
     7
370
    15
100
AcDbLine
 10
96.38901577426622
 20
166.4744586446959
 30
0.0
 11
96.38901577426622
 21
154.9499517252915
 31
0.0
  0
LINE
  5
98
330
1F
100
AcDbEntity
  8
0
  6
Continuous
 62
     7
370
    15
100
AcDbLine
 10
85.67122433922014
 20
166.4744586446959
 30
0.0
 11
96.38901577426622
 21
166.4744586446959
 31
0.0
  0
LINE
  5
99
330
1F
100
AcDbEntity
  8
0
  6
Continuous
 62
     7
370
    15
100
AcDbLine
 10
-105.0032117628224
 20
111.7820808490904
 30
0.0
 11
-105.0032117628224
 21
101.9039320610295
 31
0.0
  0
SPLINE
  5
9A
330
1F
100
AcDbEntity
  8
0
  6
Continuous
 62
     7
370
    15
100
AcDbSpline
210
0.0
220
0.0
230
1.0
 70
     8
 71
     3
 72
    19
 73
    15
 74
     0
 42
0.0000000001
 43
0.0000000001
 40
0.0
 40
0.0
 40
0.0
 40
0.0
 40
0.1068225378141083
 40
0.198493426491707
 40
0.2782506443839039
 40
0.3503190271445096
 40
0.3910859904185944
 40
0.4428917973852437
 40
0.5066779622349335
 40
0.5821960504209804
 40
0.6691685455418273
 40
0.7676295005631905
 40
0.878044526314061
 40
0.9999999999999998
 40
0.9999999999999998
 40
0.9999999999999998
 40
0.9999999999999998
 10
-105.0032117628224
 20
101.9039320610295
 30
0.0
 10
-104.7453003748988
 20
101.9125159073339
 30
0.0
 10
-104.2660596063516
 20
101.9284660719742
 30
0.0
 10
-103.6039523097214
 20
102.0652419116654
 30
0.0
 10
-103.0624165311164
 20
102.3052548847494
 30
0.0
 10
-102.6944667935851
 20
102.6020447964339
 30
0.0
 10
-102.4603472047762
 20
102.9244622929469
 30
0.0
 10
-102.2559946410133
 20
103.2415452763326
 30
0.0
 10
-102.028619646147
 20
103.6431799845214
 30
0.0
 10
-101.7854601950597
 20
104.1321707474818
 30
0.0
 10
-101.5140949569313
 20
104.7003816454823
 30
0.0
 10
-101.215841524385
 20
105.3490870170926
 30
0.0
 10
-100.904424101038
 20
106.0842339976814
 30
0.0
 10
-100.6894117166446
 20
106.6020888649408
 30
0.0
 10
-100.5765663371726
 20
106.8738756700226
 30
0.0
  0
SPLINE
  5
9B
330
1F
100
AcDbEntity
  8
0
  6
Continuous
 62
     7
370
    15
100
AcDbSpline
210
0.0
220
0.0
230
1.0
 70
     8
 71
     3
 72
    15
 73
    11
 74
     0
 42
0.0000000001
 43
0.0000000001
 40
0.0
 40
0.0
 40
0.0
 40
0.0
 40
0.1754627215402977
 40
0.3351335478986733
 40
0.4809479721447475
 40
0.6119846904723615
 40
0.7280587862147825
 40
0.8317785799605454
 40
0.9217514744466239
 40
1.0
 40
1.0
 40
1.0
 40
1.0
 10
-100.5765663371726
 20
106.8738756700226
 30
0.0
 10
-100.4696335865983
 20
107.1341172305957
 30
0.0
 10
-100.265392185508
 20
107.6311782401362
 30
0.0
 10
-99.93869963252658
 20
108.3297411193357
 30
0.0
 10
-99.63708657480541
 20
108.961459439255
 30
0.0
 10
-99.32847623703953
 20
109.5112119213732
 30
0.0
 10
-99.02366486493207
 20
109.9843044368203
 30
0.0
 10
-98.73168523276811
 20
110.3862365150166
 30
0.0
 10
-98.44274054584332
 20
110.714932873568
 30
0.0
 10
-98.23467872277579
 20
110.8870656659547
 30
0.0
 10
-98.13789835512009
 20
110.9671335740754
 30
0.0
  0
SPLINE
  5
9C
330
1F
100
AcDbEntity
  8
0
  6
Continuous
 62
     7
370
    15
100
AcDbSpline
210
0.0
220
0.0
230
1.0
 70
     8
 71
     3
 72
    15
 73
    11
 74
     0
 42
0.0000000001
 43
0.0000000001
 40
0.0
 40
0.0
 40
0.0
 40
0.0
 40
0.0964804341583465
 40
0.1984208551108455
 40
0.3079124183561224
 40
0.4271272356776271
 40
0.5542917003639158
 40
0.6923145189491113
 40
0.8412463245553245
 40
1.0
 40
1.0
 40
1.0
 40
1.0
 10
-98.13789835512009
 20
110.9671335740754
 30
0.0
 10
-98.04045259707336
 20
111.0330985121146
 30
0.0
 10
-97.84004646491581
 20
111.1687614527643
 30
0.0
 10
-97.50275204364548
 20
111.3365851190116
 30
0.0
 10
-97.12133140077643
 20
111.4680066094916
 30
0.0
 10
-96.70412066579585
 20
111.588401565364
 30
0.0
 10
-96.24213264593819
 20
111.669348670867
 30
0.0
 10
-95.74234917082131
 20
111.7410404597217
 30
0.0
 10
-95.19960928253727
 20
111.7748182963397
 30
0.0
 10
-94.82463011918833
 20
111.7796090220017
 30
0.0
 10
-94.63115553535846
 20
111.7820808490904
 30
0.0
  0
LINE
  5
9D
330
1F
100
AcDbEntity
  8
0
  6
Continuous
 62
     7
370
    15
100
AcDbLine
 10
-94.63115553535846
 20
111.7820808490904
 30
0.0
 11
-93.14943321714933
 21
111.7820808490904
 31
0.0
  0
LINE
  5
9E
330
1F
100
AcDbEntity
  8
0
  6
Continuous
 62
     7
370
    15
100
AcDbLine
 10
-93.14943321714933
 20
111.7820808490904
 30
0.0
 11
-93.14943321714933
 21
108.2012519134183
 31
0.0
  0
LINE
  5
9F
330
1F
100
AcDbEntity
  8
0
  6
Continuous
 62
     7
370
    15
100
AcDbLine
 10
-93.14943321714933
 20
108.2012519134183
 30
0.0
 11
-94.18663883989571
 21
108.2259472853885
 31
0.0
  0
SPLINE
  5
A0
330
1F
100
AcDbEntity
  8
0
  6
Continuous
 62
     7
370
    15
100
AcDbSpline
210
0.0
220
0.0
230
1.0
 70
     8
 71
     3
 72
    11
 73
     7
 74
     0
 42
0.0000000001
 43
0.0000000001
 40
0.0
 40
0.0
 40
0.0
 40
0.0
 40
0.3416594902213706
 40
0.6164296829366285
 40
0.8323873198757524
 40
1.0
 40
1.0
 40
1.0
 40
1.0
 10
-94.18663883989571
 20
108.2259472853885
 30
0.0
 10
-94.41977306991743
 20
108.2232055887648
 30
0.0
 10
-94.84039905458073
 20
108.2182589584829
 30
0.0
 10
-95.4006561192908
 20
108.139181929536
 30
0.0
 10
-95.84243082107523
 20
108.0227109518968
 30
0.0
 10
-96.05211792891857
 20
107.8633958431903
 30
0.0
 10
-96.14374706853034
 20
107.7937782759108
 30
0.0
  0
SPLINE
  5
A1
330
1F
100
AcDbEntity
  8
0
  6
Continuous
 62
     7
370
    15
100
AcDbSpline
210
0.0
220
0.0
230
1.0
 70
     8
 71
     3
 72
    15
 73
    11
 74
     0
 42
0.0000000001
 43
0.0000000001
 40
0.0
 40
0.0
 40
0.0
 40
0.0
 40
0.0610978240802714
 40
0.1389489080509301
 40
0.2362452516793258
 40
0.3516625720789475
 40
0.4863022678463438
 40
0.6374943303312946
 40
0.8090627781826791
 40
0.9999999999999998
 40
0.9999999999999998
 40
0.9999999999999998
 40
0.9999999999999998
 10
-96.14374706853034
 20
107.7937782759108
 30
0.0
 10
-96.18346880721668
 20
107.7469446405034
 30
0.0
 10
-96.27380413911172
 20
107.6404354055533
 30
0.0
 10
-96.41101964169756
 20
107.4461768302004
 30
0.0
 10
-96.55584664927108
 20
107.192344655481
 30
0.0
 10
-96.71518206277895
 20
106.8817877107669
 30
0.0
 10
-96.89323159081624
 20
106.5200109190074
 30
0.0
 10
-97.08697725774314
 20
106.103130493628
 30
0.0
 10
-97.28753264435761
 20
105.627432941572
 30
0.0
 10
-97.42800409051756
 20
105.2913502542958
 30
0.0
 10
-97.50199252688867
 20
105.1143304171493
 30
0.0
  0
SPLINE
  5
A2
330
1F
100
AcDbEntity
  8
0
  6
Continuous
 62
     7
370
    15
100
AcDbSpline
210
0.0
220
0.0
230
1.0
 70
     8
 71
     3
 72
    15
 73
    11
 74
     0
 42
0.0000000001
 43
0.0000000001
 40
0.0
 40
0.0
 40
0.0
 40
0.0
 40
0.1757793811156457
 40
0.3253392059789556
 40
0.4501628044512132
 40
0.5518101466957932
 40
0.6466967292896779
 40
0.7513984260223261
 40
0.8690681219794285
 40
1.0
 40
1.0
 40
1.0
 40
1.0
 10
-97.50199252688867
 20
105.1143304171493
 30
0.0
 10
-97.63822673747277
 20
104.7854764190787
 30
0.0
 10
-97.89037422836337
 20
104.1768208535838
 30
0.0
 10
-98.29196529826061
 20
103.3579659904906
 30
0.0
 10
-98.66931111884127
 20
102.6959693867907
 30
0.0
 10
-99.0540261537752
 20
102.1682778060841
 30
0.0
 10
-99.49603281105494
 20
101.7437118032492
 30
0.0
 10
-100.020197053214
 20
101.3708467530417
 30
0.0
 10
-100.6299095327422
 20
100.9944290520466
 30
0.0
 10
-101.0883347417127
 20
100.785417935863
 30
0.0
 10
-101.3297751822622
 20
100.6753373055144
 30
0.0
  0
SPLINE
  5
A3
330
1F
100
AcDbEntity
  8
0
  6
Continuous
 62
     7
370
    15
100
AcDbSpline
210
0.0
220
0.0
230
1.0
 70
     8
 71
     3
 72
    15
 73
    11
 74
     0
 42
0.0000000001
 43
0.0000000001
 40
0.0
 40
0.0
 40
0.0
 40
0.0
 40
0.0957594046900458
 40
0.1976376532538544
 40
0.3062395305770889
 40
0.4236255765793391
 40
0.551074797992071
 40
0.6888212822812684
 40
0.8383432719514408
 40
0.9999999999999998
 40
0.9999999999999998
 40
0.9999999999999998
 40
0.9999999999999998
 10
-101.3297751822622
 20
100.6753373055144
 30
0.0
 10
-101.1235676901513
 20
100.6115570704624
 30
0.0
 10
-100.6979764392859
 20
100.4799211646161
 30
0.0
 10
-100.0874448747406
 20
100.1533828143715
 30
0.0
 10
-99.47704745895734
 20
99.73735285962545
 30
0.0
 10
-98.87942700970979
 20
99.21041484632585
 30
0.0
 10
-98.28019391063969
 20
98.59170932240045
 30
0.0
 10
-97.68661996340249
 20
97.87068687858942
 30
0.0
 10
-97.10137735364202
 20
97.04669708692954
 30
0.0
 10
-96.73118645783578
 20
96.45244785104537
 30
0.0
 10
-96.53887302005273
 20
96.14373654899152
 30
0.0
  0
LINE
  5
A4
330
1F
100
AcDbEntity
  8
0
  6
Continuous
 62
     7
370
    15
100
AcDbLine
 10
-96.53887302005273
 20
96.14373654899152
 30
0.0
 11
-92.35918131410446
 21
89.25990161231158
 31
0.0
  0
LINE
  5
A5
330
1F
100
AcDbEntity
  8
0
  6
Continuous
 62
     7
370
    15
100
AcDbLine
 10
-92.35918131410446
 20
89.25990161231158
 30
0.0
 11
-96.90930359960502
 21
89.25990161231158
 31
0.0
  0
LINE
  5
A6
330
1F
100
AcDbEntity
  8
0
  6
Continuous
 62
     7
370
    15
100
AcDbLine
 10
-96.90930359960502
 20
89.25990161231158
 30
0.0
 11
-100.95934460271
 21
95.93382588724523
 31
0.0
  0
SPLINE
  5
A7
330
1F
100
AcDbEntity
  8
0
  6
Continuous
 62
     7
370
    15
100
AcDbSpline
210
0.0
220
0.0
230
1.0
 70
     8
 71
     3
 72
    19
 73
    15
 74
     0
 42
0.0000000001
 43
0.0000000001
 40
0.0
 40
0.0
 40
0.0
 40
0.0
 40
0.1047794125943648
 40
0.2009909651236757
 40
0.2901673062769361
 40
0.3709213469999125
 40
0.4439840789324058
 40
0.5095977677389327
 40
0.5673526841967429
 40
0.6183015788487131
 40
0.7118675287867143
 40
0.8046966055987198
 40
0.8998041485326316
 40
1.0
 40
1.0
 40
1.0
 40
1.0
 10
-100.95934460271
 20
95.93382588724523
 30
0.0
 10
-101.0532432510495
 20
96.11122093639886
 30
0.0
 10
-101.233362412689
 20
96.45150536112252
 30
0.0
 10
-101.5056198900779
 20
96.93620962501164
 30
0.0
 10
-101.7700973150927
 20
97.37211797833559
 30
0.0
 10
-102.0219491046616
 20
97.7637055359302
 30
0.0
 10
-102.2683869737464
 20
98.10454200266008
 30
0.0
 10
-102.5083564230239
 20
98.39475395736366
 30
0.0
 10
-102.7381436943891
 20
98.63730074329353
 30
0.0
 10
-103.0222037967387
 20
98.90141926757451
 30
0.0
 10
-103.4016306459005
 20
99.15762207562289
 30
0.0
 10
-103.8969119175833
 20
99.3764249127863
 30
0.0
 10
-104.4364764627999
 20
99.51023593408372
 30
0.0
 10
-104.811047056021
 20
99.52539787283701
 30
0.0
 10
-105.0032117628224
 20
99.53317635189492
 30
0.0
  0
LINE
  5
A8
330
1F
100
AcDbEntity
  8
0
  6
Continuous
 62
     7
370
    15
100
AcDbLine
 10
-105.0032117628224
 20
99.53317635189492
 30
0.0
 11
-105.0032117628224
 21
89.25990161231158
 31
0.0
  0
LINE
  5
A9
330
1F
100
AcDbEntity
  8
0
  6
Continuous
 62
     7
370
    15
100
AcDbLine
 10
-105.0032117628224
 20
89.25990161231158
 30
0.0
 11
-108.9544712780468
 21
89.25990161231158
 31
0.0
  0
LINE
  5
AA
330
1F
100
AcDbEntity
  8
0
  6
Continuous
 62
     7
370
    15
100
AcDbLine
 10
-108.9544712780468
 20
89.25990161231158
 30
0.0
 11
-108.9544712780468
 21
99.53317635189492
 31
0.0
  0
SPLINE
  5
AB
330
1F
100
AcDbEntity
  8
0
  6
Continuous
 62
     7
370
    15
100
AcDbSpline
210
0.0
220
0.0
230
1.0
 70
     8
 71
     3
 72
    19
 73
    15
 74
     0
 42
0.0000000001
 43
0.0000000001
 40
0.0
 40
0.0
 40
0.0
 40
0.0
 40
0.0990766430548032
 40
0.1928436148252563
 40
0.2866105865957091
 40
0.3804267347019253
 40
0.4314414827510953
 40
0.489168469406118
 40
0.5547504279721586
 40
0.6277778273681493
 40
0.7084928161009234
 40
0.7976260323087344
 40
0.8943231695436995
 40
1.0
 40
1.0
 40
1.0
 40
1.0
 10
-108.9544712780468
 20
99.53317635189492
 30
0.0
 10
-109.1444642934936
 20
99.52481353070673
 30
0.0
 10
-109.5142683034058
 20
99.50853606491515
 30
0.0
 10
-110.0527037955941
 20
99.38226991643398
 30
0.0
 10
-110.5484771829918
 20
99.16358076489864
 30
0.0
 10
-110.9320525276518
 20
98.91082124881837
 30
0.0
 10
-111.2276189281
 20
98.65815686274231
 30
0.0
 10
-111.4548412556289
 20
98.41255875951226
 30
0.0
 10
-111.6956978761328
 20
98.12330146458201
 30
0.0
 10
-111.9417532724013
 20
97.78210555660283
 30
0.0
 10
-112.1941694686486
 20
97.39088251599918
 30
0.0
 10
-112.4570828834401
 20
96.95290137156172
 30
0.0
 10
-112.7394658685851
 20
96.47068133866918
 30
0.0
 10
-112.9176440118193
 20
96.12610596923321
 30
0.0
 10
-113.0106861241443
 20
95.94617357323029
 30
0.0
  0
LINE
  5
AC
330
1F
100
AcDbEntity
  8
0
  6
Continuous
 62
     7
370
    15
100
AcDbLine
 10
-113.0106861241443
 20
95.94617357323029
 30
0.0
 11
-117.0545532842567
 21
89.25990161231158
 31
0.0
  0
LINE
  5
AD
330
1F
100
AcDbEntity
  8
0
  6
Continuous
 62
     7
370
    15
100
AcDbLine
 10
-117.0545532842567
 20
89.25990161231158
 30
0.0
 11
-121.5985017267647
 21
89.25990161231158
 31
0.0
  0
LINE
  5
AE
330
1F
100
AcDbEntity
  8
0
  6
Continuous
 62
     7
370
    15
100
AcDbLine
 10
-121.5985017267647
 20
89.25990161231158
 30
0.0
 11
-117.4311577068015
 21
96.14373654899152
 31
0.0
  0
SPLINE
  5
AF
330
1F
100
AcDbEntity
  8
0
  6
Continuous
 62
     7
370
    15
100
AcDbSpline
210
0.0
220
0.0
230
1.0
 70
     8
 71
     3
 72
    15
 73
    11
 74
     0
 42
0.0000000001
 43
0.0000000001
 40
0.0
 40
0.0
 40
0.0
 40
0.0
 40
0.1617585536357959
 40
0.3114515208972413
 40
0.4488651518808453
 40
0.5766434930924578
 40
0.6937458851514222
 40
0.8028399222467815
 40
0.9044719902131145
 40
1.0
 40
1.0
 40
1.0
 40
1.0
 10
-117.4311577068015
 20
96.14373654899152
 30
0.0
 10
-117.2369486619203
 20
96.4526059278952
 30
0.0
 10
-116.8630166438556
 20
97.0473060884489
 30
0.0
 10
-116.270345847748
 20
97.86856373846191
 30
0.0
 10
-115.6781407319088
 20
98.59431946814517
 30
0.0
 10
-115.0718039962806
 20
99.20804057878967
 30
0.0
 10
-114.4741913412339
 20
99.73983102639161
 30
0.0
 10
-113.8586459505318
 20
100.1515026589068
 30
0.0
 10
-113.2475287021829
 20
100.4801633853641
 30
0.0
 10
-112.8218230799519
 20
100.6116361268605
 30
0.0
 10
-112.6155601726218
 20
100.6753373055144
 30
0.0
  0
SPLINE
  5
B0
330
1F
100
AcDbEntity
  8
0
  6
Continuous
 62
     7
370
    15
100
AcDbSpline
210
0.0
220
0.0
230
1.0
 70
     8
 71
     3
 72
    19
 73
    15
 74
     0
 42
0.0000000001
 43
0.0000000001
 40
0.0
 40
0.0
 40
0.0
 40
0.0
 40
0.1151851214016975
 40
0.2155775494829657
 40
0.3047308560122313
 40
0.3824500550203674
 40
0.4236584815326063
 40
0.475444713430104
 40
0.5368539714063571
 40
0.6090689291694692
 40
0.6910615327126553
 40
0.7836157848023428
 40
0.8863445764208702
 40
1.0
 40
1.0
 40
1.0
 40
1.0
 10
-112.6155601726218
 20
100.6753373055144
 30
0.0
 10
-112.8817448512462
 20
100.7997347792566
 30
0.0
 10
-113.3799293392203
 20
101.0325539335438
 30
0.0
 10
-114.0430337175876
 20
101.4396891255155
 30
0.0
 10
-114.5881649211886
 20
101.8514753551134
 30
0.0
 10
-114.9508832066006
 20
102.2433618656523
 30
0.0
 10
-115.1951434315944
 20
102.6039624768067
 30
0.0
 10
-115.396589509067
 20
102.9422529852514
 30
0.0
 10
-115.6181977914934
 20
103.3597987771689
 30
0.0
 10
-115.8638206624186
 20
103.8514769097122
 30
0.0
 10
-116.1301219016731
 20
104.4214030800963
 30
0.0
 10
-116.4106731221835
 20
105.0701191657135
 30
0.0
 10
-116.7214831934966
 20
105.7936420616894
 30
0.0
 10
-116.9317587413391
 20
106.3035363150858
 30
0.0
 10
-117.0422055982716
 20
106.5713573633883
 30
0.0
  0
SPLINE
  5
B1
330
1F
100
AcDbEntity
  8
0
  6
Continuous
 62
     7
370
    15
100
AcDbSpline
210
0.0
220
0.0
230
1.0
 70
     8
 71
     3
 72
    11
 73
     7
 74
     0
 42
0.0000000001
 43
0.0000000001
 40
0.0
 40
0.0
 40
0.0
 40
0.0
 40
0.3203502167701811
 40
0.590813015373779
 40
0.8158325200368896
 40
1.0
 40
1.0
 40
1.0
 40
1.0
 10
-117.0422055982716
 20
106.5713573633883
 30
0.0
 10
-117.1198974233231
 20
106.7413737939376
 30
0.0
 10
-117.263182300391
 20
107.0549303790047
 30
0.0
 10
-117.4972251984118
 20
107.4700890332205
 30
0.0
 10
-117.7543655820068
 20
107.7785294122727
 30
0.0
 10
-117.9529768923446
 20
107.9125152015573
 30
0.0
 10
-118.0423681630628
 20
107.9728197226944
 30
0.0
  0
SPLINE
  5
B2
330
1F
100
AcDbEntity
  8
0
  6
Continuous
 62
     7
370
    15
100
AcDbSpline
210
0.0
220
0.0
230
1.0
 70
     8
 71
     3
 72
    11
 73
     7
 74
     0
 42
0.0000000001
 43
0.0000000001
 40
0.0
 40
0.0
 40
0.0
 40
0.0
 40
0.1987618534697501
 40
0.429761239051975
 40
0.6971424908278282
 40
0.9999999999999998
 40
0.9999999999999998
 40
0.9999999999999998
 40
0.9999999999999998
 10
-118.0423681630628
 20
107.9728197226944
 30
0.0
 10
-118.1441195575836
 20
108.0173819711158
 30
0.0
 10
-118.3641255829913
 20
108.1137340968492
 30
0.0
 10
-118.7470836666103
 20
108.1926038961017
 30
0.0
 10
-119.1914638962684
 20
108.2401642818696
 30
0.0
 10
-119.5095166650786
 20
108.2470079439721
 30
0.0
 10
-119.6784365560854
 20
108.2506426573586
 30
0.0
  0
SPLINE
  5
B3
330
1F
100
AcDbEntity
  8
0
  6
Continuous
 62
     7
370
    15
100
AcDbSpline
210
0.0
220
0.0
230
1.0
 70
     8
 71
     3
 72
    11
 73
     7
 74
     0
 42
0.0000000001
 43
0.0000000001
 40
0.0
 40
0.0
 40
0.0
 40
0.0
 40
0.1529604535015211
 40
0.3715436623255221
 40
0.6556655987438902
 40
1.0
 40
1.0
 40
1.0
 40
1.0
 10
-119.6784365560854
 20
108.2506426573586
 30
0.0
 10
-119.7360636571957
 20
108.2509862345821
 30
0.0
 10
-119.8760409108295
 20
108.2518207897694
 30
0.0
 10
-120.1229170718313
 20
108.2425615624254
 30
0.0
 10
-120.4420107183491
 20
108.2393490509971
 30
0.0
 10
-120.6786138002488
 20
108.2306910486173
 30
0.0
 10
-120.8082498237198
 20
108.2259472853885
 30
0.0
  0
LINE
  5
B4
330
1F
100
AcDbEntity
  8
0
  6
Continuous
 62
     7
370
    15
100
AcDbLine
 10
-120.8082498237198
 20
108.2259472853885
 30
0.0
 11
-120.8082498237198
 21
111.7820808490904
 31
0.0
  0
LINE
  5
B5
330
1F
100
AcDbEntity
  8
0
  6
Continuous
 62
     7
370
    15
100
AcDbLine
 10
-120.8082498237198
 20
111.7820808490904
 30
0.0
 11
-120.2464301113988
 21
111.7820808490904
 31
0.0
  0
SPLINE
  5
B6
330
1F
100
AcDbEntity
  8
0
  6
Continuous
 62
     7
370
    15
100
AcDbSpline
210
0.0
220
0.0
230
1.0
 70
     8
 71
     3
 72
    23
 73
    19
 74
     0
 42
0.0000000001
 43
0.0000000001
 40
0.0
 40
0.0
 40
0.0
 40
0.0
 40
0.114886001384652
 40
0.2114854026755644
 40
0.2900611201484175
 40
0.3509503803388517
 40
0.4030542525286983
 40
0.4564930294792258
 40
0.5109777679988991
 40
0.5685387812088183
 40
0.6007289163828846
 40
0.6393392282385891
 40
0.6832441542807467
 40
0.7343755969049431
 40
0.791031269071937
 40
0.8541613180710733
 40
0.9238072705537813
 40
1.0
 40
1.0
 40
1.0
 40
1.0
 10
-120.2464301113988
 20
111.7820808490904
 30
0.0
 10
-119.8862774938717
 20
111.7777247901041
 30
0.0
 10
-119.2232983630431
 20
111.7697060334438
 30
0.0
 10
-118.3141588120959
 20
111.7333625674349
 30
0.0
 10
-117.5777426160326
 20
111.6560931540884
 30
0.0
 10
-116.9853109213325
 20
111.5491570431389
 30
0.0
 10
-116.4899097943448
 20
111.3786478859251
 30
0.0
 10
-116.0448291526217
 20
111.1426440837251
 30
0.0
 10
-115.6261753987325
 20
110.8338047801247
 30
0.0
 10
-115.2982169874172
 20
110.5197793594721
 30
0.0
 10
-115.0455108373711
 20
110.2061069178305
 30
0.0
 10
-114.8373371757915
 20
109.9125043973205
 30
0.0
 10
-114.6210134511396
 20
109.5533864543986
 30
0.0
 10
-114.3881676925187
 20
109.1386031823833
 30
0.0
 10
-114.1480326285586
 20
108.659379315692
 30
0.0
 10
-113.8952594932284
 20
108.1219197433819
 30
0.0
 10
-113.6299170986387
 20
107.5228100013652
 30
0.0
 10
-113.4543298842274
 20
107.1006204479305
 30
0.0
 10
-113.3625951747189
 20
106.8800495130152
 30
0.0
  0
SPLINE
  5
B7
330
1F
100
AcDbEntity
  8
0
  6
Continuous
 62
     7
370
    15
100
AcDbSpline
210
0.0
220
0.0
230
1.0
 70
     8
 71
     3
 72
    19
 73
    15
 74
     0
 42
0.0000000001
 43
0.0000000001
 40
0.0
 40
0.0
 40
0.0
 40
0.0
 40
0.1209703025141736
 40
0.2299360241513613
 40
0.3281503686350879
 40
0.4140782452343724
 40
0.4889163938741329
 40
0.5523527503273891
 40
0.6044802997902692
 40
0.6459727712411535
 40
0.7192211077313863
 40
0.799423387657896
 40
0.8922112300970354
 40
1.0
 40
1.0
 40
1.0
 40
1.0
 10
-113.3625951747189
 20
106.8800495130152
 30
0.0
 10
-113.2528569633765
 20
106.6098705252163
 30
0.0
 10
-113.0442704963749
 20
106.0963239689741
 30
0.0
 10
-112.7250730080545
 20
105.3725152839822
 30
0.0
 10
-112.4385641257373
 20
104.7266946105905
 30
0.0
 10
-112.1736319619165
 20
104.1613084757911
 30
0.0
 10
-111.9267442042557
 20
103.6804630633939
 30
0.0
 10
-111.7055755436487
 20
103.2781906373342
 30
0.0
 10
-111.5098100640148
 20
102.9540627466235
 30
0.0
 10
-111.2751779096802
 20
102.6260671505717
 30
0.0
 10
-110.9107700844048
 20
102.3169137253805
 30
0.0
 10
-110.3646298879243
 20
102.0708341310316
 30
0.0
 10
-109.6985305838164
 20
101.9267870891843
 30
0.0
 10
-109.2145563651595
 20
101.9119210102201
 30
0.0
 10
-108.9544712780468
 20
101.9039320610295
 30
0.0
  0
LINE
  5
B8
330
1F
100
AcDbEntity
  8
0
  6
Continuous
 62
     7
370
    15
100
AcDbLine
 10
-108.9544712780468
 20
101.9039320610295
 30
0.0
 11
-108.9544712780468
 21
111.7820808490904
 31
0.0
  0
LINE
  5
B9
330
1F
100
AcDbEntity
  8
0
  6
Continuous
 62
     7
370
    15
100
AcDbLine
 10
-108.9544712780468
 20
111.7820808490904
 30
0.0
 11
-105.0032117628224
 21
111.7820808490904
 31
0.0
  0
SPLINE
  5
BA
330
1F
100
AcDbEntity
  8
0
  6
Continuous
 62
     7
370
    15
100
AcDbSpline
210
0.0
220
0.0
230
1.0
 70
     8
 71
     3
 72
    23
 73
    19
 74
     0
 42
0.0000000001
 43
0.0000000001
 40
0.0
 40
0.0
 40
0.0
 40
0.0
 40
0.0877310226443744
 40
0.1690056846605415
 40
0.2448021443962125
 40
0.3142317617715653
 40
0.3789415805204455
 40
0.4391718549354328
 40
0.4957867026411699
 40
0.5494347689706728
 40
0.6020003354234689
 40
0.6542545252912728
 40
0.7069046930323725
 40
0.7612021463875935
 40
0.8168623067330516
 40
0.8746699957507749
 40
0.9360077445631969
 40
1.0
 40
1.0
 40
1.0
 40
1.0
 10
12.05440649069248
 20
101.306446673988
 30
0.0
 10
12.27675860922977
 20
101.310164485891
 30
0.0
 10
12.70509935913122
 20
101.3173265059744
 30
0.0
 10
13.32403220694994
 20
101.3673069725039
 30
0.0
 10
13.89205983603415
 20
101.4538208563116
 30
0.0
 10
14.4107579044886
 20
101.5744823953637
 30
0.0
 10
14.88078688354323
 20
101.7244612250175
 30
0.0
 10
15.30130579424343
 20
101.9141431635013
 30
0.0
 10
15.67014615248234
 20
102.1416774269721
 30
0.0
 10
15.98975198666034
 20
102.4047454210147
 30
0.0
 10
16.2640975269777
 20
102.6994457552889
 30
0.0
 10
16.50181141577241
 20
103.0209475542118
 30
0.0
 10
16.70378598498934
 20
103.3715483127844
 30
0.0
 10
16.86211017953383
 20
103.7527149130158
 30
0.0
 10
16.99623260049492
 20
104.1570329228312
 30
0.0
 10
17.0799492046321
 20
104.5928798376589
 30
0.0
 10
17.13815709643938
 20
105.0539352371135
 30
0.0
 10
17.14455847779334
 20
105.3717252425363
 30
0.0
 10
17.14782695953642
 20
105.5339856631284
 30
0.0
  0
SPLINE
  5
BB
330
1F
100
AcDbEntity
  8
0
  6
Continuous
 62
     7
370
    15
100
AcDbSpline
210
0.0
220
0.0
230
1.0
 70
     8
 71
     3
 72
    15
 73
    11
 74
     0
 42
0.0000000001
 43
0.0000000001
 40
0.0
 40
0.0
 40
0.0
 40
0.0
 40
0.1428946013811193
 40
0.2768798469236294
 40
0.4054067255101085
 40
0.5318333729300079
 40
0.6542249868698865
 40
0.7698109407908959
 40
0.8841096717431483
 40
1.0
 40
1.0
 40
1.0
 40
1.0
 10
17.14782695953642
 20
105.5339856631284
 30
0.0
 10
17.14092184593255
 20
105.7692891523485
 30
0.0
 10
17.12754214663573
 20
106.2252251600502
 30
0.0
 10
16.9927383449629
 20
106.8813030349159
 30
0.0
 10
16.78139446291442
 20
107.4875306238608
 30
0.0
 10
16.47881221846148
 20
108.0324301287583
 30
0.0
 10
16.1125996895334
 20
108.5104521255218
 30
0.0
 10
15.68212462314739
 20
108.9015528035021
 30
0.0
 10
15.20118816858263
 20
109.214223382003
 30
0.0
 10
14.84209813835542
 20
109.3380256831917
 30
0.0
 10
14.66131169429167
 20
109.4003548372053
 30
0.0
  0
SPLINE
  5
BC
330
1F
100
AcDbEntity
  8
0
  6
Continuous
 62
     7
370
    15
100
AcDbSpline
210
0.0
220
0.0
230
1.0
 70
     8
 71
     3
 72
    15
 73
    11
 74
     0
 42
0.0000000001
 43
0.0000000001
 40
0.0
 40
0.0
 40
0.0
 40
0.0
 40
0.0763829976037001
 40
0.1659855054655313
 40
0.2707148802617378
 40
0.3888240826834124
 40
0.5206018700426672
 40
0.6660294782576505
 40
0.8252434598020194
 40
1.0
 40
1.0
 40
1.0
 40
1.0
 10
14.66131169429167
 20
109.4003548372053
 30
0.0
 10
14.59510190488726
 20
109.4165445936898
 30
0.0
 10
14.45122348029218
 20
109.4517260476486
 30
0.0
 10
14.21288999645532
 20
109.4916575281921
 30
0.0
 10
13.93667404574177
 20
109.529469093336
 30
0.0
 10
13.62122921342779
 20
109.5545553069008
 30
0.0
 10
13.26943227747978
 20
109.5794691089538
 30
0.0
 10
12.88020775071982
 20
109.5909537511404
 30
0.0
 10
12.45266898980691
 20
109.6008732075074
 30
0.0
 10
12.15473935317635
 20
109.6029860632783
 30
0.0
 10
11.99884190375962
 20
109.6040916559591
 30
0.0
  0
LINE
  5
BD
330
1F
100
AcDbEntity
  8
0
  6
Continuous
 62
     7
370
    15
100
AcDbLine
 10
11.99884190375962
 20
109.6040916559591
 30
0.0
 11
6.479426268430586
 21
109.6040916559591
 31
0.0
  0
LINE
  5
BE
330
1F
100
AcDbEntity
  8
0
  6
Continuous
 62
     7
370
    15
100
AcDbLine
 10
6.479426268430586
 20
109.6040916559591
 30
0.0
 11
6.479426268430586
 21
101.306446673988
 31
0.0
  0
LINE
  5
BF
330
1F
100
AcDbEntity
  8
0
  6
Continuous
 62
     7
370
    15
100
AcDbLine
 10
6.479426268430586
 20
101.306446673988
 30
0.0
 11
12.05440649069248
 21
101.306446673988
 31
0.0
  0
LINE
  5
C0
330
1F
100
AcDbEntity
  8
0
  6
Continuous
 62
     7
370
    15
100
AcDbLine
 10
3.219637168370525
 20
89.15632366467306
 30
0.0
 11
3.219637168370525
 21
112.2711918287356
 31
0.0
  0
LINE
  5
C1
330
1F
100
AcDbEntity
  8
0
  6
Continuous
 62
     7
370
    15
100
AcDbLine
 10
3.219637168370525
 20
112.2711918287356
 30
0.0
 11
11.71175820460661
 21
112.2711918287356
 31
0.0
  0
SPLINE
  5
C2
330
1F
100
AcDbEntity
  8
0
  6
Continuous
 62
     7
370
    15
100
AcDbSpline
210
0.0
220
0.0
230
1.0
 70
     8
 71
     3
 72
    11
 73
     7
 74
     0
 42
0.0000000001
 43
0.0000000001
 40
0.0
 40
0.0
 40
0.0
 40
0.0
 40
0.3071626301099407
 40
0.5768528599096828
 40
0.8066330493509287
 40
1.0
 40
1.0
 40
1.0
 40
1.0
 10
11.71175820460661
 20
112.2711918287356
 30
0.0
 10
12.06374977686391
 20
112.2691865039516
 30
0.0
 10
12.72479160036982
 20
112.2654204946026
 30
0.0
 10
13.64792801388768
 20
112.2213156827937
 30
0.0
 10
14.44064024432231
 20
112.1667507300964
 30
0.0
 10
14.9194416161406
 20
112.0890644294556
 30
0.0
 10
15.13824106546525
 20
112.0535638632486
 30
0.0
  0
SPLINE
  5
C3
330
1F
100
AcDbEntity
  8
0
  6
Continuous
 62
     7
370
    15
100
AcDbSpline
210
0.0
220
0.0
230
1.0
 70
     8
 71
     3
 72
    19
 73
    15
 74
     0
 42
0.0000000001
 43
0.0000000001
 40
0.0
 40
0.0
 40
0.0
 40
0.0
 40
0.0892424937815277
 40
0.1729768290722678
 40
0.2526551372368078
 40
0.3289533944009832
 40
0.4046880824662924
 40
0.4814988935669575
 40
0.5618700905962247
 40
0.6456290048367234
 40
0.73229124918868
 40
0.8191788448148042
 40
0.9080746859653679
 40
0.9999999999999998
 40
0.9999999999999998
 40
0.9999999999999998
 40
0.9999999999999998
 10
15.13824106546525
 20
112.0535638632486
 30
0.0
 10
15.40512357461415
 20
112.0022017277632
 30
0.0
 10
15.92241627018166
 20
111.9026475921248
 30
0.0
 10
16.65482254829766
 20
111.6626441663731
 30
0.0
 10
17.3220870954691
 20
111.3639782241458
 30
0.0
 10
17.92316710487188
 20
110.9918712784412
 30
0.0
 10
18.46804837279529
 20
110.5547366351501
 30
0.0
 10
18.94896571943099
 20
110.0309467176903
 30
0.0
 10
19.37526264977117
 20
109.432196832185
 30
0.0
 10
19.73774525995725
 20
108.7589554652915
 30
0.0
 10
20.03945649290313
 20
108.0345480432467
 30
0.0
 10
20.25077621714547
 20
107.2628034807784
 30
0.0
 10
20.38612688113165
 20
106.4571297890929
 30
0.0
 10
20.40037343796189
 20
105.9065138036275
 30
0.0
 10
20.40761605959648
 20
105.6265933080165
 30
0.0
  0
SPLINE
  5
C4
330
1F
100
AcDbEntity
  8
0
  6
Continuous
 62
     7
370
    15
100
AcDbSpline
210
0.0
220
0.0
230
1.0
 70
     8
 71
     3
 72
    23
 73
    19
 74
     0
 42
0.0000000001
 43
0.0000000001
 40
0.0
 40
0.0
 40
0.0
 40
0.0
 40
0.0580480686591469
 40
0.1142127550191539
 40
0.1688916471752762
 40
0.2226262701242393
 40
0.2756512298918105
 40
0.3287250271459033
 40
0.3816587912372611
 40
0.4359534350342102
 40
0.4912638558489656
 40
0.5489925911805694
 40
0.6104165486580292
 40
0.6762479649809734
 40
0.7474094740183923
 40
0.824866485744554
 40
0.9090259917114394
 40
1.0
 40
1.0
 40
1.0
 40
1.0
 10
20.40761605959653
 20
105.6265933080165
 30
0.0
 10
20.40251188471314
 20
105.3870934361477
 30
0.0
 10
20.39246914101824
 20
104.9158643181992
 30
0.0
 10
20.30623369361416
 20
104.2235607364964
 30
0.0
 10
20.17022174957185
 20
103.5575365426152
 30
0.0
 10
19.96734149052673
 20
102.9223494434994
 30
0.0
 10
19.71931492384419
 20
102.3105734779333
 30
0.0
 10
19.40674413818328
 20
101.7325263933548
 30
0.0
 10
19.04174964886289
 20
101.1803587981016
 30
0.0
 10
18.62298769929867
 20
100.6555731883823
 30
0.0
 10
18.12998858145011
 20
100.1688186598614
 30
0.0
 10
17.53685003654704
 20
99.75590313824913
 30
0.0
 10
16.85500783254713
 20
99.40917017263016
 30
0.0
 10
16.08430294284028
 20
99.12901368642037
 30
0.0
 10
15.22660627034509
 20
98.90857567683335
 30
0.0
 10
14.27910754348068
 20
98.74706388246805
 30
0.0
 10
13.23996100878173
 20
98.6578959308006
 30
0.0
 10
12.51761178665015
 20
98.64568798282412
 30
0.0
 10
12.14238375333616
 20
98.63934650121152
 30
0.0
  0
LINE
  5
C5
330
1F
100
AcDbEntity
  8
0
  6
Continuous
 62
     7
370
    15
100
AcDbLine
 10
12.14238375333616
 20
98.63934650121152
 30
0.0
 11
6.479426268430586
 21
98.63934650121152
 31
0.0
  0
LINE
  5
C6
330
1F
100
AcDbEntity
  8
0
  6
Continuous
 62
     7
370
    15
100
AcDbLine
 10
6.479426268430586
 20
98.63934650121152
 30
0.0
 11
6.479426268430586
 21
89.15632366467306
 31
0.0
  0
LINE
  5
C7
330
1F
100
AcDbEntity
  8
0
  6
Continuous
 62
     7
370
    15
100
AcDbLine
 10
6.479426268430586
 20
89.15632366467306
 30
0.0
 11
3.219637168370525
 21
89.15632366467306
 31
0.0
  0
SPLINE
  5
C8
330
1F
100
AcDbEntity
  8
0
  6
Continuous
 62
     7
370
    15
100
AcDbSpline
210
0.0
220
0.0
230
1.0
 70
     8
 71
     3
 72
    23
 73
    19
 74
     0
 42
0.0000000001
 43
0.0000000001
 40
0.0
 40
0.0
 40
0.0
 40
0.0
 40
0.0610549117432826
 40
0.1195453450847435
 40
0.1768063562451032
 40
0.2329564830316854
 40
0.2885834899465029
 40
0.3446666617212996
 40
0.4016615108374462
 40
0.4605400973082775
 40
0.520477062322188
 40
0.5812128653554001
 40
0.64343075972201
 40
0.7079608695212421
 40
0.7753707435336735
 40
0.8464136772813295
 40
0.9211518871893691
 40
1.0
 40
1.0
 40
1.0
 40
1.0
 10
-33.24462300630739
 20
91.52707937380768
 30
0.0
 10
-32.96952765509855
 20
91.53396491719609
 30
0.0
 10
-32.43089173290207
 20
91.54744679174081
 30
0.0
 10
-31.64036708029323
 20
91.66029873468222
 30
0.0
 10
-30.88928016687061
 20
91.85242435722342
 30
0.0
 10
-30.17018637903954
 20
92.1081870825731
 30
0.0
 10
-29.4960862368003
 20
92.4539346869218
 30
0.0
 10
-28.85121446352537
 20
92.85880323962956
 30
0.0
 10
-28.25315034691465
 20
93.35354101453964
 30
0.0
 10
-27.68721310514377
 20
93.90928019622476
 30
0.0
 10
-27.17960552242767
 20
94.54097984492685
 30
0.0
 10
-26.72921065360265
 20
95.23307918564231
 30
0.0
 10
-26.36334156456485
 20
95.9959579490459
 30
0.0
 10
-26.04746298706761
 20
96.81281096035299
 30
0.0
 10
-25.8161584875138
 20
97.6990770522481
 30
0.0
 10
-25.64521028822515
 20
98.64468116063903
 30
0.0
 10
-25.54219328417162
 20
99.65266499648109
 30
0.0
 10
-25.53134506253895
 20
100.3446271967414
 30
0.0
 10
-25.52577580488668
 20
100.6998665999711
 30
0.0
  0
SPLINE
  5
C9
330
1F
100
AcDbEntity
  8
0
  6
Continuous
 62
     7
370
    15
100
AcDbSpline
210
0.0
220
0.0
230
1.0
 70
     8
 71
     3
 72
    23
 73
    19
 74
     0
 42
0.0000000001
 43
0.0000000001
 40
0.0
 40
0.0
 40
0.0
 40
0.0
 40
0.0559431333569174
 40
0.1103820356898407
 40
0.1640478588828491
 40
0.2167594775435852
 40
0.2696011346144466
 40
0.3230085051908681
 40
0.3775814436721357
 40
0.4334493367080532
 40
0.4909218580498928
 40
0.5506247708713251
 40
0.6131168723098179
 40
0.6798607463518504
 40
0.7513577440202001
 40
0.8282611012589939
 40
0.9107950320656291
 40
1.0
 40
1.0
 40
1.0
 40
1.0
 10
-33.19831918386336
 20
109.9004361196009
 30
0.0
 10
-33.45803578180233
 20
109.895278250447
 30
0.0
 10
-33.97048556898244
 20
109.8851011998804
 30
0.0
 10
-34.72487266049336
 20
109.7719674814152
 30
0.0
 10
-35.45218361065588
 20
109.6029302481189
 30
0.0
 10
-36.15354712838519
 20
109.3666071888385
 30
0.0
 10
-36.82296455926036
 20
109.0536783184298
 30
0.0
 10
-37.46390409792878
 20
108.6699138847712
 30
0.0
 10
-38.08205502199133
 20
108.2257631872092
 30
0.0
 10
-38.66766997272674
 20
107.7104045946605
 30
0.0
 10
-39.21359119854844
 20
107.1183833763464
 30
0.0
 10
-39.67511282673405
 20
106.4204085013653
 30
0.0
 10
-40.0640958641344
 20
105.6331420956
 30
0.0
 10
-40.38888953477095
 20
104.758579696556
 30
0.0
 10
-40.63653514370474
 20
103.7899483964695
 30
0.0
 10
-40.80768923536521
 20
102.7314166706512
 30
0.0
 10
-40.91575243683081
 20
101.5818690872723
 30
0.0
 10
-40.92887287144185
 20
100.7850137038872
 30
0.0
 10
-40.93568791426167
 20
100.3711094606184
 30
0.0
  0
SPLINE
  5
CA
330
1F
100
AcDbEntity
  8
0
  6
Continuous
 62
     7
370
    15
100
AcDbSpline
210
0.0
220
0.0
230
1.0
 70
     8
 71
     3
 72
    23
 73
    19
 74
     0
 42
0.0000000001
 43
0.0000000001
 40
0.0
 40
0.0
 40
0.0
 40
0.0
 40
0.0759644026221997
 40
0.148125223974871
 40
0.2172006111446029
 40
0.283299909372361
 40
0.3472018681362408
 40
0.409299540705924
 40
0.4704256161074025
 40
0.5315880640528344
 40
0.5917391729173695
 40
0.650257744290573
 40
0.7073030399522855
 40
0.7642084640229152
 40
0.82114753201013
 40
0.879118812155254
 40
0.9384228183936659
 40
1.0
 40
1.0
 40
1.0
 40
1.0
 10
-40.93568791426167
 20
100.3711094606184
 30
0.0
 10
-40.93069244194777
 20
100.0373957543749
 30
0.0
 10
-40.92095162348783
 20
99.38667757882839
 30
0.0
 10
-40.80951138792613
 20
98.43796508252593
 30
0.0
 10
-40.64041862904912
 20
97.54280652858916
 30
0.0
 10
-40.4073421100569
 20
96.69868899176094
 30
0.0
 10
-40.09403019086841
 20
95.91396066978152
 30
0.0
 10
-39.71942522474069
 20
95.18108108599481
 30
0.0
 10
-39.27091417445178
 20
94.50492200562377
 30
0.0
 10
-38.75839253020536
 20
93.88737491271729
 30
0.0
 10
-38.19467747689316
 20
93.33261687833251
 30
0.0
 10
-37.59229073386677
 20
92.84806524579606
 30
0.0
 10
-36.95109688756446
 20
92.4422875282597
 30
0.0
 10
-36.27820471229757
 20
92.10723139882063
 30
0.0
 10
-35.56878113794511
 20
91.84568953793933
 30
0.0
 10
-34.82495089539674
 20
91.66204143271796
 30
0.0
 10
-34.04616746022384
 20
91.5471844507266
 30
0.0
 10
-33.51513319749705
 20
91.53386455980035
 30
0.0
 10
-33.24462300630739
 20
91.52707937380768
 30
0.0
  0
SPLINE
  5
CB
330
1F
100
AcDbEntity
  8
0
  6
Continuous
 62
     7
370
    15
100
AcDbSpline
210
0.0
220
0.0
230
1.0
 70
     8
 71
     3
 72
    23
 73
    19
 74
     0
 42
0.0000000001
 43
0.0000000001
 40
0.0
 40
0.0
 40
0.0
 40
0.0
 40
0.0752263466908988
 40
0.1465747215268521
 40
0.2145002518264752
 40
0.2795299716530228
 40
0.3424029515883812
 40
0.4034960527288084
 40
0.463761606503039
 40
0.5238643590795866
 40
0.5832517242549665
 40
0.6413020392831351
 40
0.6988977748564885
 40
0.7562952438113089
 40
0.8146278048129691
 40
0.8743247683399976
 40
0.9357832838625451
 40
1.0
 40
1.0
 40
1.0
 40
1.0
 10
-44.19547701432179
 20
100.4081525185736
 30
0.0
 10
-44.18744317563954
 20
100.8715857021869
 30
0.0
 10
-44.17178964839218
 20
101.7745617580829
 30
0.0
 10
-44.02553030713147
 20
103.0894112468428
 30
0.0
 10
-43.78804267834851
 20
104.3265126237669
 30
0.0
 10
-43.44853309875628
 20
105.485769509887
 30
0.0
 10
-43.01820373094557
 20
106.5689984685897
 30
0.0
 10
-42.49505617874587
 20
107.578652306167
 30
0.0
 10
-41.8633545096618
 20
108.5033024680609
 30
0.0
 10
-41.14873894777884
 20
109.3517510230798
 30
0.0
 10
-40.35054618823624
 20
110.1018417337068
 30
0.0
 10
-39.50069776681067
 20
110.768029751239
 30
0.0
 10
-38.58858174263918
 20
111.323709317963
 30
0.0
 10
-37.62262536781867
 20
111.7825174473262
 30
0.0
 10
-36.59872471046197
 20
112.1347770433088
 30
0.0
 10
-35.51975457246868
 20
112.3813908135879
 30
0.0
 10
-34.38686890526054
 20
112.5404806608461
 30
0.0
 10
-33.6125150380397
 20
112.5583867532309
 30
0.0
 10
-33.21684071284102
 20
112.5675362923774
 30
0.0
  0
SPLINE
  5
CC
330
1F
100
AcDbEntity
  8
0
  6
Continuous
 62
     7
370
    15
100
AcDbSpline
210
0.0
220
0.0
230
1.0
 70
     8
 71
     3
 72
    31
 73
    27
 74
     0
 42
0.0000000001
 43
0.0000000001
 40
0.0
 40
0.0
 40
0.0
 40
0.0
 40
0.0430989705688966
 40
0.0855867603450729
 40
0.1269076657436394
 40
0.1679674856215207
 40
0.208449558601066
 40
0.2490254246415441
 40
0.2892805341716793
 40
0.330009848982731
 40
0.3705977240995768
 40
0.4104659863326995
 40
0.4500332158929482
 40
0.4896882096042475
 40
0.5291164230741915
 40
0.5690368070925097
 40
0.6097030542359444
 40
0.6507589174942191
 40
0.6925092624061779
 40
0.7342191213706864
 40
0.7767069111468623
 40
0.8195518402403212
 40
0.8633507288313333
 40
0.9078385251300616
 40
0.9533337036124182
 40
1.0
 40
1.0
 40
1.0
 40
1.0
 10
-33.21684071284102
 20
112.5675362923774
 30
0.0
 10
-32.95586630647671
 20
112.5629791879374
 30
0.0
 10
-32.43761833723602
 20
112.5539296027521
 30
0.0
 10
-31.67143496863156
 20
112.485074345034
 30
0.0
 10
-30.92493981795303
 20
112.3621796384963
 30
0.0
 10
-30.19886799579917
 20
112.1974869504208
 30
0.0
 10
-29.49124313024873
 20
111.9814173057718
 30
0.0
 10
-28.80164264101353
 20
111.726353665027
 30
0.0
 10
-28.13610320983082
 20
111.410293899125
 30
0.0
 10
-27.49019718028461
 20
111.0564335399394
 30
0.0
 10
-26.87154899465918
 20
110.6606254274965
 30
0.0
 10
-26.29014497886323
 20
110.2233770088742
 30
0.0
 10
-25.74737777924662
 20
109.747995174509
 30
0.0
 10
-25.23595656010264
 20
109.242293906054
 30
0.0
 10
-24.7729467276136
 20
108.6892064914983
 30
0.0
 10
-24.33922016833498
 20
108.1055809210658
 30
0.0
 10
-23.94724026964121
 20
107.4810685676512
 30
0.0
 10
-23.5956162006201
 20
106.8207862526647
 30
0.0
 10
-23.28122855105613
 20
106.1349319156752
 30
0.0
 10
-23.01252359451007
 20
105.420662969851
 30
0.0
 10
-22.78179155136041
 20
104.6865475709876
 30
0.0
 10
-22.58864936523662
 20
103.9282405401626
 30
0.0
 10
-22.45006463558394
 20
103.1460011187716
 30
0.0
 10
-22.33970811700982
 20
102.3431998991944
 30
0.0
 10
-22.28162443234698
 20
101.5172130570162
 30
0.0
 10
-22.27124325271097
 20
100.9592442259702
 30
0.0
 10
-22.26598670482656
 20
100.6767146887491
 30
0.0
  0
SPLINE
  5
CD
330
1F
100
AcDbEntity
  8
0
  6
Continuous
 62
     7
370
    15
100
AcDbSpline
210
0.0
220
0.0
230
1.0
 70
     8
 71
     3
 72
    31
 73
    27
 74
     0
 42
0.0000000001
 43
0.0000000001
 40
0.0
 40
0.0
 40
0.0
 40
0.0
 40
0.0475595569054264
 40
0.0939621052432107
 40
0.1391115332408221
 40
0.1836263101269046
 40
0.2274570284004935
 40
0.2707025105518547
 40
0.3136105321155536
 40
0.3562604510849768
 40
0.3983661529550377
 40
0.4395565149792805
 40
0.4800453830214206
 40
0.519888495705013
 40
0.5596577503171977
 40
0.5994212546627417
 40
0.6392077550883986
 40
0.679668374985781
 40
0.7200198525128487
 40
0.7598588655624578
 40
0.7995598848323812
 40
0.8391991446364384
 40
0.8789560762302789
 40
0.9187942693024663
 40
0.9590833628432754
 40
1.0
 40
1.0
 40
1.0
 40
1.0
 10
-22.26598670482656
 20
100.6767146887491
 30
0.0
 10
-22.27080284728214
 20
100.3895262331482
 30
0.0
 10
-22.2803179671385
 20
99.82213591991493
 30
0.0
 10
-22.34470116156359
 20
98.98392682870676
 30
0.0
 10
-22.45790919588825
 20
98.1697809820892
 30
0.0
 10
-22.6080603787679
 20
97.37727074439774
 30
0.0
 10
-22.80925837978049
 20
96.60804595709368
 30
0.0
 10
-23.0483512855476
 20
95.85990120557836
 30
0.0
 10
-23.33754766298529
 20
95.13729258937345
 30
0.0
 10
-23.66416286331224
 20
94.43847847211666
 30
0.0
 10
-24.03372782398691
 20
93.77306997303833
 30
0.0
 10
-24.44138305221571
 20
93.14571994230812
 30
0.0
 10
-24.88741734553236
 20
92.56229674373404
 30
0.0
 10
-25.36505549476942
 20
92.01564326385815
 30
0.0
 10
-25.8854516158317
 20
91.5155346893597
 30
0.0
 10
-26.44219774187724
 20
91.05729463808714
 30
0.0
 10
-27.03315318716216
 20
90.63660138561877
 30
0.0
 10
-27.66030326148632
 20
90.26484862083297
 30
0.0
 10
-28.31239290136063
 20
89.93899404367263
 30
0.0
 10
-28.97651828082207
 20
89.64990232717221
 30
0.0
 10
-29.65317272703334
 20
89.4033534070675
 30
0.0
 10
-30.34466883769028
 20
89.20355001275893
 30
0.0
 10
-31.04912027929095
 20
89.05256418666292
 30
0.0
 10
-31.7645446417331
 20
88.93950440754784
 30
0.0
 10
-32.49328718520087
 20
88.87440419849159
 30
0.0
 10
-32.98365381241007
 20
88.86481224183649
 30
0.0
 10
-33.23073185957418
 20
88.85997920103125
 30
0.0
  0
SPLINE
  5
CE
330
1F
100
AcDbEntity
  8
0
  6
Continuous
 62
     7
370
    15
100
AcDbSpline
210
0.0
220
0.0
230
1.0
 70
     8
 71
     3
 72
    31
 73
    27
 74
     0
 42
0.0000000001
 43
0.0000000001
 40
0.0
 40
0.0
 40
0.0
 40
0.0
 40
0.0446969998899172
 40
0.0885335629185878
 40
0.1314091332352273
 40
0.1738139421467781
 40
0.215714533269445
 40
0.2572471603264205
 40
0.2988479641797118
 40
0.3406041827148139
 40
0.3820294481091342
 40
0.4229697500404859
 40
0.4636322295306196
 40
0.5040475437003943
 40
0.5445912057564576
 40
0.5849639251690936
 40
0.6262652162680832
 40
0.6679794005009904
 40
0.7099427472053505
 40
0.7513818550852256
 40
0.7926185649779645
 40
0.8339484357458207
 40
0.8750080506311038
 40
0.9164455302232756
 40
0.9579066137283069
 40
1.0
 40
1.0
 40
1.0
 40
1.0
 10
-33.23073185957418
 20
88.85997920103125
 30
0.0
 10
-33.49639563704676
 20
88.86390972953611
 30
0.0
 10
-34.02260904770049
 20
88.8716951221474
 30
0.0
 10
-34.80036664077784
 20
88.94940661135811
 30
0.0
 10
-35.55877484733537
 20
89.06795819519055
 30
0.0
 10
-36.29562883972892
 20
89.23911086625869
 30
0.0
 10
-37.00992173621393
 20
89.46239161826539
 30
0.0
 10
-37.70249870876182
 20
89.73264357561536
 30
0.0
 10
-38.37579562368376
 20
90.04625490470814
 30
0.0
 10
-39.02145798051714
 20
90.412205324821
 30
0.0
 10
-39.63728820825952
 20
90.81910285531838
 30
0.0
 10
-40.21731745797376
 20
91.26492482648092
 30
0.0
 10
-40.76122499475047
 20
91.74556259316728
 30
0.0
 10
-41.26028332919924
 20
92.26896052417657
 30
0.0
 10
-41.73065538957132
 20
92.81614524145314
 30
0.0
 10
-42.15353358770733
 20
93.40745526173293
 30
0.0
 10
-42.54272846565084
 20
94.02948029274591
 30
0.0
 10
-42.88672310907947
 20
94.68821638638983
 30
0.0
 10
-43.1974707899576
 20
95.36408840355685
 30
0.0
 10
-43.45928242329882
 20
96.05731253748599
 30
0.0
 10
-43.68936410820015
 20
96.75767250710581
 30
0.0
 10
-43.87260088012505
 20
97.46948503841776
 30
0.0
 10
-44.01861828922545
 20
98.19110814205187
 30
0.0
 10
-44.1168044156945
 20
98.92134106236703
 30
0.0
 10
-44.18771518280112
 20
99.66127135705219
 30
0.0
 10
-44.19287671708912
 20
100.1579392780162
 30
0.0
 10
-44.19547701432179
 20
100.4081525185736
 30
0.0
  0
SPLINE
  5
CF
330
1F
100
AcDbEntity
  8
0
  6
Continuous
 62
     7
370
    15
100
AcDbSpline
210
0.0
220
0.0
230
1.0
 70
     8
 71
     3
 72
    31
 73
    27
 74
     0
 42
0.0000000001
 43
0.0000000001
 40
0.0
 40
0.0
 40
0.0
 40
0.0
 40
0.0508516157922844
 40
0.0997524678094162
 40
0.1474376477769316
 40
0.1940857839327039
 40
0.2391709270841437
 40
0.2833398222454336
 40
0.3265771497238434
 40
0.3689362814999017
 40
0.4105718726814491
 40
0.4510505934949116
 40
0.4908768629924154
 40
0.5300443324843852
 40
0.5689366633103301
 40
0.6075778621311331
 40
0.6464200964505121
 40
0.6856793513063936
 40
0.7247985849801962
 40
0.7635130084045107
 40
0.802172526378755
 40
0.8407403615726119
 40
0.8796493769005856
 40
0.9190706128663389
 40
0.9590978622172238
 40
1.0
 40
1.0
 40
1.0
 40
1.0
 10
-25.52577580488668
 20
100.6998665999711
 30
0.0
 10
-25.52774397839585
 20
100.928404509776
 30
0.0
 10
-25.53160482257061
 20
101.37671318465
 30
0.0
 10
-25.58273533926581
 20
102.0375253009827
 30
0.0
 10
-25.64868714486863
 20
102.6777823768688
 30
0.0
 10
-25.74909979421551
 20
103.2966582515215
 30
0.0
 10
-25.88748116518252
 20
103.8915900192198
 30
0.0
 10
-26.04078422464687
 20
104.4671069077027
 30
0.0
 10
-26.23248433945537
 20
105.018249428879
 30
0.0
 10
-26.4499948358515
 20
105.5471789531426
 30
0.0
 10
-26.69338539828056
 20
106.0511800566541
 30
0.0
 10
-26.96789758234633
 20
106.5260038094549
 30
0.0
 10
-27.27034099332644
 20
106.9698042020193
 30
0.0
 10
-27.59255535534288
 20
107.3909952401029
 30
0.0
 10
-27.95238307774082
 20
107.7732751055895
 30
0.0
 10
-28.33249824215136
 20
108.1327914773978
 30
0.0
 10
-28.74153515148646
 20
108.4621166682462
 30
0.0
 10
-29.1754117674339
 20
108.7613367032703
 30
0.0
 10
-29.62797298760455
 20
109.0306818918697
 30
0.0
 10
-30.09828586015101
 20
109.2612064260235
 30
0.0
 10
-30.57885763168901
 20
109.4636932666626
 30
0.0
 10
-31.0777323938068
 20
109.618907928386
 30
0.0
 10
-31.58802164749415
 20
109.7440908311232
 30
0.0
 10
-32.11178825375055
 20
109.8391789048183
 30
0.0
 10
-32.65097629510109
 20
109.8884199346167
 30
0.0
 10
-33.01456137351062
 20
109.8964019613305
 30
0.0
 10
-33.19831918386336
 20
109.9004361196009
 30
0.0
  0
LINE
  5
D0
330
1F
100
AcDbEntity
  8
0
  6
Continuous
 62
     7
370
    15
100
AcDbLine
 10
151.095524525642
 20
99.52837989213699
 30
0.0
 11
151.095524525642
 21
89.15632366467306
 31
0.0
  0
LINE
  5
D1
330
1F
100
AcDbEntity
  8
0
  6
Continuous
 62
     7
370
    15
100
AcDbLine
 10
147.7570189274271
 20
99.52837989213699
 30
0.0
 11
151.095524525642
 21
99.52837989213699
 31
0.0
  0
SPLINE
  5
D2
330
1F
100
AcDbEntity
  8
0
  6
Continuous
 62
     7
370
    15
100
AcDbSpline
210
0.0
220
0.0
230
1.0
 70
     8
 71
     3
 72
    11
 73
     7
 74
     0
 42
0.0000000001
 43
0.0000000001
 40
0.0
 40
0.0
 40
0.0
 40
0.0
 40
0.177494657081859
 40
0.4052256231013784
 40
0.678388108334868
 40
1.0
 40
1.0
 40
1.0
 40
1.0
 10
146.1502762886191
 20
99.42188110051572
 30
0.0
 10
146.2442315709522
 20
99.43882443109416
 30
0.0
 10
146.458734297136
 20
99.47750656273655
 30
0.0
 10
146.8229593909336
 20
99.50276992458405
 30
0.0
 10
147.2642627758169
 20
99.52958360327924
 30
0.0
 10
147.5840828594333
 20
99.52880234261535
 30
0.0
 10
147.7570189274271
 20
99.52837989213699
 30
0.0
  0
LINE
  5
D3
330
1F
100
AcDbEntity
  8
0
  6
Continuous
 62
     7
370
    15
100
AcDbLine
 10
138.4175379404652
 20
89.15632366467306
 30
0.0
 11
141.2976356964842
 21
94.03674655027442
 31
0.0
  0
LINE
  5
D4
330
1F
100
AcDbEntity
  8
0
  6
Continuous
 62
     7
370
    15
100
AcDbLine
 10
134.6808194692315
 20
89.15632366467306
 30
0.0
 11
138.4175379404652
 21
89.15632366467306
 31
0.0
  0
LINE
  5
D5
330
1F
100
AcDbEntity
  8
0
  6
Continuous
 62
     7
370
    15
100
AcDbLine
 10
138.473102527398
 20
95.53699039746115
 30
0.0
 11
134.6808194692315
 21
89.15632366467306
 31
0.0
  0
SPLINE
  5
D6
330
1F
100
AcDbEntity
  8
0
  6
Continuous
 62
     7
370
    15
100
AcDbSpline
210
0.0
220
0.0
230
1.0
 70
     8
 71
     3
 72
    11
 73
     7
 74
     0
 42
0.0000000001
 43
0.0000000001
 40
0.0
 40
0.0
 40
0.0
 40
0.0
 40
0.2295426438440557
 40
0.470754163101197
 40
0.7281684972329781
 40
1.0
 40
1.0
 40
1.0
 40
1.0
 10
140.9086835879543
 20
98.68565032365559
 30
0.0
 10
140.6899553736184
 20
98.47189189904856
 30
0.0
 10
140.2413798245965
 20
98.03350857037143
 30
0.0
 10
139.629239901171
 20
97.27988855781402
 30
0.0
 10
139.0235347440099
 20
96.4511222350794
 30
0.0
 10
138.6598820169732
 20
95.84718495526828
 30
0.0
 10
138.473102527398
 20
95.53699039746115
 30
0.0
  0
SPLINE
  5
D7
330
1F
100
AcDbEntity
  8
0
  6
Continuous
 62
     7
370
    15
100
AcDbSpline
210
0.0
220
0.0
230
1.0
 70
     8
 71
     3
 72
    11
 73
     7
 74
     0
 42
0.0000000001
 43
0.0000000001
 40
0.0
 40
0.0
 40
0.0
 40
0.0
 40
0.2931027018690484
 40
0.5547385117716673
 40
0.7918948234355715
 40
1.0
 40
1.0
 40
1.0
 40
1.0
 10
142.7052718987828
 20
99.82472435577884
 30
0.0
 10
142.5189490003799
 20
99.73108520190763
 30
0.0
 10
142.1663064395646
 20
99.55385979753291
 30
0.0
 10
141.6798968141228
 20
99.26933783996794
 30
0.0
 10
141.2622074740334
 20
98.98777087902402
 30
0.0
 10
141.0212852168659
 20
98.78187937069249
 30
0.0
 10
140.9086835879543
 20
98.68565032365559
 30
0.0
  0
SPLINE
  5
D8
330
1F
100
AcDbEntity
  8
0
  6
Continuous
 62
     7
370
    15
100
AcDbSpline
210
0.0
220
0.0
230
1.0
 70
     8
 71
     3
 72
    23
 73
    19
 74
     0
 42
0.0000000001
 43
0.0000000001
 40
0.0
 40
0.0
 40
0.0
 40
0.0
 40
0.0614177481322548
 40
0.1213042644096586
 40
0.1792376967343453
 40
0.2359560699971082
 40
0.292239096201313
 40
0.3482231672652665
 40
0.4044755521318195
 40
0.462060733962059
 40
0.5207138638482128
 40
0.580392733945089
 40
0.6422449964543175
 40
0.7063601780770837
 40
0.7742965329506046
 40
0.8452599260881225
 40
0.920620684544885
 40
1.0
 40
1.0
 40
1.0
 40
1.0
 10
136.5746458071925
 20
106.0386973277684
 30
0.0
 10
136.5791690186698
 20
105.8409690665089
 30
0.0
 10
136.588102671526
 20
105.4504421908989
 30
0.0
 10
136.6565343664095
 20
104.8762625334339
 30
0.0
 10
136.780358605291
 20
104.3276593205178
 30
0.0
 10
136.9391302232975
 20
103.799816933248
 30
0.0
 10
137.1564720859776
 20
103.3002543606492
 30
0.0
 10
137.408139700874
 20
102.8186179179617
 30
0.0
 10
137.7203538651548
 20
102.3686974157946
 30
0.0
 10
138.0689802272523
 20
101.9355124788104
 30
0.0
 10
138.4742823071392
 20
101.5383981450182
 30
0.0
 10
138.9254484357212
 20
101.1720169385564
 30
0.0
 10
139.433833572045
 20
100.8554731925519
 30
0.0
 10
139.9900825532158
 20
100.5710019356342
 30
0.0
 10
140.5952047129046
 20
100.3220700156037
 30
0.0
 10
141.2532240038027
 20
100.1127705680146
 30
0.0
 10
141.961810455953
 20
99.94891073082653
 30
0.0
 10
142.4531976875922
 20
99.86683034907906
 30
0.0
 10
142.7052718987828
 20
99.82472435577884
 30
0.0
  0
SPLINE
  5
D9
330
1F
100
AcDbEntity
  8
0
  6
Continuous
 62
     7
370
    15
100
AcDbSpline
210
0.0
220
0.0
230
1.0
 70
     8
 71
     3
 72
    27
 73
    23
 74
     0
 42
0.0000000001
 43
0.0000000001
 40
0.0
 40
0.0
 40
0.0
 40
0.0
 40
0.06210611652927
 40
0.1201991193133519
 40
0.1743664957113183
 40
0.225016331163724
 40
0.2723261893682159
 40
0.31635143695689
 40
0.3568284293346162
 40
0.3939333102717026
 40
0.4295405551075569
 40
0.4646304759106836
 40
0.4999800050926286
 40
0.5354226207535281
 40
0.5715899210807142
 40
0.6081310828424682
 40
0.6458808167766356
 40
0.6847317079287534
 40
0.7626039808122816
 40
0.8405143247750539
 40
0.9190816363226298
 40
1.0
 40
1.0
 40
1.0
 40
1.0
 10
144.325905684324
 20
112.2711918287356
 30
0.0
 10
144.0897427122754
 20
112.2693501710608
 30
0.0
 10
143.632676921641
 20
112.2657858581887
 30
0.0
 10
142.9698554883197
 20
112.24031613193
 30
0.0
 10
142.3526399448579
 20
112.1862056797961
 30
0.0
 10
141.777140330478
 20
112.1257709250409
 30
0.0
 10
141.2443414273177
 20
112.0365378187221
 30
0.0
 10
140.753989262269
 20
111.9318513218489
 30
0.0
 10
140.307964627157
 20
111.8081239501501
 30
0.0
 10
139.9028731644415
 20
111.6618734191921
 30
0.0
 10
139.5270076410214
 20
111.4964658570018
 30
0.0
 10
139.1787021747066
 20
111.2922713638325
 30
0.0
 10
138.8430286386562
 20
111.0688868774192
 30
0.0
 10
138.5332659598779
 20
110.8043200951748
 30
0.0
 10
138.2358549154635
 20
110.519839170786
 30
0.0
 10
137.96095864883
 20
110.2013806295417
 30
0.0
 10
137.7072355632572
 20
109.8534418927497
 30
0.0
 10
137.3941639322573
 20
109.356014475012
 30
0.0
 10
137.0647412537784
 20
108.6901569325167
 30
0.0
 10
136.7835797959148
 20
107.8424215394017
 30
0.0
 10
136.6038191913858
 20
106.9537903303643
 30
0.0
 10
136.5844653698031
 20
106.346711405738
 30
0.0
 10
136.5746458071925
 20
106.0386973277684
 30
0.0
  0
LINE
  5
DA
330
1F
100
AcDbEntity
  8
0
  6
Continuous
 62
     7
370
    15
100
AcDbLine
 10
154.3553136257021
 20
112.2711918287356
 30
0.0
 11
144.325905684324
 21
112.2711918287356
 31
0.0
  0
LINE
  5
DB
330
1F
100
AcDbEntity
  8
0
  6
Continuous
 62
     7
370
    15
100
AcDbLine
 10
154.3553136257021
 20
89.15632366467306
 30
0.0
 11
154.3553136257021
 21
112.2711918287356
 31
0.0
  0
LINE
  5
DC
330
1F
100
AcDbEntity
  8
0
  6
Continuous
 62
     7
370
    15
100
AcDbLine
 10
151.095524525642
 20
89.15632366467306
 30
0.0
 11
154.3553136257021
 21
89.15632366467306
 31
0.0
  0
SPLINE
  5
DD
330
1F
100
AcDbEntity
  8
0
  6
Continuous
 62
     7
370
    15
100
AcDbSpline
210
0.0
220
0.0
230
1.0
 70
     8
 71
     3
 72
    23
 73
    19
 74
     0
 42
0.0000000001
 43
0.0000000001
 40
0.0
 40
0.0
 40
0.0
 40
0.0
 40
0.0603255293380428
 40
0.1181599905079971
 40
0.1741866762963798
 40
0.2295388181457992
 40
0.2834498146386351
 40
0.3378265119505918
 40
0.3926321025334821
 40
0.4484655764151892
 40
0.5059654091573047
 40
0.5650585322290032
 40
0.6266544786228423
 40
0.6922320330373604
 40
0.7611310781257576
 40
0.8353098773394172
 40
0.9153255598321974
 40
1.0
 40
1.0
 40
1.0
 40
1.0
 10
139.8344349072527
 20
105.9692415941023
 30
0.0
 10
139.838737217875
 20
106.0989887148534
 30
0.0
 10
139.8471641805205
 20
106.3531252093793
 30
0.0
 10
139.8913411057763
 20
106.726127025214
 30
0.0
 10
139.9772315369686
 20
107.080564966419
 30
0.0
 10
140.0906496405908
 20
107.4183126317906
 30
0.0
 10
140.2421992423199
 20
107.736896261139
 30
0.0
 10
140.4222339865546
 20
108.0387845253953
 30
0.0
 10
140.637071015284
 20
108.3223042379199
 30
0.0
 10
140.8831544701088
 20
108.5883190432068
 30
0.0
 10
141.1657029965445
 20
108.8303665191751
 30
0.0
 10
141.4884398393814
 20
109.0392009921521
 30
0.0
 10
141.8488195921
 20
109.216665241803
 30
0.0
 10
142.247261137522
 20
109.3575127336106
 30
0.0
 10
142.6825093119797
 20
109.470167799899
 30
0.0
 10
143.1570418874398
 20
109.5451135819358
 30
0.0
 10
143.6686887250984
 20
109.59934410002
 30
0.0
 10
144.0232303123713
 20
109.6024795718813
 30
0.0
 10
144.2055157459696
 20
109.6040916559591
 30
0.0
  0
SPLINE
  5
DE
330
1F
100
AcDbEntity
  8
0
  6
Continuous
 62
     7
370
    15
100
AcDbSpline
210
0.0
220
0.0
230
1.0
 70
     8
 71
     3
 72
    19
 73
    15
 74
     0
 42
0.0000000001
 43
0.0000000001
 40
0.0
 40
0.0
 40
0.0
 40
0.0
 40
0.128817249613955
 40
0.2408117658933652
 40
0.3379313496265708
 40
0.4205906408775349
 40
0.4945039292430373
 40
0.5659986308697253
 40
0.6371279226505391
 40
0.7094472666673748
 40
0.7822163217272279
 40
0.8543339456778161
 40
0.9261950543250367
 40
1.0
 40
1.0
 40
1.0
 40
1.0
 10
144.9047034648745
 20
102.1954800649134
 30
0.0
 10
144.5942763208446
 20
102.2003565227828
 30
0.0
 10
144.0139618912233
 20
102.2094726033879
 30
0.0
 10
143.2024240666262
 20
102.2867682663348
 30
0.0
 10
142.5095561413336
 20
102.4109468568017
 30
0.0
 10
141.9224256629406
 20
102.5891687213483
 30
0.0
 10
141.4294162277262
 20
102.8377216754023
 30
0.0
 10
141.0058747360615
 20
103.1465396380355
 30
0.0
 10
140.645559966933
 20
103.522288096799
 30
0.0
 10
140.3510835409198
 20
103.9543494726693
 30
0.0
 10
140.119146558105
 20
104.4257734725312
 30
0.0
 10
139.9608123296462
 20
104.9244755812447
 30
0.0
 10
139.850501808734
 20
105.4396676619647
 30
0.0
 10
139.8398379754987
 20
105.7911534854556
 30
0.0
 10
139.8344349072527
 20
105.9692415941023
 30
0.0
  0
LINE
  5
DF
330
1F
100
AcDbEntity
  8
0
  6
Continuous
 62
     7
370
    15
100
AcDbLine
 10
151.095524525642
 20
102.1954800649134
 30
0.0
 11
144.9047034648745
 21
102.1954800649134
 31
0.0
  0
LINE
  5
E0
330
1F
100
AcDbEntity
  8
0
  6
Continuous
 62
     7
370
    15
100
AcDbLine
 10
151.095524525642
 20
109.6040916559591
 30
0.0
 11
151.095524525642
 21
102.1954800649134
 31
0.0
  0
LINE
  5
E1
330
1F
100
AcDbEntity
  8
0
  6
Continuous
 62
     7
370
    15
100
AcDbLine
 10
144.2055157459696
 20
109.6040916559591
 30
0.0
 11
151.095524525642
 21
109.6040916559591
 31
0.0
  0
SPLINE
  5
E2
330
1F
100
AcDbEntity
  8
0
  6
Continuous
 62
     7
370
    15
100
AcDbSpline
210
0.0
220
0.0
230
1.0
 70
     8
 71
     3
 72
    21
 73
    17
 74
     0
 42
0.0000000001
 43
0.0000000001
 40
0.0
 40
0.0
 40
0.0
 40
0.0
 40
0.0807692180630342
 40
0.1565174824176895
 40
0.2279004148225888
 40
0.2942656778107674
 40
0.3568137356501524
 40
0.4143493211949587
 40
0.467578920375484
 40
0.5163175384894655
 40
0.6042855142937769
 40
0.6815253489285115
 40
0.7476063910689446
 40
0.8044293290602427
 40
0.9054203970298765
 40
0.9999999999999998
 40
0.9999999999999998
 40
0.9999999999999998
 40
0.9999999999999998
 10
141.2976356964842
 20
94.03674655027442
 30
0.0
 10
141.4011938065231
 20
94.20797917334496
 30
0.0
 10
141.6018724196868
 20
94.53979988070731
 30
0.0
 10
141.8916756816974
 20
95.02445531810852
 30
0.0
 10
142.1760751644613
 20
95.47048657172487
 30
0.0
 10
142.4389892577771
 20
95.8914118349455
 30
0.0
 10
142.6944814656702
 20
96.27628670564911
 30
0.0
 10
142.9282043752503
 20
96.63659288667046
 30
0.0
 10
143.1581402003225
 20
96.95808727943138
 30
0.0
 10
143.4255585755771
 20
97.34529047968747
 30
0.0
 10
143.7479701499574
 20
97.76673122335242
 30
0.0
 10
144.1267488563525
 20
98.1969623302181
 30
0.0
 10
144.4782143489188
 20
98.54825763358434
 30
0.0
 10
144.9179455837359
 20
98.88762689678157
 30
0.0
 10
145.4635922290658
 20
99.20385005912795
 30
0.0
 10
145.9264394993468
 20
99.35081003429983
 30
0.0
 10
146.1502762886191
 20
99.42188110051572
 30
0.0
  0
SPLINE
  5
E3
330
1F
100
AcDbEntity
  8
0
  6
Continuous
 62
     7
370
    15
100
AcDbSpline
210
0.0
220
0.0
230
1.0
 70
     8
 71
     3
 72
    15
 73
    11
 74
     0
 42
0.0000000001
 43
0.0000000001
 40
0.0
 40
0.0
 40
0.0
 40
0.0
 40
0.1428946013811192
 40
0.2768798469236295
 40
0.4054067255101086
 40
0.531833372930008
 40
0.6542249868698865
 40
0.7698109407908959
 40
0.8841096717431483
 40
1.0
 40
1.0
 40
1.0
 40
1.0
 10
-50.41871075080016
 20
105.5339856631284
 30
0.0
 10
-50.42561586440399
 20
105.7692891523485
 30
0.0
 10
-50.43899556370087
 20
106.2252251600502
 30
0.0
 10
-50.57379936537367
 20
106.8813030349159
 30
0.0
 10
-50.78514324742212
 20
107.4875306238608
 30
0.0
 10
-51.08772549187503
 20
108.0324301287583
 30
0.0
 10
-51.45393802080315
 20
108.5104521255218
 30
0.0
 10
-51.88441308718918
 20
108.9015528035021
 30
0.0
 10
-52.36534954175382
 20
109.214223382003
 30
0.0
 10
-52.72443957198112
 20
109.3380256831917
 30
0.0
 10
-52.90522601604482
 20
109.4003548372053
 30
0.0
  0
LINE
  5
E4
330
1F
100
AcDbEntity
  8
0
  6
Continuous
 62
     7
370
    15
100
AcDbLine
 10
-55.56769580657689
 20
109.6040916559591
 30
0.0
 11
-61.0871114419059
 21
109.6040916559591
 31
0.0
  0
LINE
  5
E5
330
1F
100
AcDbEntity
  8
0
  6
Continuous
 62
     7
370
    15
100
AcDbLine
 10
-61.0871114419059
 20
109.6040916559591
 30
0.0
 11
-61.0871114419059
 21
101.306446673988
 31
0.0
  0
LINE
  5
E6
330
1F
100
AcDbEntity
  8
0
  6
Continuous
 62
     7
370
    15
100
AcDbLine
 10
-61.0871114419059
 20
101.306446673988
 30
0.0
 11
-55.51213121964403
 21
101.306446673988
 31
0.0
  0
LINE
  5
E7
330
1F
100
AcDbEntity
  8
0
  6
Continuous
 62
     7
370
    15
100
AcDbLine
 10
-64.34690054196602
 20
89.15632366467306
 30
0.0
 11
-64.34690054196602
 21
112.2711918287356
 31
0.0
  0
LINE
  5
E8
330
1F
100
AcDbEntity
  8
0
  6
Continuous
 62
     7
370
    15
100
AcDbLine
 10
-64.34690054196602
 20
112.2711918287356
 30
0.0
 11
-55.85477950572988
 21
112.2711918287356
 31
0.0
  0
SPLINE
  5
E9
330
1F
100
AcDbEntity
  8
0
  6
Continuous
 62
     7
370
    15
100
AcDbSpline
210
0.0
220
0.0
230
1.0
 70
     8
 71
     3
 72
    11
 73
     7
 74
     0
 42
0.0000000001
 43
0.0000000001
 40
0.0
 40
0.0
 40
0.0
 40
0.0
 40
0.3071626301099407
 40
0.5768528599096828
 40
0.8066330493509287
 40
1.0
 40
1.0
 40
1.0
 40
1.0
 10
-55.85477950572988
 20
112.2711918287356
 30
0.0
 10
-55.5027879334726
 20
112.2691865039516
 30
0.0
 10
-54.84174610996672
 20
112.2654204946026
 30
0.0
 10
-53.91860969644887
 20
112.2213156827937
 30
0.0
 10
-53.12589746601424
 20
112.1667507300964
 30
0.0
 10
-52.64709609419594
 20
112.0890644294556
 30
0.0
 10
-52.42829664487127
 20
112.0535638632486
 30
0.0
  0
SPLINE
  5
EA
330
1F
100
AcDbEntity
  8
0
  6
Continuous
 62
     7
370
    15
100
AcDbSpline
210
0.0
220
0.0
230
1.0
 70
     8
 71
     3
 72
    19
 73
    15
 74
     0
 42
0.0000000001
 43
0.0000000001
 40
0.0
 40
0.0
 40
0.0
 40
0.0
 40
0.0892424937815284
 40
0.1729768290722678
 40
0.2526551372368084
 40
0.3289533944009832
 40
0.4046880824662924
 40
0.4814988935669585
 40
0.5618700905962245
 40
0.6456290048367239
 40
0.7322912491886804
 40
0.8191788448148049
 40
0.9080746859653679
 40
1.0
 40
1.0
 40
1.0
 40
1.0
 10
-52.42829664487127
 20
112.0535638632486
 30
0.0
 10
-52.16141413572242
 20
112.0022017277632
 30
0.0
 10
-51.64412144015486
 20
111.9026475921248
 30
0.0
 10
-50.91171516203889
 20
111.6626441663731
 30
0.0
 10
-50.24445061486739
 20
111.3639782241458
 30
0.0
 10
-49.64337060546473
 20
110.9918712784412
 30
0.0
 10
-49.09848933754119
 20
110.5547366351501
 30
0.0
 10
-48.61757199090561
 20
110.0309467176903
 30
0.0
 10
-48.19127506056531
 20
109.432196832185
 30
0.0
 10
-47.82879245037929
 20
108.7589554652915
 30
0.0
 10
-47.52708121743336
 20
108.0345480432467
 30
0.0
 10
-47.31576149319107
 20
107.2628034807784
 30
0.0
 10
-47.18041082920495
 20
106.4571297890929
 30
0.0
 10
-47.16616427237465
 20
105.9065138036275
 30
0.0
 10
-47.15892165074007
 20
105.6265933080165
 30
0.0
  0
SPLINE
  5
EB
330
1F
100
AcDbEntity
  8
0
  6
Continuous
 62
     7
370
    15
100
AcDbSpline
210
0.0
220
0.0
230
1.0
 70
     8
 71
     3
 72
    23
 73
    19
 74
     0
 42
0.0000000001
 43
0.0000000001
 40
0.0
 40
0.0
 40
0.0
 40
0.0
 40
0.0580480686591469
 40
0.1142127550191538
 40
0.168891647175276
 40
0.2226262701242395
 40
0.2756512298918106
 40
0.3287250271459032
 40
0.3816587912372602
 40
0.43595343503421
 40
0.4912638558489654
 40
0.5489925911805687
 40
0.6104165486580289
 40
0.6762479649809731
 40
0.747409474018392
 40
0.8248664857445536
 40
0.9090259917114391
 40
1.0
 40
1.0
 40
1.0
 40
1.0
 10
-47.15892165074007
 20
105.6265933080165
 30
0.0
 10
-47.16402582562335
 20
105.3870934361477
 30
0.0
 10
-47.17406856931825
 20
104.9158643181992
 30
0.0
 10
-47.26030401672232
 20
104.2235607364964
 30
0.0
 10
-47.3963159607647
 20
103.5575365426152
 30
0.0
 10
-47.59919621980976
 20
102.9223494434994
 30
0.0
 10
-47.8472227864924
 20
102.3105734779333
 30
0.0
 10
-48.1597935721532
 20
101.7325263933548
 30
0.0
 10
-48.5247880614736
 20
101.1803587981016
 30
0.0
 10
-48.94355001103787
 20
100.6555731883824
 30
0.0
 10
-49.4365491288863
 20
100.1688186598614
 30
0.0
 10
-50.02968767378959
 20
99.75590313824913
 30
0.0
 10
-50.71152987778939
 20
99.40917017263016
 30
0.0
 10
-51.48223476749627
 20
99.12901368642037
 30
0.0
 10
-52.3399314399914
 20
98.90857567683335
 30
0.0
 10
-53.28743016685584
 20
98.74706388246805
 30
0.0
 10
-54.32657670155475
 20
98.6578959308006
 30
0.0
 10
-55.04892592368637
 20
98.64568798282412
 30
0.0
 10
-55.42415395700036
 20
98.63934650121152
 30
0.0
  0
LINE
  5
EC
330
1F
100
AcDbEntity
  8
0
  6
Continuous
 62
     7
370
    15
100
AcDbLine
 10
-55.42415395700036
 20
98.63934650121152
 30
0.0
 11
-61.0871114419059
 21
98.63934650121152
 31
0.0
  0
LINE
  5
ED
330
1F
100
AcDbEntity
  8
0
  6
Continuous
 62
     7
370
    15
100
AcDbLine
 10
-61.0871114419059
 20
98.63934650121152
 30
0.0
 11
-61.0871114419059
 21
89.15632366467306
 31
0.0
  0
LINE
  5
EE
330
1F
100
AcDbEntity
  8
0
  6
Continuous
 62
     7
370
    15
100
AcDbLine
 10
-61.0871114419059
 20
89.15632366467306
 30
0.0
 11
-64.34690054196602
 21
89.15632366467306
 31
0.0
  0
SPLINE
  5
EF
330
1F
100
AcDbEntity
  8
0
  6
Continuous
 62
     7
370
    15
100
AcDbSpline
210
0.0
220
0.0
230
1.0
 70
     8
 71
     3
 72
    23
 73
    19
 74
     0
 42
0.0000000001
 43
0.0000000001
 40
0.0
 40
0.0
 40
0.0
 40
0.0
 40
0.0877310226443744
 40
0.1690056846605415
 40
0.2448021443962125
 40
0.3142317617715645
 40
0.3789415805204456
 40
0.439171854935432
 40
0.4957867026411699
 40
0.5494347689706728
 40
0.6020003354234689
 40
0.6542545252912728
 40
0.7069046930323725
 40
0.7612021463875936
 40
0.8168623067330516
 40
0.8746699957507749
 40
0.936007744563197
 40
1.0
 40
1.0
 40
1.0
 40
1.0
 10
-55.51213121964403
 20
101.306446673988
 30
0.0
 10
-55.2897791011068
 20
101.310164485891
 30
0.0
 10
-54.86143835120535
 20
101.3173265059744
 30
0.0
 10
-54.24250550338664
 20
101.3673069725039
 30
0.0
 10
-53.67447787430243
 20
101.4538208563116
 30
0.0
 10
-53.15577980584791
 20
101.5744823953637
 30
0.0
 10
-52.68575082679331
 20
101.7244612250175
 30
0.0
 10
-52.26523191609314
 20
101.9141431635013
 30
0.0
 10
-51.89639155785418
 20
102.1416774269721
 30
0.0
 10
-51.57678572367615
 20
102.4047454210147
 30
0.0
 10
-51.30244018335881
 20
102.6994457552889
 30
0.0
 10
-51.06472629456411
 20
103.0209475542118
 30
0.0
 10
-50.86275172534723
 20
103.3715483127844
 30
0.0
 10
-50.70442753080269
 20
103.7527149130158
 30
0.0
 10
-50.57030510984166
 20
104.1570329228312
 30
0.0
 10
-50.48658850570439
 20
104.5928798376589
 30
0.0
 10
-50.42838061389716
 20
105.0539352371135
 30
0.0
 10
-50.42197923254324
 20
105.3717252425363
 30
0.0
 10
-50.41871075080016
 20
105.5339856631284
 30
0.0
  0
SPLINE
  5
F0
330
1F
100
AcDbEntity
  8
0
  6
Continuous
 62
     7
370
    15
100
AcDbSpline
210
0.0
220
0.0
230
1.0
 70
     8
 71
     3
 72
    15
 73
    11
 74
     0
 42
0.0000000001
 43
0.0000000001
 40
0.0
 40
0.0
 40
0.0
 40
0.0
 40
0.0763829976036976
 40
0.1659855054655313
 40
0.2707148802617378
 40
0.3888240826834124
 40
0.5206018700426672
 40
0.6660294782576531
 40
0.8252434598020194
 40
1.0
 40
1.0
 40
1.0
 40
1.0
 10
-52.90522601604482
 20
109.4003548372053
 30
0.0
 10
-52.97143580544929
 20
109.4165445936898
 30
0.0
 10
-53.11531423004436
 20
109.4517260476486
 30
0.0
 10
-53.35364771388132
 20
109.4916575281921
 30
0.0
 10
-53.62986366459478
 20
109.529469093336
 30
0.0
 10
-53.94530849690866
 20
109.5545553069008
 30
0.0
 10
-54.29710543285679
 20
109.5794691089538
 30
0.0
 10
-54.68632995961673
 20
109.5909537511404
 30
0.0
 10
-55.11386872052961
 20
109.6008732075074
 30
0.0
 10
-55.41179835716016
 20
109.6029860632783
 30
0.0
 10
-55.56769580657689
 20
109.6040916559591
 30
0.0
  0
LINE
  5
F1
330
1F
100
AcDbEntity
  8
0
  6
Continuous
 62
     7
370
    15
100
AcDbLine
 10
-20.64535291928536
 20
89.15632366467306
 30
0.0
 11
-12.10229767836074
 21
101.593530373141
 31
0.0
  0
LINE
  5
F2
330
1F
100
AcDbEntity
  8
0
  6
Continuous
 62
     7
370
    15
100
AcDbLine
 10
-12.10229767836074
 20
101.593530373141
 30
0.0
 11
-19.45997506471798
 21
112.2711918287356
 31
0.0
  0
LINE
  5
F3
330
1F
100
AcDbEntity
  8
0
  6
Continuous
 62
     7
370
    15
100
AcDbLine
 10
-19.45997506471798
 20
112.2711918287356
 30
0.0
 11
-15.53341092146377
 21
112.2711918287356
 31
0.0
  0
LINE
  5
F4
330
1F
100
AcDbEntity
  8
0
  6
Continuous
 62
     7
370
    15
100
AcDbLine
 10
-15.53341092146377
 20
112.2711918287356
 30
0.0
 11
-11.50034798658828
 21
106.4183886718095
 31
0.0
  0
SPLINE
  5
F5
330
1F
100
AcDbEntity
  8
0
  6
Continuous
 62
     7
370
    15
100
AcDbSpline
210
0.0
220
0.0
230
1.0
 70
     8
 71
     3
 72
    15
 73
    11
 74
     0
 42
0.0000000001
 43
0.0000000001
 40
0.0
 40
0.0
 40
0.0
 40
0.0
 40
0.2095383723106575
 40
0.3932056993459298
 40
0.5541511228431783
 40
0.6893817871276698
 40
0.8022796145583743
 40
0.8899515503481417
 40
0.9560591954194951
 40
0.9999999999999998
 40
0.9999999999999998
 40
0.9999999999999998
 40
0.9999999999999998
 10
-11.50034798658828
 20
106.4183886718095
 30
0.0
 10
-11.40132676083595
 20
106.2719281933989
 30
0.0
 10
-11.21551014933578
 20
105.9970902522384
 30
0.0
 10
-10.95720507200548
 20
105.6072511422445
 30
0.0
 10
-10.74686389164998
 20
105.261273552478
 30
0.0
 10
-10.57102089180523
 20
104.9641657720475
 30
0.0
 10
-10.44303095125764
 20
104.7110794664243
 30
0.0
 10
-10.34954477951089
 20
104.5066861027758
 30
0.0
 10
-10.30158361540549
 20
104.3447052238233
 30
0.0
 10
-10.30122298139645
 20
104.2515302038976
 30
0.0
 10
-10.3010789852878
 20
104.2143267234734
 30
0.0
  0
SPLINE
  5
F6
330
1F
100
AcDbEntity
  8
0
  6
Continuous
 62
     7
370
    15
100
AcDbSpline
210
0.0
220
0.0
230
1.0
 70
     8
 71
     3
 72
    11
 73
     7
 74
     0
 42
0.0000000001
 43
0.0000000001
 40
0.0
 40
0.0
 40
0.0
 40
0.0
 40
0.1959590940569501
 40
0.4294654983431628
 40
0.6966746638019793
 40
1.0
 40
1.0
 40
1.0
 40
1.0
 10
-10.3010789852878
 20
104.2143267234734
 30
0.0
 10
-10.20221548535795
 20
104.3578122805342
 30
0.0
 10
-9.98554545802574
 20
104.6722763607276
 30
0.0
 10
-9.635982511530528
 20
105.1837126955051
 30
0.0
 10
-9.232047598199017
 20
105.7736248705346
 30
0.0
 10
-8.944466957921861
 20
106.1915616899185
 30
0.0
 10
-8.791574373612263
 20
106.4137582895651
 30
0.0
  0
LINE
  5
F7
330
1F
100
AcDbEntity
  8
0
  6
Continuous
 62
     7
370
    15
100
AcDbLine
 10
-8.791574373612263
 20
106.4137582895651
 30
0.0
 11
-4.77240258546999
 21
112.2711918287356
 31
0.0
  0
LINE
  5
F8
330
1F
100
AcDbEntity
  8
0
  6
Continuous
 62
     7
370
    15
100
AcDbLine
 10
-4.77240258546999
 20
112.2711918287356
 30
0.0
 11
-0.7902738552829192
 21
112.2711918287356
 31
0.0
  0
LINE
  5
F9
330
1F
100
AcDbEntity
  8
0
  6
Continuous
 62
     7
370
    15
100
AcDbLine
 10
-0.7902738552829192
 20
112.2711918287356
 30
0.0
 11
-8.147951241640157
 21
101.5564873151857
 31
0.0
  0
LINE
  5
FA
330
1F
100
AcDbEntity
  8
0
  6
Continuous
 62
     7
370
    15
100
AcDbLine
 10
-8.147951241640157
 20
101.5564873151857
 30
0.0
 11
0.3951039992843448
 21
89.15632366467306
 31
0.0
  0
LINE
  5
FB
330
1F
100
AcDbEntity
  8
0
  6
Continuous
 62
     7
370
    15
100
AcDbLine
 10
0.3951039992843448
 20
89.15632366467306
 30
0.0
 11
-3.536090526214252
 21
89.15632366467306
 31
0.0
  0
LINE
  5
FC
330
1F
100
AcDbEntity
  8
0
  6
Continuous
 62
     7
370
    15
100
AcDbLine
 10
-3.536090526214252
 20
89.15632366467306
 30
0.0
 11
-9.162004953164512
 21
97.32431794380094
 31
0.0
  0
SPLINE
  5
FD
330
1F
100
AcDbEntity
  8
0
  6
Continuous
 62
     7
370
    15
100
AcDbSpline
210
0.0
220
0.0
230
1.0
 70
     8
 71
     3
 72
     9
 73
     5
 74
     0
 42
0.0000000001
 43
0.0000000001
 40
0.0
 40
0.0
 40
0.0
 40
0.0
 40
0.5057818743003698
 40
1.0
 40
1.0
 40
1.0
 40
1.0
 10
-9.162004953164512
 20
97.32431794380094
 30
0.0
 10
-9.322773429510391
 20
97.55566550104019
 30
0.0
 10
-9.640634714215934
 20
98.01307128996709
 30
0.0
 10
-9.955581100528149
 20
98.47248894031867
 30
0.0
 10
-10.11123331326723
 20
98.6995414703888
 30
0.0
  0
SPLINE
  5
FE
330
1F
100
AcDbEntity
  8
0
  6
Continuous
 62
     7
370
    15
100
AcDbSpline
210
0.0
220
0.0
230
1.0
 70
     8
 71
     3
 72
    11
 73
     7
 74
     0
 42
0.0000000001
 43
0.0000000001
 40
0.0
 40
0.0
 40
0.0
 40
0.0
 40
0.3268890263936931
 40
0.6017542788411189
 40
0.8252208148492471
 40
0.9999999999999998
 40
0.9999999999999998
 40
0.9999999999999998
 40
0.9999999999999998
 10
-10.11123331326729
 20
98.6995414703888
 30
0.0
 10
-10.22975740762865
 20
98.52645281846529
 30
0.0
 10
-10.44794270957823
 20
98.2078222481372
 30
0.0
 10
-10.7516474774294
 20
97.77394726881309
 30
0.0
 10
-10.99130843023715
 20
97.41453823952603
 30
0.0
 10
-11.13591101165104
 20
97.20380530008817
 30
0.0
 10
-11.1993731407021
 20
97.11132036055838
 30
0.0
  0
LINE
  5
FF
330
1F
100
AcDbEntity
  8
0
  6
Continuous
 62
     7
370
    15
100
AcDbLine
 10
-11.1993731407021
 20
97.11132036055838
 30
0.0
 11
-16.66785457134267
 21
89.15632366467306
 31
0.0
  0
LINE
  5
100
330
1F
100
AcDbEntity
  8
0
  6
Continuous
 62
     7
370
    15
100
AcDbLine
 10
-16.66785457134267
 20
89.15632366467306
 30
0.0
 11
-20.64535291928536
 21
89.15632366467306
 31
0.0
  0
LINE
  5
101
330
1F
100
AcDbEntity
  8
0
  6
Continuous
 62
     7
370
    15
100
AcDbLine
 10
-34.99036310694368
 20
134.6668195471399
 30
0.0
 11
-34.99036310694368
 21
170.6232811356815
 31
0.0
  0
LINE
  5
102
330
1F
100
AcDbEntity
  8
0
  6
Continuous
 62
     7
370
    15
100
AcDbLine
 10
-34.99036310694368
 20
170.6232811356815
 30
0.0
 11
-29.91958006240577
 21
170.6232811356815
 31
0.0
  0
LINE
  5
103
330
1F
100
AcDbEntity
  8
0
  6
Continuous
 62
     7
370
    15
100
AcDbLine
 10
-29.91958006240577
 20
170.6232811356815
 30
0.0
 11
-29.91958006240577
 21
155.8719122788439
 31
0.0
  0
LINE
  5
104
330
1F
100
AcDbEntity
  8
0
  6
Continuous
 62
     7
370
    15
100
AcDbLine
 10
-29.91958006240577
 20
155.8719122788439
 30
0.0
 11
-12.40232954491114
 21
155.8719122788439
 31
0.0
  0
LINE
  5
105
330
1F
100
AcDbEntity
  8
0
  6
Continuous
 62
     7
370
    15
100
AcDbLine
 10
-12.40232954491114
 20
155.8719122788439
 30
0.0
 11
-12.40232954491114
 21
170.6232811356815
 31
0.0
  0
LINE
  5
106
330
1F
100
AcDbEntity
  8
0
  6
Continuous
 62
     7
370
    15
100
AcDbLine
 10
-12.40232954491114
 20
170.6232811356815
 30
0.0
 11
-7.331546500373178
 21
170.6232811356815
 31
0.0
  0
LINE
  5
107
330
1F
100
AcDbEntity
  8
0
  6
Continuous
 62
     7
370
    15
100
AcDbLine
 10
-7.331546500373178
 20
170.6232811356815
 30
0.0
 11
-7.331546500373178
 21
134.6668195471399
 31
0.0
  0
LINE
  5
108
330
1F
100
AcDbEntity
  8
0
  6
Continuous
 62
     7
370
    15
100
AcDbLine
 10
-7.331546500373178
 20
134.6668195471399
 30
0.0
 11
-12.40232954491114
 21
134.6668195471399
 31
0.0
  0
LINE
  5
109
330
1F
100
AcDbEntity
  8
0
  6
Continuous
 62
     7
370
    15
100
AcDbLine
 10
-12.40232954491114
 20
134.6668195471399
 30
0.0
 11
-12.40232954491114
 21
151.7230897878583
 31
0.0
  0
LINE
  5
10A
330
1F
100
AcDbEntity
  8
0
  6
Continuous
 62
     7
370
    15
100
AcDbLine
 10
-29.91958006240577
 20
134.6668195471399
 30
0.0
 11
-34.99036310694368
 21
134.6668195471399
 31
0.0
  0
LINE
  5
10B
330
1F
100
AcDbEntity
  8
0
  6
Continuous
 62
     7
370
    15
100
AcDbLine
 10
-29.91958006240577
 20
151.7230897878583
 30
0.0
 11
-29.91958006240577
 21
134.6668195471399
 31
0.0
  0
LINE
  5
10C
330
1F
100
AcDbEntity
  8
0
  6
Continuous
 62
     7
370
    15
100
AcDbLine
 10
-12.40232954491114
 20
151.7230897878583
 30
0.0
 11
-29.91958006240577
 21
151.7230897878583
 31
0.0
  0
LINE
  5
10D
330
1F
100
AcDbEntity
  8
0
  6
Continuous
 62
     7
370
    15
100
AcDbLine
 10
0.5051182048217129
 20
170.6232811356815
 30
0.0
 11
5.575901249359617
 21
170.6232811356815
 31
0.0
  0
LINE
  5
10E
330
1F
100
AcDbEntity
  8
0
  6
Continuous
 62
     7
370
    15
100
AcDbLine
 10
5.575901249359617
 20
170.6232811356815
 30
0.0
 11
5.575901249359617
 21
138.8156420381254
 31
0.0
  0
LINE
  5
10F
330
1F
100
AcDbEntity
  8
0
  6
Continuous
 62
     7
370
    15
100
AcDbLine
 10
5.575901249359617
 20
138.8156420381254
 30
0.0
 11
24.01511232040667
 21
138.8156420381254
 31
0.0
  0
LINE
  5
110
330
1F
100
AcDbEntity
  8
0
  6
Continuous
 62
     7
370
    15
100
AcDbLine
 10
24.01511232040667
 20
138.8156420381254
 30
0.0
 11
24.01511232040667
 21
170.6232811356815
 31
0.0
  0
LINE
  5
111
330
1F
100
AcDbEntity
  8
0
  6
Continuous
 62
     7
370
    15
100
AcDbLine
 10
24.01511232040667
 20
170.6232811356815
 30
0.0
 11
29.08589536494458
 21
170.6232811356815
 31
0.0
  0
LINE
  5
112
330
1F
100
AcDbEntity
  8
0
  6
Continuous
 62
     7
370
    15
100
AcDbLine
 10
29.08589536494458
 20
170.6232811356815
 30
0.0
 11
29.08589536494458
 21
138.8156420381254
 31
0.0
  0
LINE
  5
113
330
1F
100
AcDbEntity
  8
0
  6
Continuous
 62
     7
370
    15
100
AcDbLine
 10
29.08589536494458
 20
138.8156420381254
 30
0.0
 11
32.31275730237786
 21
138.8156420381254
 31
0.0
  0
LINE
  5
114
330
1F
100
AcDbEntity
  8
0
  6
Continuous
 62
     7
370
    15
100
AcDbLine
 10
32.31275730237786
 20
138.8156420381254
 30
0.0
 11
32.31275730237786
 21
124.9862337348401
 31
0.0
  0
LINE
  5
115
330
1F
100
AcDbEntity
  8
0
  6
Continuous
 62
     7
370
    15
100
AcDbLine
 10
32.31275730237786
 20
124.9862337348401
 30
0.0
 11
28.16393481139227
 21
124.9862337348401
 31
0.0
  0
LINE
  5
116
330
1F
100
AcDbEntity
  8
0
  6
Continuous
 62
     7
370
    15
100
AcDbLine
 10
28.16393481139227
 20
124.9862337348401
 30
0.0
 11
28.16393481139227
 21
134.6668195471399
 31
0.0
  0
LINE
  5
117
330
1F
100
AcDbEntity
  8
0
  6
Continuous
 62
     7
370
    15
100
AcDbLine
 10
28.16393481139227
 20
134.6668195471399
 30
0.0
 11
0.5051182048217129
 21
134.6668195471399
 31
0.0
  0
LINE
  5
118
330
1F
100
AcDbEntity
  8
0
  6
Continuous
 62
     7
370
    15
100
AcDbLine
 10
0.5051182048217129
 20
134.6668195471399
 30
0.0
 11
0.5051182048217129
 21
170.6232811356815
 31
0.0
  0
LINE
  5
119
330
1F
100
AcDbEntity
  8
0
  6
Continuous
 62
     7
370
    15
100
AcDbLine
 10
-151.1758283890213
 20
89.15632366467306
 30
0.0
 11
-154.4356174890814
 21
89.15632366467306
 31
0.0
  0
LINE
  5
11A
330
1F
100
AcDbEntity
  8
0
  6
Continuous
 62
     7
370
    15
100
AcDbLine
 10
-154.4356174890814
 20
89.15632366467306
 30
0.0
 11
-154.4356174890814
 21
109.6040916559591
 31
0.0
  0
LINE
  5
11B
330
1F
100
AcDbEntity
  8
0
  6
Continuous
 62
     7
370
    15
100
AcDbLine
 10
-154.4356174890814
 20
109.6040916559591
 30
0.0
 11
-165.9930515711126
 21
109.6040916559591
 31
0.0
  0
LINE
  5
11C
330
1F
100
AcDbEntity
  8
0
  6
Continuous
 62
     7
370
    15
100
AcDbLine
 10
-165.9930515711126
 20
89.15632366467306
 30
0.0
 11
-169.2528406711728
 21
89.15632366467306
 31
0.0
  0
LINE
  5
11D
330
1F
100
AcDbEntity
  8
0
  6
Continuous
 62
     7
370
    15
100
AcDbLine
 10
-169.2528406711728
 20
112.2711918287356
 30
0.0
 11
-151.1758283890213
 21
112.2711918287356
 31
0.0
  0
LINE
  5
11E
330
1F
100
AcDbEntity
  8
0
  6
Continuous
 62
     7
370
    15
100
AcDbLine
 10
-151.1758283890213
 20
112.2711918287356
 30
0.0
 11
-151.1758283890213
 21
89.15632366467306
 31
0.0
  0
LINE
  5
11F
330
1F
100
AcDbEntity
  8
0
  6
Continuous
 62
     7
370
    15
100
AcDbLine
 10
-165.9930515711126
 20
109.6040916559591
 30
0.0
 11
-165.9930515711126
 21
89.15632366467306
 31
0.0
  0
LINE
  5
120
330
1F
100
AcDbEntity
  8
0
  6
Continuous
 62
     7
370
    15
100
AcDbLine
 10
-169.2528406711728
 20
89.15632366467306
 30
0.0
 11
-169.2528406711728
 21
112.2711918287356
 31
0.0
  0
LINE
  5
121
330
1F
100
AcDbEntity
  8
0
  6
Continuous
 62
     7
370
    15
100
AcDbLine
 10
-81.77565930990093
 20
98.93569096485336
 30
0.0
 11
-73.88548796543727
 21
98.93569096485336
 31
0.0
  0
LINE
  5
122
330
1F
100
AcDbEntity
  8
0
  6
Continuous
 62
     7
370
    15
100
AcDbLine
 10
-73.88548796543727
 20
98.93569096485336
 30
0.0
 11
-76.13122335397301
 21
105.0107524695108
 31
0.0
  0
SPLINE
  5
123
330
1F
100
AcDbEntity
  8
0
  6
Continuous
 62
     7
370
    15
100
AcDbSpline
210
0.0
220
0.0
230
1.0
 70
     8
 71
     3
 72
    15
 73
    11
 74
     0
 42
0.0000000001
 43
0.0000000001
 40
0.0
 40
0.0
 40
0.0
 40
0.0
 40
0.1531481085926324
 40
0.2994334688329068
 40
0.4364263514567509
 40
0.5656705729563582
 40
0.6865083102878726
 40
0.7992685160630039
 40
0.9033947408013435
 40
1.0
 40
1.0
 40
1.0
 40
1.0
 10
-76.13122335397301
 20
105.0107524695108
 30
0.0
 10
-76.21731683085008
 20
105.2454845670982
 30
0.0
 10
-76.38564583381387
 20
105.7044301386298
 30
0.0
 10
-76.63667509039925
 20
106.3712393111216
 30
0.0
 10
-76.86601137403698
 20
107.0044686700454
 30
0.0
 10
-77.09089443274937
 20
107.5950386134081
 30
0.0
 10
-77.2939003866287
 20
108.1515277632327
 30
0.0
 10
-77.48101617778619
 20
108.6701772873684
 30
0.0
 10
-77.66607211641155
 20
109.1473823233592
 30
0.0
 10
-77.77712678837605
 20
109.4557059469177
 30
0.0
 10
-77.83057363766912
 20
109.6040916559591
 30
0.0
  0
LINE
  5
124
330
1F
100
AcDbEntity
  8
0
  6
Continuous
 62
     7
370
    15
100
AcDbLine
 10
-79.40953398301073
 20
105.3348792266191
 30
0.0
 11
-81.77565930990093
 21
98.93569096485336
 31
0.0
  0
LINE
  5
125
330
1F
100
AcDbEntity
  8
0
  6
Continuous
 62
     7
370
    15
100
AcDbLine
 10
-88.84625299710515
 20
89.15632366467306
 30
0.0
 11
-79.66883538869732
 21
112.2711918287356
 31
0.0
  0
LINE
  5
126
330
1F
100
AcDbEntity
  8
0
  6
Continuous
 62
     7
370
    15
100
AcDbLine
 10
-79.66883538869732
 20
112.2711918287356
 30
0.0
 11
-75.99231188664089
 21
112.2711918287356
 31
0.0
  0
LINE
  5
127
330
1F
100
AcDbEntity
  8
0
  6
Continuous
 62
     7
370
    15
100
AcDbLine
 10
-75.99231188664089
 20
112.2711918287356
 30
0.0
 11
-66.81489427823308
 21
89.15632366467306
 31
0.0
  0
LINE
  5
128
330
1F
100
AcDbEntity
  8
0
  6
Continuous
 62
     7
370
    15
100
AcDbLine
 10
-66.81489427823308
 20
89.15632366467306
 30
0.0
 11
-70.27378981480254
 21
89.15632366467306
 31
0.0
  0
LINE
  5
129
330
1F
100
AcDbEntity
  8
0
  6
Continuous
 62
     7
370
    15
100
AcDbLine
 10
-70.27378981480254
 20
89.15632366467306
 30
0.0
 11
-72.90384692962374
 21
96.2685907920769
 31
0.0
  0
LINE
  5
12A
330
1F
100
AcDbEntity
  8
0
  6
Continuous
 62
     7
370
    15
100
AcDbLine
 10
-72.90384692962374
 20
96.2685907920769
 30
0.0
 11
-82.7573003457145
 21
96.2685907920769
 31
0.0
  0
LINE
  5
12B
330
1F
100
AcDbEntity
  8
0
  6
Continuous
 62
     7
370
    15
100
AcDbLine
 10
-82.7573003457145
 20
96.2685907920769
 30
0.0
 11
-85.38735746053569
 21
89.15632366467306
 31
0.0
  0
LINE
  5
12C
330
1F
100
AcDbEntity
  8
0
  6
Continuous
 62
     7
370
    15
100
AcDbLine
 10
-85.38735746053569
 20
89.15632366467306
 30
0.0
 11
-88.84625299710515
 21
89.15632366467306
 31
0.0
  0
SPLINE
  5
12D
330
1F
100
AcDbEntity
  8
0
  6
Continuous
 62
     7
370
    15
100
AcDbSpline
210
0.0
220
0.0
230
1.0
 70
     8
 71
     3
 72
    11
 73
     7
 74
     0
 42
0.0000000001
 43
0.0000000001
 40
0.0
 40
0.0
 40
0.0
 40
0.0
 40
0.2472940500353364
 40
0.4956077709090493
 40
0.7463591727731965
 40
1.0
 40
1.0
 40
1.0
 40
1.0
 10
-77.83057363766912
 20
109.6040916559591
 30
0.0
 10
-77.91898504258572
 20
109.2381855648564
 30
0.0
 10
-78.09617240033808
 20
108.5048646372095
 30
0.0
 10
-78.4671595875632
 20
107.4304511018026
 30
0.0
 10
-78.89155604484869
 20
106.3658635631302
 30
0.0
 10
-79.23621653778105
 20
105.6798506204007
 30
0.0
 10
-79.40953398301073
 20
105.3348792266191
 30
0.0
  0
LINE
  5
12E
330
1F
100
AcDbEntity
  8
0
  6
Continuous
 62
     7
370
    15
100
AcDbLine
 10
-90.3079963200847
 20
134.6668195471399
 30
0.0
 11
-90.3079963200847
 21
166.4744586446959
 31
0.0
  0
LINE
  5
12F
330
1F
100
AcDbEntity
  8
0
  6
Continuous
 62
     7
370
    15
100
AcDbLine
 10
-73.71270635614241
 20
166.4744586446959
 30
0.0
 11
-85.2372132755468
 21
166.4744586446959
 31
0.0
  0
LINE
  5
130
330
1F
100
AcDbEntity
  8
0
  6
Continuous
 62
     7
370
    15
100
AcDbLine
 10
-73.71270635614241
 20
170.6232811356815
 30
0.0
 11
-73.71270635614241
 21
166.4744586446959
 31
0.0
  0
LINE
  5
131
330
1F
100
AcDbEntity
  8
0
  6
Continuous
 62
     7
370
    15
100
AcDbLine
 10
-101.8325032394891
 20
170.6232811356815
 30
0.0
 11
-73.71270635614241
 21
170.6232811356815
 31
0.0
  0
LINE
  5
132
330
1F
100
AcDbEntity
  8
0
  6
Continuous
 62
     7
370
    15
100
AcDbLine
 10
-85.2372132755468
 20
166.4744586446959
 30
0.0
 11
-85.2372132755468
 21
134.6668195471399
 31
0.0
  0
LINE
  5
133
330
1F
100
AcDbEntity
  8
0
  6
Continuous
 62
     7
370
    15
100
AcDbLine
 10
-101.8325032394891
 20
166.4744586446959
 30
0.0
 11
-101.8325032394891
 21
170.6232811356815
 31
0.0
  0
LINE
  5
134
330
1F
100
AcDbEntity
  8
0
  6
Continuous
 62
     7
370
    15
100
AcDbLine
 10
-90.3079963200847
 20
166.4744586446959
 30
0.0
 11
-101.8325032394891
 21
166.4744586446959
 31
0.0
  0
LINE
  5
135
330
1F
100
AcDbEntity
  8
0
  6
Continuous
 62
     7
370
    15
100
AcDbLine
 10
-85.2372132755468
 20
134.6668195471399
 30
0.0
 11
-90.3079963200847
 21
134.6668195471399
 31
0.0
  0
LINE
  5
136
330
1F
100
AcDbEntity
  8
0
  6
Continuous
 62
     7
370
    15
100
AcDbLine
 10
-73.10046692604905
 20
134.6668195471399
 30
0.0
 11
-58.82448397963685
 21
170.6232811356815
 31
0.0
  0
LINE
  5
137
330
1F
100
AcDbEntity
  8
0
  6
Continuous
 62
     7
370
    15
100
AcDbLine
 10
-58.82448397963685
 20
170.6232811356815
 30
0.0
 11
-53.10544742088243
 21
170.6232811356815
 31
0.0
  0
LINE
  5
138
330
1F
100
AcDbEntity
  8
0
  6
Continuous
 62
     7
370
    15
100
AcDbLine
 10
-53.10544742088243
 20
170.6232811356815
 30
0.0
 11
-38.82946447447023
 21
134.6668195471399
 31
0.0
  0
LINE
  5
139
330
1F
100
AcDbEntity
  8
0
  6
Continuous
 62
     7
370
    15
100
AcDbLine
 10
-38.82946447447023
 20
134.6668195471399
 30
0.0
 11
-44.20996864246717
 21
134.6668195471399
 31
0.0
  0
LINE
  5
13A
330
1F
100
AcDbEntity
  8
0
  6
Continuous
 62
     7
370
    15
100
AcDbLine
 10
-63.62876280166355
 20
145.730346189768
 30
0.0
 11
-67.71996275805211
 21
134.6668195471399
 31
0.0
  0
LINE
  5
13B
330
1F
100
AcDbEntity
  8
0
  6
Continuous
 62
     7
370
    15
100
AcDbLine
 10
-58.42112623745771
 20
159.8334615323891
 30
0.0
 11
-62.10176563484248
 21
149.8791686807536
 31
0.0
  0
LINE
  5
13C
330
1F
100
AcDbEntity
  8
0
  6
Continuous
 62
     7
370
    15
100
AcDbLine
 10
-49.8281657656768
 20
149.8791686807536
 30
0.0
 11
-53.32153192562126
 21
159.3292643546652
 31
0.0
  0
LINE
  5
13D
330
1F
100
AcDbEntity
  8
0
  6
Continuous
 62
     7
370
    15
100
AcDbLine
 10
-62.10176563484248
 20
149.8791686807536
 30
0.0
 11
-49.8281657656768
 21
149.8791686807536
 31
0.0
  0
LINE
  5
13E
330
1F
100
AcDbEntity
  8
0
  6
Continuous
 62
     7
370
    15
100
AcDbLine
 10
-67.71996275805211
 20
134.6668195471399
 30
0.0
 11
-73.10046692604905
 21
134.6668195471399
 31
0.0
  0
LINE
  5
13F
330
1F
100
AcDbEntity
  8
0
  6
Continuous
 62
     7
370
    15
100
AcDbLine
 10
-44.20996864246717
 20
134.6668195471399
 30
0.0
 11
-48.30116859885572
 21
145.730346189768
 31
0.0
  0
LINE
  5
140
330
1F
100
AcDbEntity
  8
0
  6
Continuous
 62
     7
370
    15
100
AcDbLine
 10
-48.30116859885572
 20
145.730346189768
 30
0.0
 11
-63.62876280166355
 21
145.730346189768
 31
0.0
  0
SPLINE
  5
141
330
1F
100
AcDbEntity
  8
0
  6
Continuous
 62
     7
370
    15
100
AcDbSpline
210
0.0
220
0.0
230
1.0
 70
     8
 71
     3
 72
    15
 73
    11
 74
     0
 42
0.0000000001
 43
0.0000000001
 40
0.0
 40
0.0
 40
0.0
 40
0.0
 40
0.1531481085926319
 40
0.2994334688329066
 40
0.4364263514567507
 40
0.565670572956358
 40
0.6865083102878727
 40
0.7992685160630035
 40
0.9033947408013435
 40
1.0
 40
1.0
 40
1.0
 40
1.0
 10
-53.32153192562126
 20
159.3292643546652
 30
0.0
 10
-53.45545511187447
 20
159.6944031731345
 30
0.0
 10
-53.71730022759587
 20
160.4083185066282
 30
0.0
 10
-54.1077901822843
 20
161.4455772193932
 30
0.0
 10
-54.46453551238744
 20
162.4306006666078
 30
0.0
 10
-54.81435360371779
 20
163.34926502295
 30
0.0
 10
-55.13014064308567
 20
164.214914811566
 30
0.0
 10
-55.42120965155283
 20
165.0217029602215
 30
0.0
 10
-55.70907444497013
 20
165.7640219050961
 30
0.0
 10
-55.88182615691488
 20
166.2436364306314
 30
0.0
 10
-55.96496570025962
 20
166.4744586446959
 30
0.0
  0
SPLINE
  5
142
330
1F
100
AcDbEntity
  8
0
  6
Continuous
 62
     7
370
    15
100
AcDbSpline
210
0.0
220
0.0
230
1.0
 70
     8
 71
     3
 72
    11
 73
     7
 74
     0
 42
0.0000000001
 43
0.0000000001
 40
0.0
 40
0.0
 40
0.0
 40
0.0
 40
0.2472940500353371
 40
0.4956077709090501
 40
0.7463591727731965
 40
1.0
 40
1.0
 40
1.0
 40
1.0
 10
-55.96496570025962
 20
166.4744586446959
 30
0.0
 10
-56.10249455235211
 20
165.9052713918694
 30
0.0
 10
-56.37811933107807
 20
164.7645499488632
 30
0.0
 10
-56.95521051120599
 20
163.0932400048968
 30
0.0
 10
-57.61538277809458
 20
161.4372149447397
 30
0.0
 10
-58.15152132265595
 20
160.3700837004941
 30
0.0
 10
-58.42112623745771
 20
159.8334615323891
 30
0.0
  0
LINE
  5
143
330
1F
100
AcDbEntity
  8
0
  6
Continuous
 62
     7
370
    15
100
AcDbLine
 10
36.35465250932225
 20
98.93569096485336
 30
0.0
 11
34.1089171207866
 21
105.0107524695108
 31
0.0
  0
LINE
  5
144
330
1F
100
AcDbEntity
  8
0
  6
Continuous
 62
     7
370
    15
100
AcDbLine
 10
43.42524619652647
 20
89.15632366467306
 30
0.0
 11
39.96635065995707
 21
89.15632366467306
 31
0.0
  0
LINE
  5
145
330
1F
100
AcDbEntity
  8
0
  6
Continuous
 62
     7
370
    15
100
AcDbLine
 10
39.96635065995707
 20
89.15632366467306
 30
0.0
 11
37.33629354513585
 21
96.2685907920769
 31
0.0
  0
LINE
  5
146
330
1F
100
AcDbEntity
  8
0
  6
Continuous
 62
     7
370
    15
100
AcDbLine
 10
37.33629354513585
 20
96.2685907920769
 30
0.0
 11
27.48284012904509
 21
96.2685907920769
 31
0.0
  0
LINE
  5
147
330
1F
100
AcDbEntity
  8
0
  6
Continuous
 62
     7
370
    15
100
AcDbLine
 10
27.48284012904509
 20
96.2685907920769
 30
0.0
 11
24.85278301422386
 21
89.15632366467306
 31
0.0
  0
LINE
  5
148
330
1F
100
AcDbEntity
  8
0
  6
Continuous
 62
     7
370
    15
100
AcDbLine
 10
24.85278301422386
 20
89.15632366467306
 30
0.0
 11
21.3938874776544
 21
89.15632366467306
 31
0.0
  0
LINE
  5
149
330
1F
100
AcDbEntity
  8
0
  6
Continuous
 62
     7
370
    15
100
AcDbLine
 10
34.2478285881187
 20
112.2711918287356
 30
0.0
 11
43.42524619652647
 21
89.15632366467306
 31
0.0
  0
LINE
  5
14A
330
1F
100
AcDbEntity
  8
0
  6
Continuous
 62
     7
370
    15
100
AcDbLine
 10
28.46448116485863
 20
98.93569096485336
 30
0.0
 11
36.35465250932225
 21
98.93569096485336
 31
0.0
  0
LINE
  5
14B
330
1F
100
AcDbEntity
  8
0
  6
Continuous
 62
     7
370
    15
100
AcDbLine
 10
30.83060649174888
 20
105.3348792266191
 30
0.0
 11
28.46448116485863
 21
98.93569096485336
 31
0.0
  0
LINE
  5
14C
330
1F
100
AcDbEntity
  8
0
  6
Continuous
 62
     7
370
    15
100
AcDbLine
 10
30.57130508606224
 20
112.2711918287356
 30
0.0
 11
34.2478285881187
 21
112.2711918287356
 31
0.0
  0
LINE
  5
14D
330
1F
100
AcDbEntity
  8
0
  6
Continuous
 62
     7
370
    15
100
AcDbLine
 10
21.3938874776544
 20
89.15632366467306
 30
0.0
 11
30.57130508606224
 21
112.2711918287356
 31
0.0
  0
SPLINE
  5
14E
330
1F
100
AcDbEntity
  8
0
  6
Continuous
 62
     7
370
    15
100
AcDbSpline
210
0.0
220
0.0
230
1.0
 70
     8
 71
     3
 72
    11
 73
     7
 74
     0
 42
0.0000000001
 43
0.0000000001
 40
0.0
 40
0.0
 40
0.0
 40
0.0
 40
0.2472940500353371
 40
0.4956077709090485
 40
0.7463591727731951
 40
1.0
 40
1.0
 40
1.0
 40
1.0
 10
32.40956683709049
 20
109.6040916559591
 30
0.0
 10
32.3211554321739
 20
109.2381855648564
 30
0.0
 10
32.14396807442148
 20
108.5048646372095
 30
0.0
 10
31.77298088719652
 20
107.4304511018026
 30
0.0
 10
31.34858442991089
 20
106.3658635631302
 30
0.0
 10
31.00392393697854
 20
105.6798506204007
 30
0.0
 10
30.83060649174888
 20
105.3348792266191
 30
0.0
  0
SPLINE
  5
14F
330
1F
100
AcDbEntity
  8
0
  6
Continuous
 62
     7
370
    15
100
AcDbSpline
210
0.0
220
0.0
230
1.0
 70
     8
 71
     3
 72
    15
 73
    11
 74
     0
 42
0.0000000001
 43
0.0000000001
 40
0.0
 40
0.0
 40
0.0
 40
0.0
 40
0.1531481085926333
 40
0.2994334688329082
 40
0.4364263514567514
 40
0.5656705729563584
 40
0.6865083102878719
 40
0.799268516063003
 40
0.9033947408013439
 40
1.0
 40
1.0
 40
1.0
 40
1.0
 10
34.1089171207866
 20
105.0107524695108
 30
0.0
 10
34.02282364390953
 20
105.2454845670982
 30
0.0
 10
33.85449464094575
 20
105.7044301386298
 30
0.0
 10
33.60346538436022
 20
106.3712393111216
 30
0.0
 10
33.3741291007226
 20
107.0044686700454
 30
0.0
 10
33.14924604201025
 20
107.5950386134081
 30
0.0
 10
32.94624008813088
 20
108.1515277632327
 30
0.0
 10
32.75912429697337
 20
108.6701772873684
 30
0.0
 10
32.57406835834803
 20
109.1473823233592
 30
0.0
 10
32.46301368638353
 20
109.4557059469177
 30
0.0
 10
32.40956683709044
 20
109.6040916559591
 30
0.0
  0
LINE
  5
150
330
1F
100
AcDbEntity
  8
0
  6
Continuous
 62
     7
370
    15
100
AcDbLine
 10
113.1634331794882
 20
112.2711918287356
 30
0.0
 11
116.4232222795483
 21
112.2711918287356
 31
0.0
  0
LINE
  5
151
330
1F
100
AcDbEntity
  8
0
  6
Continuous
 62
     7
370
    15
100
AcDbLine
 10
116.4232222795483
 20
112.2711918287356
 30
0.0
 11
116.4232222795483
 21
93.96729081660835
 31
0.0
  0
LINE
  5
152
330
1F
100
AcDbEntity
  8
0
  6
Continuous
 62
     7
370
    15
100
AcDbLine
 10
127.5963346352941
 20
112.2711918287356
 30
0.0
 11
131.5367899252815
 21
112.2711918287356
 31
0.0
  0
LINE
  5
153
330
1F
100
AcDbEntity
  8
0
  6
Continuous
 62
     7
370
    15
100
AcDbLine
 10
131.5367899252815
 20
89.15632366467306
 30
0.0
 11
128.2770008252215
 21
89.15632366467306
 31
0.0
  0
LINE
  5
154
330
1F
100
AcDbEntity
  8
0
  6
Continuous
 62
     7
370
    15
100
AcDbLine
 10
128.2770008252215
 20
89.15632366467306
 30
0.0
 11
128.2770008252215
 21
107.4139208543562
 31
0.0
  0
LINE
  5
155
330
1F
100
AcDbEntity
  8
0
  6
Continuous
 62
     7
370
    15
100
AcDbLine
 10
128.2770008252215
 20
107.4139208543562
 30
0.0
 11
117.1316707629421
 21
89.15632366467306
 31
0.0
  0
LINE
  5
156
330
1F
100
AcDbEntity
  8
0
  6
Continuous
 62
     7
370
    15
100
AcDbLine
 10
117.1316707629421
 20
89.15632366467306
 30
0.0
 11
113.1634331794882
 21
89.15632366467306
 31
0.0
  0
LINE
  5
157
330
1F
100
AcDbEntity
  8
0
  6
Continuous
 62
     7
370
    15
100
AcDbLine
 10
113.1634331794882
 20
89.15632366467306
 30
0.0
 11
113.1634331794882
 21
112.2711918287356
 31
0.0
  0
LINE
  5
158
330
1F
100
AcDbEntity
  8
0
  6
Continuous
 62
     7
370
    15
100
AcDbLine
 10
116.4232222795483
 20
93.96729081660835
 30
0.0
 11
127.5963346352941
 21
112.2711918287356
 31
0.0
  0
LINE
  5
159
330
1F
100
AcDbEntity
  8
0
  6
Continuous
 62
     7
370
    15
100
AcDbLine
 10
131.5367899252815
 20
112.2711918287356
 30
0.0
 11
131.5367899252815
 21
89.15632366467306
 31
0.0
  0
LINE
  5
15A
330
1F
100
AcDbEntity
  8
0
  6
Continuous
 62
     7
370
    15
100
AcDbLine
 10
45.8932399327935
 20
89.15632366467306
 30
0.0
 11
45.8932399327935
 21
112.2711918287356
 31
0.0
  0
LINE
  5
15B
330
1F
100
AcDbEntity
  8
0
  6
Continuous
 62
     7
370
    15
100
AcDbLine
 10
45.8932399327935
 20
112.2711918287356
 30
0.0
 11
49.15302903285368
 21
112.2711918287356
 31
0.0
  0
LINE
  5
15C
330
1F
100
AcDbEntity
  8
0
  6
Continuous
 62
     7
370
    15
100
AcDbLine
 10
49.15302903285368
 20
112.2711918287356
 30
0.0
 11
49.15302903285368
 21
102.7881689921971
 31
0.0
  0
LINE
  5
15D
330
1F
100
AcDbEntity
  8
0
  6
Continuous
 62
     7
370
    15
100
AcDbLine
 10
49.15302903285368
 20
102.7881689921971
 30
0.0
 11
60.41411865124302
 21
102.7881689921971
 31
0.0
  0
LINE
  5
15E
330
1F
100
AcDbEntity
  8
0
  6
Continuous
 62
     7
370
    15
100
AcDbLine
 10
63.67390775130314
 20
89.15632366467306
 30
0.0
 11
60.41411865124302
 21
89.15632366467306
 31
0.0
  0
LINE
  5
15F
330
1F
100
AcDbEntity
  8
0
  6
Continuous
 62
     7
370
    15
100
AcDbLine
 10
60.41411865124302
 20
89.15632366467306
 30
0.0
 11
60.41411865124302
 21
100.1210688194207
 31
0.0
  0
LINE
  5
160
330
1F
100
AcDbEntity
  8
0
  6
Continuous
 62
     7
370
    15
100
AcDbLine
 10
60.41411865124302
 20
102.7881689921971
 30
0.0
 11
60.41411865124302
 21
112.2711918287356
 31
0.0
  0
LINE
  5
161
330
1F
100
AcDbEntity
  8
0
  6
Continuous
 62
     7
370
    15
100
AcDbLine
 10
60.41411865124302
 20
100.1210688194207
 30
0.0
 11
49.15302903285368
 21
100.1210688194207
 31
0.0
  0
LINE
  5
162
330
1F
100
AcDbEntity
  8
0
  6
Continuous
 62
     7
370
    15
100
AcDbLine
 10
63.67390775130314
 20
112.2711918287356
 30
0.0
 11
63.67390775130314
 21
89.15632366467306
 31
0.0
  0
LINE
  5
163
330
1F
100
AcDbEntity
  8
0
  6
Continuous
 62
     7
370
    15
100
AcDbLine
 10
49.15302903285368
 20
89.15632366467306
 30
0.0
 11
45.8932399327935
 21
89.15632366467306
 31
0.0
  0
LINE
  5
164
330
1F
100
AcDbEntity
  8
0
  6
Continuous
 62
     7
370
    15
100
AcDbLine
 10
60.41411865124302
 20
112.2711918287356
 30
0.0
 11
63.67390775130314
 21
112.2711918287356
 31
0.0
  0
LINE
  5
165
330
1F
100
AcDbEntity
  8
0
  6
Continuous
 62
     7
370
    15
100
AcDbLine
 10
49.15302903285368
 20
100.1210688194207
 30
0.0
 11
49.15302903285368
 21
89.15632366467306
 31
0.0
  0
LINE
  5
166
330
1F
100
AcDbEntity
  8
0
  6
Continuous
 62
     7
370
    15
100
AcDbLine
 10
69.00810809685612
 20
89.15632366467306
 30
0.0
 11
69.00810809685612
 21
112.2711918287356
 31
0.0
  0
LINE
  5
167
330
1F
100
AcDbEntity
  8
0
  6
Continuous
 62
     7
370
    15
100
AcDbLine
 10
69.00810809685612
 20
112.2711918287356
 30
0.0
 11
85.30705359715659
 21
112.2711918287356
 31
0.0
  0
LINE
  5
168
330
1F
100
AcDbEntity
  8
0
  6
Continuous
 62
     7
370
    15
100
AcDbLine
 10
85.30705359715659
 20
112.2711918287356
 30
0.0
 11
85.30705359715659
 21
109.6040916559591
 31
0.0
  0
LINE
  5
169
330
1F
100
AcDbEntity
  8
0
  6
Continuous
 62
     7
370
    15
100
AcDbLine
 10
85.30705359715659
 20
109.6040916559591
 30
0.0
 11
72.26789719691618
 21
109.6040916559591
 31
0.0
  0
LINE
  5
16A
330
1F
100
AcDbEntity
  8
0
  6
Continuous
 62
     7
370
    15
100
AcDbLine
 10
72.26789719691618
 20
109.6040916559591
 30
0.0
 11
72.26789719691618
 21
102.4918245285553
 31
0.0
  0
LINE
  5
16B
330
1F
100
AcDbEntity
  8
0
  6
Continuous
 62
     7
370
    15
100
AcDbLine
 10
72.26789719691618
 20
102.4918245285553
 30
0.0
 11
84.41802020623118
 21
102.4918245285553
 31
0.0
  0
LINE
  5
16C
330
1F
100
AcDbEntity
  8
0
  6
Continuous
 62
     7
370
    15
100
AcDbLine
 10
84.41802020623118
 20
102.4918245285553
 30
0.0
 11
84.41802020623118
 21
99.82472435577884
 31
0.0
  0
LINE
  5
16D
330
1F
100
AcDbEntity
  8
0
  6
Continuous
 62
     7
370
    15
100
AcDbLine
 10
84.41802020623118
 20
99.82472435577884
 30
0.0
 11
72.26789719691618
 21
99.82472435577884
 31
0.0
  0
LINE
  5
16E
330
1F
100
AcDbEntity
  8
0
  6
Continuous
 62
     7
370
    15
100
AcDbLine
 10
72.26789719691618
 20
99.82472435577884
 30
0.0
 11
72.26789719691618
 21
91.82342383744952
 31
0.0
  0
LINE
  5
16F
330
1F
100
AcDbEntity
  8
0
  6
Continuous
 62
     7
370
    15
100
AcDbLine
 10
85.89974252444022
 20
91.82342383744952
 30
0.0
 11
85.89974252444022
 21
89.15632366467306
 31
0.0
  0
LINE
  5
170
330
1F
100
AcDbEntity
  8
0
  6
Continuous
 62
     7
370
    15
100
AcDbLine
 10
85.89974252444022
 20
89.15632366467306
 30
0.0
 11
69.00810809685612
 21
89.15632366467306
 31
0.0
  0
LINE
  5
171
330
1F
100
AcDbEntity
  8
0
  6
Continuous
 62
     7
370
    15
100
AcDbLine
 10
72.26789719691618
 20
91.82342383744952
 30
0.0
 11
85.89974252444022
 21
91.82342383744952
 31
0.0
  0
LINE
  5
172
330
1F
100
AcDbEntity
  8
0
  6
Continuous
 62
     7
370
    15
100
AcDbLine
 10
37.38354034691582
 20
170.6232811356815
 30
0.0
 11
42.45432339145373
 21
170.6232811356815
 31
0.0
  0
LINE
  5
173
330
1F
100
AcDbEntity
  8
0
  6
Continuous
 62
     7
370
    15
100
AcDbLine
 10
42.45432339145373
 20
170.6232811356815
 30
0.0
 11
42.45432339145373
 21
142.1505462279281
 31
0.0
  0
LINE
  5
174
330
1F
100
AcDbEntity
  8
0
  6
Continuous
 62
     7
370
    15
100
AcDbLine
 10
42.45432339145373
 20
142.1505462279281
 30
0.0
 11
59.83472038928045
 21
170.6232811356815
 31
0.0
  0
LINE
  5
175
330
1F
100
AcDbEntity
  8
0
  6
Continuous
 62
     7
370
    15
100
AcDbLine
 10
59.83472038928045
 20
170.6232811356815
 30
0.0
 11
65.96431750703868
 21
170.6232811356815
 31
0.0
  0
LINE
  5
176
330
1F
100
AcDbEntity
  8
0
  6
Continuous
 62
     7
370
    15
100
AcDbLine
 10
60.89353446250072
 20
134.6668195471399
 30
0.0
 11
60.89353446250072
 21
163.067526286647
 31
0.0
  0
LINE
  5
177
330
1F
100
AcDbEntity
  8
0
  6
Continuous
 62
     7
370
    15
100
AcDbLine
 10
60.89353446250072
 20
163.067526286647
 30
0.0
 11
43.55635436562181
 21
134.6668195471399
 31
0.0
  0
LINE
  5
178
330
1F
100
AcDbEntity
  8
0
  6
Continuous
 62
     7
370
    15
100
AcDbLine
 10
65.96431750703868
 20
134.6668195471399
 30
0.0
 11
60.89353446250072
 21
134.6668195471399
 31
0.0
  0
LINE
  5
179
330
1F
100
AcDbEntity
  8
0
  6
Continuous
 62
     7
370
    15
100
AcDbLine
 10
65.96431750703868
 20
170.6232811356815
 30
0.0
 11
65.96431750703868
 21
134.6668195471399
 31
0.0
  0
LINE
  5
17A
330
1F
100
AcDbEntity
  8
0
  6
Continuous
 62
     7
370
    15
100
AcDbLine
 10
37.38354034691582
 20
134.6668195471399
 30
0.0
 11
37.38354034691582
 21
170.6232811356815
 31
0.0
  0
LINE
  5
17B
330
1F
100
AcDbEntity
  8
0
  6
Continuous
 62
     7
370
    15
100
AcDbLine
 10
43.55635436562181
 20
134.6668195471399
 30
0.0
 11
37.38354034691582
 21
134.6668195471399
 31
0.0
  0
LINE
  5
17C
330
1F
100
AcDbEntity
  8
0
  6
Continuous
 62
     7
370
    15
100
AcDbLine
 10
104.8657881975171
 20
102.7881689921971
 30
0.0
 11
104.8657881975171
 21
112.2711918287356
 31
0.0
  0
LINE
  5
17D
330
1F
100
AcDbEntity
  8
0
  6
Continuous
 62
     7
370
    15
100
AcDbLine
 10
90.34490947906755
 20
89.15632366467306
 30
0.0
 11
90.34490947906755
 21
112.2711918287356
 31
0.0
  0
LINE
  5
17E
330
1F
100
AcDbEntity
  8
0
  6
Continuous
 62
     7
370
    15
100
AcDbLine
 10
90.34490947906755
 20
112.2711918287356
 30
0.0
 11
93.60469857912773
 21
112.2711918287356
 31
0.0
  0
LINE
  5
17F
330
1F
100
AcDbEntity
  8
0
  6
Continuous
 62
     7
370
    15
100
AcDbLine
 10
93.60469857912773
 20
112.2711918287356
 30
0.0
 11
93.60469857912773
 21
102.7881689921971
 31
0.0
  0
LINE
  5
180
330
1F
100
AcDbEntity
  8
0
  6
Continuous
 62
     7
370
    15
100
AcDbLine
 10
93.60469857912773
 20
102.7881689921971
 30
0.0
 11
104.8657881975171
 21
102.7881689921971
 31
0.0
  0
LINE
  5
181
330
1F
100
AcDbEntity
  8
0
  6
Continuous
 62
     7
370
    15
100
AcDbLine
 10
104.8657881975171
 20
100.1210688194207
 30
0.0
 11
93.60469857912773
 21
100.1210688194207
 31
0.0
  0
LINE
  5
182
330
1F
100
AcDbEntity
  8
0
  6
Continuous
 62
     7
370
    15
100
AcDbLine
 10
93.60469857912773
 20
100.1210688194207
 30
0.0
 11
93.60469857912773
 21
89.15632366467306
 31
0.0
  0
LINE
  5
183
330
1F
100
AcDbEntity
  8
0
  6
Continuous
 62
     7
370
    15
100
AcDbLine
 10
93.60469857912773
 20
89.15632366467306
 30
0.0
 11
90.34490947906755
 21
89.15632366467306
 31
0.0
  0
LINE
  5
184
330
1F
100
AcDbEntity
  8
0
  6
Continuous
 62
     7
370
    15
100
AcDbLine
 10
104.8657881975171
 20
112.2711918287356
 30
0.0
 11
108.1255772975772
 21
112.2711918287356
 31
0.0
  0
LINE
  5
185
330
1F
100
AcDbEntity
  8
0
  6
Continuous
 62
     7
370
    15
100
AcDbLine
 10
108.1255772975772
 20
112.2711918287356
 30
0.0
 11
108.1255772975772
 21
89.15632366467306
 31
0.0
  0
LINE
  5
186
330
1F
100
AcDbEntity
  8
0
  6
Continuous
 62
     7
370
    15
100
AcDbLine
 10
104.8657881975171
 20
89.15632366467306
 30
0.0
 11
104.8657881975171
 21
100.1210688194207
 31
0.0
  0
LINE
  5
187
330
1F
100
AcDbEntity
  8
0
  6
Continuous
 62
     7
370
    15
100
AcDbLine
 10
108.1255772975772
 20
89.15632366467306
 30
0.0
 11
104.8657881975171
 21
89.15632366467306
 31
0.0
  0
ARC
  5
188
330
1F
100
AcDbEntity
  8
0
  6
Continuous
 62
     7
370
    15
100
AcDbCircle
 10
168.6873497320589
 20
64.7026497494086
 30
0.0
 40
20.00000000000006
100
AcDbArc
 50
270.0
 51
0.0
  0
LINE
  5
189
330
1F
100
AcDbEntity
  8
0
  6
Continuous
 62
     7
370
    15
100
AcDbLine
 10
168.6873497320588
 20
44.7026497494086
 30
0.0
 11
-191.3126502679408
 21
44.7026497494086
 31
0.0
  0
ARC
  5
18A
330
1F
100
AcDbEntity
  8
0
  6
Continuous
 62
     7
370
    15
100
AcDbCircle
 10
-191.3126502679409
 20
64.7026497494086
 30
0.0
 40
20.0
100
AcDbArc
 50
179.9999999999992
 51
270.0000000000017
  0
LINE
  5
18B
330
1F
100
AcDbEntity
  8
0
  6
Continuous
 62
     7
370
    15
100
AcDbLine
 10
-211.3126502679409
 20
64.70264974940874
 30
0.0
 11
-211.3126502679409
 21
64.75006317656109
 31
0.0
  0
LINE
  5
18C
330
1F
100
AcDbEntity
  8
0
  6
Continuous
 62
     7
370
    15
100
AcDbLine
 10
-23.83577648217198
 20
278.750063176561
 30
0.0
 11
-15.88558998643435
 21
278.750063176561
 31
0.0
  0
LINE
  5
18D
330
1F
100
AcDbEntity
  8
0
  6
Continuous
 62
     7
370
    15
100
AcDbLine
 10
-15.88558998643435
 20
278.750063176561
 30
0.0
 11
-15.88558998643435
 21
267.750063176561
 31
0.0
  0
LINE
  5
18E
330
1F
100
AcDbEntity
  8
0
  6
Continuous
 62
     7
370
    15
100
AcDbLine
 10
-23.83577648217198
 20
267.750063176561
 30
0.0
 11
-15.88558998643435
 21
267.750063176561
 31
0.0
  0
LINE
  5
18F
330
1F
100
AcDbEntity
  8
0
  6
Continuous
 62
     7
370
    15
100
AcDbLine
 10
-15.88558998643435
 20
278.750063176561
 30
0.0
 11
29.35052615929595
 21
278.750063176561
 31
0.0
  0
LINE
  5
190
330
1F
100
AcDbEntity
  8
0
  6
Continuous
 62
     7
370
    15
100
AcDbLine
 10
-15.88558998643435
 20
267.750063176561
 30
0.0
 11
29.35052615929595
 21
267.750063176561
 31
0.0
  0
LINE
  5
191
330
1F
100
AcDbEntity
  8
0
  6
Continuous
 62
     7
370
    15
100
AcDbLine
 10
-52.24947384070407
 20
278.750063176561
 30
0.0
 11
-23.70535645501963
 21
278.750063176561
 31
0.0
  0
LINE
  5
192
330
1F
100
AcDbEntity
  8
0
  6
Continuous
 62
     7
370
    15
100
AcDbLine
 10
-52.24947384070407
 20
267.750063176561
 30
0.0
 11
-23.70535645501963
 21
267.750063176561
 31
0.0
  0
LINE
  5
193
330
1F
100
AcDbEntity
  8
0
  6
Continuous
 62
     7
370
    15
100
AcDbLine
 10
-49.70517769283762
 20
264.750063176561
 30
0.0
 11
26.4370760569916
 21
264.750063176561
 31
0.0
  0
LINE
  5
194
330
1F
100
AcDbEntity
  8
0
  6
Continuous
 62
     7
370
    15
100
AcDbLine
 10
-49.70517769283762
 20
244.750063176561
 30
0.0
 11
26.4370760569916
 21
244.750063176561
 31
0.0
  0
SPLINE
  5
195
330
1F
100
AcDbEntity
  8
0
  6
Continuous
 62
     7
370
    15
100
AcDbSpline
210
0.0
220
0.0
230
1.0
 70
     8
 71
     3
 72
    25
 73
    21
 74
     0
 42
0.0000000001
 43
0.0000000001
 40
0.0
 40
0.0
 40
0.0
 40
0.0
 40
0.0511691628620621
 40
0.1038977225441663
 40
0.1550448190948635
 40
0.2075473797699188
 40
0.2611678807590465
 40
0.3162537579047461
 40
0.3712388455112591
 40
0.4280564344421302
 40
0.4790895879629919
 40
0.5318682570671717
 40
0.627165896692652
 40
0.7254275807625326
 40
0.7786399561624641
 40
0.8332813548426628
 40
0.888343123084506
 40
0.945173330717046
 40
0.9973219571886748
 40
1.0
 40
1.0
 40
1.0
 40
1.0
 10
-46.08892816580385
 20
242.6557360228676
 30
0.0
 10
-46.0257345133669
 20
242.6227039245669
 30
0.0
 10
-45.89742136145651
 20
242.5556330640652
 30
0.0
 10
-45.55282020432253
 20
242.0226536531118
 30
0.0
 10
-45.11940506178336
 20
241.191003855901
 30
0.0
 10
-44.61734525332651
 20
240.0548700412407
 30
0.0
 10
-44.07693511879853
 20
238.6159359641641
 30
0.0
 10
-43.54765009787138
 20
236.8998218568356
 30
0.0
 10
-43.08176513962354
 20
234.9257682707985
 30
0.0
 10
-42.75295632603257
 20
232.822976760667
 30
0.0
 10
-42.59266560589867
 20
230.6452885949572
 30
0.0
 10
-42.61423947310089
 20
227.9086733818819
 30
0.0
 10
-43.03398356934843
 20
224.6110508988006
 30
0.0
 10
-43.7972637466126
 20
221.7791134884305
 30
0.0
 10
-44.48749360488227
 20
219.8555788439713
 30
0.0
 10
-45.01704698653964
 20
218.6117425275975
 30
0.0
 10
-45.50043814233498
 20
217.6495524087471
 30
0.0
 10
-45.85705608942959
 20
217.1037510243227
 30
0.0
 10
-46.05180459302864
 20
216.8776183895117
 30
0.0
 10
-46.08402119261876
 20
216.9382605749908
 30
0.0
 10
-46.08559483249274
 20
216.941222680313
 30
0.0
  0
SPLINE
  5
196
330
1F
100
AcDbEntity
  8
0
  6
Continuous
 62
     7
370
    15
100
AcDbSpline
210
0.0
220
0.0
230
1.0
 70
     8
 71
     3
 72
    24
 73
    20
 74
     0
 42
0.0000000001
 43
0.0000000001
 40
0.0
 40
0.0
 40
0.0
 40
0.0
 40
0.0139243350059225
 40
0.0630359376957134
 40
0.1135016526945063
 40
0.2155694056580284
 40
0.2694872973614273
 40
0.3248998106136843
 40
0.3797753582707799
 40
0.4365040106080114
 40
0.4871284821010879
 40
0.5394637005809857
 40
0.6346017412643268
 40
0.7335355987366398
 40
0.7870836518540323
 40
0.8420909970413983
 40
0.8970814086440659
 40
0.9538544321753866
 40
1.0
 40
1.0
 40
1.0
 40
1.0
 10
23.71262073445393
 20
216.9672106789084
 30
0.0
 10
23.70260642824752
 20
216.9567857243663
 30
0.0
 10
23.65727132378345
 20
216.9095916009332
 30
0.0
 10
23.45324688122861
 20
217.1573032716669
 30
0.0
 10
22.99734225361721
 20
217.8842576194956
 30
0.0
 10
22.33572162178512
 20
219.2876383988603
 30
0.0
 10
21.62797690917011
 20
221.2249642795438
 30
0.0
 10
21.1048504785594
 20
222.9842341848209
 30
0.0
 10
20.65567591236243
 20
224.990910640417
 30
0.0
 10
20.35223782560837
 20
227.1070684408002
 30
0.0
 10
20.22092197269069
 20
229.2809822162919
 30
0.0
 10
20.27684654428953
 20
232.0000400629498
 30
0.0
 10
20.73168860107438
 20
235.2699533603782
 30
0.0
 10
21.51439482457431
 20
238.06378856945
 30
0.0
 10
22.20929285393282
 20
239.9465679750691
 30
0.0
 10
22.73572462373977
 20
241.1518889925186
 30
0.0
 10
23.19911097697718
 20
242.042447572574
 30
0.0
 10
23.54737011580426
 20
242.5752608341321
 30
0.0
 10
23.66495356330961
 20
242.6158539116293
 30
0.0
 10
23.71767440684653
 20
242.6340546136229
 30
0.0
  0
LINE
  5
197
330
1F
100
AcDbEntity
  8
0
  6
Continuous
 62
     7
370
    15
100
AcDbLine
 10
70.68734973205909
 20
214.7500631765611
 30
0.0
 11
70.68734973205909
 21
246.572559683884
 31
0.0
  0
LINE
  5
198
330
1F
100
AcDbEntity
  8
0
  6
Continuous
 62
     7
370
    15
100
AcDbLine
 10
50.68734973205909
 20
214.7500631765611
 30
0.0
 11
50.68734973205909
 21
246.572559683884
 31
0.0
  0
LINE
  5
199
330
1F
100
AcDbEntity
  8
0
  6
Continuous
 62
     7
370
    15
100
AcDbLine
 10
100.6873497320591
 20
246.8484537013226
 30
0.0
 11
100.6873497320591
 21
214.7500631765611
 31
0.0
  0
LINE
  5
19A
330
1F
100
AcDbEntity
  8
0
  6
Continuous
 62
     7
370
    15
100
AcDbLine
 10
80.68734973205909
 20
246.8484537013226
 30
0.0
 11
80.68734973205909
 21
214.7500631765611
 31
0.0
  0
LINE
  5
19B
330
1F
100
AcDbEntity
  8
0
  6
Continuous
 62
     7
370
    15
100
AcDbLine
 10
-69.31265026794091
 20
242.6557360228676
 30
0.0
 11
-69.31265026794091
 21
216.9322746960398
 31
0.0
  0
LINE
  5
19C
330
1F
100
AcDbEntity
  8
0
  6
Continuous
 62
     7
370
    15
100
AcDbLine
 10
29.35052615929595
 20
278.7500631765611
 30
0.0
 11
31.32304193347602
 21
278.7500631765611
 31
0.0
  0
LINE
  5
19D
330
1F
100
AcDbEntity
  8
0
  6
Continuous
 62
     7
370
    15
100
AcDbLine
 10
29.35052615929595
 20
267.7500631765611
 30
0.0
 11
31.32304193347602
 21
267.7500631765611
 31
0.0
  0
LINE
  5
19E
330
1F
100
AcDbEntity
  8
0
  6
Continuous
 62
     7
370
    15
100
AcDbLine
 10
-221.312650267941
 20
153.9920832147597
 30
0.0
 11
-211.312650267941
 21
153.9920832147597
 31
0.0
  0
LINE
  5
19F
330
1F
100
AcDbEntity
  8
0
  6
Continuous
 62
     7
370
    15
100
AcDbLine
 10
-221.312650267941
 20
153.9920832147597
 30
0.0
 11
-221.312650267941
 21
161.9149629133864
 31
0.0
  0
LINE
  5
1A0
330
1F
100
AcDbEntity
  8
0
  6
Continuous
 62
     7
370
    15
100
AcDbLine
 10
-221.312650267941
 20
113.5416826552542
 30
0.0
 11
-221.312650267941
 21
153.9920832147597
 31
0.0
  0
LINE
  5
1A1
330
1F
100
AcDbEntity
  8
0
  6
Continuous
 62
     7
370
    15
100
AcDbLine
 10
-221.312650267941
 20
161.9149629133864
 30
0.0
 11
-221.312650267941
 21
178.8281967504788
 31
0.0
  0
LINE
  5
1A2
330
1F
100
AcDbEntity
  8
0
  6
Continuous
 62
     7
370
    15
100
AcDbLine
 10
-221.312650267941
 20
109.1162432181416
 30
0.0
 11
-221.312650267941
 21
113.5501266038023
 31
0.0
  0
LINE
  5
1A3
330
1F
100
AcDbEntity
  8
0
  6
Continuous
 62
     7
370
    15
100
AcDbLine
 10
-116.385008711644
 20
-27.96936747628271
 30
0.0
 11
-116.385008711644
 21
-17.96936747628271
 31
0.0
  0
LINE
  5
1A4
330
1F
100
AcDbEntity
  8
0
  6
Continuous
 62
     7
370
    15
100
AcDbLine
 10
-145.3977776181385
 20
-17.96936747628271
 30
0.0
 11
-145.3977776181385
 21
-27.96936747628271
 31
0.0
  0
LINE
  5
1A5
330
1F
100
AcDbEntity
  8
0
  6
Continuous
 62
     7
370
    15
100
AcDbLine
 10
94.61302355458149
 20
-27.96936747628271
 30
0.0
 11
94.61302355458149
 21
-17.96936747628271
 31
0.0
  0
LINE
  5
1A6
330
1F
100
AcDbEntity
  8
0
  6
Continuous
 62
     7
370
    15
100
AcDbLine
 10
65.60025464808706
 20
-17.96936747628271
 30
0.0
 11
65.60025464808706
 21
-27.96936747628271
 31
0.0
  0
LINE
  5
1A7
330
1F
100
AcDbEntity
  8
0
  6
Continuous
 62
     7
370
    15
100
AcDbLine
 10
100.6873497320591
 20
-50.70354131228999
 30
0.0
 11
80.68734973205909
 21
-50.70354131228999
 31
0.0
  0
LINE
  5
1A8
330
1F
100
AcDbEntity
  8
0
  6
Continuous
 62
     7
370
    15
100
AcDbLine
 10
80.68734973205909
 20
-84.81243799602756
 30
0.0
 11
100.6873497320591
 21
-84.81243799602756
 31
0.0
  0
LINE
  5
1A9
330
1F
100
AcDbEntity
  8
0
  6
Continuous
 62
     7
370
    15
100
AcDbLine
 10
70.68734973205909
 20
-51.02569526749856
 30
0.0
 11
50.68734973205909
 21
-51.02569526749856
 31
0.0
  0
LINE
  5
1AA
330
1F
100
AcDbEntity
  8
0
  6
Continuous
 62
     7
370
    15
100
AcDbLine
 10
50.68734973205909
 20
-85.13459195123619
 30
0.0
 11
70.68734973205909
 21
-85.13459195123619
 31
0.0
  0
LINE
  5
1AB
330
1F
100
AcDbEntity
  8
0
  6
Continuous
 62
     7
370
    15
100
AcDbLine
 10
80.68734973205909
 20
-52.79469818956268
 30
0.0
 11
70.68734973205909
 21
-52.79469818956268
 31
0.0
  0
LINE
  5
1AC
330
1F
100
AcDbEntity
  8
0
  6
Continuous
 62
     7
370
    15
100
AcDbLine
 10
70.68734973205909
 20
-82.90359487330029
 30
0.0
 11
80.68734973205909
 21
-82.90359487330029
 31
0.0
  0
LINE
  5
1AD
330
1F
100
AcDbEntity
  8
0
  6
Continuous
 62
     7
370
    15
100
AcDbLine
 10
-50.89549666614274
 20
-54.89625899074491
 30
0.0
 11
-69.31265026794091
 21
-54.89625899074491
 31
0.0
  0
LINE
  5
1AE
330
1F
100
AcDbEntity
  8
0
  6
Continuous
 62
     7
370
    15
100
AcDbLine
 10
-69.31265026794091
 20
-80.61972031757264
 30
0.0
 11
-49.27213923818726
 21
-80.61972031757264
 31
0.0
  0
LINE
  5
1AF
330
1F
100
AcDbEntity
  8
0
  6
Continuous
 62
     7
370
    15
100
AcDbLine
 10
50.68734973205909
 20
-54.89625899074491
 30
0.0
 11
30.6109645706772
 21
-54.89625899074491
 31
0.0
  0
LINE
  5
1B0
330
1F
100
AcDbEntity
  8
0
  6
Continuous
 62
     7
370
    15
100
AcDbLine
 10
26.37319155677909
 20
-80.61972031757264
 30
0.0
 11
50.68734973205909
 21
-80.61972031757264
 31
0.0
  0
LINE
  5
1B1
330
1F
100
AcDbEntity
  8
0
  6
Continuous
 62
     7
370
    15
100
AcDbLine
 10
-191.312650267941
 20
-28.72399067302786
 30
0.0
 11
-211.312650267941
 21
-28.72399067302786
 31
0.0
  0
LINE
  5
1B2
330
1F
100
AcDbEntity
  8
0
  6
Continuous
 62
     7
370
    15
100
AcDbLine
 10
-211.312650267941
 20
-102.7239906730278
 30
0.0
 11
-191.312650267941
 21
-102.7239906730278
 31
0.0
  0
LINE
  5
1B3
330
1F
100
AcDbEntity
  8
0
  6
Continuous
 62
     7
370
    15
100
AcDbLine
 10
-211.312650267941
 20
-35.92123692051136
 30
0.0
 11
-221.312650267941
 21
-35.92123692051136
 31
0.0
  0
LINE
  5
1B4
330
1F
100
AcDbEntity
  8
0
  6
Continuous
 62
     7
370
    15
100
AcDbLine
 10
-211.312650267941
 20
-33.08073362541558
 30
0.0
 11
-221.312650267941
 21
-33.08073362541558
 31
0.0
  0
LINE
  5
1B5
330
1F
100
AcDbEntity
  8
0
  6
Continuous
 62
     7
370
    15
100
AcDbLine
 10
-221.312650267941
 20
-100.4466534150266
 30
0.0
 11
-211.312650267941
 21
-100.4466534150266
 31
0.0
  0
LINE
  5
1B6
330
1F
100
AcDbEntity
  8
0
  6
Continuous
 62
     7
370
    15
100
AcDbLine
 10
-202.6523962300965
 20
-102.9693674762827
 30
0.0
 11
-211.3126502679409
 21
-107.9693674762827
 31
0.0
  0
LINE
  5
1B7
330
1F
100
AcDbEntity
  8
0
  6
Continuous
 62
     7
370
    15
100
AcDbLine
 10
-202.6523962300965
 20
-102.9693674762827
 30
0.0
 11
-191.3126502679408
 21
-102.9693674762827
 31
0.0
  0
LINE
  5
1B8
330
1F
100
AcDbEntity
  8
0
  6
Continuous
 62
     7
370
    15
100
AcDbLine
 10
-191.3126502679408
 20
-102.9693674762827
 30
0.0
 11
-191.3126502679408
 21
-107.9693674762827
 31
0.0
  0
LINE
  5
1B9
330
1F
100
AcDbEntity
  8
0
  6
Continuous
 62
     7
370
    15
100
AcDbLine
 10
-191.3126502679408
 20
-107.9693674762827
 30
0.0
 11
-211.3126502679409
 21
-107.9693674762827
 31
0.0
  0
LINE
  5
1BA
330
1F
100
AcDbEntity
  8
0
  6
Continuous
 62
     7
370
    15
100
AcDbLine
 10
168.6873497320589
 20
-102.9693674762827
 30
0.0
 11
168.6873497320588
 21
-107.9693674762827
 31
0.0
  0
LINE
  5
1BB
330
1F
100
AcDbEntity
  8
0
  6
Continuous
 62
     7
370
    15
100
AcDbLine
 10
168.6873497320589
 20
-102.9693674762827
 30
0.0
 11
180.0270956942145
 21
-102.9693674762827
 31
0.0
  0
LINE
  5
1BC
330
1F
100
AcDbEntity
  8
0
  6
Continuous
 62
     7
370
    15
100
AcDbLine
 10
180.0270956942145
 20
-102.9693674762827
 30
0.0
 11
188.6873497320589
 21
-107.9693674762827
 31
0.0
  0
LINE
  5
1BD
330
1F
100
AcDbEntity
  8
0
  6
Continuous
 62
     7
370
    15
100
AcDbLine
 10
188.6873497320589
 20
-107.9693674762827
 30
0.0
 11
168.6873497320588
 21
-107.9693674762827
 31
0.0
  0
LINE
  5
1BE
330
1F
100
AcDbEntity
  8
0
  6
Continuous
 62
     7
370
    15
100
AcDbLine
 10
-211.3126502679409
 20
-107.9693674762827
 30
0.0
 11
-211.312650267941
 21
-117.9693674762827
 31
0.0
  0
LINE
  5
1BF
330
1F
100
AcDbEntity
  8
0
  6
Continuous
 62
     7
370
    15
100
AcDbLine
 10
-191.3126502679408
 20
-107.9693674762827
 30
0.0
 11
-191.3126502679409
 21
-117.9693674762827
 31
0.0
  0
LINE
  5
1C0
330
1F
100
AcDbEntity
  8
0
  6
Continuous
 62
     7
370
    15
100
AcDbLine
 10
-191.3126502679409
 20
-117.9693674762827
 30
0.0
 11
-211.312650267941
 21
-117.9693674762827
 31
0.0
  0
LINE
  5
1C1
330
1F
100
AcDbEntity
  8
0
  6
Continuous
 62
     7
370
    15
100
AcDbLine
 10
-191.3126502679408
 20
-102.9693674762827
 30
0.0
 11
-27.17060470405136
 21
-102.9693674762827
 31
0.0
  0
LINE
  5
1C2
330
1F
100
AcDbEntity
  8
0
  6
Continuous
 62
     7
370
    15
100
AcDbLine
 10
4.271657022643182
 20
-102.9693674762827
 30
0.0
 11
100.6873497320591
 21
-102.9693674762827
 31
0.0
  0
LINE
  5
1C3
330
1F
100
AcDbEntity
  8
0
  6
Continuous
 62
     7
370
    15
100
AcDbLine
 10
100.6873497320591
 20
-102.9693674762827
 30
0.0
 11
168.6873497320589
 21
-102.9693674762827
 31
0.0
  0
LINE
  5
1C4
330
1F
100
AcDbEntity
  8
0
  6
Continuous
 62
     7
370
    15
100
AcDbLine
 10
168.6873497320588
 20
-107.9693674762827
 30
0.0
 11
-16.9035821299351
 21
-107.9693674762827
 31
0.0
  0
LINE
  5
1C5
330
1F
100
AcDbEntity
  8
0
  6
Continuous
 62
     7
370
    15
100
AcDbLine
 10
-22.7679708344088
 20
-107.9693674762827
 30
0.0
 11
-191.3126502679408
 21
-107.9693674762827
 31
0.0
  0
LINE
  5
1C6
330
1F
100
AcDbEntity
  8
0
  6
Continuous
 62
     7
370
    15
100
AcDbLine
 10
168.6873497320588
 20
-107.9693674762827
 30
0.0
 11
168.6873497320589
 21
-117.9693674762827
 31
0.0
  0
LINE
  5
1C7
330
1F
100
AcDbEntity
  8
0
  6
Continuous
 62
     7
370
    15
100
AcDbLine
 10
168.6873497320589
 20
-117.9693674762827
 30
0.0
 11
-191.3126502679409
 21
-117.9693674762827
 31
0.0
  0
LINE
  5
1C8
330
1F
100
AcDbEntity
  8
0
  6
Continuous
 62
     7
370
    15
100
AcDbLine
 10
188.6873497320589
 20
-107.9693674762827
 30
0.0
 11
188.687349732059
 21
-117.9693674762827
 31
0.0
  0
LINE
  5
1C9
330
1F
100
AcDbEntity
  8
0
  6
Continuous
 62
     7
370
    15
100
AcDbLine
 10
188.687349732059
 20
-117.9693674762827
 30
0.0
 11
168.6873497320589
 21
-117.9693674762827
 31
0.0
  0
LINE
  5
1CA
330
1F
100
AcDbEntity
  8
0
  6
Continuous
 62
     7
370
    15
100
AcDbLine
 10
-191.3126502679408
 20
-102.9693674762827
 30
0.0
 11
-191.312650267941
 21
-84.94161109896273
 31
0.0
  0
LINE
  5
1CB
330
1F
100
AcDbEntity
  8
0
  6
Continuous
 62
     7
370
    15
100
AcDbLine
 10
100.6873497320591
 20
-84.94161109896273
 30
0.0
 11
100.6873497320591
 21
-102.9693674762827
 31
0.0
  0
LINE
  5
1CC
330
1F
100
AcDbEntity
  8
0
  6
Continuous
 62
     7
370
    15
100
AcDbLine
 10
100.6873497320591
 20
-27.9693674762827
 30
0.0
 11
4.969458353370896
 21
-27.9693674762827
 31
0.0
  0
LINE
  5
1CD
330
1F
100
AcDbEntity
  8
0
  6
Continuous
 62
     7
370
    15
100
AcDbLine
 10
-27.86840603477907
 20
-27.9693674762827
 30
0.0
 11
-191.312650267941
 21
-27.9693674762827
 31
0.0
  0
LINE
  5
1CE
330
1F
100
AcDbEntity
  8
0
  6
Continuous
 62
     7
370
    15
100
AcDbLine
 10
-191.312650267941
 20
-84.94161109896273
 30
0.0
 11
-191.312650267941
 21
-27.9693674762827
 31
0.0
  0
LINE
  5
1CF
330
1F
100
AcDbEntity
  8
0
  6
Continuous
 62
     7
370
    15
100
AcDbLine
 10
100.6873497320591
 20
-84.94161109896273
 30
0.0
 11
100.6873497320591
 21
-84.8124379960277
 31
0.0
  0
LINE
  5
1D0
330
1F
100
AcDbEntity
  8
0
  6
Continuous
 62
     7
370
    15
100
AcDbLine
 10
100.6873497320591
 20
-50.70354131229009
 30
0.0
 11
100.6873497320591
 21
-27.9693674762827
 31
0.0
  0
LINE
  5
1D1
330
1F
100
AcDbEntity
  8
0
  6
Continuous
 62
     7
370
    15
100
AcDbLine
 10
-130.8913931648913
 20
-17.96936747628271
 30
0.0
 11
-116.3850087116441
 21
-17.96936747628271
 31
0.0
  0
LINE
  5
1D2
330
1F
100
AcDbEntity
  8
0
  6
Continuous
 62
     7
370
    15
100
AcDbLine
 10
-145.3977776181385
 20
-17.96936747628271
 30
0.0
 11
-130.8913931648913
 21
-17.96936747628271
 31
0.0
  0
LINE
  5
1D3
330
1F
100
AcDbEntity
  8
0
  6
Continuous
 62
     7
370
    15
100
AcDbLine
 10
80.10663910133434
 20
-17.96936747628271
 30
0.0
 11
94.61302355458149
 21
-17.96936747628271
 31
0.0
  0
LINE
  5
1D4
330
1F
100
AcDbEntity
  8
0
  6
Continuous
 62
     7
370
    15
100
AcDbLine
 10
65.60025464808706
 20
-17.96936747628271
 30
0.0
 11
80.10663910133434
 21
-17.96936747628271
 31
0.0
  0
CIRCLE
  5
1D5
330
1F
100
AcDbEntity
  8
0
  6
Continuous
 62
     7
370
    15
100
AcDbCircle
 10
-11.44947384070406
 20
-65.31985161780816
 30
0.0
 40
33.18955354982933
  0
ARC
  5
1D6
330
1F
100
AcDbEntity
  8
0
  6
Continuous
 62
     7
370
    15
100
AcDbCircle
 10
-11.44947384070406
 20
-65.31985161780816
 30
0.0
 40
38.18955354982934
100
AcDbArc
 50
140.9886599227926
 51
255.2883394551623
  0
SPLINE
  5
1D7
330
1F
100
AcDbEntity
  8
0
  6
Continuous
 62
     7
370
    15
100
AcDbSpline
210
0.0
220
0.0
230
1.0
 70
     8
 71
     3
 72
    20
 73
    16
 74
     0
 42
0.0000000001
 43
0.0000000001
 40
0.0
 40
0.0
 40
0.0
 40
0.0
 40
0.125
 40
0.125
 40
0.25
 40
0.25
 40
0.375
 40
0.375
 40
0.5
 40
0.5
 40
0.625
 40
0.625
 40
0.75
 40
0.75
 40
1.0
 40
1.0
 40
1.0
 40
1.0
 10
-41.12357382668768
 20
-41.28051322514166
 30
0.0
 10
-40.95909397326915
 20
-41.24377076939519
 30
0.0
 10
-40.7982300844971
 20
-41.19455108369371
 30
0.0
 10
-40.48377687486385
 20
-41.0709775618709
 30
0.0
 10
-40.32949310961629
 20
-40.99598975181864
 30
0.0
 10
-40.03845708383983
 20
-40.82540520371241
 30
0.0
 10
-39.90043643279324
 20
-40.72945415209372
 30
0.0
 10
-39.63934196815154
 20
-40.51627954602087
 30
0.0
 10
-39.51533834609205
 20
-40.39787736394235
 30
0.0
 10
-39.28970814602769
 20
-40.14595466160744
 30
0.0
 10
-39.18757502294085
 20
-40.01235667399882
 30
0.0
 10
-39.00435195568218
 20
-39.73011363908977
 30
0.0
 10
-38.92275448967883
 20
-39.58027455780682
 30
0.0
 10
-38.71510933421087
 20
-39.11563199576145
 30
0.0
 10
-38.62659929765783
 20
-38.79064231999961
 30
0.0
 10
-38.58912096491639
 20
-38.45199806921753
 30
0.0
  0
ARC
  5
1D8
330
1F
100
AcDbEntity
  8
0
  6
Continuous
 62
     7
370
    15
100
AcDbCircle
 10
-11.44947384070406
 20
-65.31985161780816
 30
0.0
 40
38.18955354982931
100
AcDbArc
 50
20.94979510459355
 51
135.2883394551632
  0
SPLINE
  5
1D9
330
1F
100
AcDbEntity
  8
0
  6
Continuous
 62
     7
370
    15
100
AcDbSpline
210
0.0
220
0.0
230
1.0
 70
     8
 71
     3
 72
    22
 73
    18
 74
     0
 42
0.0000000001
 43
0.0000000001
 40
0.0
 40
0.0
 40
0.0
 40
0.0
 40
0.125
 40
0.125
 40
0.25
 40
0.25
 40
0.375
 40
0.375
 40
0.5
 40
0.5
 40
0.625
 40
0.625
 40
0.75
 40
0.75
 40
0.875
 40
0.875
 40
1.0
 40
1.0
 40
1.0
 40
1.0
 10
24.21552431485356
 20
-51.66518549595256
 30
0.0
 10
24.15727050919219
 20
-51.83212086571535
 30
0.0
 10
24.11290114917176
 20
-52.00255308524162
 30
0.0
 10
24.05182226415542
 20
-52.35040209155338
 30
0.0
 10
24.03524580387671
 20
-52.52928075137258
 30
0.0
 10
24.03142132430361
 20
-52.88281461752728
 30
0.0
 10
24.04377937046911
 20
-53.05838335776224
 30
0.0
 10
24.09685238866848
 20
-53.40715781190779
 30
0.0
 10
24.13817766382903
 20
-53.58189578852466
 30
0.0
 10
24.24750876864596
 20
-53.91857262797488
 30
0.0
 10
24.31529239208931
 20
-54.08103600476787
 30
0.0
 10
24.4767659426675
 20
-54.39436398960963
 30
0.0
 10
24.57149447198009
 20
-54.54651685040008
 30
0.0
 10
24.78280616483977
 20
-54.83106865728638
 30
0.0
 10
24.89894430474897
 20
-54.96343034851908
 30
0.0
 10
25.15182636384373
 20
-55.20870428528346
 30
0.0
 10
25.28984765556078
 20
-55.3224599725077
 30
0.0
 10
25.43560524626588
 20
-55.42374424757174
 30
0.0
  0
ARC
  5
1DA
330
1F
100
AcDbEntity
  8
0
  6
Continuous
 62
     7
370
    15
100
AcDbCircle
 10
-11.44947384070406
 20
-65.31985161780816
 30
0.0
 40
38.18955354982929
100
AcDbArc
 50
260.988659922793
 51
15.01852081249342
  0
SPLINE
  5
1DB
330
1F
100
AcDbEntity
  8
0
  6
Continuous
 62
     7
370
    15
100
AcDbSpline
210
0.0
220
0.0
230
1.0
 70
     8
 71
     3
 72
    18
 73
    14
 74
     0
 42
0.0000000001
 43
0.0000000001
 40
0.0
 40
0.0
 40
0.0
 40
0.0
 40
0.2499999999999995
 40
0.2499999999999995
 40
0.4999999999999997
 40
0.4999999999999997
 40
0.6249999999999999
 40
0.6249999999999999
 40
0.7499999999999999
 40
0.7499999999999999
 40
0.8749999999999998
 40
0.8749999999999998
 40
1.0
 40
1.0
 40
1.0
 40
1.0
 10
-17.43110158593231
 20
-103.0380452364425
 30
0.0
 10
-17.65855538654375
 20
-102.7906245337232
 30
0.0
 10
-17.92861384347753
 20
-102.5756541147532
 30
0.0
 10
-18.51287144819434
 20
-102.2433063620068
 30
0.0
 10
-18.83548141990741
 20
-102.1210781637333
 30
0.0
 10
-19.32913613386194
 20
-102.0174279379941
 30
0.0
 10
-19.49586061150859
 20
-101.9956076298471
 30
0.0
 10
-19.8337366732157
 20
-101.9778973553934
 30
0.0
 10
-20.00489342227957
 20
-101.9823132166917
 30
0.0
 10
-20.33983728947294
 20
-102.0170126313643
 30
0.0
 10
-20.50514165039743
 20
-102.0471468519921
 30
0.0
 10
-20.83141173577991
 20
-102.1331428656344
 30
0.0
 10
-20.99339721740773
 20
-102.1896321738306
 30
0.0
 10
-21.14789399683758
 20
-102.2574022514165
 30
0.0
  0
ARC
  5
1DC
330
1F
100
AcDbEntity
  8
0
  6
Continuous
 62
     7
370
    15
100
AcDbCircle
 10
-19.83577648217198
 20
-105.2486623690152
 30
0.0
 40
4.000000000000078
100
AcDbArc
 50
165.328757013727
 51
350.9482423642288
  0
ARC
  5
1DD
330
1F
100
AcDbEntity
  8
0
  6
Continuous
 62
     7
370
    15
100
AcDbCircle
 10
-11.44947384070406
 20
-65.31985161780816
 30
0.0
 40
40.80000000000005
100
AcDbArc
 50
143.7579850394792
 51
252.519014338477
  0
ARC
  5
1DE
330
1F
100
AcDbEntity
  8
0
  6
Continuous
 62
     7
370
    15
100
AcDbCircle
 10
-41.83568697341684
 20
-38.09269511086913
 30
0.0
 40
4.000000000000076
100
AcDbArc
 50
45.32875701372669
 51
230.9482423642286
  0
ARC
  5
1DF
330
1F
100
AcDbEntity
  8
0
  6
Continuous
 62
     7
370
    15
100
AcDbCircle
 10
-11.44947384070406
 20
-65.31985161780816
 30
0.0
 40
40.8
100
AcDbArc
 50
23.75798503947864
 51
132.5190143384755
  0
ARC
  5
1E0
330
1F
100
AcDbEntity
  8
0
  6
Continuous
 62
     7
370
    15
100
AcDbCircle
 10
27.32304193347602
 20
-52.61819737354028
 30
0.0
 40
4.000000000000014
100
AcDbArc
 50
285.3287570137318
 51
110.9482423642246
  0
ARC
  5
1E1
330
1F
100
AcDbEntity
  8
0
  6
Continuous
 62
     7
370
    15
100
AcDbCircle
 10
-11.44947384070406
 20
-65.31985161780816
 30
0.0
 40
40.79999999999997
100
AcDbArc
 50
263.7579850394801
 51
12.51901433847588
  0
ARC
  5
1E2
330
1F
100
AcDbEntity
  8
0
  6
Continuous
 62
     7
370
    15
100
AcDbCircle
 10
-41.83568697341684
 20
-38.09269511086913
 30
0.0
 40
3.266387831141381
100
AcDbArc
 50
353.6846791905144
 51
282.5923201874423
  0
ARC
  5
1E3
330
1F
100
AcDbEntity
  8
0
  6
Continuous
 62
     7
370
    15
100
AcDbCircle
 10
27.29953028572834
 20
-52.74138094058033
 30
0.0
 40
3.266387831141445
100
AcDbArc
 50
235.2052721420865
 51
160.7630437749999
  0
ARC
  5
1E4
330
1F
100
AcDbEntity
  8
0
  6
Continuous
 62
     7
370
    15
100
AcDbCircle
 10
-19.83577648217198
 20
-105.2486623690152
 30
0.0
 40
3.266387831141423
100
AcDbArc
 50
113.6846791905135
 51
42.59232018744033
  0
CIRCLE
  5
1E5
330
1F
100
AcDbEntity
  8
0
  6
Continuous
 62
     7
370
    15
100
AcDbCircle
 10
-11.44947384070406
 20
-65.31985161780816
 30
0.0
 40
32.04596001038038
  0
LINE
  5
1E6
330
1F
100
AcDbEntity
  8
0
  6
Continuous
 62
     7
370
    15
100
AcDbLine
 10
80.68734973205909
 20
-67.75798965415877
 30
0.0
 11
80.68734973205909
 21
-84.81243799602756
 31
0.0
  0
LINE
  5
1E7
330
1F
100
AcDbEntity
  8
0
  6
Continuous
 62
     7
370
    15
100
AcDbLine
 10
80.68734973205909
 20
-50.70354131228999
 30
0.0
 11
80.68734973205909
 21
-67.75798965415877
 31
0.0
  0
LINE
  5
1E8
330
1F
100
AcDbEntity
  8
0
  6
Continuous
 62
     7
370
    15
100
AcDbLine
 10
100.6873497320591
 20
-67.75798965415877
 30
0.0
 11
100.6873497320591
 21
-84.81243799602756
 31
0.0
  0
LINE
  5
1E9
330
1F
100
AcDbEntity
  8
0
  6
Continuous
 62
     7
370
    15
100
AcDbLine
 10
100.6873497320591
 20
-50.70354131228999
 30
0.0
 11
100.6873497320591
 21
-67.75798965415877
 31
0.0
  0
LINE
  5
1EA
330
1F
100
AcDbEntity
  8
0
  6
Continuous
 62
     7
370
    15
100
AcDbLine
 10
70.68734973205909
 20
-85.13459195123619
 30
0.0
 11
70.68734973205909
 21
-51.02569526749856
 31
0.0
  0
LINE
  5
1EB
330
1F
100
AcDbEntity
  8
0
  6
Continuous
 62
     7
370
    15
100
AcDbLine
 10
50.68734973205909
 20
-85.13459195123619
 30
0.0
 11
50.68734973205909
 21
-51.02569526749856
 31
0.0
  0
LINE
  5
1EC
330
1F
100
AcDbEntity
  8
0
  6
Continuous
 62
     7
370
    15
100
AcDbLine
 10
-69.31265026794091
 20
-67.75798965415877
 30
0.0
 11
-69.31265026794091
 21
-80.61972031757264
 31
0.0
  0
LINE
  5
1ED
330
1F
100
AcDbEntity
  8
0
  6
Continuous
 62
     7
370
    15
100
AcDbLine
 10
-69.31265026794091
 20
-54.89625899074491
 30
0.0
 11
-69.31265026794091
 21
-67.75798965415877
 31
0.0
  0
LINE
  5
1EE
330
1F
100
AcDbEntity
  8
0
  6
Continuous
 62
     7
370
    15
100
AcDbLine
 10
-211.312650267941
 20
-102.7239906730278
 30
0.0
 11
-211.312650267941
 21
-28.72399067302786
 31
0.0
  0
LINE
  5
1EF
330
1F
100
AcDbEntity
  8
0
  6
Continuous
 62
     7
370
    15
100
AcDbLine
 10
-221.312650267941
 20
-94.57085511622087
 30
0.0
 11
-211.312650267941
 21
-94.57085511622087
 31
0.0
  0
LINE
  5
1F0
330
1F
100
AcDbEntity
  8
0
  6
Continuous
 62
     7
370
    15
100
AcDbLine
 10
-221.312650267941
 20
-42.60547540357754
 30
0.0
 11
-211.312650267941
 21
-42.60547540357754
 31
0.0
  0
LINE
  5
1F1
330
1F
100
AcDbEntity
  8
0
  6
Continuous
 62
     7
370
    15
100
AcDbLine
 10
-221.312650267941
 20
-94.57085511622087
 30
0.0
 11
-221.312650267941
 21
-42.60547540357754
 31
0.0
  0
LINE
  5
1F2
330
1F
100
AcDbEntity
  8
0
  6
Continuous
 62
     7
370
    15
100
AcDbLine
 10
-221.312650267941
 20
-42.60547540357754
 30
0.0
 11
-221.312650267941
 21
-35.92123692051136
 31
0.0
  0
LINE
  5
1F3
330
1F
100
AcDbEntity
  8
0
  6
Continuous
 62
     7
370
    15
100
AcDbLine
 10
-221.312650267941
 20
-35.92123692051139
 30
0.0
 11
-221.312650267941
 21
-33.08073362541558
 31
0.0
  0
LINE
  5
1F4
330
1F
100
AcDbEntity
  8
0
  6
Continuous
 62
     7
370
    15
100
AcDbLine
 10
-221.312650267941
 20
-100.4466534150266
 30
0.0
 11
-221.312650267941
 21
-94.57085511622087
 31
0.0
  0
LINE
  5
1F5
330
1F
100
AcDbEntity
  8
0
  6
Continuous
 62
     8
370
    15
100
AcDbLine
 10
-191.312650267941
 20
-84.94161109896273
 30
0.0
 11
-47.22134204553412
 21
-84.94161109896273
 31
0.0
  0
LINE
  5
1F6
330
1F
100
AcDbEntity
  8
0
  6
Continuous
 62
     8
370
    15
100
AcDbLine
 10
24.32239436412596
 20
-84.94161109896273
 30
0.0
 11
50.68734973205909
 21
-84.94161109896273
 31
0.0
  0
LINE
  5
1F7
330
1F
100
AcDbEntity
  8
0
  6
Continuous
 62
     8
370
    15
100
AcDbLine
 10
70.68734973205909
 20
-84.94161109896273
 30
0.0
 11
100.6873497320591
 21
-84.94161109896273
 31
0.0
  0
LINE
  5
1F8
330
1F
100
AcDbEntity
  8
0
  6
Continuous
 62
     7
370
    15
100
AcDbLine
 10
266.5453079110527
 20
177.2794365535839
 30
0.0
 11
256.5453079110527
 21
177.2794365535839
 31
0.0
  0
LINE
  5
1F9
330
1F
100
AcDbEntity
  8
0
  6
Continuous
 62
     7
370
    15
100
AcDbLine
 10
256.5453079110527
 20
148.2666676470895
 30
0.0
 11
266.5453079110527
 21
148.2666676470895
 31
0.0
  0
LINE
  5
1FA
330
1F
100
AcDbEntity
  8
0
  6
Continuous
 62
     7
370
    15
100
AcDbLine
 10
341.5444582856074
 20
244.750063176561
 30
0.0
 11
341.5444582856074
 21
264.750063176561
 31
0.0
  0
LINE
  5
1FB
330
1F
100
AcDbEntity
  8
0
  6
Continuous
 62
     7
370
    15
100
AcDbLine
 10
265.402204535778
 20
264.750063176561
 30
0.0
 11
265.402204535778
 21
244.750063176561
 31
0.0
  0
LINE
  5
1FC
330
1F
100
AcDbEntity
  8
0
  6
Continuous
 62
     7
370
    15
100
AcDbLine
 10
338.7877870425143
 20
201.8341850605999
 30
0.0
 11
338.7877870425143
 21
244.750063176561
 31
0.0
  0
LINE
  5
1FD
330
1F
100
AcDbEntity
  8
0
  6
Continuous
 62
     7
370
    15
100
AcDbLine
 10
268.7877870425142
 20
244.750063176561
 30
0.0
 11
268.7877870425142
 21
194.750063176561
 31
0.0
  0
LINE
  5
1FE
330
1F
100
AcDbEntity
  8
0
  6
Continuous
 62
     7
370
    15
100
AcDbLine
 10
272.668635545639
 20
278.750063176561
 30
0.0
 11
272.668635545639
 21
267.750063176561
 31
0.0
  0
LINE
  5
1FF
330
1F
100
AcDbEntity
  8
0
  6
Continuous
 62
     7
370
    15
100
AcDbLine
 10
335.5902913330619
 20
264.750063176561
 30
0.0
 11
335.5902913330619
 21
267.750063176561
 31
0.0
  0
LINE
  5
200
330
1F
100
AcDbEntity
  8
0
  6
Continuous
 62
     7
370
    15
100
AcDbLine
 10
272.2012927720943
 20
267.750063176561
 30
0.0
 11
272.2012927720943
 21
264.750063176561
 31
0.0
  0
LINE
  5
201
330
1F
100
AcDbEntity
  8
0
  6
Continuous
 62
     7
370
    15
100
AcDbLine
 10
263.0957920525781
 20
278.750063176561
 30
0.0
 11
263.0957920525781
 21
267.750063176561
 31
0.0
  0
LINE
  5
202
330
1F
100
AcDbEntity
  8
0
  6
Continuous
 62
     7
370
    15
100
AcDbLine
 10
347.8246028037851
 20
267.750063176561
 30
0.0
 11
347.8246028037851
 21
278.750063176561
 31
0.0
  0
LINE
  5
203
330
1F
100
AcDbEntity
  8
0
  6
Continuous
 62
     7
370
    15
100
AcDbLine
 10
341.5453079110527
 20
64.70264974940874
 30
0.0
 11
346.5453079110527
 21
64.70264974940874
 31
0.0
  0
LINE
  5
204
330
1F
100
AcDbEntity
  8
0
  6
Continuous
 62
     7
370
    15
100
AcDbLine
 10
341.5453079110527
 20
64.70264974940874
 30
0.0
 11
341.5453079110527
 21
194.750063176561
 31
0.0
  0
LINE
  5
205
330
1F
100
AcDbEntity
  8
0
  6
Continuous
 62
     7
370
    15
100
AcDbLine
 10
341.5453079110527
 20
194.750063176561
 30
0.0
 11
346.5453079110527
 21
194.7500631765609
 31
0.0
  0
LINE
  5
206
330
1F
100
AcDbEntity
  8
0
  6
Continuous
 62
     7
370
    15
100
AcDbLine
 10
346.5453079110527
 20
194.7500631765609
 30
0.0
 11
346.5453079110527
 21
64.75006317656109
 31
0.0
  0
LINE
  5
207
330
1F
100
AcDbEntity
  8
0
  6
Continuous
 62
     7
370
    15
100
AcDbLine
 10
346.5453079110527
 20
64.70264974940874
 30
0.0
 11
346.5453079110527
 21
64.75006317656109
 31
0.0
  0
LINE
  5
208
330
1F
100
AcDbEntity
  8
0
  6
Continuous
 62
     7
370
    15
100
AcDbLine
 10
346.5453079110527
 20
64.75006317656121
 30
0.0
 11
356.5453079110527
 21
64.75006317656121
 31
0.0
  0
LINE
  5
209
330
1F
100
AcDbEntity
  8
0
  6
Continuous
 62
     7
370
    15
100
AcDbLine
 10
346.5453079110527
 20
194.7500631765609
 30
0.0
 11
356.5453079110527
 21
194.7500631765609
 31
0.0
  0
LINE
  5
20A
330
1F
100
AcDbEntity
  8
0
  6
Continuous
 62
     7
370
    15
100
AcDbLine
 10
356.5453079110527
 20
194.7500631765609
 30
0.0
 11
356.5453079110527
 21
64.75006317656121
 31
0.0
  0
LINE
  5
20B
330
1F
100
AcDbEntity
  8
0
  6
Continuous
 62
     7
370
    15
100
AcDbLine
 10
346.5453079110527
 20
44.75006317656107
 30
0.0
 11
356.5453079110527
 21
44.75006317656107
 31
0.0
  0
LINE
  5
20C
330
1F
100
AcDbEntity
  8
0
  6
Continuous
 62
     7
370
    15
100
AcDbLine
 10
356.5453079110527
 20
64.75006317656121
 30
0.0
 11
356.5453079110527
 21
44.75006317656107
 31
0.0
  0
LINE
  5
20D
330
1F
100
AcDbEntity
  8
0
  6
Continuous
 62
     7
370
    15
100
AcDbLine
 10
341.5453079110527
 20
194.750063176561
 30
0.0
 11
341.5453079110527
 21
206.0898091387167
 31
0.0
  0
LINE
  5
20E
330
1F
100
AcDbEntity
  8
0
  6
Continuous
 62
     7
370
    15
100
AcDbLine
 10
341.5453079110527
 20
206.0898091387167
 30
0.0
 11
346.5453079110527
 21
214.7500631765611
 31
0.0
  0
LINE
  5
20F
330
1F
100
AcDbEntity
  8
0
  6
Continuous
 62
     7
370
    15
100
AcDbLine
 10
346.5453079110527
 20
214.7500631765611
 30
0.0
 11
346.5453079110527
 21
194.7500631765609
 31
0.0
  0
LINE
  5
210
330
1F
100
AcDbEntity
  8
0
  6
Continuous
 62
     7
370
    15
100
AcDbLine
 10
346.5453079110527
 20
214.7500631765611
 30
0.0
 11
356.5453079110527
 21
214.7500631765611
 31
0.0
  0
LINE
  5
211
330
1F
100
AcDbEntity
  8
0
  6
Continuous
 62
     7
370
    15
100
AcDbLine
 10
356.5453079110527
 20
214.7500631765611
 30
0.0
 11
356.5453079110527
 21
194.7500631765609
 31
0.0
  0
LINE
  5
212
330
1F
100
AcDbEntity
  8
0
  6
Continuous
 62
     7
370
    15
100
AcDbLine
 10
341.5453079110527
 20
53.36290378725303
 30
0.0
 11
346.5453079110527
 21
44.7026497494086
 31
0.0
  0
LINE
  5
213
330
1F
100
AcDbEntity
  8
0
  6
Continuous
 62
     7
370
    15
100
AcDbLine
 10
341.5453079110527
 20
53.36290378725303
 30
0.0
 11
341.5453079110527
 21
64.70264974940874
 31
0.0
  0
LINE
  5
214
330
1F
100
AcDbEntity
  8
0
  6
Continuous
 62
     7
370
    15
100
AcDbLine
 10
346.5453079110527
 20
44.7026497494086
 30
0.0
 11
346.5453079110527
 21
64.70264974940874
 31
0.0
  0
ARC
  5
215
330
1F
100
AcDbEntity
  8
0
  6
Continuous
 62
     7
370
    15
100
AcDbCircle
 10
321.5453079110527
 20
78.75006317656101
 30
0.0
 40
20.0
100
AcDbArc
 50
0.0
 51
90.0
  0
LINE
  5
216
330
1F
100
AcDbEntity
  8
0
  6
Continuous
 62
     7
370
    15
100
AcDbLine
 10
266.5453079110527
 20
98.75006317656101
 30
0.0
 11
321.5453079110527
 21
98.75006317656101
 31
0.0
  0
ARC
  5
217
330
1F
100
AcDbEntity
  8
0
  6
Continuous
 62
     7
370
    15
100
AcDbCircle
 10
323.5175515337326
 20
214.750063176561
 30
0.0
 40
20.00000000000012
100
AcDbArc
 50
270.0
 51
334.3410937267452
  0
LINE
  5
218
330
1F
100
AcDbEntity
  8
0
  6
Continuous
 62
     7
370
    15
100
AcDbLine
 10
323.5175515337326
 20
194.750063176561
 30
0.0
 11
266.5453079110526
 21
194.750063176561
 31
0.0
  0
LINE
  5
219
330
1F
100
AcDbEntity
  8
0
  6
Continuous
 62
     7
370
    15
100
AcDbLine
 10
266.5453079110526
 20
194.750063176561
 30
0.0
 11
266.5453079110527
 21
98.75006317656101
 31
0.0
  0
LINE
  5
21A
330
1F
100
AcDbEntity
  8
0
  6
Continuous
 62
     7
370
    15
100
AcDbLine
 10
256.5453079110527
 20
148.2666676470895
 30
0.0
 11
256.5453079110527
 21
177.2794365535839
 31
0.0
  0
CIRCLE
  5
21B
330
1F
100
AcDbEntity
  8
0
  6
Continuous
 62
     7
370
    15
100
AcDbCircle
 10
306.3339300889288
 20
229.7940053594538
 30
0.0
 40
2.51543733402832
  0
CIRCLE
  5
21C
330
1F
100
AcDbEntity
  8
0
  6
Continuous
 62
     7
370
    15
100
AcDbCircle
 10
306.3339300889288
 20
229.7940053594538
 30
0.0
 40
12.86173066341388
  0
LINE
  5
21D
330
1F
100
AcDbEntity
  8
0
  6
Continuous
 62
     7
370
    15
100
AcDbLine
 10
279.7749441593936
 20
278.750063176561
 30
0.0
 11
279.7749441593936
 21
267.750063176561
 31
0.0
  0
LINE
  5
21E
330
1F
100
AcDbEntity
  8
0
  6
Continuous
 62
     7
370
    15
100
AcDbLine
 10
342.8115130576438
 20
278.750063176561
 30
0.0
 11
342.8115130576438
 21
267.750063176561
 31
0.0
  0
LINE
  5
21F
330
1F
100
AcDbEntity
  8
0
  6
Continuous
 62
     7
370
    15
100
AcDbLine
 10
279.7749441593936
 20
278.750063176561
 30
0.0
 11
342.8115130576438
 21
278.750063176561
 31
0.0
  0
LINE
  5
220
330
1F
100
AcDbEntity
  8
0
  6
Continuous
 62
     7
370
    15
100
AcDbLine
 10
279.7749441593936
 20
267.750063176561
 30
0.0
 11
342.8115130576438
 21
267.750063176561
 31
0.0
  0
LINE
  5
221
330
1F
100
AcDbEntity
  8
0
  6
Continuous
 62
     7
370
    15
100
AcDbLine
 10
303.4733314106926
 20
264.750063176561
 30
0.0
 11
341.5444582856074
 21
264.750063176561
 31
0.0
  0
LINE
  5
222
330
1F
100
AcDbEntity
  8
0
  6
Continuous
 62
     7
370
    15
100
AcDbLine
 10
265.402204535778
 20
264.750063176561
 30
0.0
 11
303.4733314106926
 21
264.750063176561
 31
0.0
  0
LINE
  5
223
330
1F
100
AcDbEntity
  8
0
  6
Continuous
 62
     7
370
    15
100
AcDbLine
 10
303.4733314106926
 20
244.750063176561
 30
0.0
 11
341.5444582856074
 21
244.750063176561
 31
0.0
  0
LINE
  5
224
330
1F
100
AcDbEntity
  8
0
  6
Continuous
 62
     7
370
    15
100
AcDbLine
 10
265.402204535778
 20
244.750063176561
 30
0.0
 11
303.4733314106926
 21
244.750063176561
 31
0.0
  0
LINE
  5
225
330
1F
100
AcDbEntity
  8
0
  6
Continuous
 62
     7
370
    15
100
AcDbLine
 10
272.668635545639
 20
278.750063176561
 30
0.0
 11
279.7749441593936
 21
278.750063176561
 31
0.0
  0
LINE
  5
226
330
1F
100
AcDbEntity
  8
0
  6
Continuous
 62
     7
370
    15
100
AcDbLine
 10
272.668635545639
 20
267.750063176561
 30
0.0
 11
279.7749441593936
 21
267.750063176561
 31
0.0
  0
LINE
  5
227
330
1F
100
AcDbEntity
  8
0
  6
Continuous
 62
     7
370
    15
100
AcDbLine
 10
263.0957920525781
 20
278.750063176561
 30
0.0
 11
272.668635545639
 21
278.750063176561
 31
0.0
  0
LINE
  5
228
330
1F
100
AcDbEntity
  8
0
  6
Continuous
 62
     7
370
    15
100
AcDbLine
 10
263.0957920525781
 20
267.750063176561
 30
0.0
 11
272.668635545639
 21
267.750063176561
 31
0.0
  0
LINE
  5
229
330
1F
100
AcDbEntity
  8
0
  6
Continuous
 62
     7
370
    15
100
AcDbLine
 10
342.8115130576438
 20
278.750063176561
 30
0.0
 11
347.8246028037851
 21
278.750063176561
 31
0.0
  0
LINE
  5
22A
330
1F
100
AcDbEntity
  8
0
  6
Continuous
 62
     7
370
    15
100
AcDbLine
 10
342.8115130576438
 20
267.750063176561
 30
0.0
 11
347.8246028037851
 21
267.750063176561
 31
0.0
  0
CIRCLE
  5
22B
330
1F
100
AcDbEntity
  8
0
  6
Continuous
 62
     7
370
    15
100
AcDbCircle
 10
304.2999311077978
 20
146.1849397028666
 30
0.0
 40
27.16334672417372
  0
ARC
  5
22C
330
1F
100
AcDbEntity
  8
0
  6
Continuous
 62
     7
370
    15
100
AcDbCircle
 10
304.2999311077978
 20
146.1849397028666
 30
0.0
 40
32.16334672417374
100
AcDbArc
 50
147.8256783623545
 51
256.380782772315
  0
SPLINE
  5
22D
330
1F
100
AcDbEntity
  8
0
  6
Continuous
 62
     7
370
    15
100
AcDbSpline
210
0.0
220
0.0
230
1.0
 70
     8
 71
     3
 72
    38
 73
    34
 74
     0
 42
0.0000000001
 43
0.0000000001
 40
0.0
 40
0.0
 40
0.0
 40
0.0
 40
0.0625
 40
0.0625
 40
0.125
 40
0.125
 40
0.1875
 40
0.1875
 40
0.25
 40
0.25
 40
0.3125
 40
0.3125
 40
0.375
 40
0.375
 40
0.4375
 40
0.4375
 40
0.5
 40
0.5
 40
0.5625
 40
0.5625
 40
0.625
 40
0.625
 40
0.6875
 40
0.6875
 40
0.75
 40
0.75
 40
0.8125
 40
0.8125
 40
0.875
 40
0.875
 40
0.9375
 40
0.9375
 40
1.0
 40
1.0
 40
1.0
 40
1.0
 10
277.07584838636
 20
163.3118247808871
 30
0.0
 10
277.2436650699465
 20
163.2281545656114
 30
0.0
 10
277.4163605687978
 20
163.1601044748394
 30
0.0
 10
277.7711850126678
 20
163.054067598115
 30
0.0
 10
277.9549171571768
 20
163.015931301379
 30
0.0
 10
278.3244454437006
 20
162.9720856254853
 30
0.0
 10
278.5087372844703
 20
162.9662317526182
 30
0.0
 10
278.876686133972
 20
162.9857146785044
 30
0.0
 10
279.0620326426919
 20
163.0115319083975
 30
0.0
 10
279.4221857907888
 20
163.0937097689735
 30
0.0
 10
279.5971104578208
 20
163.1496961312311
 30
0.0
 10
279.9371146345373
 20
163.2913184727322
 30
0.0
 10
280.1037146113074
 20
163.3780647981455
 30
0.0
 10
280.4164233457787
 20
163.576953510298
 30
0.0
 10
280.5631099836082
 20
163.6889475432054
 30
0.0
 10
280.8372751589798
 20
163.9380855388494
 30
0.0
 10
280.9658622842274
 20
164.0768871116422
 30
0.0
 10
281.1943045090965
 20
164.3710218630209
 30
0.0
 10
281.2948950061009
 20
164.5265188503996
 30
0.0
 10
281.4691102825913
 20
164.854213192281
 30
0.0
 10
281.5430033727204
 20
165.0279139238456
 30
0.0
 10
281.6581433885505
 20
165.379890498948
 30
0.0
 10
281.7002490885919
 20
165.5592641699443
 30
0.0
 10
281.7537662021961
 20
165.9250347488118
 30
0.0
 10
281.7648431793616
 20
166.1120017584663
 30
0.0
 10
281.7552146364501
 20
166.4798740038776
 30
0.0
 10
281.7348798152485
 20
166.662465899129
 30
0.0
 10
281.6626282167912
 20
167.0252988436694
 30
0.0
 10
281.6102855082323
 20
167.2055324126683
 30
0.0
 10
281.4773646752913
 20
167.5499164724076
 30
0.0
 10
281.3965220805503
 20
167.715901794822
 30
0.0
 10
281.2052759548738
 20
168.0352732404132
 30
0.0
 10
281.0945061705854
 20
168.1883947690779
 30
0.0
 10
280.9732850283601
 20
168.3287527255613
 30
0.0
  0
ARC
  5
22E
330
1F
100
AcDbEntity
  8
0
  6
Continuous
 62
     7
370
    15
100
AcDbCircle
 10
304.2999311077978
 20
146.1849397028666
 30
0.0
 40
32.16334672417372
100
AcDbArc
 50
26.01080660740314
 51
136.4901116655849
  0
SPLINE
  5
22F
330
1F
100
AcDbEntity
  8
0
  6
Continuous
 62
     7
370
    15
100
AcDbSpline
210
0.0
220
0.0
230
1.0
 70
     8
 71
     3
 72
    28
 73
    24
 74
     0
 42
0.0000000001
 43
0.0000000001
 40
0.0
 40
0.0
 40
0.0
 40
0.0
 40
0.0625000000000012
 40
0.0625000000000012
 40
0.1250000000000023
 40
0.1250000000000023
 40
0.1875000000000034
 40
0.1875000000000034
 40
0.2500000000000046
 40
0.2500000000000046
 40
0.375000000000004
 40
0.375000000000004
 40
0.5000000000000035
 40
0.5000000000000035
 40
0.6250000000000029
 40
0.6250000000000029
 40
0.7500000000000023
 40
0.7500000000000023
 40
0.8750000000000015
 40
0.8750000000000015
 40
0.9375000000000008
 40
0.9375000000000008
 40
1.0
 40
1.0
 40
1.0
 40
1.0
 10
333.2054958224315
 20
160.2898750457719
 30
0.0
 10
333.0653860149798
 20
160.1851439543422
 30
0.0
 10
332.9352343284173
 20
160.0702856246835
 30
0.0
 10
332.6943038887194
 20
159.8208099689401
 30
0.0
 10
332.5827303096406
 20
159.6849847804982
 30
0.0
 10
332.383991337473
 20
159.3985393091445
 30
0.0
 10
332.2972526026017
 20
159.2490118900661
 30
0.0
 10
332.14821151505
 20
158.9375154798849
 30
0.0
 10
332.085557559675
 20
158.7742452894836
 30
0.0
 10
331.9387213549009
 20
158.2740509839974
 30
0.0
 10
331.8951301476835
 20
157.9300202431739
 30
0.0
 10
331.9197732495646
 20
157.2314817056483
 30
0.0
 10
331.9869268211583
 20
156.8917666042816
 30
0.0
 10
332.2329576461199
 20
156.232556916907
 30
0.0
 10
332.4048081037465
 20
155.9317209199694
 30
0.0
 10
332.8451687650243
 20
155.386589260676
 30
0.0
 10
333.1024814164341
 20
155.1562698067372
 30
0.0
 10
333.6898323805824
 20
154.7795687776777
 30
0.0
 10
334.006645782637
 20
154.6418514987031
 30
0.0
 10
334.5141770504965
 20
154.5124906664134
 30
0.0
 10
334.6868961089056
 20
154.483146201048
 30
0.0
 10
335.0318481558381
 20
154.4525968343423
 30
0.0
 10
335.2052240883247
 20
154.4510857056635
 30
0.0
 10
335.379546614733
 20
154.4637302208399
 30
0.0
  0
ARC
  5
230
330
1F
100
AcDbEntity
  8
0
  6
Continuous
 62
     7
370
    15
100
AcDbCircle
 10
304.2999311077978
 20
146.1849397028666
 30
0.0
 40
32.16334672417367
100
AcDbArc
 50
266.5380094983976
 51
14.9157418326645
  0
SPLINE
  5
231
330
1F
100
AcDbEntity
  8
0
  6
Continuous
 62
     7
370
    15
100
AcDbSpline
210
0.0
220
0.0
230
1.0
 70
     8
 71
     3
 72
    28
 73
    24
 74
     0
 42
0.0000000001
 43
0.0000000001
 40
0.0
 40
0.0
 40
0.0
 40
0.0
 40
0.1249999999999989
 40
0.1249999999999989
 40
0.1874999999999978
 40
0.1874999999999978
 40
0.2499999999999967
 40
0.2499999999999967
 40
0.3749999999999937
 40
0.3749999999999937
 40
0.4374999999999935
 40
0.4374999999999935
 40
0.4999999999999933
 40
0.4999999999999933
 40
0.6249999999999928
 40
0.6249999999999928
 40
0.7499999999999925
 40
0.7499999999999925
 40
0.8124999999999936
 40
0.8124999999999936
 40
0.8749999999999946
 40
0.8749999999999946
 40
1.0
 40
1.0
 40
1.0
 40
1.0
 10
302.3577032680067
 20
114.080288583165
 30
0.0
 10
302.257986152914
 20
114.3548917377057
 30
0.0
 10
302.1238961826161
 20
114.6104894583468
 30
0.0
 10
301.8719473737031
 20
114.9660604382454
 30
0.0
 10
301.779181067444
 20
115.0798157707405
 30
0.0
 10
301.581879214127
 20
115.2911292475776
 30
0.0
 10
301.4767309781352
 20
115.3896349787284
 30
0.0
 10
301.1417879356155
 20
115.663909290638
 30
0.0
 10
300.8903677325311
 20
115.8186888792199
 30
0.0
 10
300.4949613618886
 20
115.9941774815053
 30
0.0
 10
300.3593109640748
 20
116.0438973997959
 30
0.0
 10
300.080085369747
 20
116.1253421868427
 30
0.0
 10
299.9363530230261
 20
116.156893613494
 30
0.0
 10
299.5065441018091
 20
116.2213605066318
 30
0.0
 10
299.2155453421372
 20
116.2258748794203
 30
0.0
 10
298.6364331259228
 20
116.1562818614644
 30
0.0
 10
298.357402593234
 20
116.0838218879373
 30
0.0
 10
297.954019613417
 20
115.9192122130018
 30
0.0
 10
297.8223909536187
 20
115.8548027001638
 30
0.0
 10
297.571954518435
 20
115.7107485945743
 30
0.0
 10
297.452117712472
 20
115.6307227517646
 30
0.0
 10
297.1086380357455
 20
115.3665906874421
 30
0.0
 10
296.9003610425613
 20
115.1563708782103
 30
0.0
 10
296.7264889850598
 20
114.9259594425805
 30
0.0
  0
ARC
  5
232
330
1F
100
AcDbEntity
  8
0
  6
Continuous
 62
     7
370
    15
100
AcDbCircle
 10
299.5541741638262
 20
113.140473521967
 30
0.0
 40
4.024230303825484
100
AcDbArc
 50
157.811801377113
 51
5.842637807894143
  0
ARC
  5
233
330
1F
100
AcDbEntity
  8
0
  6
Continuous
 62
     7
370
    15
100
AcDbCircle
 10
304.2999311077978
 20
146.1849397028666
 30
0.0
 40
32.64325704761227
100
AcDbArc
 50
27.9079668143189
 51
135.0900442538289
  0
ARC
  5
234
330
1F
100
AcDbEntity
  8
0
  6
Continuous
 62
     7
370
    15
100
AcDbCircle
 10
334.998363545971
 20
157.890732609561
 30
0.0
 40
4.02423030382551
100
AcDbArc
 50
284.3513889635165
 51
117.3938753267673
  0
ARC
  5
235
330
1F
100
AcDbEntity
  8
0
  6
Continuous
 62
     7
370
    15
100
AcDbCircle
 10
304.2999311077978
 20
146.1849397028666
 30
0.0
 40
32.64325704761237
100
AcDbArc
 50
268.6967640872834
 51
13.83729747596253
  0
ARC
  5
236
330
1F
100
AcDbEntity
  8
0
  6
Continuous
 62
     7
370
    15
100
AcDbCircle
 10
278.5214076591068
 20
166.2111714872482
 30
0.0
 40
4.024230303825536
100
AcDbArc
 50
48.62396963389975
 51
235.6918203940412
  0
ARC
  5
237
330
1F
100
AcDbEntity
  8
0
  6
Continuous
 62
     7
370
    15
100
AcDbCircle
 10
304.2999311077978
 20
146.1849397028666
 30
0.0
 40
32.64325704761235
100
AcDbArc
 50
149.2257457741108
 51
254.9576750977254
  0
ARC
  5
238
330
1F
100
AcDbEntity
  8
0
  6
Continuous
 62
     7
370
    15
100
AcDbCircle
 10
299.3125327159551
 20
112.9744905710355
 30
0.0
 40
3.239730379940902
100
AcDbArc
 50
142.9612271606683
 51
19.95756511004609
  0
ARC
  5
239
330
1F
100
AcDbEntity
  8
0
  6
Continuous
 62
     7
370
    15
100
AcDbCircle
 10
335.1451679660225
 20
157.6949714039986
 30
0.0
 40
3.239730379940847
100
AcDbArc
 50
274.1486937329386
 51
126.7778547071284
  0
ARC
  5
23A
330
1F
100
AcDbEntity
  8
0
  6
Continuous
 62
     7
370
    15
100
AcDbCircle
 10
278.5214076591068
 20
166.2111714872482
 30
0.0
 40
3.239730379940856
100
AcDbArc
 50
40.81576358989368
 51
243.5000264380462
  0
CIRCLE
  5
23B
330
1F
100
AcDbEntity
  8
0
  6
Continuous
 62
     7
370
    15
100
AcDbCircle
 10
304.2999311077978
 20
146.1849397028666
 30
0.0
 40
26.01975318472466
  0
ARC
  5
23C
330
1F
100
AcDbEntity
  8
0
  6
Continuous
 62
     7
370
    15
100
AcDbCircle
 10
304.2999311077978
 20
146.1849397028666
 30
0.0
 40
37.00000000000005
100
AcDbArc
 50
264.7050287671515
 51
258.9494104178574
  0
ENDSEC
  0
SECTION
  2
OBJECTS
  0
DICTIONARY
  5
C
330
0
100
AcDbDictionary
281
     1
  3
ACAD_COLOR
350
268
  3
ACAD_GROUP
350
D
  3
ACAD_LAYOUT
350
1A
  3
ACAD_MATERIAL
350
23E
  3
ACAD_MLEADERSTYLE
350
27D
  3
ACAD_MLINESTYLE
350
17
  3
ACAD_PLOTSETTINGS
350
19
  3
ACAD_PLOTSTYLENAME
350
E
  3
ACAD_SCALELIST
350
26B
  3
ACAD_TABLESTYLE
350
269
  3
ACAD_VISUALSTYLE
350
257
  3
ACDB_RECOMPOSE_DATA
350
28E
  3
AcDbVariableDictionary
350
284
  0
DICTIONARY
  5
282
330
10
100
AcDbDictionary
280
     1
281
     1
  3
ADSK_XREC_LAYER_RECONCILED
360
283
  0
DICTIONARY
  5
268
102
{ACAD_REACTORS
330
C
102
}
330
C
100
AcDbDictionary
281
     1
  0
DICTIONARY
  5
D
102
{ACAD_REACTORS
330
C
102
}
330
C
100
AcDbDictionary
281
     1
  0
DICTIONARY
  5
1A
102
{ACAD_REACTORS
330
C
102
}
330
C
100
AcDbDictionary
281
     1
  3
Layout1
350
1E
  3
Layout2
350
26
  3
Model
350
22
  0
DICTIONARY
  5
23E
102
{ACAD_REACTORS
330
C
102
}
330
C
100
AcDbDictionary
281
     1
  3
ByBlock
350
247
  3
ByLayer
350
23F
  3
Global
350
24F
  0
DICTIONARY
  5
27D
102
{ACAD_REACTORS
330
C
102
}
330
C
100
AcDbDictionary
281
     1
  3
Standard
350
27E
  0
DICTIONARY
  5
17
102
{ACAD_REACTORS
330
C
102
}
330
C
100
AcDbDictionary
281
     1
  3
Standard
350
18
  0
DICTIONARY
  5
19
102
{ACAD_REACTORS
330
C
102
}
330
C
100
AcDbDictionary
281
     1
  0
ACDBDICTIONARYWDFLT
  5
E
102
{ACAD_REACTORS
330
C
102
}
330
C
100
AcDbDictionary
281
     1
  3
Normal
350
F
100
AcDbDictionaryWithDefault
340
F
  0
DICTIONARY
  5
26B
102
{ACAD_REACTORS
330
C
102
}
330
C
100
AcDbDictionary
281
     1
  3
A0
350
26C
  3
A1
350
26D
  3
A2
350
26E
  3
A3
350
26F
  3
A4
350
270
  3
A5
350
271
  3
A6
350
272
  3
A7
350
273
  3
A8
350
274
  3
A9
350
275
  3
B0
350
276
  3
B1
350
277
  3
B2
350
278
  3
B3
350
279
  3
B4
350
27A
  3
B5
350
27B
  3
B6
350
27C
  0
DICTIONARY
  5
269
102
{ACAD_REACTORS
330
C
102
}
330
C
100
AcDbDictionary
281
     1
  3
Standard
350
26A
  0
DICTIONARY
  5
257
102
{ACAD_REACTORS
330
C
102
}
330
C
100
AcDbDictionary
281
     1
  3
2dWireframe
350
25D
  3
3D Hidden
350
25F
  3
3dWireframe
350
25E
  3
Basic
350
25C
  3
Brighten
350
263
  3
ColorChange
350
267
  3
Conceptual
350
260
  3
Dim
350
262
  3
Facepattern
350
266
  3
Flat
350
258
  3
FlatWithEdges
350
259
  3
Gouraud
350
25A
  3
GouraudWithEdges
350
25B
  3
Linepattern
350
265
  3
Realistic
350
261
  3
Thicken
350
264
  0
XRECORD
  5
28E
102
{ACAD_REACTORS
330
C
102
}
330
C
100
AcDbXrecord
280
     1
 90
        1
330
26A
  0
DICTIONARY
  5
284
102
{ACAD_REACTORS
330
C
102
}
330
C
100
AcDbDictionary
281
     1
  3
CANNOSCALE
350
288
  3
CMLEADERSTYLE
350
286
  3
CTABLESTYLE
350
285
  3
LAYEREVAL
350
28A
  3
LAYERNOTIFY
350
28B
  3
LIGHTINGUNITS
350
289
  3
MSLTSCALE
350
287
  0
XRECORD
  5
283
102
{ACAD_REACTORS
330
282
102
}
330
282
100
AcDbXrecord
280
     1
290
     1
  0
LAYOUT
  5
1E
102
{ACAD_REACTORS
330
1A
102
}
330
1A
100
AcDbPlotSettings
  1

  2
none_device
  4

  6

 40
0.0
 41
0.0
 42
0.0
 43
0.0
 44
0.0
 45
0.0
 46
0.0
 47
0.0
 48
0.0
 49
0.0
140
0.0
141
0.0
142
1.0
143
1.0
 70
   688
 72
     0
 73
     0
 74
     5
  7

 75
    16
147
1.0
 76
     0
 77
     2
 78
   300
148
0.0
149
0.0
100
AcDbLayout
  1
Layout1
 70
     1
 71
     1
 10
0.0
 20
0.0
 11
420.0
 21
297.0
 12
0.0
 22
0.0
 32
0.0
 14
1.000000000000000E+20
 24
1.000000000000000E+20
 34
1.000000000000000E+20
 15
-1.000000000000000E+20
 25
-1.000000000000000E+20
 35
-1.000000000000000E+20
146
0.0
 13
0.0
 23
0.0
 33
0.0
 16
1.0
 26
0.0
 36
0.0
 17
0.0
 27
1.0
 37
0.0
 76
     0
330
1B
  0
LAYOUT
  5
26
102
{ACAD_REACTORS
330
1A
102
}
330
1A
100
AcDbPlotSettings
  1

  2
none_device
  4

  6

 40
0.0
 41
0.0
 42
0.0
 43
0.0
 44
0.0
 45
0.0
 46
0.0
 47
0.0
 48
0.0
 49
0.0
140
0.0
141
0.0
142
1.0
143
1.0
 70
   688
 72
     0
 73
     0
 74
     5
  7

 75
    16
147
1.0
 76
     0
 77
     2
 78
   300
148
0.0
149
0.0
100
AcDbLayout
  1
Layout2
 70
     1
 71
     2
 10
0.0
 20
0.0
 11
0.0
 21
0.0
 12
0.0
 22
0.0
 32
0.0
 14
0.0
 24
0.0
 34
0.0
 15
0.0
 25
0.0
 35
0.0
146
0.0
 13
0.0
 23
0.0
 33
0.0
 16
1.0
 26
0.0
 36
0.0
 17
0.0
 27
1.0
 37
0.0
 76
     0
330
23
  0
LAYOUT
  5
22
102
{ACAD_REACTORS
330
1A
102
}
330
1A
100
AcDbPlotSettings
  1

  2
none_device
  4

  6

 40
0.0
 41
0.0
 42
0.0
 43
0.0
 44
0.0
 45
0.0
 46
0.0
 47
0.0
 48
0.0
 49
0.0
140
0.0
141
0.0
142
1.0
143
1.0
 70
  1712
 72
     0
 73
     0
 74
     0
  7

 75
     0
147
1.0
 76
     0
 77
     2
 78
   300
148
0.0
149
0.0
100
AcDbLayout
  1
Model
 70
     1
 71
     0
 10
0.0
 20
0.0
 11
279.4
 21
215.9
 12
0.0
 22
0.0
 32
0.0
 14
0.0
 24
0.0
 34
0.0
 15
279.4
 25
215.9
 35
0.0
146
0.0
 13
0.0
 23
0.0
 33
0.0
 16
1.0
 26
0.0
 36
0.0
 17
0.0
 27
1.0
 37
0.0
 76
     0
330
1F
331
29
  0
MATERIAL
  5
247
102
{ACAD_XDICTIONARY
360
248
102
}
102
{ACAD_REACTORS
330
23E
102
}
330
23E
100
AcDbMaterial
  1
ByBlock
 72
     0
 43
0.0008202099737533
 43
0.0
 43
0.0
 43
0.0
 43
0.0
 43
0.0008202099737533
 43
0.0
 43
0.0
 43
0.0
 43
0.0
 43
1.0
 43
0.0
 43
0.0
 43
0.0
 43
0.0
 43
1.0
 77
     0
 47
0.0008202099737533
 47
0.0
 47
0.0
 47
0.0
 47
0.0
 47
0.0008202099737533
 47
0.0
 47
0.0
 47
0.0
 47
0.0
 47
1.0
 47
0.0
 47
0.0
 47
0.0
 47
0.0
 47
1.0
171
     0
 49
0.0008202099737533
 49
0.0
 49
0.0
 49
0.0
 49
0.0
 49
0.0008202099737533
 49
0.0
 49
0.0
 49
0.0
 49
0.0
 49
1.0
 49
0.0
 49
0.0
 49
0.0
 49
0.0
 49
1.0
175
     0
142
0.0008202099737533
142
0.0
142
0.0
142
0.0
142
0.0
142
0.0008202099737533
142
0.0
142
0.0
142
0.0
142
0.0
142
1.0
142
0.0
142
0.0
142
0.0
142
0.0
142
1.0
179
     0
144
0.0008202099737533
144
0.0
144
0.0
144
0.0
144
0.0
144
0.0008202099737533
144
0.0
144
0.0
144
0.0
144
0.0
144
1.0
144
0.0
144
0.0
144
0.0
144
0.0
144
1.0
147
0.0008202099737533
147
0.0
147
0.0
147
0.0
147
0.0
147
0.0008202099737533
147
0.0
147
0.0
147
0.0
147
0.0
147
1.0
147
0.0
147
0.0
147
0.0
147
0.0
147
1.0
  0
MATERIAL
  5
23F
102
{ACAD_XDICTIONARY
360
240
102
}
102
{ACAD_REACTORS
330
23E
102
}
330
23E
100
AcDbMaterial
  1
ByLayer
 72
     0
 43
0.0008202099737533
 43
0.0
 43
0.0
 43
0.0
 43
0.0
 43
0.0008202099737533
 43
0.0
 43
0.0
 43
0.0
 43
0.0
 43
1.0
 43
0.0
 43
0.0
 43
0.0
 43
0.0
 43
1.0
 77
     0
 47
0.0008202099737533
 47
0.0
 47
0.0
 47
0.0
 47
0.0
 47
0.0008202099737533
 47
0.0
 47
0.0
 47
0.0
 47
0.0
 47
1.0
 47
0.0
 47
0.0
 47
0.0
 47
0.0
 47
1.0
171
     0
 49
0.0008202099737533
 49
0.0
 49
0.0
 49
0.0
 49
0.0
 49
0.0008202099737533
 49
0.0
 49
0.0
 49
0.0
 49
0.0
 49
1.0
 49
0.0
 49
0.0
 49
0.0
 49
0.0
 49
1.0
175
     0
142
0.0008202099737533
142
0.0
142
0.0
142
0.0
142
0.0
142
0.0008202099737533
142
0.0
142
0.0
142
0.0
142
0.0
142
1.0
142
0.0
142
0.0
142
0.0
142
0.0
142
1.0
179
     0
144
0.0008202099737533
144
0.0
144
0.0
144
0.0
144
0.0
144
0.0008202099737533
144
0.0
144
0.0
144
0.0
144
0.0
144
1.0
144
0.0
144
0.0
144
0.0
144
0.0
144
1.0
147
0.0008202099737533
147
0.0
147
0.0
147
0.0
147
0.0
147
0.0008202099737533
147
0.0
147
0.0
147
0.0
147
0.0
147
1.0
147
0.0
147
0.0
147
0.0
147
0.0
147
1.0
  0
MATERIAL
  5
24F
102
{ACAD_XDICTIONARY
360
250
102
}
102
{ACAD_REACTORS
330
23E
102
}
330
23E
100
AcDbMaterial
  1
Global
 72
     0
 43
0.0008202099737533
 43
0.0
 43
0.0
 43
0.0
 43
0.0
 43
0.0008202099737533
 43
0.0
 43
0.0
 43
0.0
 43
0.0
 43
1.0
 43
0.0
 43
0.0
 43
0.0
 43
0.0
 43
1.0
 77
     0
 47
0.0008202099737533
 47
0.0
 47
0.0
 47
0.0
 47
0.0
 47
0.0008202099737533
 47
0.0
 47
0.0
 47
0.0
 47
0.0
 47
1.0
 47
0.0
 47
0.0
 47
0.0
 47
0.0
 47
1.0
171
     0
 49
0.0008202099737533
 49
0.0
 49
0.0
 49
0.0
 49
0.0
 49
0.0008202099737533
 49
0.0
 49
0.0
 49
0.0
 49
0.0
 49
1.0
 49
0.0
 49
0.0
 49
0.0
 49
0.0
 49
1.0
175
     0
142
0.0008202099737533
142
0.0
142
0.0
142
0.0
142
0.0
142
0.0008202099737533
142
0.0
142
0.0
142
0.0
142
0.0
142
1.0
142
0.0
142
0.0
142
0.0
142
0.0
142
1.0
179
     0
144
0.0008202099737533
144
0.0
144
0.0
144
0.0
144
0.0
144
0.0008202099737533
144
0.0
144
0.0
144
0.0
144
0.0
144
1.0
144
0.0
144
0.0
144
0.0
144
0.0
144
1.0
147
0.0008202099737533
147
0.0
147
0.0
147
0.0
147
0.0
147
0.0008202099737533
147
0.0
147
0.0
147
0.0
147
0.0
147
1.0
147
0.0
147
0.0
147
0.0
147
0.0
147
1.0
  0
MLEADERSTYLE
  5
27E
102
{ACAD_REACTORS
330
27D
102
}
330
27D
100
AcDbMLeaderStyle
170
     2
171
     1
172
     0
 90
        2
 40
0.0
 41
0.0
173
     1
 91
-1056964608
340
14
 92
       -2
290
     1
 42
2.0
291
     1
 43
0.36
  3
Standard
 44
4.0
300

342
11
174
     1
178
     6
175
     1
176
     0
 93
-1056964608
 45
4.0
292
     0
297
     0
 46
4.0
 94
-1056964608
 47
1.0
 49
1.0
140
1.0
293
     1
141
0.0
294
     1
177
     0
142
1.0
295
     1
296
     0
143
0.125
1001
ACAD_MLEADERVER
1070
     2
  0
MLINESTYLE
  5
18
102
{ACAD_REACTORS
330
17
102
}
330
17
100
AcDbMlineStyle
  2
STANDARD
 70
     0
  3

 62
   256
 51
90.0
 52
90.0
 71
     2
 49
0.5
 62
   256
  6
BYLAYER
 49
-0.5
 62
   256
  6
BYLAYER
  0
ACDBPLACEHOLDER
  5
F
102
{ACAD_REACTORS
330
E
102
}
330
E
  0
SCALE
  5
26C
102
{ACAD_REACTORS
330
26B
102
}
330
26B
100
AcDbScale
 70
     0
300
1:1
140
1.0
141
1.0
290
     1
  0
SCALE
  5
26D
102
{ACAD_REACTORS
330
26B
102
}
330
26B
100
AcDbScale
 70
     0
300
1:2
140
1.0
141
2.0
290
     0
  0
SCALE
  5
26E
102
{ACAD_REACTORS
330
26B
102
}
330
26B
100
AcDbScale
 70
     0
300
1:4
140
1.0
141
4.0
290
     0
  0
SCALE
  5
26F
102
{ACAD_REACTORS
330
26B
102
}
330
26B
100
AcDbScale
 70
     0
300
1:5
140
1.0
141
5.0
290
     0
  0
SCALE
  5
270
102
{ACAD_REACTORS
330
26B
102
}
330
26B
100
AcDbScale
 70
     0
300
1:8
140
1.0
141
8.0
290
     0
  0
SCALE
  5
271
102
{ACAD_REACTORS
330
26B
102
}
330
26B
100
AcDbScale
 70
     0
300
1:10
140
1.0
141
10.0
290
     0
  0
SCALE
  5
272
102
{ACAD_REACTORS
330
26B
102
}
330
26B
100
AcDbScale
 70
     0
300
1:16
140
1.0
141
16.0
290
     0
  0
SCALE
  5
273
102
{ACAD_REACTORS
330
26B
102
}
330
26B
100
AcDbScale
 70
     0
300
1:20
140
1.0
141
20.0
290
     0
  0
SCALE
  5
274
102
{ACAD_REACTORS
330
26B
102
}
330
26B
100
AcDbScale
 70
     0
300
1:30
140
1.0
141
30.0
290
     0
  0
SCALE
  5
275
102
{ACAD_REACTORS
330
26B
102
}
330
26B
100
AcDbScale
 70
     0
300
1:40
140
1.0
141
40.0
290
     0
  0
SCALE
  5
276
102
{ACAD_REACTORS
330
26B
102
}
330
26B
100
AcDbScale
 70
     0
300
1:50
140
1.0
141
50.0
290
     0
  0
SCALE
  5
277
102
{ACAD_REACTORS
330
26B
102
}
330
26B
100
AcDbScale
 70
     0
300
1:100
140
1.0
141
100.0
290
     0
  0
SCALE
  5
278
102
{ACAD_REACTORS
330
26B
102
}
330
26B
100
AcDbScale
 70
     0
300
2:1
140
2.0
141
1.0
290
     0
  0
SCALE
  5
279
102
{ACAD_REACTORS
330
26B
102
}
330
26B
100
AcDbScale
 70
     0
300
4:1
140
4.0
141
1.0
290
     0
  0
SCALE
  5
27A
102
{ACAD_REACTORS
330
26B
102
}
330
26B
100
AcDbScale
 70
     0
300
8:1
140
8.0
141
1.0
290
     0
  0
SCALE
  5
27B
102
{ACAD_REACTORS
330
26B
102
}
330
26B
100
AcDbScale
 70
     0
300
10:1
140
10.0
141
1.0
290
     0
  0
SCALE
  5
27C
102
{ACAD_REACTORS
330
26B
102
}
330
26B
100
AcDbScale
 70
     0
300
100:1
140
100.0
141
1.0
290
     0
  0
TABLESTYLE
  5
26A
102
{ACAD_XDICTIONARY
360
28C
102
}
102
{ACAD_REACTORS
330
269
102
}
330
269
100
AcDbTableStyle
  3
Standard
 70
     0
 71
     0
 40
1.5
 41
1.5
280
     0
281
     0
  7
Standard
140
4.5
170
     2
 62
     0
 63
     7
283
     0
 90
      512
 91
        0
  1

274
    -2
284
     1
 64
     0
275
    -2
285
     1
 65
     0
276
    -2
286
     1
 66
     0
277
    -2
287
     1
 67
     0
278
    -2
288
     1
 68
     0
279
    -2
289
     1
 69
     0
  7
Standard
140
6.0
170
     5
 62
     0
 63
     7
283
     0
 90
      512
 91
        0
  1

274
    -2
284
     1
 64
     0
275
    -2
285
     1
 65
     0
276
    -2
286
     1
 66
     0
277
    -2
287
     1
 67
     0
278
    -2
288
     1
 68
     0
279
    -2
289
     1
 69
     0
  7
Standard
140
4.5
170
     5
 62
     0
 63
     7
283
     0
 90
      512
 91
        0
  1

274
    -2
284
     1
 64
     0
275
    -2
285
     1
 65
     0
276
    -2
286
     1
 66
     0
277
    -2
287
     1
 67
     0
278
    -2
288
     1
 68
     0
279
    -2
289
     1
 69
     0
  0
VISUALSTYLE
  5
25D
102
{ACAD_REACTORS
330
257
102
}
330
257
100
AcDbVisualStyle
  2
2dWireframe
 70
     4
 71
     0
 72
     2
 73
     0
 90
        0
 40
-0.6
 41
-30.0
 62
     5
 63
     7
421
 16777215
 74
     1
 91
        4
 64
     7
 65
   257
 75
     1
175
     1
 42
1.0
 92
        0
 66
   257
 43
1.0
 76
     1
 77
     6
 78
     2
 67
     7
 79
     5
170
     0
171
     0
290
     0
174
     0
 93
        1
 44
0.0
173
     0
291
     0
 45
0.0
  0
VISUALSTYLE
  5
25F
102
{ACAD_REACTORS
330
257
102
}
330
257
100
AcDbVisualStyle
  2
3D Hidden
 70
     6
 71
     1
 72
     2
 73
     2
 90
        0
 40
-0.6
 41
-30.0
 62
     5
 63
     7
421
 16777215
 74
     2
 91
        2
 64
     7
 65
   257
 75
     2
175
     1
 42
40.0
 92
        0
 66
   257
 43
1.0
 76
     1
 77
     6
 78
     2
 67
     7
 79
     3
170
     0
171
     0
290
     0
174
     0
 93
        1
 44
0.0
173
     0
291
     0
 45
0.0
  0
VISUALSTYLE
  5
25E
102
{ACAD_REACTORS
330
257
102
}
330
257
100
AcDbVisualStyle
  2
3dWireframe
 70
     5
 71
     0
 72
     2
 73
     0
 90
        0
 40
-0.6
 41
-30.0
 62
     5
 63
     7
421
 16777215
 74
     1
 91
        4
 64
     7
 65
   257
 75
     1
175
     1
 42
1.0
 92
        0
 66
   257
 43
1.0
 76
     1
 77
     6
 78
     2
 67
     7
 79
     5
170
     0
171
     0
290
     0
174
     0
 93
        1
 44
0.0
173
     0
291
     0
 45
0.0
  0
VISUALSTYLE
  5
25C
102
{ACAD_REACTORS
330
257
102
}
330
257
100
AcDbVisualStyle
  2
Basic
 70
     7
 71
     1
 72
     0
 73
     1
 90
        0
 40
-0.6
 41
-30.0
 62
     5
 63
     7
421
 16777215
 74
     0
 91
        4
 64
     7
 65
   257
 75
     1
175
     1
 42
1.0
 92
        8
 66
     7
 43
1.0
 76
     1
 77
     6
 78
     2
 67
     7
 79
     5
170
     0
171
     0
290
     0
174
     0
 93
        1
 44
0.0
173
     0
291
     1
 45
0.0
  0
VISUALSTYLE
  5
263
102
{ACAD_REACTORS
330
257
102
}
330
257
100
AcDbVisualStyle
  2
Brighten
 70
    12
 71
     2
 72
     2
 73
     0
 90
        0
 40
-0.6
 41
-30.0
 62
     5
 63
     7
421
 16777215
 74
     1
 91
        4
 64
     7
 65
   257
 75
     1
175
     1
 42
1.0
 92
        8
 66
     7
 43
1.0
 76
     1
 77
     6
 78
     2
 67
     7
 79
     5
170
     0
171
     0
290
     0
174
     0
 93
        1
 44
50.0
173
     0
291
     1
 45
0.0
  0
VISUALSTYLE
  5
267
102
{ACAD_REACTORS
330
257
102
}
330
257
100
AcDbVisualStyle
  2
ColorChange
 70
    16
 71
     2
 72
     2
 73
     3
 90
        0
 40
-0.6
 41
-30.0
 62
     5
 63
     8
421
  8421504
 74
     1
 91
        4
 64
     7
 65
   257
 75
     1
175
     1
 42
1.0
 92
        8
 66
     8
424
  8421504
 43
1.0
 76
     1
 77
     6
 78
     2
 67
     7
 79
     5
170
     0
171
     0
290
     0
174
     0
 93
        1
 44
0.0
173
     0
291
     1
 45
0.0
  0
VISUALSTYLE
  5
260
102
{ACAD_REACTORS
330
257
102
}
330
257
100
AcDbVisualStyle
  2
Conceptual
 70
     9
 71
     3
 72
     2
 73
     0
 90
        0
 40
-0.6
 41
-30.0
 62
     5
 63
     7
421
 16777215
 74
     2
 91
        2
 64
     7
 65
   257
 75
     1
175
     1
 42
40.0
 92
        8
 66
     7
 43
1.0
 76
     1
 77
     6
 78
     2
 67
     7
 79
     3
170
     0
171
     0
290
     0
174
     0
 93
        1
 44
0.0
173
     0
291
     0
 45
0.0
  0
VISUALSTYLE
  5
262
102
{ACAD_REACTORS
330
257
102
}
330
257
100
AcDbVisualStyle
  2
Dim
 70
    11
 71
     2
 72
     2
 73
     0
 90
        0
 40
-0.6
 41
-30.0
 62
     5
 63
     7
421
 16777215
 74
     1
 91
        4
 64
     7
 65
   257
 75
     1
175
     1
 42
1.0
 92
        8
 66
     7
 43
1.0
 76
     1
 77
     6
 78
     2
 67
     7
 79
     5
170
     0
171
     0
290
     0
174
     0
 93
        1
 44
-50.0
173
     0
291
     1
 45
0.0
  0
VISUALSTYLE
  5
266
102
{ACAD_REACTORS
330
257
102
}
330
257
100
AcDbVisualStyle
  2
Facepattern
 70
    15
 71
     2
 72
     2
 73
     0
 90
        0
 40
-0.6
 41
-30.0
 62
     5
 63
     7
421
 16777215
 74
     1
 91
        4
 64
     7
 65
   257
 75
     1
175
     1
 42
1.0
 92
        8
 66
     7
 43
1.0
 76
     1
 77
     6
 78
     2
 67
     7
 79
     5
170
     0
171
     0
290
     0
174
     0
 93
        1
 44
0.0
173
     0
291
     1
 45
0.0
  0
VISUALSTYLE
  5
258
102
{ACAD_REACTORS
330
257
102
}
330
257
100
AcDbVisualStyle
  2
Flat
 70
     0
 71
     2
 72
     1
 73
     1
 90
        2
 40
-0.6
 41
30.0
 62
     5
 63
     7
421
 16777215
 74
     0
 91
        4
 64
     7
 65
   257
 75
     1
175
     1
 42
1.0
 92
        8
 66
     7
 43
1.0
 76
     1
 77
     6
 78
     2
 67
     7
 79
     5
170
     0
171
     0
290
     0
174
     0
 93
       13
 44
0.0
173
     0
291
     1
 45
0.0
  0
VISUALSTYLE
  5
259
102
{ACAD_REACTORS
330
257
102
}
330
257
100
AcDbVisualStyle
  2
FlatWithEdges
 70
     1
 71
     2
 72
     1
 73
     1
 90
        2
 40
-0.6
 41
30.0
 62
     5
 63
     7
421
 16777215
 74
     1
 91
        4
 64
     7
 65
   257
 75
     1
175
     1
 42
1.0
 92
        0
 66
   257
 43
1.0
 76
     1
 77
     6
 78
     2
 67
     7
 79
     5
170
     0
171
     0
290
     0
174
     0
 93
       13
 44
0.0
173
     0
291
     1
 45
0.0
  0
VISUALSTYLE
  5
25A
102
{ACAD_REACTORS
330
257
102
}
330
257
100
AcDbVisualStyle
  2
Gouraud
 70
     2
 71
     2
 72
     2
 73
     1
 90
        2
 40
-0.6
 41
30.0
 62
     5
 63
     7
421
 16777215
 74
     0
 91
        4
 64
     7
 65
   257
 75
     1
175
     1
 42
1.0
 92
        0
 66
     7
 43
1.0
 76
     1
 77
     6
 78
     2
 67
     7
 79
     5
170
     0
171
     0
290
     0
174
     0
 93
       13
 44
0.0
173
     0
291
     1
 45
0.0
  0
VISUALSTYLE
  5
25B
102
{ACAD_REACTORS
330
257
102
}
330
257
100
AcDbVisualStyle
  2
GouraudWithEdges
 70
     3
 71
     2
 72
     2
 73
     1
 90
        2
 40
-0.6
 41
30.0
 62
     5
 63
     7
421
 16777215
 74
     1
 91
        4
 64
     7
 65
   257
 75
     1
175
     1
 42
1.0
 92
        0
 66
   257
 43
1.0
 76
     1
 77
     6
 78
     2
 67
     7
 79
     5
170
     0
171
     0
290
     0
174
     0
 93
       13
 44
0.0
173
     0
291
     1
 45
0.0
  0
VISUALSTYLE
  5
265
102
{ACAD_REACTORS
330
257
102
}
330
257
100
AcDbVisualStyle
  2
Linepattern
 70
    14
 71
     2
 72
     2
 73
     0
 90
        0
 40
-0.6
 41
-30.0
 62
     5
 63
     7
421
 16777215
 74
     1
 91
        4
 64
     7
 65
   257
 75
     7
175
     7
 42
1.0
 92
        8
 66
     7
 43
1.0
 76
     1
 77
     6
 78
     2
 67
     7
 79
     5
170
     0
171
     0
290
     0
174
     0
 93
        1
 44
0.0
173
     0
291
     1
 45
0.0
  0
VISUALSTYLE
  5
261
102
{ACAD_REACTORS
330
257
102
}
330
257
100
AcDbVisualStyle
  2
Realistic
 70
     8
 71
     2
 72
     2
 73
     0
 90
        0
 40
-0.6
 41
-30.0
 62
     5
 63
     7
421
 16777215
 74
     1
 91
        0
 64
     7
 65
   257
 75
     1
175
     1
 42
1.0
 92
        8
 66
     8
424
  7895160
 43
1.0
 76
     1
 77
     6
 78
     2
 67
     7
 79
     5
170
     0
171
     0
290
     0
174
     0
 93
       13
 44
0.0
173
     0
291
     0
 45
0.0
  0
VISUALSTYLE
  5
264
102
{ACAD_REACTORS
330
257
102
}
330
257
100
AcDbVisualStyle
  2
Thicken
 70
    13
 71
     2
 72
     2
 73
     0
 90
        0
 40
-0.6
 41
-30.0
 62
     5
 63
     7
421
 16777215
 74
     1
 91
        4
 64
     7
 65
   257
 75
     1
175
     1
 42
1.0
 92
       12
 66
     7
 43
1.0
 76
     1
 77
     6
 78
     2
 67
     7
 79
     5
170
     0
171
     0
290
     0
174
     0
 93
        1
 44
0.0
173
     0
291
     1
 45
0.0
  0
DICTIONARYVAR
  5
288
102
{ACAD_REACTORS
330
284
102
}
330
284
100
DictionaryVariables
280
     0
  1
1:1
  0
DICTIONARYVAR
  5
286
102
{ACAD_REACTORS
330
284
102
}
330
284
100
DictionaryVariables
280
     0
  1
STANDARD
  0
DICTIONARYVAR
  5
285
102
{ACAD_REACTORS
330
284
102
}
330
284
100
DictionaryVariables
280
     0
  1
STANDARD
  0
DICTIONARYVAR
  5
28A
102
{ACAD_REACTORS
330
284
102
}
330
284
100
DictionaryVariables
280
     0
  1
1
  0
DICTIONARYVAR
  5
28B
102
{ACAD_REACTORS
330
284
102
}
330
284
100
DictionaryVariables
280
     0
  1
15
  0
DICTIONARYVAR
  5
289
102
{ACAD_REACTORS
330
284
102
}
330
284
100
DictionaryVariables
280
     0
  1
0
  0
DICTIONARYVAR
  5
287
102
{ACAD_REACTORS
330
284
102
}
330
284
100
DictionaryVariables
280
     0
  1
0
  0
DICTIONARY
  5
248
330
247
100
AcDbDictionary
280
     1
281
     1
  3
BUMPTILE
360
24A
  3
DIFFUSETILE
360
249
  3
OPACITYTILE
360
24D
  3
REFLECTIONTILE
360
24C
  3
REFRACTIONTILE
360
24E
  3
SPECULARTILE
360
24B
  0
DICTIONARY
  5
240
330
23F
100
AcDbDictionary
280
     1
281
     1
  3
BUMPTILE
360
242
  3
DIFFUSETILE
360
241
  3
OPACITYTILE
360
245
  3
REFLECTIONTILE
360
244
  3
REFRACTIONTILE
360
246
  3
SPECULARTILE
360
243
  0
DICTIONARY
  5
250
330
24F
100
AcDbDictionary
280
     1
281
     1
  3
BUMPTILE
360
252
  3
DIFFUSETILE
360
251
  3
OPACITYTILE
360
255
  3
REFLECTIONTILE
360
254
  3
REFRACTIONTILE
360
256
  3
SPECULARTILE
360
253
  0
DICTIONARY
  5
28C
330
26A
100
AcDbDictionary
280
     1
281
     1
  3
ACAD_ROUNDTRIP_2008_TABLESTYLE_CELLSTYLEMAP
360
28D
  0
XRECORD
  5
24A
102
{ACAD_REACTORS
330
248
102
}
330
248
100
AcDbXrecord
280
     1
270
     1
271
     1
  0
XRECORD
  5
249
102
{ACAD_REACTORS
330
248
102
}
330
248
100
AcDbXrecord
280
     1
270
     1
271
     1
  0
XRECORD
  5
24D
102
{ACAD_REACTORS
330
248
102
}
330
248
100
AcDbXrecord
280
     1
270
     1
271
     1
  0
XRECORD
  5
24C
102
{ACAD_REACTORS
330
248
102
}
330
248
100
AcDbXrecord
280
     1
270
     1
271
     1
  0
XRECORD
  5
24E
102
{ACAD_REACTORS
330
248
102
}
330
248
100
AcDbXrecord
280
     1
270
     1
271
     1
  0
XRECORD
  5
24B
102
{ACAD_REACTORS
330
248
102
}
330
248
100
AcDbXrecord
280
     1
270
     1
271
     1
  0
XRECORD
  5
242
102
{ACAD_REACTORS
330
240
102
}
330
240
100
AcDbXrecord
280
     1
270
     1
271
     1
  0
XRECORD
  5
241
102
{ACAD_REACTORS
330
240
102
}
330
240
100
AcDbXrecord
280
     1
270
     1
271
     1
  0
XRECORD
  5
245
102
{ACAD_REACTORS
330
240
102
}
330
240
100
AcDbXrecord
280
     1
270
     1
271
     1
  0
XRECORD
  5
244
102
{ACAD_REACTORS
330
240
102
}
330
240
100
AcDbXrecord
280
     1
270
     1
271
     1
  0
XRECORD
  5
246
102
{ACAD_REACTORS
330
240
102
}
330
240
100
AcDbXrecord
280
     1
270
     1
271
     1
  0
XRECORD
  5
243
102
{ACAD_REACTORS
330
240
102
}
330
240
100
AcDbXrecord
280
     1
270
     1
271
     1
  0
XRECORD
  5
252
102
{ACAD_REACTORS
330
250
102
}
330
250
100
AcDbXrecord
280
     1
270
     1
271
     1
  0
XRECORD
  5
251
102
{ACAD_REACTORS
330
250
102
}
330
250
100
AcDbXrecord
280
     1
270
     1
271
     1
  0
XRECORD
  5
255
102
{ACAD_REACTORS
330
250
102
}
330
250
100
AcDbXrecord
280
     1
270
     1
271
     1
  0
XRECORD
  5
254
102
{ACAD_REACTORS
330
250
102
}
330
250
100
AcDbXrecord
280
     1
270
     1
271
     1
  0
XRECORD
  5
256
102
{ACAD_REACTORS
330
250
102
}
330
250
100
AcDbXrecord
280
     1
270
     1
271
     1
  0
XRECORD
  5
253
102
{ACAD_REACTORS
330
250
102
}
330
250
100
AcDbXrecord
280
     1
270
     1
271
     1
  0
CELLSTYLEMAP
  5
28D
102
{ACAD_REACTORS
330
28C
102
}
330
28C
100
AcDbCellStyleMap
 90
        3
300
CELLSTYLE
  1
TABLEFORMAT_BEGIN
 90
        5
170
     1
 91
        0
 92
    32768
 62
   257
 93
        1
300
CONTENTFORMAT
  1
CONTENTFORMAT_BEGIN
 90
        0
 91
        0
 92
      512
 93
        0
300

 40
0.0
140
1.0
 94
        5
 62
     0
340
11
144
6.0
309
CONTENTFORMAT_END
171
     1
301
MARGIN
  1
CELLMARGIN_BEGIN
 40
1.5
 40
1.5
 40
1.5
 40
1.5
 40
4.5
 40
4.5
309
CELLMARGIN_END
 94
        6
 95
        1
302
GRIDFORMAT
  1
GRIDFORMAT_BEGIN
 90
        0
 91
        1
 62
     0
 92
       -2
340
0
 93
        0
 40
1.125
309
GRIDFORMAT_END
 95
        2
302
GRIDFORMAT
  1
GRIDFORMAT_BEGIN
 90
        0
 91
        1
 62
     0
 92
       -2
340
0
 93
        0
 40
1.125
309
GRIDFORMAT_END
 95
        4
302
GRIDFORMAT
  1
GRIDFORMAT_BEGIN
 90
        0
 91
        1
 62
     0
 92
       -2
340
0
 93
        0
 40
1.125
309
GRIDFORMAT_END
 95
        8
302
GRIDFORMAT
  1
GRIDFORMAT_BEGIN
 90
        0
 91
        1
 62
     0
 92
       -2
340
0
 93
        0
 40
1.125
309
GRIDFORMAT_END
 95
       16
302
GRIDFORMAT
  1
GRIDFORMAT_BEGIN
 90
        0
 91
        1
 62
     0
 92
       -2
340
0
 93
        0
 40
1.125
309
GRIDFORMAT_END
 95
       32
302
GRIDFORMAT
  1
GRIDFORMAT_BEGIN
 90
        0
 91
        1
 62
     0
 92
       -2
340
0
 93
        0
 40
1.125
309
GRIDFORMAT_END
309
TABLEFORMAT_END
  1
CELLSTYLE_BEGIN
 90
        1
 91
        1
300
_TITLE
309
CELLSTYLE_END
300
CELLSTYLE
  1
TABLEFORMAT_BEGIN
 90
        5
170
     1
 91
        0
 92
        0
 62
   257
 93
        1
300
CONTENTFORMAT
  1
CONTENTFORMAT_BEGIN
 90
        0
 91
        0
 92
      512
 93
        0
300

 40
0.0
140
1.0
 94
        5
 62
     0
340
11
144
4.5
309
CONTENTFORMAT_END
171
     1
301
MARGIN
  1
CELLMARGIN_BEGIN
 40
1.5
 40
1.5
 40
1.5
 40
1.5
 40
4.5
 40
4.5
309
CELLMARGIN_END
 94
        6
 95
        1
302
GRIDFORMAT
  1
GRIDFORMAT_BEGIN
 90
        0
 91
        1
 62
     0
 92
       -2
340
0
 93
        0
 40
1.125
309
GRIDFORMAT_END
 95
        2
302
GRIDFORMAT
  1
GRIDFORMAT_BEGIN
 90
        0
 91
        1
 62
     0
 92
       -2
340
0
 93
        0
 40
1.125
309
GRIDFORMAT_END
 95
        4
302
GRIDFORMAT
  1
GRIDFORMAT_BEGIN
 90
        0
 91
        1
 62
     0
 92
       -2
340
0
 93
        0
 40
1.125
309
GRIDFORMAT_END
 95
        8
302
GRIDFORMAT
  1
GRIDFORMAT_BEGIN
 90
        0
 91
        1
 62
     0
 92
       -2
340
0
 93
        0
 40
1.125
309
GRIDFORMAT_END
 95
       16
302
GRIDFORMAT
  1
GRIDFORMAT_BEGIN
 90
        0
 91
        1
 62
     0
 92
       -2
340
0
 93
        0
 40
1.125
309
GRIDFORMAT_END
 95
       32
302
GRIDFORMAT
  1
GRIDFORMAT_BEGIN
 90
        0
 91
        1
 62
     0
 92
       -2
340
0
 93
        0
 40
1.125
309
GRIDFORMAT_END
309
TABLEFORMAT_END
  1
CELLSTYLE_BEGIN
 90
        2
 91
        1
300
_HEADER
309
CELLSTYLE_END
300
CELLSTYLE
  1
TABLEFORMAT_BEGIN
 90
        5
170
     1
 91
        0
 92
        0
 62
   257
 93
        1
300
CONTENTFORMAT
  1
CONTENTFORMAT_BEGIN
 90
        0
 91
        0
 92
      512
 93
        0
300

 40
0.0
140
1.0
 94
        2
 62
     0
340
11
144
4.5
309
CONTENTFORMAT_END
171
     1
301
MARGIN
  1
CELLMARGIN_BEGIN
 40
1.5
 40
1.5
 40
1.5
 40
1.5
 40
4.5
 40
4.5
309
CELLMARGIN_END
 94
        6
 95
        1
302
GRIDFORMAT
  1
GRIDFORMAT_BEGIN
 90
        0
 91
        1
 62
     0
 92
       -2
340
0
 93
        0
 40
1.125
309
GRIDFORMAT_END
 95
        2
302
GRIDFORMAT
  1
GRIDFORMAT_BEGIN
 90
        0
 91
        1
 62
     0
 92
       -2
340
0
 93
        0
 40
1.125
309
GRIDFORMAT_END
 95
        4
302
GRIDFORMAT
  1
GRIDFORMAT_BEGIN
 90
        0
 91
        1
 62
     0
 92
       -2
340
0
 93
        0
 40
1.125
309
GRIDFORMAT_END
 95
        8
302
GRIDFORMAT
  1
GRIDFORMAT_BEGIN
 90
        0
 91
        1
 62
     0
 92
       -2
340
0
 93
        0
 40
1.125
309
GRIDFORMAT_END
 95
       16
302
GRIDFORMAT
  1
GRIDFORMAT_BEGIN
 90
        0
 91
        1
 62
     0
 92
       -2
340
0
 93
        0
 40
1.125
309
GRIDFORMAT_END
 95
       32
302
GRIDFORMAT
  1
GRIDFORMAT_BEGIN
 90
        0
 91
        1
 62
     0
 92
       -2
340
0
 93
        0
 40
1.125
309
GRIDFORMAT_END
309
TABLEFORMAT_END
  1
CELLSTYLE_BEGIN
 90
        3
 91
        2
300
_DATA
309
CELLSTYLE_END
  0
ENDSEC
  0
EOF
