  0
SECTION
  2
HEADER
  9
$ACADVER
  1
AC1015
  9
$ACADMAINTVER
 70
     6
  9
$DWGCODEPAGE
  3
ANSI_1251
  9
$INSBASE
 10
0.0
 20
0.0
 30
0.0
  9
$EXTMIN
 10
0.0
 20
0.0
 30
0.0
  9
$EXTMAX
 10
5588.0
 20
4318.0
 30
0.0
  9
$LIMMIN
 10
0.0
 20
0.0
  9
$LIMMAX
 10
5588.0
 20
4318.0
  9
$ORTHOMODE
 70
     0
  9
$REGENMODE
 70
     1
  9
$FILLMODE
 70
     1
  9
$QTEXTMODE
 70
     0
  9
$MIRRTEXT
 70
     1
  9
$LTSCALE
 40
20.0
  9
$ATTMODE
 70
     1
  9
$TEXTSIZE
 40
70.0
  9
$TRACEWID
 40
1.0
  9
$TEXTSTYLE
  7
Standard
  9
$CLAYER
  8
0
  9
$CELTYPE
  6
ByLayer
  9
$CECOLOR
 62
   256
  9
$CELTSCALE
 40
1.0
  9
$DISPSILH
 70
     0
  9
$DIMSCALE
 40
1.0
  9
$DIMASZ
 40
70.0
  9
$DIMEXO
 40
0.2
  9
$DIMDLI
 40
3.75
  9
$DIMRND
 40
0.0
  9
$DIMDLE
 40
0.0
  9
$DIMEXE
 40
20.0
  9
$DIMTP
 40
0.0
  9
$DIMTM
 40
0.0
  9
$DIMTXT
 40
70.0
  9
$DIMCEN
 40
2.5
  9
$DIMTSZ
 40
0.0
  9
$DIMTOL
 70
     0
  9
$DIMLIM
 70
     0
  9
$DIMTIH
 70
     1
  9
$DIMTOH
 70
     1
  9
$DIMSE1
 70
     0
  9
$DIMSE2
 70
     0
  9
$DIMTAD
 70
     1
  9
$DIMZIN
 70
     0
  9
$DIMBLK
  1

  9
$DIMASO
 70
     1
  9
$DIMSHO
 70
     1
  9
$DIMPOST
  1

  9
$DIMAPOST
  1

  9
$DIMALT
 70
     0
  9
$DIMALTD
 70
     3
  9
$DIMALTF
 40
0.0393700787
  9
$DIMLFAC
 40
1.0
  9
$DIMTOFL
 70
     1
  9
$DIMTVP
 40
0.0
  9
$DIMTIX
 70
     0
  9
$DIMSOXD
 70
     0
  9
$DIMSAH
 70
     0
  9
$DIMBLK1
  1

  9
$DIMBLK2
  1

  9
$DIMSTYLE
  2
ISO-25
  9
$DIMCLRD
 70
     0
  9
$DIMCLRE
 70
     0
  9
$DIMCLRT
 70
     0
  9
$DIMTFAC
 40
1.0
  9
$DIMGAP
 40
60.0
  9
$DIMJUST
 70
     0
  9
$DIMSD1
 70
     0
  9
$DIMSD2
 70
     0
  9
$DIMTOLJ
 70
     0
  9
$DIMTZIN
 70
     0
  9
$DIMALTZ
 70
     0
  9
$DIMALTTZ
 70
     0
  9
$DIMUPT
 70
     0
  9
$DIMDEC
 70
     2
  9
$DIMTDEC
 70
     3
  9
$DIMALTU
 70
     2
  9
$DIMALTTD
 70
     3
  9
$DIMTXSTY
  7
Standard
  9
$DIMAUNIT
 70
     0
  9
$DIMADEC
 70
     2
  9
$DIMALTRND
 40
0.0
  9
$DIMAZIN
 70
     0
  9
$DIMDSEP
 70
    44
  9
$DIMATFIT
 70
     3
  9
$DIMFRAC
 70
     0
  9
$DIMLDRBLK
  1

  9
$DIMLUNIT
 70
     2
  9
$DIMLWD
 70
    -2
  9
$DIMLWE
 70
    -2
  9
$DIMTMOVE
 70
     0
  9
$LUNITS
 70
     2
  9
$LUPREC
 70
     2
  9
$SKETCHINC
 40
1.0
  9
$FILLETRAD
 40
10.0
  9
$AUNITS
 70
     0
  9
$AUPREC
 70
     2
  9
$MENU
  1
.
  9
$ELEVATION
 40
0.0
  9
$PELEVATION
 40
0.0
  9
$THICKNESS
 40
0.0
  9
$LIMCHECK
 70
     0
  9
$CHAMFERA
 40
10.0
  9
$CHAMFERB
 40
10.0
  9
$CHAMFERC
 40
20.0
  9
$CHAMFERD
 40
0.0
  9
$SKPOLY
 70
     0
  9
$TDCREATE
 40
2458170.030856308
  9
$TDUCREATE
 40
2458169.947522975
  9
$TDUPDATE
 40
2458170.030856748
  9
$TDUUPDATE
 40
2458169.947523414
  9
$TDINDWG
 40
0.0000000116
  9
$TDUSRTIMER
 40
0.0000000116
  9
$USRTIMER
 70
     1
  9
$ANGBASE
 50
0.0
  9
$ANGDIR
 70
     0
  9
$PDMODE
 70
     0
  9
$PDSIZE
 40
-1.0
  9
$PLINEWID
 40
0.0
  9
$SPLFRAME
 70
     0
  9
$SPLINETYPE
 70
     6
  9
$SPLINESEGS
 70
     8
  9
$HANDSEED
  5
6E
  9
$SURFTAB1
 70
     6
  9
$SURFTAB2
 70
     6
  9
$SURFTYPE
 70
     6
  9
$SURFU
 70
     6
  9
$SURFV
 70
     6
  9
$UCSBASE
  2

  9
$UCSNAME
  2

  9
$UCSORG
 10
0.0
 20
0.0
 30
0.0
  9
$UCSXDIR
 10
1.0
 20
0.0
 30
0.0
  9
$UCSYDIR
 10
0.0
 20
1.0
 30
0.0
  9
$UCSORTHOREF
  2

  9
$UCSORTHOVIEW
 70
     0
  9
$UCSORGTOP
 10
0.0
 20
0.0
 30
0.0
  9
$UCSORGBOTTOM
 10
0.0
 20
0.0
 30
0.0
  9
$UCSORGLEFT
 10
0.0
 20
0.0
 30
0.0
  9
$UCSORGRIGHT
 10
0.0
 20
0.0
 30
0.0
  9
$UCSORGFRONT
 10
0.0
 20
0.0
 30
0.0
  9
$UCSORGBACK
 10
0.0
 20
0.0
 30
0.0
  9
$PUCSBASE
  2

  9
$PUCSNAME
  2

  9
$PUCSORG
 10
0.0
 20
0.0
 30
0.0
  9
$PUCSXDIR
 10
1.0
 20
0.0
 30
0.0
  9
$PUCSYDIR
 10
0.0
 20
1.0
 30
0.0
  9
$PUCSORTHOREF
  2

  9
$PUCSORTHOVIEW
 70
     0
  9
$PUCSORGTOP
 10
0.0
 20
0.0
 30
0.0
  9
$PUCSORGBOTTOM
 10
0.0
 20
0.0
 30
0.0
  9
$PUCSORGLEFT
 10
0.0
 20
0.0
 30
0.0
  9
$PUCSORGRIGHT
 10
0.0
 20
0.0
 30
0.0
  9
$PUCSORGFRONT
 10
0.0
 20
0.0
 30
0.0
  9
$PUCSORGBACK
 10
0.0
 20
0.0
 30
0.0
  9
$USERI1
 70
     0
  9
$USERI2
 70
     0
  9
$USERI3
 70
     0
  9
$USERI4
 70
     0
  9
$USERI5
 70
     0
  9
$USERR1
 40
0.0
  9
$USERR2
 40
0.0
  9
$USERR3
 40
0.0
  9
$USERR4
 40
0.0
  9
$USERR5
 40
0.0
  9
$WORLDVIEW
 70
     1
  9
$SHADEDGE
 70
     3
  9
$SHADEDIF
 70
    70
  9
$TILEMODE
 70
     1
  9
$MAXACTVP
 70
    64
  9
$PINSBASE
 10
0.0
 20
0.0
 30
0.0
  9
$PLIMCHECK
 70
     0
  9
$PEXTMIN
 10
1.0000000000E+20
 20
1.0000000000E+20
 30
1.0000000000E+20
  9
$PEXTMAX
 10
-1.0000000000E+20
 20
-1.0000000000E+20
 30
-1.0000000000E+20
  9
$PLIMMIN
 10
0.0
 20
0.0
  9
$PLIMMAX
 10
420.0
 20
297.0
  9
$UNITMODE
 70
     0
  9
$VISRETAIN
 70
     1
  9
$PLINEGEN
 70
     0
  9
$PSLTSCALE
 70
     1
  9
$TREEDEPTH
 70
  3020
  9
$CMLSTYLE
  2
Standard
  9
$CMLJUST
 70
     0
  9
$CMLSCALE
 40
20.0
  9
$PROXYGRAPHICS
 70
     1
  9
$MEASUREMENT
 70
     1
  9
$CELWEIGHT
370
    -1
  9
$ENDCAPS
280
     0
  9
$JOINSTYLE
280
     0
  9
$LWDISPLAY
290
     1
  9
$INSUNITS
 70
     4
  9
$HYPERLINKBASE
  1

  9
$STYLESHEET
  1

  9
$XEDIT
290
     1
  9
$CEPSNTYPE
380
     0
  9
$PSTYLEMODE
290
     1
  9
$FINGERPRINTGUID
  2
{7D3EC46E-F3C6-47D2-B95E-9999D7A5730B}
  9
$VERSIONGUID
  2
{FAEB1C32-E019-11D5-929B-00C0DF256EC4}
  9
$EXTNAMES
290
     1
  9
$PSVPSCALE
 40
0.0
  9
$OLESTARTUP
290
     0
  0
ENDSEC
  0
SECTION
  2
CLASSES
  0
CLASS
  1
ACDBDICTIONARYWDFLT
  2
AcDbDictionaryWithDefault
  3
ObjectDBX Classes
 90
        0
280
     0
281
     0
  0
CLASS
  1
VISUALSTYLE
  2
AcDbVisualStyle
  3
ObjectDBX Classes
 90
     4095
280
     0
281
     0
  0
CLASS
  1
MATERIAL
  2
AcDbMaterial
  3
ObjectDBX Classes
 90
     1153
280
     0
281
     0
  0
CLASS
  1
ACDBPLACEHOLDER
  2
AcDbPlaceHolder
  3
ObjectDBX Classes
 90
        0
280
     0
281
     0
  0
CLASS
  1
LAYOUT
  2
AcDbLayout
  3
ObjectDBX Classes
 90
        0
280
     0
281
     0
  0
ENDSEC
  0
SECTION
  2
TABLES
  0
TABLE
  2
VPORT
  5
8
330
0
100
AcDbSymbolTable
 70
     1
  0
VPORT
  5
29
330
8
100
AcDbSymbolTableRecord
100
AcDbViewportTableRecord
  2
*Active
 70
     0
 10
0.0
 20
0.0
 11
1.0
 21
1.0
 12
2794.0
 22
2159.0
 13
0.0
 23
0.0
 14
10.0
 24
10.0
 15
10.0
 25
10.0
 16
0.0
 26
0.0
 36
1.0
 17
0.0
 27
0.0
 37
0.0
 40
4318.0
 41
1.2941176471
 42
50.0
 43
0.0
 44
0.0
 50
0.0
 51
0.0
 71
     0
 72
  2000
 73
     1
 74
     3
 75
     0
 76
     0
 77
     0
 78
     0
281
     0
 65
     1
110
0.0
120
0.0
130
0.0
111
1.0
121
0.0
131
0.0
112
0.0
122
1.0
132
0.0
 79
     0
146
0.0
  0
ENDTAB
  0
TABLE
  2
LTYPE
  5
5
330
0
100
AcDbSymbolTable
 70
     6
  0
LTYPE
  5
14
330
5
100
AcDbSymbolTableRecord
100
AcDbLinetypeTableRecord
  2
ByBlock
 70
     0
  3

 72
    65
 73
     0
 40
0.0
  0
LTYPE
  5
15
330
5
100
AcDbSymbolTableRecord
100
AcDbLinetypeTableRecord
  2
ByLayer
 70
     0
  3

 72
    65
 73
     0
 40
0.0
  0
LTYPE
  5
16
330
5
100
AcDbSymbolTableRecord
100
AcDbLinetypeTableRecord
  2
Continuous
 70
     0
  3
Solid line
 72
    65
 73
     0
 40
0.0
  0
LTYPE
  5
3F
330
5
100
AcDbSymbolTableRecord
100
AcDbLinetypeTableRecord
  2
HIDDEN
 70
     0
  3
Hidden __ __ __ __ __ __ __ __ __ __ __ __ __ __
 72
    65
 73
     2
 40
1.905
 49
1.27
 74
     0
 49
-0.635
 74
     0
  0
LTYPE
  5
40
330
5
100
AcDbSymbolTableRecord
100
AcDbLinetypeTableRecord
  2
PHANTOM
 70
     0
  3
Phantom ______  __  __  ______  __  __  ______
 72
    65
 73
     6
 40
12.7
 49
6.35
 74
     0
 49
-1.27
 74
     0
 49
1.27
 74
     0
 49
-1.27
 74
     0
 49
1.27
 74
     0
 49
-1.27
 74
     0
  0
LTYPE
  5
41
330
5
100
AcDbSymbolTableRecord
100
AcDbLinetypeTableRecord
  2
CENTER
 70
     0
  3
Center ____ _ ____ _ ____ _ ____ _ ____ _ ____
 72
    65
 73
     4
 40
10.16
 49
6.35
 74
     0
 49
-1.27
 74
     0
 49
1.27
 74
     0
 49
-1.27
 74
     0
  0
LTYPE
  5
42
330
5
100
AcDbSymbolTableRecord
100
AcDbLinetypeTableRecord
  2
CENTERX2
 70
     0
  3
Center (2x) ________  __  ________  __  _____
 72
    65
 73
     4
 40
20.32
 49
12.7
 74
     0
 49
-2.54
 74
     0
 49
2.54
 74
     0
 49
-2.54
 74
     0
  0
LTYPE
  5
43
330
5
100
AcDbSymbolTableRecord
100
AcDbLinetypeTableRecord
  2
DOT2
 70
     0
  3
Dot (.5x) ........................................
 72
    65
 73
     2
 40
0.635
 49
0.0
 74
     0
 49
-0.635
 74
     0
  0
ENDTAB
  0
TABLE
  2
LAYER
  5
2
330
0
100
AcDbSymbolTable
 70
     1
  0
LAYER
  5
10
330
2
100
AcDbSymbolTableRecord
100
AcDbLayerTableRecord
  2
0
 70
     0
 62
     7
  6
Continuous
370
    -3
390
F
  0
ENDTAB
  0
TABLE
  2
STYLE
  5
3
330
0
100
AcDbSymbolTable
 70
     1
  0
STYLE
  5
11
330
3
100
AcDbSymbolTableRecord
100
AcDbTextStyleTableRecord
  2
Standard
 70
     0
 40
0.0
 41
1.0
 50
0.0
 71
     0
 42
70.0
  3
txt
  4

  0
ENDTAB
  0
TABLE
  2
VIEW
  5
6
330
0
100
AcDbSymbolTable
 70
     0
  0
ENDTAB
  0
TABLE
  2
UCS
  5
7
330
0
100
AcDbSymbolTable
 70
     0
  0
ENDTAB
  0
TABLE
  2
APPID
  5
9
330
0
100
AcDbSymbolTable
 70
     1
  0
APPID
  5
12
330
9
100
AcDbSymbolTableRecord
100
AcDbRegAppTableRecord
  2
ACAD
 70
     0
  0
ENDTAB
  0
TABLE
  2
DIMSTYLE
  5
A
330
0
100
AcDbSymbolTable
 70
     1
100
AcDbDimStyleTable
  0
DIMSTYLE
105
27
330
A
100
AcDbSymbolTableRecord
100
AcDbDimStyleTableRecord
  2
ISO-25
 70
     0
 41
2.5
 42
0.625
 43
3.75
 44
1.25
 73
     0
 74
     0
 77
     1
 78
     8
140
2.5
141
2.5
143
0.0393700787
147
0.625
171
     3
172
     1
178
     0
271
     2
272
     2
274
     3
278
    44
283
     0
284
     8
340
11
  0
ENDTAB
  0
TABLE
  2
BLOCK_RECORD
  5
1
330
0
100
AcDbSymbolTable
 70
     1
  0
BLOCK_RECORD
  5
1F
330
1
100
AcDbSymbolTableRecord
100
AcDbBlockTableRecord
  2
*Model_Space
340
22
  0
BLOCK_RECORD
  5
1B
330
1
100
AcDbSymbolTableRecord
100
AcDbBlockTableRecord
  2
*Paper_Space
340
1E
  0
BLOCK_RECORD
  5
23
330
1
100
AcDbSymbolTableRecord
100
AcDbBlockTableRecord
  2
*Paper_Space0
340
26
  0
ENDTAB
  0
ENDSEC
  0
SECTION
  2
BLOCKS
  0
BLOCK
  5
20
330
1F
100
AcDbEntity
  8
0
100
AcDbBlockBegin
  2
*Model_Space
 70
     0
 10
0.0
 20
0.0
 30
0.0
  3
*Model_Space
  1

  0
ENDBLK
  5
21
330
1F
100
AcDbEntity
  8
0
100
AcDbBlockEnd
  0
BLOCK
  5
1C
330
1B
100
AcDbEntity
 67
     1
  8
0
100
AcDbBlockBegin
  2
*Paper_Space
 70
     0
 10
0.0
 20
0.0
 30
0.0
  3
*Paper_Space
  1

  0
ENDBLK
  5
1D
330
1B
100
AcDbEntity
 67
     1
  8
0
100
AcDbBlockEnd
  0
BLOCK
  5
24
330
23
100
AcDbEntity
  8
0
100
AcDbBlockBegin
  2
*Paper_Space0
 70
     0
 10
0.0
 20
0.0
 30
0.0
  3
*Paper_Space0
  1

  0
ENDBLK
  5
25
330
23
100
AcDbEntity
  8
0
100
AcDbBlockEnd
  0
ENDSEC
  0
SECTION
  2
ENTITIES
  0
SPLINE
  5
44
330
1F
100
AcDbEntity
  8
0
  6
Continuous
 62
     7
370
    15
100
AcDbSpline
210
0.0
220
0.0
230
1.0
 70
     8
 71
     3
 72
    38
 73
    34
 74
     0
 42
0.00000001
 43
0.00000001
 12
1.0
 22
0.0
 32
0.0
 13
1.0
 23
0.0
 33
0.0
 40
0.0
 40
0.0
 40
0.0
 40
0.0
 40
0.1250000000000079
 40
0.1250000000000079
 40
0.1875000000000118
 40
0.1875000000000118
 40
0.2187500000000139
 40
0.2187500000000139
 40
0.250000000000016
 40
0.250000000000016
 40
0.3750000000000194
 40
0.3750000000000194
 40
0.4062500000000211
 40
0.4062500000000211
 40
0.4375000000000229
 40
0.4375000000000229
 40
0.500000000000022
 40
0.500000000000022
 40
0.6250000000000251
 40
0.6250000000000251
 40
0.656250000000023
 40
0.656250000000023
 40
0.6875000000000208
 40
0.6875000000000208
 40
0.7500000000000167
 40
0.7500000000000167
 40
0.8125000000000124
 40
0.8125000000000124
 40
0.8437500000000104
 40
0.8437500000000104
 40
0.8750000000000084
 40
0.8750000000000084
 40
1.0
 40
1.0
 40
1.0
 40
1.0
 10
527.0252324251154
 20
3161.908767401435
 30
0.0
 10
527.0252324251159
 20
3158.158389378323
 30
0.0
 10
527.3790307954683
 20
3154.419766241525
 30
0.0
 10
528.4543009610315
 20
3148.836735260763
 30
0.0
 10
528.9040176752088
 20
3146.979945006056
 30
0.0
 10
529.7225809024991
 20
3144.202747123528
 30
0.0
 10
530.0203562662743
 20
3143.275888640656
 30
0.0
 10
530.6612413384951
 20
3141.437701027362
 30
0.0
 10
531.0035474534927
 20
3140.528227624009
 30
0.0
 10
532.8232209686573
 20
3136.028906307576
 30
0.0
 10
534.6222497339684
 20
3132.581836912844
 30
0.0
 10
537.30919372351
 20
3128.476033839444
 30
0.0
 10
537.868665769407
 20
3127.665111846447
 30
0.0
 10
539.032740313795
 20
3126.064430208888
 30
0.0
 10
539.6390417901204
 20
3125.272702222793
 30
0.0
 10
541.5073071083328
 20
3122.954884206184
 30
0.0
 10
542.8220685594018
 20
3121.480237052685
 30
0.0
 10
546.9689407379765
 20
3117.26438898327
 30
0.0
 10
550.0016995210345
 20
3114.729271047111
 30
0.0
 10
554.1396488618404
 20
3111.922331320298
 30
0.0
 10
554.9812722051458
 20
3111.381682157982
 30
0.0
 10
556.6820666361156
 20
3110.347765438885
 30
0.0
 10
557.542777705629
 20
3109.853444718641
 30
0.0
 10
560.1553939011078
 20
3108.437473470656
 30
0.0
 10
561.9377087151644
 20
3107.582654695545
 30
0.0
 10
565.5828599411532
 20
3106.050381713916
 30
0.0
 10
567.4456931270471
 20
3105.372919827753
 30
0.0
 10
570.3016640080571
 20
3104.492932729635
 30
0.0
 10
571.2660104688273
 20
3104.221840482453
 30
0.0
 10
573.2057861461601
 20
3103.728682744072
 30
0.0
 10
574.178931871576
 20
3103.507073969953
 30
0.0
 10
579.0607194754914
 20
3102.522148171995
 30
0.0
 10
583.0170605196548
 20
3102.124551323772
 30
0.0
 10
587.0252324251156
 20
3102.124551323772
 30
0.0
  0
LINE
  5
45
330
1F
100
AcDbEntity
  8
0
  6
Continuous
 62
     7
370
    15
100
AcDbLine
 10
527.0252324251
 20
3161.9087674014
 30
0.0
 11
527.0252324251
 21
3181.1245513238
 31
0.0
  0
LINE
  5
46
330
1F
100
AcDbEntity
  8
0
  6
Continuous
 62
     7
370
    15
100
AcDbLine
 10
527.0252324251
 20
3181.1245513238
 30
0.0
 11
2061.0252324251
 21
3181.1245513238
 31
0.0
  0
LINE
  5
47
330
1F
100
AcDbEntity
  8
0
  6
Continuous
 62
     7
370
    15
100
AcDbLine
 10
2061.0252324251
 20
3161.9087674014
 30
0.0
 11
2061.0252324251
 21
3181.1245513238
 31
0.0
  0
SPLINE
  5
48
330
1F
100
AcDbEntity
  8
0
  6
Continuous
 62
     7
370
    15
100
AcDbSpline
210
0.0
220
0.0
230
1.0
 70
     8
 71
     3
 72
    36
 73
    32
 74
     0
 42
0.00000001
 43
0.00000001
 12
1.0
 22
0.0
 32
0.0
 13
1.0
 23
0.0
 33
0.0
 40
0.0
 40
0.0
 40
0.0
 40
0.0
 40
0.1249999999999982
 40
0.1249999999999982
 40
0.1874999999999975
 40
0.1874999999999975
 40
0.2187499999999973
 40
0.2187499999999973
 40
0.2499999999999972
 40
0.2499999999999972
 40
0.3749999999999979
 40
0.3749999999999979
 40
0.4062499999999982
 40
0.4062499999999982
 40
0.4374999999999984
 40
0.4374999999999984
 40
0.4999999999999986
 40
0.4999999999999986
 40
0.6249999999999984
 40
0.6249999999999984
 40
0.6562499999999984
 40
0.6562499999999984
 40
0.6874999999999984
 40
0.6874999999999984
 40
0.7499999999999988
 40
0.7499999999999988
 40
0.8124999999999991
 40
0.8124999999999991
 40
0.8749999999999993
 40
0.8749999999999993
 40
1.0
 40
1.0
 40
1.0
 40
1.0
 10
2001.025232425116
 20
3102.124551323772
 30
0.0
 10
2005.033621260606
 20
3102.124551323772
 30
0.0
 10
2008.9743606143
 20
3102.522145094653
 30
0.0
 10
2014.788100064227
 20
3103.690472503844
 30
0.0
 10
2016.709661492742
 20
3104.1759567813
 30
0.0
 10
2019.566882863157
 20
3105.051627316004
 30
0.0
 10
2020.517402130053
 20
3105.368991268824
 30
0.0
 10
2022.398513397154
 20
3106.049916306706
 30
0.0
 10
2023.326779573079
 20
3106.412485407496
 30
0.0
 10
2027.907851041315
 20
3108.333590885225
 30
0.0
 10
2031.381624167504
 20
3110.213819444811
 30
0.0
 10
2035.485857988669
 20
3112.989059733236
 30
0.0
 10
2036.294696958754
 20
3113.565547395925
 30
0.0
 10
2037.887936007633
 20
3114.762080353193
 30
0.0
 10
2038.67439733882
 20
3115.383938035802
 30
0.0
 10
2040.973304011998
 20
3117.296745695323
 30
0.0
 10
2042.4298658927
 20
3118.637415993904
 30
0.0
 10
2046.578193187125
 20
3122.84805055824
 30
0.0
 10
2049.050587579221
 20
3125.904971359966
 30
0.0
 10
2051.766081483971
 20
3130.039099115023
 30
0.0
 10
2052.290203436813
 20
3130.881968745958
 30
0.0
 10
2053.288409840043
 20
3132.579100864274
 30
0.0
 10
2053.764161275617
 20
3133.435808758292
 30
0.0
 10
2055.122918570062
 20
3136.029447497706
 30
0.0
 10
2055.937570902973
 20
3137.78983671757
 30
0.0
 10
2057.389098370225
 20
3141.369848895487
 30
0.0
 10
2058.025964917892
 20
3143.189477865826
 30
0.0
 10
2059.121976346631
 20
3146.886377455172
 30
0.0
 10
2059.581696971091
 20
3148.770430345765
 30
0.0
 10
2060.671307107472
 20
3154.40183491184
 30
0.0
 10
2061.025232425116
 20
3158.157128123526
 30
0.0
 10
2061.025232425116
 20
3161.908767401435
 30
0.0
  0
LINE
  5
49
330
1F
100
AcDbEntity
  8
0
  6
Continuous
 62
     7
370
    15
100
AcDbLine
 10
2001.0252324251
 20
3102.1245513238
 30
0.0
 11
587.0252324251
 21
3102.1245513238
 31
0.0
  0
LINE
  5
4A
330
1F
100
AcDbEntity
  8
0
  6
Continuous
 62
     7
370
    15
100
AcDbLine
 10
2001.0252324251
 20
3102.0650452419
 30
0.0
 11
2001.0252324251
 21
3102.1245513238
 31
0.0
  0
LINE
  5
4B
330
1F
100
AcDbEntity
  8
0
  6
Continuous
 62
     7
370
    15
100
AcDbLine
 10
2061.0252324251
 20
3161.9087674014
 30
0.0
 11
2061.0252324251
 21
3161.845592649
 31
0.0
  0
SPLINE
  5
4C
330
1F
100
AcDbEntity
  8
0
  6
Continuous
 62
     7
370
    15
100
AcDbSpline
210
0.0
220
0.0
230
1.0
 70
     8
 71
     3
 72
    38
 73
    34
 74
     0
 42
0.00000001
 43
0.00000001
 12
1.0
 22
0.0
 32
0.0
 13
1.0
 23
0.0
 33
0.0
 40
0.0
 40
0.0
 40
0.0
 40
0.0
 40
0.1250000000000009
 40
0.1250000000000009
 40
0.1875000000000013
 40
0.1875000000000013
 40
0.2187500000000014
 40
0.2187500000000014
 40
0.2500000000000015
 40
0.2500000000000015
 40
0.3750000000000021
 40
0.3750000000000021
 40
0.4062500000000021
 40
0.4062500000000021
 40
0.4375000000000021
 40
0.4375000000000021
 40
0.5000000000000021
 40
0.5000000000000021
 40
0.6250000000000019
 40
0.6250000000000019
 40
0.6562500000000019
 40
0.6562500000000019
 40
0.6875000000000019
 40
0.6875000000000019
 40
0.7500000000000016
 40
0.7500000000000016
 40
0.8125000000000012
 40
0.8125000000000012
 40
0.8437500000000011
 40
0.8437500000000011
 40
0.875000000000001
 40
0.875000000000001
 40
1.0
 40
1.0
 40
1.0
 40
1.0
 10
2061.025232425116
 20
3161.84559264901
 30
0.0
 10
2061.025232425116
 20
3158.102189111333
 30
0.0
 10
2060.672637525386
 20
3154.368719811685
 30
0.0
 10
2059.599708213528
 20
3148.791023523254
 30
0.0
 10
2059.150865815311
 20
3146.935610628877
 30
0.0
 10
2058.333620707638
 20
3144.159909419727
 30
0.0
 10
2058.036278416199
 20
3143.233433311657
 30
0.0
 10
2057.396300645967
 20
3141.396003667653
 30
0.0
 10
2057.054442387141
 20
3140.486826744997
 30
0.0
 10
2055.236941532596
 20
3135.988614187841
 30
0.0
 10
2053.439429484318
 20
3132.541246035167
 30
0.0
 10
2050.753621075607
 20
3128.434084087947
 30
0.0
 10
2050.194338521083
 20
3127.622840517654
 30
0.0
 10
2049.030556437257
 20
3126.021426920853
 30
0.0
 10
2048.424381357441
 20
3125.229321199673
 30
0.0
 10
2046.556552195331
 20
3122.910492888356
 30
0.0
 10
2045.241948820054
 20
3121.435067136169
 30
0.0
 10
2041.09511356704
 20
3117.216683890577
 30
0.0
 10
2038.061801485976
 20
3114.679610106949
 30
0.0
 10
2033.922270383465
 20
3111.870221492945
 30
0.0
 10
2033.08067378349
 20
3111.329334235981
 30
0.0
 10
2031.379580067409
 20
3110.294738434088
 30
0.0
 10
2030.518685182256
 20
3109.800074959467
 30
0.0
 10
2027.905412567094
 20
3108.383077370976
 30
0.0
 10
2026.122520490364
 20
3107.527576847634
 30
0.0
 10
2022.475915806597
 20
3105.994006071901
 30
0.0
 10
2020.612206570849
 20
3105.315927826784
 30
0.0
 10
2017.754674044769
 20
3104.43511534634
 30
0.0
 10
2016.789631925016
 20
3104.16373456136
 30
0.0
 10
2014.849380890262
 20
3103.670282317686
 30
0.0
 10
2013.875979368222
 20
3103.448535442493
 30
0.0
 10
2008.992822149951
 20
3102.462975162803
 30
0.0
 10
2005.035098586914
 20
3102.065045241909
 30
0.0
 10
2001.025232425116
 20
3102.065045241909
 30
0.0
  0
LINE
  5
4D
330
1F
100
AcDbEntity
  8
0
  6
Continuous
 62
     7
370
    15
100
AcDbLine
 10
527.0252324251
 20
3161.845592649
 30
0.0
 11
527.0252324251
 21
3161.9087674014
 31
0.0
  0
LINE
  5
4E
330
1F
100
AcDbEntity
  8
0
  6
Continuous
 62
     7
370
    15
100
AcDbLine
 10
587.0252324251
 20
3102.1245513238
 30
0.0
 11
587.0252324251
 21
3102.0650452419
 31
0.0
  0
SPLINE
  5
4F
330
1F
100
AcDbEntity
  8
0
  6
Continuous
 62
     7
370
    15
100
AcDbSpline
210
0.0
220
0.0
230
1.0
 70
     8
 71
     3
 72
    38
 73
    34
 74
     0
 42
0.00000001
 43
0.00000001
 12
1.0
 22
0.0
 32
0.0
 13
1.0
 23
0.0
 33
0.0
 40
0.0
 40
0.0
 40
0.0
 40
0.0
 40
0.1250000000000035
 40
0.1250000000000035
 40
0.1875000000000018
 40
0.1875000000000018
 40
0.2187499999999977
 40
0.2187499999999977
 40
0.2499999999999935
 40
0.2499999999999935
 40
0.3749999999999897
 40
0.3749999999999897
 40
0.4062499999999916
 40
0.4062499999999916
 40
0.4374999999999936
 40
0.4374999999999936
 40
0.4999999999999974
 40
0.4999999999999974
 40
0.6250000000000001
 40
0.6250000000000001
 40
0.6562499999999989
 40
0.6562499999999989
 40
0.6874999999999977
 40
0.6874999999999977
 40
0.7499999999999984
 40
0.7499999999999984
 40
0.8124999999999993
 40
0.8124999999999993
 40
0.8437499999999998
 40
0.8437499999999998
 40
0.8750000000000002
 40
0.8750000000000002
 40
1.0
 40
1.0
 40
1.0
 40
1.0
 10
587.0252324251154
 20
3102.065045241909
 30
0.0
 10
583.0151481952238
 20
3102.065045241909
 30
0.0
 10
579.0727677066822
 20
3102.462972618839
 30
0.0
 10
573.2566463192962
 20
3103.632282436532
 30
0.0
 10
571.3343044125289
 20
3104.118175600126
 30
0.0
 10
568.4759343353933
 20
3104.994589515038
 30
0.0
 10
567.5250155672468
 20
3105.312231362862
 30
0.0
 10
565.6432594475557
 20
3105.993700673379
 30
0.0
 10
564.7146809040642
 20
3106.356558200589
 30
0.0
 10
560.1320991084234
 20
3108.279185470913
 30
0.0
 10
556.657279849805
 20
3110.160883458475
 30
0.0
 10
552.5519871256284
 20
3112.938277079218
 30
0.0
 10
551.7429489881229
 20
3113.515211419875
 30
0.0
 10
550.1493387534179
 20
3114.71267057834
 30
0.0
 10
549.3627252577579
 20
3115.334995400238
 30
0.0
 10
547.0636168042979
 20
3117.249050419245
 30
0.0
 10
545.6070049429022
 20
3118.590554543276
 30
0.0
 10
541.4587869393179
 20
3122.803644223367
 30
0.0
 10
538.986812317834
 20
3125.862144709764
 30
0.0
 10
536.2722848606277
 20
3129.997950226929
 30
0.0
 10
535.7484745002793
 20
3130.840989011521
 30
0.0
 10
534.7509332372507
 20
3132.53835734924
 30
0.0
 10
534.2755336449036
 20
3133.39514220825
 30
0.0
 10
532.9178792749468
 20
3135.988875192121
 30
0.0
 10
532.1040259281579
 20
3137.749145339285
 30
0.0
 10
530.6541577513356
 20
3141.328479474453
 30
0.0
 10
530.0181517757486
 20
3143.147549670767
 30
0.0
 10
529.1974161763216
 20
3145.918990560412
 30
0.0
 10
528.9459452294745
 20
3146.850528094164
 30
0.0
 10
528.4884704521107
 20
3148.725485275761
 30
0.0
 10
528.2838573540189
 20
3149.663072474385
 30
0.0
 10
527.3779556254926
 20
3154.350974709271
 30
0.0
 10
527.0252324251151
 20
3158.1009019716
 30
0.0
 10
527.0252324251154
 20
3161.84559264901
 30
0.0
  0
LINE
  5
50
330
1F
100
AcDbEntity
  8
0
  6
Continuous
 62
     7
370
    15
100
AcDbLine
 10
2001.0252324251
 20
3102.0650452419
 30
0.0
 11
587.0252324251
 21
3102.0650452419
 31
0.0
  0
LINE
  5
51
330
1F
100
AcDbEntity
  8
0
  6
Continuous
 62
     7
370
    15
100
AcDbLine
 10
2360.6359203209
 20
3161.9087674014
 30
0.0
 11
2363.820249793
 21
3161.845592649
 31
0.0
  0
LINE
  5
52
330
1F
100
AcDbEntity
  8
0
  6
Continuous
 62
     7
370
    15
100
AcDbLine
 10
2352.1636013803
 20
3102.0650452419
 30
0.0
 11
2349.1641916006
 21
3102.1245513238
 31
0.0
  0
SPLINE
  5
53
330
1F
100
AcDbEntity
  8
0
  6
Continuous
 62
     7
370
    15
100
AcDbSpline
210
0.0
220
0.0
230
1.0
 70
     8
 71
     3
 72
    36
 73
    32
 74
     0
 42
0.00000001
 43
0.00000001
 12
1.0
 22
0.0
 32
0.0
 13
1.0
 23
0.0
 33
0.0
 40
0.0
 40
0.0
 40
0.0
 40
0.0
 40
0.1249999999999784
 40
0.1249999999999784
 40
0.1874999999999676
 40
0.1874999999999676
 40
0.2187499999999656
 40
0.2187499999999656
 40
0.2499999999999635
 40
0.2499999999999635
 40
0.3749999999999616
 40
0.3749999999999616
 40
0.4062499999999612
 40
0.4062499999999612
 40
0.4374999999999608
 40
0.4374999999999608
 40
0.4999999999999598
 40
0.4999999999999598
 40
0.6249999999999628
 40
0.6249999999999628
 40
0.6562499999999645
 40
0.6562499999999645
 40
0.6874999999999662
 40
0.6874999999999662
 40
0.7499999999999729
 40
0.7499999999999729
 40
0.8124999999999797
 40
0.8124999999999797
 40
0.8749999999999865
 40
0.8749999999999865
 40
1.0
 40
1.0
 40
1.0
 40
1.0
 10
2349.164191600618
 20
3102.124551323772
 30
0.0
 10
2349.164191600618
 20
3102.124551323772
 30
0.0
 10
2349.170833442383
 20
3102.522145094653
 30
0.0
 10
2349.201647015345
 20
3103.690472503844
 30
0.0
 10
2349.215630693792
 20
3104.1759567813
 30
0.0
 10
2349.245825002679
 20
3105.051627316004
 30
0.0
 10
2349.257477766323
 20
3105.368991268824
 30
0.0
 10
2349.284553584471
 20
3106.049916306706
 30
0.0
 10
2349.299934653235
 20
3106.412485407496
 30
0.0
 10
2349.387948649468
 20
3108.333590885225
 30
0.0
 10
2349.49283747827
 20
3110.213819444811
 30
0.0
 10
2349.707317915512
 20
3112.989059733236
 30
0.0
 10
2349.754453429529
 20
3113.565547395925
 30
0.0
 10
2349.858529696859
 20
3114.762080353193
 30
0.0
 10
2349.91565667412
 20
3115.383938035803
 30
0.0
 10
2350.102009997519
 20
3117.296745695323
 30
0.0
 10
2350.246331695608
 20
3118.637415993904
 30
0.0
 10
2350.75215769972
 20
3122.84805055824
 30
0.0
 10
2351.185674065774
 20
3125.904971359967
 30
0.0
 10
2351.899611312625
 20
3130.039099115023
 30
0.0
 10
2352.051165496424
 20
3130.881968745958
 30
0.0
 10
2352.369132329817
 20
3132.579100864274
 30
0.0
 10
2352.535954232131
 20
3133.435808758292
 30
0.0
 10
2353.061007269921
 20
3136.029447497706
 30
0.0
 10
2353.443806483104
 20
3137.78983671757
 30
0.0
 10
2354.281026724145
 20
3141.369848895487
 30
0.0
 10
2354.735437521224
 20
3143.189477865826
 30
0.0
 10
2355.722694691805
 20
3146.886377455172
 30
0.0
 10
2356.257842382934
 20
3148.770430345765
 30
0.0
 10
2357.958773776556
 20
3154.40183491184
 30
0.0
 10
2359.22667989665
 20
3158.157128123526
 30
0.0
 10
2360.635920320853
 20
3161.908767401435
 30
0.0
  0
SPLINE
  5
54
330
1F
100
AcDbEntity
  8
0
  6
Continuous
 62
     7
370
    15
100
AcDbSpline
210
0.0
220
0.0
230
1.0
 70
     8
 71
     3
 72
    38
 73
    34
 74
     0
 42
0.00000001
 43
0.00000001
 12
1.0
 22
0.0
 32
0.0
 13
1.0
 23
0.0
 33
0.0
 40
0.0
 40
0.0
 40
0.0
 40
0.0
 40
0.124999999999986
 40
0.124999999999986
 40
0.1874999999999792
 40
0.1874999999999792
 40
0.2187499999999767
 40
0.2187499999999767
 40
0.2499999999999741
 40
0.2499999999999741
 40
0.374999999999964
 40
0.374999999999964
 40
0.4062499999999615
 40
0.4062499999999615
 40
0.437499999999959
 40
0.437499999999959
 40
0.4999999999999584
 40
0.4999999999999584
 40
0.6249999999999569
 40
0.6249999999999569
 40
0.6562499999999595
 40
0.6562499999999595
 40
0.6874999999999619
 40
0.6874999999999619
 40
0.7499999999999669
 40
0.7499999999999669
 40
0.812499999999972
 40
0.812499999999972
 40
0.8437499999999778
 40
0.8437499999999778
 40
0.8749999999999837
 40
0.8749999999999837
 40
1.0
 40
1.0
 40
1.0
 40
1.0
 10
2363.820249793047
 20
3161.84559264901
 30
0.0
 10
2362.388474522945
 20
3158.102189111333
 30
0.0
 10
2361.105935586017
 20
3154.368719811685
 30
0.0
 10
2359.389928479101
 20
3148.791023523254
 30
0.0
 10
2358.852616376828
 20
3146.935610628877
 30
0.0
 10
2358.097071324727
 20
3144.159909419727
 30
0.0
 10
2357.853003452675
 20
3143.233433311657
 30
0.0
 10
2357.38463214904
 20
3141.396003667653
 30
0.0
 10
2357.160728663517
 20
3140.486826744997
 30
0.0
 10
2356.089763747823
 20
3135.988614187841
 30
0.0
 10
2355.387768049642
 20
3132.541246035167
 30
0.0
 10
2354.665061092215
 20
3128.434084087947
 30
0.0
 10
2354.528292285874
 20
3127.622840517654
 30
0.0
 10
2354.26944463292
 20
3126.021426920853
 30
0.0
 10
2354.147099640637
 20
3125.229321199673
 30
0.0
 10
2353.804372390235
 20
3122.910492888356
 30
0.0
 10
2353.607134493012
 20
3121.435067136169
 30
0.0
 10
2353.091962739541
 20
3117.216683890577
 30
0.0
 10
2352.849999682155
 20
3114.679610106949
 30
0.0
 10
2352.629211914909
 20
3111.870221492945
 30
0.0
 10
2352.589405230447
 20
3111.329334235981
 30
0.0
 10
2352.517635055018
 20
3110.294738434088
 30
0.0
 10
2352.485596619769
 20
3109.800074959467
 30
0.0
 10
2352.399245735626
 20
3108.383077370976
 30
0.0
 10
2352.354637757599
 20
3107.527576847634
 30
0.0
 10
2352.283498038157
 20
3105.994006071901
 30
0.0
 10
2352.256976432107
 20
3105.315927826784
 30
0.0
 10
2352.22624441986
 20
3104.43511534634
 30
0.0
 10
2352.217506131788
 20
3104.16373456136
 30
0.0
 10
2352.202553609751
 20
3103.670282317686
 30
0.0
 10
2352.19634464981
 20
3103.448535442493
 30
0.0
 10
2352.170187191814
 20
3102.462975162803
 30
0.0
 10
2352.163601380261
 20
3102.065045241909
 30
0.0
 10
2352.163601380261
 20
3102.065045241909
 30
0.0
  0
LINE
  5
55
330
1F
100
AcDbEntity
  8
0
  6
Continuous
 62
     7
370
    15
100
AcDbLine
 10
2411.5081334082
 20
3161.845592649
 30
0.0
 11
2414.6924628804
 21
3161.9087674014
 31
0.0
  0
LINE
  5
56
330
1F
100
AcDbEntity
  8
0
  6
Continuous
 62
     7
370
    15
100
AcDbLine
 10
2426.1641916006
 20
3102.1245513238
 30
0.0
 11
2423.164781821
 21
3102.0650452419
 31
0.0
  0
SPLINE
  5
57
330
1F
100
AcDbEntity
  8
0
  6
Continuous
 62
     7
370
    15
100
AcDbSpline
210
0.0
220
0.0
230
1.0
 70
     8
 71
     3
 72
    38
 73
    34
 74
     0
 42
0.00000001
 43
0.00000001
 12
1.0
 22
0.0
 32
0.0
 13
1.0
 23
0.0
 33
0.0
 40
0.0
 40
0.0
 40
0.0
 40
0.0
 40
0.1250000000000035
 40
0.1250000000000035
 40
0.1875000000000018
 40
0.1875000000000018
 40
0.2187499999999977
 40
0.2187499999999977
 40
0.2499999999999935
 40
0.2499999999999935
 40
0.3749999999999897
 40
0.3749999999999897
 40
0.4062499999999916
 40
0.4062499999999916
 40
0.4374999999999936
 40
0.4374999999999936
 40
0.4999999999999974
 40
0.4999999999999974
 40
0.6250000000000001
 40
0.6250000000000001
 40
0.6562499999999989
 40
0.6562499999999989
 40
0.6874999999999977
 40
0.6874999999999977
 40
0.7499999999999984
 40
0.7499999999999984
 40
0.8124999999999993
 40
0.8124999999999993
 40
0.8437499999999998
 40
0.8437499999999998
 40
0.8750000000000002
 40
0.8750000000000002
 40
1.0
 40
1.0
 40
1.0
 40
1.0
 10
2423.164781820974
 20
3102.065045241909
 30
0.0
 10
2423.164781820974
 20
3102.065045241909
 30
0.0
 10
2423.158156605376
 20
3102.462972618839
 30
0.0
 10
2423.127181177208
 20
3103.632282436532
 30
0.0
 10
2423.113108244422
 20
3104.118175600126
 30
0.0
 10
2423.082659872221
 20
3104.994589515038
 30
0.0
 10
2423.07090141407
 20
3105.312231362862
 30
0.0
 10
2423.043562185794
 20
3105.993700673379
 30
0.0
 10
2423.028022982327
 20
3106.356558200589
 30
0.0
 10
2422.939050145938
 20
3108.279185470913
 30
0.0
 10
2422.832875991778
 20
3110.160883458475
 30
0.0
 10
2422.615382662424
 20
3112.938277079218
 30
0.0
 10
2422.56757292412
 20
3113.515211419875
 30
0.0
 10
2422.461979823833
 20
3114.71267057834
 30
0.0
 10
2422.404008434362
 20
3115.334995400238
 30
0.0
 10
2422.214877374822
 20
3117.249050419245
 30
0.0
 10
2422.068356903269
 20
3118.590554543276
 30
0.0
 10
2421.554658763834
 20
3122.803644223367
 30
0.0
 10
2421.114210028806
 20
3125.862144709764
 30
0.0
 10
2420.38853294203
 20
3129.997950226929
 30
0.0
 10
2420.23450112108
 20
3130.840989011521
 30
0.0
 10
2419.911324354493
 20
3132.53835734924
 30
0.0
 10
2419.741761161162
 20
3133.39514220825
 30
0.0
 10
2419.208057460896
 20
3135.988875192121
 30
0.0
 10
2418.818922420659
 20
3137.749145339285
 30
0.0
 10
2417.967791661506
 20
3141.328479474453
 30
0.0
 10
2417.505806347935
 20
3143.147549670767
 30
0.0
 10
2416.752987150897
 20
3145.918990560412
 30
0.0
 10
2416.491901457747
 20
3146.850528094164
 30
0.0
 10
2415.949487817673
 20
3148.725485275761
 30
0.0
 10
2415.669855820564
 20
3149.663072474385
 30
0.0
 10
2414.229101359006
 20
3154.350974709271
 30
0.0
 10
2412.940400982906
 20
3158.1009019716
 30
0.0
 10
2411.508133408188
 20
3161.84559264901
 30
0.0
  0
SPLINE
  5
58
330
1F
100
AcDbEntity
  8
0
  6
Continuous
 62
     7
370
    15
100
AcDbSpline
210
0.0
220
0.0
230
1.0
 70
     8
 71
     3
 72
    38
 73
    34
 74
     0
 42
0.00000001
 43
0.00000001
 12
1.0
 22
0.0
 32
0.0
 13
1.0
 23
0.0
 33
0.0
 40
0.0
 40
0.0
 40
0.0
 40
0.0
 40
0.1250000000000079
 40
0.1250000000000079
 40
0.1875000000000118
 40
0.1875000000000118
 40
0.2187500000000139
 40
0.2187500000000139
 40
0.250000000000016
 40
0.250000000000016
 40
0.3750000000000194
 40
0.3750000000000194
 40
0.4062500000000211
 40
0.4062500000000211
 40
0.4375000000000229
 40
0.4375000000000229
 40
0.500000000000022
 40
0.500000000000022
 40
0.6250000000000251
 40
0.6250000000000251
 40
0.656250000000023
 40
0.656250000000023
 40
0.6875000000000208
 40
0.6875000000000208
 40
0.7500000000000167
 40
0.7500000000000167
 40
0.8125000000000124
 40
0.8125000000000124
 40
0.8437500000000104
 40
0.8437500000000104
 40
0.8750000000000084
 40
0.8750000000000084
 40
1.0
 40
1.0
 40
1.0
 40
1.0
 10
2414.692462880383
 20
3161.908767401435
 30
0.0
 10
2416.101229535358
 20
3158.158389378323
 30
0.0
 10
2417.363003607588
 20
3154.419766241525
 30
0.0
 10
2419.051096758118
 20
3148.836735260763
 30
0.0
 10
2419.579644053897
 20
3146.979945006056
 30
0.0
 10
2420.322842853978
 20
3144.202747123528
 30
0.0
 10
2420.562913275453
 20
3143.275888640656
 30
0.0
 10
2421.023652824242
 20
3141.437701027362
 30
0.0
 10
2421.243908118272
 20
3140.528227624009
 30
0.0
 10
2422.297430142282
 20
3136.028906307576
 30
0.0
 10
2422.988018444108
 20
3132.581836912844
 30
0.0
 10
2423.699086802706
 20
3128.476033839444
 30
0.0
 10
2423.833659300436
 20
3127.665111846447
 30
0.0
 10
2424.088364285714
 20
3126.064430208888
 30
0.0
 10
2424.208764298267
 20
3125.272702222793
 30
0.0
 10
2424.546097086473
 20
3122.954884206184
 30
0.0
 10
2424.740267565353
 20
3121.480237052685
 30
0.0
 10
2425.247532570159
 20
3117.26438898327
 30
0.0
 10
2425.485943564519
 20
3114.729271047111
 30
0.0
 10
2425.703655203235
 20
3111.922331320298
 30
0.0
 10
2425.742936860649
 20
3111.381682157982
 30
0.0
 10
2425.813764575861
 20
3110.347765438885
 30
0.0
 10
2425.84539241408
 20
3109.853444718641
 30
0.0
 10
2425.930663223236
 20
3108.437473470656
 30
0.0
 10
2425.97475252552
 20
3107.582654695545
 30
0.0
 10
2426.045121470392
 20
3106.050381713916
 30
0.0
 10
2426.071391121625
 20
3105.372919827753
 30
0.0
 10
2426.101864050029
 20
3104.492932729635
 30
0.0
 10
2426.110535074914
 20
3104.221840482453
 30
0.0
 10
2426.12538929289
 20
3103.728682744072
 30
0.0
 10
2426.131563013299
 20
3103.507073969953
 30
0.0
 10
2426.157589106454
 20
3102.522148171995
 30
0.0
 10
2426.164191600618
 20
3102.124551323772
 30
0.0
 10
2426.164191600618
 20
3102.124551323772
 30
0.0
  0
LINE
  5
59
330
1F
100
AcDbEntity
  8
0
  6
Continuous
 62
     7
370
    15
100
AcDbLine
 10
2371.0031936654
 20
3178.1245513238
 30
0.0
 11
2404.3251895358
 21
3178.1245513238
 31
0.0
  0
LINE
  5
5A
330
1F
100
AcDbEntity
  8
0
  6
Continuous
 62
     7
370
    15
100
AcDbLine
 10
2406.1641916006
 20
3181.1245513238
 30
0.0
 11
2369.1641916006
 21
3181.1245513238
 31
0.0
  0
ARC
  5
5B
330
1F
100
AcDbEntity
  8
0
  6
Continuous
 62
     7
370
    15
100
AcDbCircle
 10
2529.3060227755
 20
3098.5506700137
 30
0.0
 40
180.1772792742508
100
AcDbArc
 50
152.7230247496
 51
159.4121524531
  0
ARC
  5
5C
330
1F
100
AcDbEntity
  8
0
  6
Continuous
 62
     7
370
    15
100
AcDbCircle
 10
2246.0223604257
 20
3098.5506700137
 30
0.0
 40
177.1772792742512
100
AcDbArc
 50
20.9308299757
 51
26.6872459041
  0
ARC
  5
5D
330
1F
100
AcDbEntity
  8
0
  6
Continuous
 62
     7
370
    15
100
AcDbCircle
 10
2246.0223604257
 20
3098.5506700137
 30
0.0
 40
180.1772792742512
100
AcDbArc
 50
20.5878475469
 51
27.2769752504
  0
ARC
  5
5E
330
1F
100
AcDbEntity
  8
0
  6
Continuous
 62
     7
370
    15
100
AcDbCircle
 10
2529.3060227755
 20
3098.5506700137
 30
0.0
 40
177.1772792742512
100
AcDbArc
 50
153.3127540959
 51
159.0691700243
  0
LINE
  5
5F
330
1F
100
AcDbEntity
  8
0
  6
Continuous
 62
     7
370
    15
100
AcDbLine
 10
2352.5754770291
 20
3111.1245513238
 30
0.0
 11
2422.7529061721
 21
3111.1245513238
 31
0.0
  0
LINE
  5
60
330
1F
100
AcDbEntity
  8
0
  6
Continuous
 62
     7
370
    15
100
AcDbLine
 10
2061.0252324251
 20
2838.1661738347
 30
0.0
 11
527.0252324251
 21
2838.1661738347
 31
0.0
  0
LINE
  5
61
330
1F
100
AcDbEntity
  8
0
  6
Continuous
 62
     7
370
    15
100
AcDbLine
 10
527.0252324251
 20
2838.1661738347
 30
0.0
 11
527.0252324251
 21
2846.6944451144
 31
0.0
  0
SPLINE
  5
62
330
1F
100
AcDbEntity
  8
0
  6
Continuous
 62
     7
370
    15
100
AcDbSpline
210
0.0
220
0.0
230
1.0
 70
     8
 71
     3
 72
    36
 73
    32
 74
     0
 42
0.00000001
 43
0.00000001
 12
1.0
 22
0.0
 32
0.0
 13
1.0
 23
0.0
 33
0.0
 40
0.0
 40
0.0
 40
0.0
 40
0.0
 40
0.1249999999999784
 40
0.1249999999999784
 40
0.1874999999999676
 40
0.1874999999999676
 40
0.2187499999999656
 40
0.2187499999999656
 40
0.2499999999999635
 40
0.2499999999999635
 40
0.3749999999999616
 40
0.3749999999999616
 40
0.4062499999999612
 40
0.4062499999999612
 40
0.4374999999999608
 40
0.4374999999999608
 40
0.4999999999999598
 40
0.4999999999999598
 40
0.6249999999999628
 40
0.6249999999999628
 40
0.6562499999999645
 40
0.6562499999999645
 40
0.6874999999999662
 40
0.6874999999999662
 40
0.7499999999999729
 40
0.7499999999999729
 40
0.8124999999999797
 40
0.8124999999999797
 40
0.8749999999999865
 40
0.8749999999999865
 40
1.0
 40
1.0
 40
1.0
 40
1.0
 10
587.0252324251154
 20
2858.166173834673
 30
0.0
 10
583.016843589625
 20
2858.166173834673
 30
0.0
 10
579.0761042359309
 20
2858.159531992908
 30
0.0
 10
573.2623647860037
 20
2858.128718419945
 30
0.0
 10
571.3408033574889
 20
2858.114734741499
 30
0.0
 10
568.4835819870741
 20
2858.084540432611
 30
0.0
 10
567.5330627201774
 20
2858.072887668968
 30
0.0
 10
565.6519514530765
 20
2858.04581185082
 30
0.0
 10
564.7236852771525
 20
2858.030430782056
 30
0.0
 10
560.1426138089165
 20
2857.942416785822
 30
0.0
 10
556.6688406827275
 20
2857.83752795702
 30
0.0
 10
552.5646068615619
 20
2857.623047519779
 30
0.0
 10
551.7557678914766
 20
2857.575912005762
 30
0.0
 10
550.162528842598
 20
2857.471835738432
 30
0.0
 10
549.3760675114103
 20
2857.41470876117
 30
0.0
 10
547.0771608382323
 20
2857.228355437773
 30
0.0
 10
545.6205989575311
 20
2857.084033739683
 30
0.0
 10
541.4722716631056
 20
2856.578207735571
 30
0.0
 10
538.9998772710101
 20
2856.144691369517
 30
0.0
 10
536.2843833662598
 20
2855.430754122666
 30
0.0
 10
535.7602614134177
 20
2855.279199938866
 30
0.0
 10
534.7620550101885
 20
2854.961233105474
 30
0.0
 10
534.2863035746145
 20
2854.794411203159
 30
0.0
 10
532.9275462801688
 20
2854.26935816537
 30
0.0
 10
532.1128939472583
 20
2853.886558952187
 30
0.0
 10
530.6613664800061
 20
2853.049338711146
 30
0.0
 10
530.0244999323381
 20
2852.594927914067
 30
0.0
 10
528.9284885035995
 20
2851.607670743486
 30
0.0
 10
528.4687678791397
 20
2851.072523052357
 30
0.0
 10
527.3791577427586
 20
2849.371591658735
 30
0.0
 10
527.0252324251151
 20
2848.103685538641
 30
0.0
 10
527.0252324251154
 20
2846.694445114438
 30
0.0
  0
LINE
  5
63
330
1F
100
AcDbEntity
  8
0
  6
Continuous
 62
     7
370
    15
100
AcDbLine
 10
2001.0252324251
 20
2858.1661738347
 30
0.0
 11
587.0252324251
 21
2858.1661738347
 31
0.0
  0
SPLINE
  5
64
330
1F
100
AcDbEntity
  8
0
  6
Continuous
 62
     7
370
    15
100
AcDbSpline
210
0.0
220
0.0
230
1.0
 70
     8
 71
     3
 72
    38
 73
    34
 74
     0
 42
0.00000001
 43
0.00000001
 12
1.0
 22
0.0
 32
0.0
 13
1.0
 23
0.0
 33
0.0
 40
0.0
 40
0.0
 40
0.0
 40
0.0
 40
0.1250000000000001
 40
0.1250000000000001
 40
0.1875000000000002
 40
0.1875000000000002
 40
0.2187500000000001
 40
0.2187500000000001
 40
0.2499999999999999
 40
0.2499999999999999
 40
0.3749999999999991
 40
0.3749999999999991
 40
0.4062499999999991
 40
0.4062499999999991
 40
0.437499999999999
 40
0.437499999999999
 40
0.4999999999999989
 40
0.4999999999999989
 40
0.624999999999999
 40
0.624999999999999
 40
0.656249999999999
 40
0.656249999999999
 40
0.687499999999999
 40
0.687499999999999
 40
0.749999999999999
 40
0.749999999999999
 40
0.8124999999999991
 40
0.8124999999999991
 40
0.8437499999999991
 40
0.8437499999999991
 40
0.8749999999999991
 40
0.8749999999999991
 40
1.0
 40
1.0
 40
1.0
 40
1.0
 10
2061.025232425116
 20
2846.694445114438
 30
0.0
 10
2061.025232425116
 20
2848.103211769413
 30
0.0
 10
2060.671434054762
 20
2849.364985841644
 30
0.0
 10
2059.596163889199
 20
2851.053078992174
 30
0.0
 10
2059.146447175022
 20
2851.581626287953
 30
0.0
 10
2058.327883947732
 20
2852.324825088033
 30
0.0
 10
2058.030108583956
 20
2852.564895509509
 30
0.0
 10
2057.389223511736
 20
2853.025635058297
 30
0.0
 10
2057.046917396738
 20
2853.245890352327
 30
0.0
 10
2055.227243881573
 20
2854.299412376337
 30
0.0
 10
2053.428215116262
 20
2854.990000678163
 30
0.0
 10
2050.741271126721
 20
2855.701069036762
 30
0.0
 10
2050.181799080824
 20
2855.835641534491
 30
0.0
 10
2049.017724536436
 20
2856.090346519769
 30
0.0
 10
2048.411423060111
 20
2856.210746532323
 30
0.0
 10
2046.543157741898
 20
2856.548079320528
 30
0.0
 10
2045.228396290829
 20
2856.742249799408
 30
0.0
 10
2041.081524112255
 20
2857.249514804215
 30
0.0
 10
2038.048765329196
 20
2857.487925798575
 30
0.0
 10
2033.91081598839
 20
2857.705637437291
 30
0.0
 10
2033.069192645085
 20
2857.744919094705
 30
0.0
 10
2031.368398214116
 20
2857.815746809916
 30
0.0
 10
2030.507687144602
 20
2857.847374648135
 30
0.0
 10
2027.895070949123
 20
2857.932645457292
 30
0.0
 10
2026.112756135067
 20
2857.976734759575
 30
0.0
 10
2022.467604909077
 20
2858.047103704447
 30
0.0
 10
2020.604771723184
 20
2858.07337335568
 30
0.0
 10
2017.748800842175
 20
2858.103846284085
 30
0.0
 10
2016.784454381404
 20
2858.112517308969
 30
0.0
 10
2014.844678704071
 20
2858.127371526945
 30
0.0
 10
2013.871532978654
 20
2858.133545247355
 30
0.0
 10
2008.989745374739
 20
2858.15957134051
 30
0.0
 10
2005.033404330576
 20
2858.166173834673
 30
0.0
 10
2001.025232425116
 20
2858.166173834673
 30
0.0
  0
LINE
  5
65
330
1F
100
AcDbEntity
  8
0
  6
Continuous
 62
     7
370
    15
100
AcDbLine
 10
2061.0252324251
 20
2838.1661738347
 30
0.0
 11
2061.0252324251
 21
2846.6944451144
 31
0.0
  0
LINE
  5
66
330
1F
100
AcDbEntity
  8
0
  6
Continuous
 62
     7
370
    15
100
AcDbLine
 10
527.0252324251
 20
2801.1661738347
 30
0.0
 11
2061.0252324251
 21
2801.1661738347
 31
0.0
  0
LINE
  5
67
330
1F
100
AcDbEntity
  8
0
  6
Continuous
 62
     7
370
    15
100
AcDbLine
 10
2061.0252324251
 20
2801.1661738347
 30
0.0
 11
2061.0252324251
 21
2838.1661738347
 31
0.0
  0
LINE
  5
68
330
1F
100
AcDbEntity
  8
0
  6
Continuous
 62
     7
370
    15
100
AcDbLine
 10
527.0252324251
 20
2801.1661738347
 30
0.0
 11
527.0252324251
 21
2838.1661738347
 31
0.0
  0
SPLINE
  5
69
330
1F
100
AcDbEntity
  8
0
  6
Continuous
 62
     7
370
    15
100
AcDbSpline
210
0.0
220
0.0
230
1.0
 70
     8
 71
     3
 72
    38
 73
    34
 74
     0
 42
0.00000001
 43
0.00000001
 12
1.0
 22
0.0
 32
0.0
 13
1.0
 23
0.0
 33
0.0
 40
0.0
 40
0.0
 40
0.0
 40
0.0
 40
0.1250000000000079
 40
0.1250000000000079
 40
0.1875000000000118
 40
0.1875000000000118
 40
0.2187500000000139
 40
0.2187500000000139
 40
0.250000000000016
 40
0.250000000000016
 40
0.3750000000000194
 40
0.3750000000000194
 40
0.4062500000000211
 40
0.4062500000000211
 40
0.4375000000000229
 40
0.4375000000000229
 40
0.500000000000022
 40
0.500000000000022
 40
0.6250000000000251
 40
0.6250000000000251
 40
0.656250000000023
 40
0.656250000000023
 40
0.6875000000000208
 40
0.6875000000000208
 40
0.7500000000000167
 40
0.7500000000000167
 40
0.8125000000000124
 40
0.8125000000000124
 40
0.8437500000000104
 40
0.8437500000000104
 40
0.8750000000000084
 40
0.8750000000000084
 40
1.0
 40
1.0
 40
1.0
 40
1.0
 10
527.0252324251154
 20
2792.637902554908
 30
0.0
 10
527.0252324251159
 20
2791.229135899933
 30
0.0
 10
527.3790307954683
 20
2789.967361827702
 30
0.0
 10
528.4543009610315
 20
2788.279268677173
 30
0.0
 10
528.9040176752088
 20
2787.750721381394
 30
0.0
 10
529.7225809024991
 20
2787.007522581313
 30
0.0
 10
530.0203562662743
 20
2786.767452159837
 30
0.0
 10
530.6612413384951
 20
2786.306712611049
 30
0.0
 10
531.0035474534927
 20
2786.086457317019
 30
0.0
 10
532.8232209686573
 20
2785.032935293008
 30
0.0
 10
534.6222497339684
 20
2784.342346991183
 30
0.0
 10
537.30919372351
 20
2783.631278632584
 30
0.0
 10
537.868665769407
 20
2783.496706134855
 30
0.0
 10
539.032740313795
 20
2783.242001149576
 30
0.0
 10
539.6390417901204
 20
2783.121601137023
 30
0.0
 10
541.5073071083328
 20
2782.784268348817
 30
0.0
 10
542.8220685594018
 20
2782.590097869937
 30
0.0
 10
546.9689407379765
 20
2782.082832865131
 30
0.0
 10
550.0016995210345
 20
2781.844421870771
 30
0.0
 10
554.1396488618404
 20
2781.626710232056
 30
0.0
 10
554.9812722051458
 20
2781.587428574641
 30
0.0
 10
556.6820666361156
 20
2781.51660085943
 30
0.0
 10
557.542777705629
 20
2781.484973021211
 30
0.0
 10
560.1553939011078
 20
2781.399702212054
 30
0.0
 10
561.9377087151644
 20
2781.355612909771
 30
0.0
 10
565.5828599411532
 20
2781.2852439649
 30
0.0
 10
567.4456931270471
 20
2781.258974313666
 30
0.0
 10
570.3016640080571
 20
2781.228501385261
 30
0.0
 10
571.2660104688273
 20
2781.219830360376
 30
0.0
 10
573.2057861461601
 20
2781.204976142401
 30
0.0
 10
574.178931871576
 20
2781.198802421992
 30
0.0
 10
579.0607194754914
 20
2781.172776328836
 30
0.0
 10
583.0170605196548
 20
2781.166173834673
 30
0.0
 10
587.0252324251156
 20
2781.166173834673
 30
0.0
  0
SPLINE
  5
6A
330
1F
100
AcDbEntity
  8
0
  6
Continuous
 62
     7
370
    15
100
AcDbSpline
210
0.0
220
0.0
230
1.0
 70
     8
 71
     3
 72
    36
 73
    32
 74
     0
 42
0.00000001
 43
0.00000001
 12
1.0
 22
0.0
 32
0.0
 13
1.0
 23
0.0
 33
0.0
 40
0.0
 40
0.0
 40
0.0
 40
0.0
 40
0.1249999999999982
 40
0.1249999999999982
 40
0.1874999999999975
 40
0.1874999999999975
 40
0.2187499999999973
 40
0.2187499999999973
 40
0.2499999999999972
 40
0.2499999999999972
 40
0.3749999999999979
 40
0.3749999999999979
 40
0.4062499999999982
 40
0.4062499999999982
 40
0.4374999999999984
 40
0.4374999999999984
 40
0.4999999999999986
 40
0.4999999999999986
 40
0.6249999999999984
 40
0.6249999999999984
 40
0.6562499999999984
 40
0.6562499999999984
 40
0.6874999999999984
 40
0.6874999999999984
 40
0.7499999999999988
 40
0.7499999999999988
 40
0.8124999999999991
 40
0.8124999999999991
 40
0.8749999999999993
 40
0.8749999999999993
 40
1.0
 40
1.0
 40
1.0
 40
1.0
 10
2001.025232425116
 20
2781.166173834673
 30
0.0
 10
2005.033621260606
 20
2781.166173834673
 30
0.0
 10
2008.9743606143
 20
2781.172815676438
 30
0.0
 10
2014.788100064227
 20
2781.2036292494
 30
0.0
 10
2016.709661492742
 20
2781.217612927847
 30
0.0
 10
2019.566882863157
 20
2781.247807236734
 30
0.0
 10
2020.517402130053
 20
2781.259460000378
 30
0.0
 10
2022.398513397154
 20
2781.286535818526
 30
0.0
 10
2023.326779573079
 20
2781.30191688729
 30
0.0
 10
2027.907851041315
 20
2781.389930883524
 30
0.0
 10
2031.381624167504
 20
2781.494819712326
 30
0.0
 10
2035.485857988669
 20
2781.709300149567
 30
0.0
 10
2036.294696958754
 20
2781.756435663584
 30
0.0
 10
2037.887936007633
 20
2781.860511930914
 30
0.0
 10
2038.67439733882
 20
2781.917638908175
 30
0.0
 10
2040.973304011998
 20
2782.103992231574
 30
0.0
 10
2042.4298658927
 20
2782.248313929663
 30
0.0
 10
2046.578193187125
 20
2782.754139933775
 30
0.0
 10
2049.050587579221
 20
2783.187656299829
 30
0.0
 10
2051.766081483971
 20
2783.90159354668
 30
0.0
 10
2052.290203436813
 20
2784.053147730479
 30
0.0
 10
2053.288409840043
 20
2784.371114563872
 30
0.0
 10
2053.764161275617
 20
2784.537936466187
 30
0.0
 10
2055.122918570062
 20
2785.062989503976
 30
0.0
 10
2055.937570902973
 20
2785.445788717159
 30
0.0
 10
2057.389098370225
 20
2786.2830089582
 30
0.0
 10
2058.025964917892
 20
2786.737419755279
 30
0.0
 10
2059.121976346631
 20
2787.72467692586
 30
0.0
 10
2059.581696971091
 20
2788.259824616989
 30
0.0
 10
2060.671307107472
 20
2789.960756010611
 30
0.0
 10
2061.025232425116
 20
2791.228662130705
 30
0.0
 10
2061.025232425116
 20
2792.637902554908
 30
0.0
  0
LINE
  5
6B
330
1F
100
AcDbEntity
  8
0
  6
Continuous
 62
     7
370
    15
100
AcDbLine
 10
2001.0252324251
 20
2781.1661738347
 30
0.0
 11
587.0252324251
 21
2781.1661738347
 31
0.0
  0
LINE
  5
6C
330
1F
100
AcDbEntity
  8
0
  6
Continuous
 62
     7
370
    15
100
AcDbLine
 10
2061.0252324251
 20
2792.6379025549
 30
0.0
 11
2061.0252324251
 21
2801.1661738347
 31
0.0
  0
LINE
  5
6D
330
1F
100
AcDbEntity
  8
0
  6
Continuous
 62
     7
370
    15
100
AcDbLine
 10
527.0252324251
 20
2792.6379025549
 30
0.0
 11
527.0252324251
 21
2801.1661738347
 31
0.0
  0
ENDSEC
  0
SECTION
  2
OBJECTS
  0
DICTIONARY
  5
C
330
0
100
AcDbDictionary
281
     1
  3
ACAD_GROUP
350
D
  3
ACAD_LAYOUT
350
1A
  3
ACAD_MLINESTYLE
350
17
  3
ACAD_PLOTSETTINGS
350
19
  3
ACAD_PLOTSTYLENAME
350
E
  0
DICTIONARY
  5
D
102
{ACAD_REACTORS
330
C
102
}
330
C
100
AcDbDictionary
281
     1
  0
DICTIONARY
  5
1A
102
{ACAD_REACTORS
330
C
102
}
330
C
100
AcDbDictionary
281
     1
  3
Layout1
350
1E
  3
Layout2
350
26
  3
Model
350
22
  0
DICTIONARY
  5
17
102
{ACAD_REACTORS
330
C
102
}
330
C
100
AcDbDictionary
281
     1
  3
Standard
350
18
  0
DICTIONARY
  5
19
102
{ACAD_REACTORS
330
C
102
}
330
C
100
AcDbDictionary
281
     1
  0
ACDBDICTIONARYWDFLT
  5
E
102
{ACAD_REACTORS
330
C
102
}
330
C
100
AcDbDictionary
281
     1
  3
Normal
350
F
100
AcDbDictionaryWithDefault
340
F
  0
LAYOUT
  5
1E
102
{ACAD_REACTORS
330
1A
102
}
330
1A
100
AcDbPlotSettings
  1

  2
none_device
  4

  6

 40
0.0
 41
0.0
 42
0.0
 43
0.0
 44
0.0
 45
0.0
 46
0.0
 47
0.0
 48
0.0
 49
0.0
140
0.0
141
0.0
142
1.0
143
1.0
 70
   688
 72
     0
 73
     0
 74
     5
  7

 75
    16
147
1.0
148
0.0
149
0.0
100
AcDbLayout
  1
Layout1
 70
     1
 71
     1
 10
0.0
 20
0.0
 11
420.0
 21
297.0
 12
0.0
 22
0.0
 32
0.0
 14
1.0000000000E+20
 24
1.0000000000E+20
 34
1.0000000000E+20
 15
-1.0000000000E+20
 25
-1.0000000000E+20
 35
-1.0000000000E+20
146
0.0
 13
0.0
 23
0.0
 33
0.0
 16
1.0
 26
0.0
 36
0.0
 17
0.0
 27
1.0
 37
0.0
 76
     0
330
1B
  0
LAYOUT
  5
26
102
{ACAD_REACTORS
330
1A
102
}
330
1A
100
AcDbPlotSettings
  1

  2
none_device
  4

  6

 40
0.0
 41
0.0
 42
0.0
 43
0.0
 44
0.0
 45
0.0
 46
0.0
 47
0.0
 48
0.0
 49
0.0
140
0.0
141
0.0
142
1.0
143
1.0
 70
   688
 72
     0
 73
     0
 74
     5
  7

 75
    16
147
1.0
148
0.0
149
0.0
100
AcDbLayout
  1
Layout2
 70
     1
 71
     2
 10
0.0
 20
0.0
 11
0.0
 21
0.0
 12
0.0
 22
0.0
 32
0.0
 14
0.0
 24
0.0
 34
0.0
 15
0.0
 25
0.0
 35
0.0
146
0.0
 13
0.0
 23
0.0
 33
0.0
 16
1.0
 26
0.0
 36
0.0
 17
0.0
 27
1.0
 37
0.0
 76
     0
330
23
  0
LAYOUT
  5
22
102
{ACAD_REACTORS
330
1A
102
}
330
1A
100
AcDbPlotSettings
  1

  2
none_device
  4

  6

 40
0.0
 41
0.0
 42
0.0
 43
0.0
 44
0.0
 45
0.0
 46
0.0
 47
0.0
 48
0.0
 49
0.0
140
0.0
141
0.0
142
1.0
143
1.0
 70
  1712
 72
     0
 73
     0
 74
     0
  7

 75
     0
147
1.0
148
0.0
149
0.0
100
AcDbLayout
  1
Model
 70
     1
 71
     0
 10
0.0
 20
0.0
 11
5588.0
 21
4318.0
 12
0.0
 22
0.0
 32
0.0
 14
0.0
 24
0.0
 34
0.0
 15
5588.0
 25
4318.0
 35
0.0
146
0.0
 13
0.0
 23
0.0
 33
0.0
 16
1.0
 26
0.0
 36
0.0
 17
0.0
 27
1.0
 37
0.0
 76
     0
330
1F
331
29
  0
MLINESTYLE
  5
18
102
{ACAD_REACTORS
330
17
102
}
330
17
100
AcDbMlineStyle
  2
Standard
 70
     0
  3

 62
   256
 51
90.0
 52
90.0
 71
     2
 49
0.5
 62
   256
  6
BYLAYER
 49
-0.5
 62
   256
  6
BYLAYER
  0
ACDBPLACEHOLDER
  5
F
102
{ACAD_REACTORS
330
E
102
}
330
E
  0
ENDSEC
  0
EOF
