  0
SECTION
  2
HEADER
  9
$ACADVER
  1
AC1015
  9
$ACADMAINTVER
 70
     6
  9
$DWGCODEPAGE
  3
ANSI_1251
  9
$INSBASE
 10
0.0
 20
0.0
 30
0.0
  9
$EXTMIN
 10
0.0
 20
0.0
 30
0.0
  9
$EXTMAX
 10
558.8
 20
431.8
 30
0.0
  9
$LIMMIN
 10
0.0
 20
0.0
  9
$LIMMAX
 10
558.8
 20
431.8
  9
$ORTHOMODE
 70
     0
  9
$REGENMODE
 70
     1
  9
$FILLMODE
 70
     1
  9
$QTEXTMODE
 70
     0
  9
$MIRRTEXT
 70
     1
  9
$LTSCALE
 40
2.0
  9
$ATTMODE
 70
     1
  9
$TEXTSIZE
 40
7.0
  9
$TRACEWID
 40
1.0
  9
$TEXTSTYLE
  7
Standard
  9
$CLAYER
  8
0
  9
$CELTYPE
  6
ByLayer
  9
$CECOLOR
 62
   256
  9
$CELTSCALE
 40
1.0
  9
$DISPSILH
 70
     0
  9
$DIMSCALE
 40
1.0
  9
$DIMASZ
 40
7.0
  9
$DIMEXO
 40
0.02
  9
$DIMDLI
 40
3.75
  9
$DIMRND
 40
0.0
  9
$DIMDLE
 40
0.0
  9
$DIMEXE
 40
2.0
  9
$DIMTP
 40
0.0
  9
$DIMTM
 40
0.0
  9
$DIMTXT
 40
7.0
  9
$DIMCEN
 40
2.5
  9
$DIMTSZ
 40
0.0
  9
$DIMTOL
 70
     0
  9
$DIMLIM
 70
     0
  9
$DIMTIH
 70
     1
  9
$DIMTOH
 70
     1
  9
$DIMSE1
 70
     0
  9
$DIMSE2
 70
     0
  9
$DIMTAD
 70
     1
  9
$DIMZIN
 70
     0
  9
$DIMBLK
  1

  9
$DIMASO
 70
     1
  9
$DIMSHO
 70
     1
  9
$DIMPOST
  1

  9
$DIMAPOST
  1

  9
$DIMALT
 70
     0
  9
$DIMALTD
 70
     3
  9
$DIMALTF
 40
0.0393700787
  9
$DIMLFAC
 40
1.0
  9
$DIMTOFL
 70
     1
  9
$DIMTVP
 40
0.0
  9
$DIMTIX
 70
     0
  9
$DIMSOXD
 70
     0
  9
$DIMSAH
 70
     0
  9
$DIMBLK1
  1

  9
$DIMBLK2
  1

  9
$DIMSTYLE
  2
ISO-25
  9
$DIMCLRD
 70
     0
  9
$DIMCLRE
 70
     0
  9
$DIMCLRT
 70
     0
  9
$DIMTFAC
 40
1.0
  9
$DIMGAP
 40
6.0
  9
$DIMJUST
 70
     0
  9
$DIMSD1
 70
     0
  9
$DIMSD2
 70
     0
  9
$DIMTOLJ
 70
     0
  9
$DIMTZIN
 70
     0
  9
$DIMALTZ
 70
     0
  9
$DIMALTTZ
 70
     0
  9
$DIMUPT
 70
     0
  9
$DIMDEC
 70
     2
  9
$DIMTDEC
 70
     3
  9
$DIMALTU
 70
     2
  9
$DIMALTTD
 70
     3
  9
$DIMTXSTY
  7
Standard
  9
$DIMAUNIT
 70
     0
  9
$DIMADEC
 70
     2
  9
$DIMALTRND
 40
0.0
  9
$DIMAZIN
 70
     0
  9
$DIMDSEP
 70
    44
  9
$DIMATFIT
 70
     3
  9
$DIMFRAC
 70
     0
  9
$DIMLDRBLK
  1

  9
$DIMLUNIT
 70
     2
  9
$DIMLWD
 70
    -2
  9
$DIMLWE
 70
    -2
  9
$DIMTMOVE
 70
     0
  9
$LUNITS
 70
     2
  9
$LUPREC
 70
     2
  9
$SKETCHINC
 40
1.0
  9
$FILLETRAD
 40
10.0
  9
$AUNITS
 70
     0
  9
$AUPREC
 70
     2
  9
$MENU
  1
.
  9
$ELEVATION
 40
0.0
  9
$PELEVATION
 40
0.0
  9
$THICKNESS
 40
0.0
  9
$LIMCHECK
 70
     0
  9
$CHAMFERA
 40
10.0
  9
$CHAMFERB
 40
10.0
  9
$CHAMFERC
 40
20.0
  9
$CHAMFERD
 40
0.0
  9
$SKPOLY
 70
     0
  9
$TDCREATE
 40
2458267.705375903
  9
$TDUCREATE
 40
2458267.580375903
  9
$TDUPDATE
 40
2458267.705380532
  9
$TDUUPDATE
 40
2458267.580380532
  9
$TDINDWG
 40
0.0000000116
  9
$TDUSRTIMER
 40
0.0000000116
  9
$USRTIMER
 70
     1
  9
$ANGBASE
 50
0.0
  9
$ANGDIR
 70
     0
  9
$PDMODE
 70
     0
  9
$PDSIZE
 40
-1.0
  9
$PLINEWID
 40
0.0
  9
$SPLFRAME
 70
     0
  9
$SPLINETYPE
 70
     6
  9
$SPLINESEGS
 70
     8
  9
$HANDSEED
  5
1FE
  9
$SURFTAB1
 70
     6
  9
$SURFTAB2
 70
     6
  9
$SURFTYPE
 70
     6
  9
$SURFU
 70
     6
  9
$SURFV
 70
     6
  9
$UCSBASE
  2

  9
$UCSNAME
  2

  9
$UCSORG
 10
0.0
 20
0.0
 30
0.0
  9
$UCSXDIR
 10
1.0
 20
0.0
 30
0.0
  9
$UCSYDIR
 10
0.0
 20
1.0
 30
0.0
  9
$UCSORTHOREF
  2

  9
$UCSORTHOVIEW
 70
     0
  9
$UCSORGTOP
 10
0.0
 20
0.0
 30
0.0
  9
$UCSORGBOTTOM
 10
0.0
 20
0.0
 30
0.0
  9
$UCSORGLEFT
 10
0.0
 20
0.0
 30
0.0
  9
$UCSORGRIGHT
 10
0.0
 20
0.0
 30
0.0
  9
$UCSORGFRONT
 10
0.0
 20
0.0
 30
0.0
  9
$UCSORGBACK
 10
0.0
 20
0.0
 30
0.0
  9
$PUCSBASE
  2

  9
$PUCSNAME
  2

  9
$PUCSORG
 10
0.0
 20
0.0
 30
0.0
  9
$PUCSXDIR
 10
1.0
 20
0.0
 30
0.0
  9
$PUCSYDIR
 10
0.0
 20
1.0
 30
0.0
  9
$PUCSORTHOREF
  2

  9
$PUCSORTHOVIEW
 70
     0
  9
$PUCSORGTOP
 10
0.0
 20
0.0
 30
0.0
  9
$PUCSORGBOTTOM
 10
0.0
 20
0.0
 30
0.0
  9
$PUCSORGLEFT
 10
0.0
 20
0.0
 30
0.0
  9
$PUCSORGRIGHT
 10
0.0
 20
0.0
 30
0.0
  9
$PUCSORGFRONT
 10
0.0
 20
0.0
 30
0.0
  9
$PUCSORGBACK
 10
0.0
 20
0.0
 30
0.0
  9
$USERI1
 70
     0
  9
$USERI2
 70
     0
  9
$USERI3
 70
     0
  9
$USERI4
 70
     0
  9
$USERI5
 70
     0
  9
$USERR1
 40
0.0
  9
$USERR2
 40
0.0
  9
$USERR3
 40
0.0
  9
$USERR4
 40
0.0
  9
$USERR5
 40
0.0
  9
$WORLDVIEW
 70
     1
  9
$SHADEDGE
 70
     3
  9
$SHADEDIF
 70
    70
  9
$TILEMODE
 70
     1
  9
$MAXACTVP
 70
    64
  9
$PINSBASE
 10
0.0
 20
0.0
 30
0.0
  9
$PLIMCHECK
 70
     0
  9
$PEXTMIN
 10
1.0000000000E+20
 20
1.0000000000E+20
 30
1.0000000000E+20
  9
$PEXTMAX
 10
-1.0000000000E+20
 20
-1.0000000000E+20
 30
-1.0000000000E+20
  9
$PLIMMIN
 10
0.0
 20
0.0
  9
$PLIMMAX
 10
420.0
 20
297.0
  9
$UNITMODE
 70
     0
  9
$VISRETAIN
 70
     1
  9
$PLINEGEN
 70
     0
  9
$PSLTSCALE
 70
     1
  9
$TREEDEPTH
 70
  3020
  9
$CMLSTYLE
  2
Standard
  9
$CMLJUST
 70
     0
  9
$CMLSCALE
 40
20.0
  9
$PROXYGRAPHICS
 70
     1
  9
$MEASUREMENT
 70
     1
  9
$CELWEIGHT
370
    -1
  9
$ENDCAPS
280
     0
  9
$JOINSTYLE
280
     0
  9
$LWDISPLAY
290
     1
  9
$INSUNITS
 70
     4
  9
$HYPERLINKBASE
  1

  9
$STYLESHEET
  1

  9
$XEDIT
290
     1
  9
$CEPSNTYPE
380
     0
  9
$PSTYLEMODE
290
     1
  9
$FINGERPRINTGUID
  2
{C5CFE406-C4C9-4865-8A67-6198B202D42B}
  9
$VERSIONGUID
  2
{FAEB1C32-E019-11D5-929B-00C0DF256EC4}
  9
$EXTNAMES
290
     1
  9
$PSVPSCALE
 40
0.0
  9
$OLESTARTUP
290
     0
  0
ENDSEC
  0
SECTION
  2
CLASSES
  0
CLASS
  1
ACDBDICTIONARYWDFLT
  2
AcDbDictionaryWithDefault
  3
ObjectDBX Classes
 90
        0
280
     0
281
     0
  0
CLASS
  1
VISUALSTYLE
  2
AcDbVisualStyle
  3
ObjectDBX Classes
 90
     4095
280
     0
281
     0
  0
CLASS
  1
MATERIAL
  2
AcDbMaterial
  3
ObjectDBX Classes
 90
     1153
280
     0
281
     0
  0
CLASS
  1
ACDBPLACEHOLDER
  2
AcDbPlaceHolder
  3
ObjectDBX Classes
 90
        0
280
     0
281
     0
  0
CLASS
  1
LAYOUT
  2
AcDbLayout
  3
ObjectDBX Classes
 90
        0
280
     0
281
     0
  0
ENDSEC
  0
SECTION
  2
TABLES
  0
TABLE
  2
VPORT
  5
8
330
0
100
AcDbSymbolTable
 70
     1
  0
VPORT
  5
29
330
8
100
AcDbSymbolTableRecord
100
AcDbViewportTableRecord
  2
*Active
 70
     0
 10
0.0
 20
0.0
 11
1.0
 21
1.0
 12
279.4
 22
215.9
 13
0.0
 23
0.0
 14
10.0
 24
10.0
 15
10.0
 25
10.0
 16
0.0
 26
0.0
 36
1.0
 17
0.0
 27
0.0
 37
0.0
 40
431.8
 41
1.2941176471
 42
50.0
 43
0.0
 44
0.0
 50
0.0
 51
0.0
 71
     0
 72
  2000
 73
     1
 74
     3
 75
     0
 76
     0
 77
     0
 78
     0
281
     0
 65
     1
110
0.0
120
0.0
130
0.0
111
1.0
121
0.0
131
0.0
112
0.0
122
1.0
132
0.0
 79
     0
146
0.0
  0
ENDTAB
  0
TABLE
  2
LTYPE
  5
5
330
0
100
AcDbSymbolTable
 70
     6
  0
LTYPE
  5
14
330
5
100
AcDbSymbolTableRecord
100
AcDbLinetypeTableRecord
  2
ByBlock
 70
     0
  3

 72
    65
 73
     0
 40
0.0
  0
LTYPE
  5
15
330
5
100
AcDbSymbolTableRecord
100
AcDbLinetypeTableRecord
  2
ByLayer
 70
     0
  3

 72
    65
 73
     0
 40
0.0
  0
LTYPE
  5
16
330
5
100
AcDbSymbolTableRecord
100
AcDbLinetypeTableRecord
  2
Continuous
 70
     0
  3
Solid line
 72
    65
 73
     0
 40
0.0
  0
LTYPE
  5
3F
330
5
100
AcDbSymbolTableRecord
100
AcDbLinetypeTableRecord
  2
HIDDEN
 70
     0
  3
Hidden __ __ __ __ __ __ __ __ __ __ __ __ __ __
 72
    65
 73
     2
 40
1.905
 49
1.27
 74
     0
 49
-0.635
 74
     0
  0
LTYPE
  5
40
330
5
100
AcDbSymbolTableRecord
100
AcDbLinetypeTableRecord
  2
PHANTOM
 70
     0
  3
Phantom ______  __  __  ______  __  __  ______
 72
    65
 73
     6
 40
12.7
 49
6.35
 74
     0
 49
-1.27
 74
     0
 49
1.27
 74
     0
 49
-1.27
 74
     0
 49
1.27
 74
     0
 49
-1.27
 74
     0
  0
LTYPE
  5
41
330
5
100
AcDbSymbolTableRecord
100
AcDbLinetypeTableRecord
  2
CENTER
 70
     0
  3
Center ____ _ ____ _ ____ _ ____ _ ____ _ ____
 72
    65
 73
     4
 40
10.16
 49
6.35
 74
     0
 49
-1.27
 74
     0
 49
1.27
 74
     0
 49
-1.27
 74
     0
  0
LTYPE
  5
42
330
5
100
AcDbSymbolTableRecord
100
AcDbLinetypeTableRecord
  2
CENTERX2
 70
     0
  3
Center (2x) ________  __  ________  __  _____
 72
    65
 73
     4
 40
20.32
 49
12.7
 74
     0
 49
-2.54
 74
     0
 49
2.54
 74
     0
 49
-2.54
 74
     0
  0
LTYPE
  5
43
330
5
100
AcDbSymbolTableRecord
100
AcDbLinetypeTableRecord
  2
DOT2
 70
     0
  3
Dot (.5x) ........................................
 72
    65
 73
     2
 40
0.635
 49
0.0
 74
     0
 49
-0.635
 74
     0
  0
ENDTAB
  0
TABLE
  2
LAYER
  5
2
330
0
100
AcDbSymbolTable
 70
     1
  0
LAYER
  5
10
330
2
100
AcDbSymbolTableRecord
100
AcDbLayerTableRecord
  2
0
 70
     0
 62
     7
  6
Continuous
370
    -3
390
F
  0
ENDTAB
  0
TABLE
  2
STYLE
  5
3
330
0
100
AcDbSymbolTable
 70
     1
  0
STYLE
  5
11
330
3
100
AcDbSymbolTableRecord
100
AcDbTextStyleTableRecord
  2
Standard
 70
     0
 40
0.0
 41
1.0
 50
0.0
 71
     0
 42
7.0
  3
txt
  4

  0
ENDTAB
  0
TABLE
  2
VIEW
  5
6
330
0
100
AcDbSymbolTable
 70
     0
  0
ENDTAB
  0
TABLE
  2
UCS
  5
7
330
0
100
AcDbSymbolTable
 70
     0
  0
ENDTAB
  0
TABLE
  2
APPID
  5
9
330
0
100
AcDbSymbolTable
 70
     1
  0
APPID
  5
12
330
9
100
AcDbSymbolTableRecord
100
AcDbRegAppTableRecord
  2
ACAD
 70
     0
  0
ENDTAB
  0
TABLE
  2
DIMSTYLE
  5
A
330
0
100
AcDbSymbolTable
 70
     1
100
AcDbDimStyleTable
  0
DIMSTYLE
105
27
330
A
100
AcDbSymbolTableRecord
100
AcDbDimStyleTableRecord
  2
ISO-25
 70
     0
 41
2.5
 42
0.625
 43
3.75
 44
1.25
 73
     0
 74
     0
 77
     1
 78
     8
140
2.5
141
2.5
143
0.0393700787
147
0.625
171
     3
172
     1
178
     0
271
     2
272
     2
274
     3
278
    44
283
     0
284
     8
340
11
  0
ENDTAB
  0
TABLE
  2
BLOCK_RECORD
  5
1
330
0
100
AcDbSymbolTable
 70
     1
  0
BLOCK_RECORD
  5
1F
330
1
100
AcDbSymbolTableRecord
100
AcDbBlockTableRecord
  2
*Model_Space
340
22
  0
BLOCK_RECORD
  5
1B
330
1
100
AcDbSymbolTableRecord
100
AcDbBlockTableRecord
  2
*Paper_Space
340
1E
  0
BLOCK_RECORD
  5
23
330
1
100
AcDbSymbolTableRecord
100
AcDbBlockTableRecord
  2
*Paper_Space0
340
26
  0
ENDTAB
  0
ENDSEC
  0
SECTION
  2
BLOCKS
  0
BLOCK
  5
20
330
1F
100
AcDbEntity
  8
0
100
AcDbBlockBegin
  2
*Model_Space
 70
     0
 10
0.0
 20
0.0
 30
0.0
  3
*Model_Space
  1

  0
ENDBLK
  5
21
330
1F
100
AcDbEntity
  8
0
100
AcDbBlockEnd
  0
BLOCK
  5
1C
330
1B
100
AcDbEntity
 67
     1
  8
0
100
AcDbBlockBegin
  2
*Paper_Space
 70
     0
 10
0.0
 20
0.0
 30
0.0
  3
*Paper_Space
  1

  0
ENDBLK
  5
1D
330
1B
100
AcDbEntity
 67
     1
  8
0
100
AcDbBlockEnd
  0
BLOCK
  5
24
330
23
100
AcDbEntity
  8
0
100
AcDbBlockBegin
  2
*Paper_Space0
 70
     0
 10
0.0
 20
0.0
 30
0.0
  3
*Paper_Space0
  1

  0
ENDBLK
  5
25
330
23
100
AcDbEntity
  8
0
100
AcDbBlockEnd
  0
ENDSEC
  0
SECTION
  2
ENTITIES
  0
LINE
  5
44
330
1F
100
AcDbEntity
  8
0
  6
Continuous
 62
     7
370
    15
100
AcDbLine
 10
180.6286212489
 20
218.0459948871
 30
0.0
 11
180.6286212489
 21
223.0459948871
 31
0.0
  0
LINE
  5
45
330
1F
100
AcDbEntity
  8
0
  6
Continuous
 62
     7
370
    15
100
AcDbLine
 10
94.6286212489
 20
223.0459948871
 30
0.0
 11
94.6286212489
 21
218.0459948871
 31
0.0
  0
LINE
  5
46
330
1F
100
AcDbEntity
  8
0
  6
Continuous
 62
     7
370
    15
100
AcDbLine
 10
172.6286212489
 20
223.0459948871
 30
0.0
 11
172.6286212489
 21
240.0459948871
 31
0.0
  0
LINE
  5
47
330
1F
100
AcDbEntity
  8
0
  6
Continuous
 62
     7
370
    15
100
AcDbLine
 10
102.6286212489
 20
240.0459948871
 30
0.0
 11
102.6286212489
 21
223.0459948871
 31
0.0
  0
LINE
  5
48
330
1F
100
AcDbEntity
  8
0
  6
Continuous
 62
     7
370
    15
100
AcDbLine
 10
139.9034313639
 20
243.0459948871
 30
0.0
 11
139.9034313639
 21
266.0459948871
 31
0.0
  0
LINE
  5
49
330
1F
100
AcDbEntity
  8
0
  6
Continuous
 62
     7
370
    15
100
AcDbLine
 10
136.5970090133
 20
243.0459948871
 30
0.0
 11
136.5970090133
 21
266.0459948871
 31
0.0
  0
LINE
  5
4A
330
1F
100
AcDbEntity
  8
0
  6
Continuous
 62
     7
370
    15
100
AcDbLine
 10
134.0616102008
 20
266.0459948871
 30
0.0
 11
134.0616102008
 21
243.0459948871
 31
0.0
  0
LINE
  5
4B
330
1F
100
AcDbEntity
  8
0
  6
Continuous
 62
     7
370
    15
100
AcDbLine
 10
143.2956531597
 20
243.0459948871
 30
0.0
 11
143.2956531597
 21
266.0459948871
 31
0.0
  0
LINE
  5
4C
330
1F
100
AcDbEntity
  8
0
  6
Continuous
 62
     7
370
    15
100
AcDbLine
 10
133.4914229089
 20
243.0459948871
 30
0.0
 11
133.4914229089
 21
266.0459948871
 31
0.0
  0
LINE
  5
4D
330
1F
100
AcDbEntity
  8
0
  6
Continuous
 62
     7
370
    15
100
AcDbLine
 10
146.6804556799
 20
243.0459948871
 30
0.0
 11
146.6804556799
 21
266.0459948871
 31
0.0
  0
LINE
  5
4E
330
1F
100
AcDbEntity
  8
0
  6
Continuous
 62
     7
370
    15
100
AcDbLine
 10
149.9797126354
 20
243.0459948871
 30
0.0
 11
149.9797126354
 21
266.0459948871
 31
0.0
  0
LINE
  5
4F
330
1F
100
AcDbEntity
  8
0
  6
Continuous
 62
     7
370
    15
100
AcDbLine
 10
153.1332023865
 20
243.0459948871
 30
0.0
 11
153.1332023865
 21
266.0459948871
 31
0.0
  0
ARC
  5
50
330
1F
100
AcDbEntity
  8
0
  6
Continuous
 62
     7
370
    15
100
AcDbCircle
 10
172.6286212489
 20
243.0459948871
 30
0.0
 40
3.0
100
AcDbArc
 50
270.0
 51
314.5069359352
  0
ARC
  5
51
330
1F
100
AcDbEntity
  8
0
  6
Continuous
 62
     7
370
    15
100
AcDbCircle
 10
172.6286212489
 20
243.0459948871
 30
0.0
 40
3.0
100
AcDbArc
 50
0.1271163964
 51
90.0
  0
LINE
  5
52
330
1F
100
AcDbEntity
  8
0
  6
Continuous
 62
     7
370
    15
100
AcDbLine
 10
172.6286212489
 20
246.0459948871
 30
0.0
 11
169.2594456102
 21
246.0459948871
 31
0.0
  0
ARC
  5
53
330
1F
100
AcDbEntity
  8
0
  6
Continuous
 62
     7
370
    15
100
AcDbCircle
 10
102.6286212489
 20
243.0459948871
 30
0.0
 40
3.000000000000015
100
AcDbArc
 50
90.0
 51
179.8728836036
  0
ARC
  5
54
330
1F
100
AcDbEntity
  8
0
  6
Continuous
 62
     7
370
    15
100
AcDbCircle
 10
102.6286212489
 20
243.0459948871
 30
0.0
 40
3.0
100
AcDbArc
 50
225.4930640648
 51
270.0
  0
LINE
  5
55
330
1F
100
AcDbEntity
  8
0
  6
Continuous
 62
     7
370
    15
100
AcDbLine
 10
105.9977968876
 20
246.0459948871
 30
0.0
 11
102.6286212489
 21
246.0459948871
 31
0.0
  0
ARC
  5
56
330
1F
100
AcDbEntity
  8
0
  6
Continuous
 62
     7
370
    15
100
AcDbCircle
 10
172.6286212489
 20
243.0459948871
 30
0.0
 40
2.500000000000009
100
AcDbArc
 50
135.0649161611
 51
180.0
  0
ARC
  5
57
330
1F
100
AcDbEntity
  8
0
  6
Continuous
 62
     7
370
    15
100
AcDbCircle
 10
102.6286212489
 20
243.0459948871
 30
0.0
 40
2.500000000000009
100
AcDbArc
 50
0.0
 51
44.9350838389
  0
LINE
  5
58
330
1F
100
AcDbEntity
  8
0
  6
Continuous
 62
     7
370
    15
100
AcDbLine
 10
137.6286212489
 20
218.0459948871
 30
0.0
 11
180.6286212489
 21
218.0459948871
 31
0.0
  0
LINE
  5
59
330
1F
100
AcDbEntity
  8
0
  6
Continuous
 62
     7
370
    15
100
AcDbLine
 10
94.6286212489
 20
218.0459948871
 30
0.0
 11
137.6286212489
 21
218.0459948871
 31
0.0
  0
LINE
  5
5A
330
1F
100
AcDbEntity
  8
0
  6
Continuous
 62
     7
370
    15
100
AcDbLine
 10
137.6286212489
 20
223.0459948871
 30
0.0
 11
180.6286212489
 21
223.0459948871
 31
0.0
  0
LINE
  5
5B
330
1F
100
AcDbEntity
  8
0
  6
Continuous
 62
     7
370
    15
100
AcDbLine
 10
94.6286212489
 20
223.0459948871
 30
0.0
 11
137.6286212489
 21
223.0459948871
 31
0.0
  0
LINE
  5
5C
330
1F
100
AcDbEntity
  8
0
  6
Continuous
 62
     7
370
    15
100
AcDbLine
 10
169.2594456102
 20
240.0459948871
 30
0.0
 11
169.2594456102
 21
240.5459948871
 31
0.0
  0
LINE
  5
5D
330
1F
100
AcDbEntity
  8
0
  6
Continuous
 62
     7
370
    15
100
AcDbLine
 10
169.2594456102
 20
240.0459948871
 30
0.0
 11
172.6286212489
 21
240.0459948871
 31
0.0
  0
LINE
  5
5E
330
1F
100
AcDbEntity
  8
0
  6
Continuous
 62
     7
370
    15
100
AcDbLine
 10
105.9977968876
 20
240.0459948871
 30
0.0
 11
105.9977968876
 21
240.5459948871
 31
0.0
  0
LINE
  5
5F
330
1F
100
AcDbEntity
  8
0
  6
Continuous
 62
     7
370
    15
100
AcDbLine
 10
105.9977968876
 20
240.0459948871
 30
0.0
 11
102.6286212489
 21
240.0459948871
 31
0.0
  0
LINE
  5
60
330
1F
100
AcDbEntity
  8
0
  6
Continuous
 62
     7
370
    15
100
AcDbLine
 10
137.6286212489
 20
243.0459948871
 30
0.0
 11
171.5187902074
 21
243.0459948871
 31
0.0
  0
LINE
  5
61
330
1F
100
AcDbEntity
  8
0
  6
Continuous
 62
     7
370
    15
100
AcDbLine
 10
103.7384522904
 20
243.0459948871
 30
0.0
 11
137.6286212489
 21
243.0459948871
 31
0.0
  0
LINE
  5
62
330
1F
100
AcDbEntity
  8
0
  6
Continuous
 62
     7
370
    15
100
AcDbLine
 10
138.2627029924
 20
243.0459948871
 30
0.0
 11
138.2627029924
 21
266.0459948871
 31
0.0
  0
SPLINE
  5
63
330
1F
100
AcDbEntity
  8
0
  6
Continuous
 62
     7
370
    15
100
AcDbSpline
210
0.0
220
0.0
230
1.0
 70
    24
 71
     3
 72
    10
 73
     6
 74
     0
 42
0.00000001
 43
0.00000001
 12
1.0
 22
0.0
 32
0.0
 13
1.0
 23
0.0
 33
0.0
 40
0.0
 40
0.0
 40
0.0
 40
0.0
 40
0.2207863770403536
 40
0.7356136100594218
 40
1.0
 40
1.0
 40
1.0
 40
1.0
 10
138.1398495494713
 20
266.045994887119
 30
0.0
 10
138.0335953065495
 20
266.045994887119
 30
0.0
 10
137.6795785947053
 20
266.045994887119
 30
0.0
 10
137.1145449497049
 20
266.045994887119
 30
0.0
 10
136.8110282594537
 20
266.045994887119
 30
0.0
 10
136.708045355077
 20
266.045994887119
 30
0.0
  0
LINE
  5
64
330
1F
100
AcDbEntity
  8
0
  6
Continuous
 62
     7
370
    15
100
AcDbLine
 10
138.6441779069
 20
243.0459948871
 30
0.0
 11
138.6441779069
 21
266.0459948871
 31
0.0
  0
LINE
  5
65
330
1F
100
AcDbEntity
  8
0
  6
Continuous
 62
     7
370
    15
100
AcDbLine
 10
138.2627029924
 20
266.0459948871
 30
0.0
 11
138.6441779069
 21
266.0459948871
 31
0.0
  0
SPLINE
  5
66
330
1F
100
AcDbEntity
  8
0
  6
Continuous
 62
     7
370
    15
100
AcDbSpline
210
0.0
220
0.0
230
1.0
 70
    24
 71
     3
 72
    10
 73
     6
 74
     0
 42
0.00000001
 43
0.00000001
 12
1.0
 22
0.0
 32
0.0
 13
1.0
 23
0.0
 33
0.0
 40
0.0
 40
0.0
 40
0.0
 40
0.0
 40
0.2606198561920319
 40
0.60627153036224
 40
0.9999999999999999
 40
0.9999999999999999
 40
0.9999999999999999
 40
0.9999999999999999
 10
139.8817526994661
 20
266.045994887119
 30
0.0
 10
139.8727819497851
 20
266.045994887119
 30
0.0
 10
139.8519135853517
 20
266.045994887119
 30
0.0
 10
139.442646872342
 20
266.045994887119
 30
0.0
 10
138.9216270058458
 20
266.045994887119
 30
0.0
 10
138.6441779068885
 20
266.045994887119
 30
0.0
  0
LINE
  5
67
330
1F
100
AcDbEntity
  8
0
  6
Continuous
 62
     7
370
    15
100
AcDbLine
 10
134.7240412159
 20
243.0459948871
 30
0.0
 11
134.7240412159
 21
266.0459948871
 31
0.0
  0
LINE
  5
68
330
1F
100
AcDbEntity
  8
0
  6
Continuous
 62
     7
370
    15
100
AcDbLine
 10
134.3452928901
 20
243.0459948871
 30
0.0
 11
134.3452928901
 21
266.0459948871
 31
0.0
  0
LINE
  5
69
330
1F
100
AcDbEntity
  8
0
  6
Continuous
 62
     7
370
    15
100
AcDbLine
 10
134.3452928901
 20
266.0459948871
 30
0.0
 11
134.7240412159
 21
266.0459948871
 31
0.0
  0
SPLINE
  5
6A
330
1F
100
AcDbEntity
  8
0
  6
Continuous
 62
     7
370
    15
100
AcDbSpline
210
0.0
220
0.0
230
1.0
 70
    24
 71
     3
 72
    11
 73
     7
 74
     0
 42
0.00000001
 43
0.00000001
 12
1.0
 22
0.0
 32
0.0
 13
1.0
 23
0.0
 33
0.0
 40
0.0
 40
0.0
 40
0.0
 40
0.0
 40
0.1528139156818654
 40
0.4106446244627337
 40
0.6861614529056891
 40
1.0
 40
1.0
 40
1.0
 40
1.0
 10
136.5703969309437
 20
266.045994887119
 30
0.0
 10
136.5733964576901
 20
266.045994887119
 30
0.0
 10
136.5814568462277
 20
266.045994887119
 30
0.0
 10
136.3103234483575
 20
266.045994887119
 30
0.0
 10
135.7095331959804
 20
266.045994887119
 30
0.0
 10
135.0664763933624
 20
266.045994887119
 30
0.0
 10
134.7240412158622
 20
266.045994887119
 30
0.0
  0
SPLINE
  5
6B
330
1F
100
AcDbEntity
  8
0
  6
Continuous
 62
     7
370
    15
100
AcDbSpline
210
0.0
220
0.0
230
1.0
 70
    24
 71
     3
 72
     9
 73
     5
 74
     0
 42
0.00000001
 43
0.00000001
 12
1.0
 22
0.0
 32
0.0
 13
1.0
 23
0.0
 33
0.0
 40
0.0
 40
0.0
 40
0.0
 40
0.0
 40
0.201629400188563
 40
1.0
 40
1.0
 40
1.0
 40
1.0
 10
134.2076344659415
 20
266.045994887119
 30
0.0
 10
134.1812614947295
 20
266.045994887119
 30
0.0
 10
134.050462260157
 20
266.045994887119
 30
0.0
 10
134.0903044339622
 20
266.045994887119
 30
0.0
 10
134.1221132541609
 20
266.045994887119
 30
0.0
  0
LINE
  5
6C
330
1F
100
AcDbEntity
  8
0
  6
Continuous
 62
     7
370
    15
100
AcDbLine
 10
142.5393082226
 20
243.0459948871
 30
0.0
 11
142.5393082226
 21
266.0459948871
 31
0.0
  0
LINE
  5
6D
330
1F
100
AcDbEntity
  8
0
  6
Continuous
 62
     7
370
    15
100
AcDbLine
 10
142.1644998979
 20
243.0459948871
 30
0.0
 11
142.1644998979
 21
266.0459948871
 31
0.0
  0
LINE
  5
6E
330
1F
100
AcDbEntity
  8
0
  6
Continuous
 62
     7
370
    15
100
AcDbLine
 10
142.1644998979
 20
266.0459948871
 30
0.0
 11
142.5393082226
 21
266.0459948871
 31
0.0
  0
SPLINE
  5
6F
330
1F
100
AcDbEntity
  8
0
  6
Continuous
 62
     7
370
    15
100
AcDbSpline
210
0.0
220
0.0
230
1.0
 70
    24
 71
     3
 72
    10
 73
     6
 74
     0
 42
0.00000001
 43
0.00000001
 12
1.0
 22
0.0
 32
0.0
 13
1.0
 23
0.0
 33
0.0
 40
0.0
 40
0.0
 40
0.0
 40
0.0
 40
0.3361094643496524
 40
0.8059122700117068
 40
1.0
 40
1.0
 40
1.0
 40
1.0
 10
142.0191404267433
 20
266.045994887119
 30
0.0
 10
141.8276014911197
 20
266.045994887119
 30
0.0
 10
141.368335701914
 20
266.045994887119
 30
0.0
 10
140.6315754923358
 20
266.045994887119
 30
0.0
 10
140.1578920122957
 20
266.045994887119
 30
0.0
 10
140.0194111235994
 20
266.045994887119
 30
0.0
  0
SPLINE
  5
70
330
1F
100
AcDbEntity
  8
0
  6
Continuous
 62
     7
370
    15
100
AcDbSpline
210
0.0
220
0.0
230
1.0
 70
    24
 71
     3
 72
    10
 73
     6
 74
     0
 42
0.00000001
 43
0.00000001
 12
1.0
 22
0.0
 32
0.0
 13
1.0
 23
0.0
 33
0.0
 40
0.0
 40
0.0
 40
0.0
 40
0.0
 40
0.0478228217062071
 40
0.4929546507662458
 40
1.0
 40
1.0
 40
1.0
 40
1.0
 10
143.281255677566
 20
266.045994887119
 30
0.0
 10
143.285888007635
 20
266.045994887119
 30
0.0
 10
143.3336377758414
 20
266.045994887119
 30
0.0
 10
143.1247935688583
 20
266.045994887119
 30
0.0
 10
142.7427505463187
 20
266.045994887119
 30
0.0
 10
142.5393082225561
 20
266.045994887119
 30
0.0
  0
LINE
  5
71
330
1F
100
AcDbEntity
  8
0
  6
Continuous
 62
     7
370
    15
100
AcDbLine
 10
130.875424925
 20
243.0459948871
 30
0.0
 11
130.875424925
 21
266.0459948871
 31
0.0
  0
LINE
  5
72
330
1F
100
AcDbEntity
  8
0
  6
Continuous
 62
     7
370
    15
100
AcDbLine
 10
130.5087292287
 20
243.0459948871
 30
0.0
 11
130.5087292287
 21
266.0459948871
 31
0.0
  0
LINE
  5
73
330
1F
100
AcDbEntity
  8
0
  6
Continuous
 62
     7
370
    15
100
AcDbLine
 10
130.5087292287
 20
266.0459948871
 30
0.0
 11
130.875424925
 21
266.0459948871
 31
0.0
  0
LINE
  5
74
330
1F
100
AcDbEntity
  8
0
  6
Continuous
 62
     7
370
    15
100
AcDbLine
 10
133.98446483
 20
266.0459948871
 30
0.0
 11
133.5958913185
 21
266.0459948871
 31
0.0
  0
SPLINE
  5
75
330
1F
100
AcDbEntity
  8
0
  6
Continuous
 62
     7
370
    15
100
AcDbSpline
210
0.0
220
0.0
230
1.0
 70
    24
 71
     3
 72
    12
 73
     8
 74
     0
 42
0.00000001
 43
0.00000001
 12
1.0
 22
0.0
 32
0.0
 13
1.0
 23
0.0
 33
0.0
 40
0.0
 40
0.0
 40
0.0
 40
0.0
 40
0.1354402707244312
 40
0.3357994808454685
 40
0.5379407739995764
 40
0.7539481233588494
 40
1.0
 40
1.0
 40
1.0
 40
1.0
 10
133.4582428943559
 20
266.045994887119
 30
0.0
 10
133.4653507898647
 20
266.045994887119
 30
0.0
 10
133.4829735220773
 20
266.045994887119
 30
0.0
 10
133.2756330776825
 20
266.045994887119
 30
0.0
 10
132.8099254044114
 20
266.045994887119
 30
0.0
 10
132.0133787127105
 20
266.045994887119
 30
0.0
 10
131.2708369782099
 20
266.045994887119
 30
0.0
 10
130.8754249249982
 20
266.045994887119
 30
0.0
  0
LINE
  5
76
330
1F
100
AcDbEntity
  8
0
  6
Continuous
 62
     7
370
    15
100
AcDbLine
 10
145.9546084172
 20
243.0459948871
 30
0.0
 11
145.9546084172
 21
266.0459948871
 31
0.0
  0
SPLINE
  5
77
330
1F
100
AcDbEntity
  8
0
  6
Continuous
 62
     7
370
    15
100
AcDbSpline
210
0.0
220
0.0
230
1.0
 70
    24
 71
     3
 72
    11
 73
     7
 74
     0
 42
0.00000001
 43
0.00000001
 12
1.0
 22
0.0
 32
0.0
 13
1.0
 23
0.0
 33
0.0
 40
0.0
 40
0.0
 40
0.0
 40
0.0
 40
0.0159631018824831
 40
0.31598322318585
 40
0.7290695080950308
 40
1.0
 40
1.0
 40
1.0
 40
1.0
 10
145.8169499930914
 20
266.045994887119
 30
0.0
 10
145.8108018599141
 20
266.045994887119
 30
0.0
 10
145.6891020203565
 20
266.045994887119
 30
0.0
 10
145.1429922322549
 20
266.045994887119
 30
0.0
 10
144.3401640797957
 20
266.045994887119
 30
0.0
 10
143.6892225730559
 20
266.045994887119
 30
0.0
 10
143.4313927820327
 20
266.045994887119
 30
0.0
  0
LINE
  5
78
330
1F
100
AcDbEntity
  8
0
  6
Continuous
 62
     7
370
    15
100
AcDbLine
 10
146.3135211273
 20
243.0459948871
 30
0.0
 11
146.3135211273
 21
266.0459948871
 31
0.0
  0
LINE
  5
79
330
1F
100
AcDbEntity
  8
0
  6
Continuous
 62
     7
370
    15
100
AcDbLine
 10
145.9546084172
 20
266.0459948871
 30
0.0
 11
146.3135211273
 21
266.0459948871
 31
0.0
  0
SPLINE
  5
7A
330
1F
100
AcDbEntity
  8
0
  6
Continuous
 62
     7
370
    15
100
AcDbSpline
210
0.0
220
0.0
230
1.0
 70
    24
 71
     3
 72
     9
 73
     5
 74
     0
 42
0.00000001
 43
0.00000001
 12
1.0
 22
0.0
 32
0.0
 13
1.0
 23
0.0
 33
0.0
 40
0.0
 40
0.0
 40
0.0
 40
0.0
 40
0.2923729094348431
 40
1.0
 40
1.0
 40
1.0
 40
1.0
 10
146.6409489535974
 20
266.045994887119
 30
0.0
 10
146.6496220974563
 20
266.045994887119
 30
0.0
 10
146.6792867605594
 20
266.045994887119
 30
0.0
 10
146.4650914978563
 20
266.045994887119
 30
0.0
 10
146.3135211272969
 20
266.045994887119
 30
0.0
  0
LINE
  5
7B
330
1F
100
AcDbEntity
  8
0
  6
Continuous
 62
     7
370
    15
100
AcDbLine
 10
127.1930947402
 20
243.0459948871
 30
0.0
 11
127.1930947402
 21
266.0459948871
 31
0.0
  0
SPLINE
  5
7C
330
1F
100
AcDbEntity
  8
0
  6
Continuous
 62
     7
370
    15
100
AcDbSpline
210
0.0
220
0.0
230
1.0
 70
    24
 71
     3
 72
    11
 73
     7
 74
     0
 42
0.00000001
 43
0.00000001
 12
1.0
 22
0.0
 32
0.0
 13
1.0
 23
0.0
 33
0.0
 40
0.0
 40
0.0
 40
0.0
 40
0.0
 40
0.2029287164286869
 40
0.44550759938741
 40
0.7047263898722376
 40
1.0
 40
1.0
 40
1.0
 40
1.0
 10
130.3710808045286
 20
266.045994887119
 30
0.0
 10
130.2703651209455
 20
266.045994887119
 30
0.0
 10
130.0492549537724
 20
266.045994887119
 30
0.0
 10
129.4147943704823
 20
266.045994887119
 30
0.0
 10
128.4594901084859
 20
266.045994887119
 30
0.0
 10
127.6331372077946
 20
266.045994887119
 30
0.0
 10
127.1930947402025
 20
266.045994887119
 30
0.0
  0
LINE
  5
7D
330
1F
100
AcDbEntity
  8
0
  6
Continuous
 62
     7
370
    15
100
AcDbLine
 10
126.8474809384
 20
243.0459948871
 30
0.0
 11
126.8474809384
 21
266.0459948871
 31
0.0
  0
LINE
  5
7E
330
1F
100
AcDbEntity
  8
0
  6
Continuous
 62
     7
370
    15
100
AcDbLine
 10
126.8474809384
 20
266.0459948871
 30
0.0
 11
127.1930947402
 21
266.0459948871
 31
0.0
  0
LINE
  5
7F
330
1F
100
AcDbEntity
  8
0
  6
Continuous
 62
     7
370
    15
100
AcDbLine
 10
149.5397035001
 20
243.0459948871
 30
0.0
 11
149.5397035001
 21
266.0459948871
 31
0.0
  0
SPLINE
  5
80
330
1F
100
AcDbEntity
  8
0
  6
Continuous
 62
     7
370
    15
100
AcDbSpline
210
0.0
220
0.0
230
1.0
 70
    24
 71
     3
 72
    13
 73
     9
 74
     0
 42
0.00000001
 43
0.00000001
 12
1.0
 22
0.0
 32
0.0
 13
1.0
 23
0.0
 33
0.0
 40
0.0
 40
0.0
 40
0.0
 40
0.0
 40
0.0922499854372519
 40
0.3079473924141995
 40
0.5120898765860171
 40
0.7161159954954048
 40
0.9970317924712265
 40
1.0
 40
1.0
 40
1.0
 40
1.0
 10
149.562311997652
 20
266.045994887119
 30
0.0
 10
149.5725952120126
 20
266.045994887119
 30
0.0
 10
149.6069224699844
 20
266.045994887119
 30
0.0
 10
149.3480774096694
 20
266.045994887119
 30
0.0
 10
148.8080891675859
 20
266.045994887119
 30
0.0
 10
147.94762834512
 20
266.0459948871191
 30
0.0
 10
147.2393631299309
 20
266.0459948871186
 30
0.0
 10
146.7884953359285
 20
266.045994887119
 30
0.0
 10
146.7837811950843
 20
266.045994887119
 30
0.0
  0
LINE
  5
81
330
1F
100
AcDbEntity
  8
0
  6
Continuous
 62
     7
370
    15
100
AcDbLine
 10
149.8738829735
 20
243.0459948871
 30
0.0
 11
149.8738829735
 21
266.0459948871
 31
0.0
  0
LINE
  5
82
330
1F
100
AcDbEntity
  8
0
  6
Continuous
 62
     7
370
    15
100
AcDbLine
 10
149.5397035001
 20
266.0459948871
 30
0.0
 11
149.8738829735
 21
266.0459948871
 31
0.0
  0
LINE
  5
83
330
1F
100
AcDbEntity
  8
0
  6
Continuous
 62
     7
370
    15
100
AcDbLine
 10
123.7677218516
 20
243.0459948871
 30
0.0
 11
123.7677218516
 21
266.0459948871
 31
0.0
  0
SPLINE
  5
84
330
1F
100
AcDbEntity
  8
0
  6
Continuous
 62
     7
370
    15
100
AcDbSpline
210
0.0
220
0.0
230
1.0
 70
    24
 71
     3
 72
    10
 73
     6
 74
     0
 42
0.00000001
 43
0.00000001
 12
1.0
 22
0.0
 32
0.0
 13
1.0
 23
0.0
 33
0.0
 40
0.0
 40
0.0
 40
0.0
 40
0.0
 40
0.2138187646165532
 40
0.581349408341912
 40
1.0
 40
1.0
 40
1.0
 40
1.0
 10
126.7098225142212
 20
266.045994887119
 30
0.0
 10
126.5519569802245
 20
266.045994887119
 30
0.0
 10
126.1227381745171
 20
266.045994887119
 30
0.0
 10
125.1221047012129
 20
266.045994887119
 30
0.0
 10
124.2383378899371
 20
266.045994887119
 30
0.0
 10
123.7677218515781
 20
266.045994887119
 30
0.0
  0
LINE
  5
85
330
1F
100
AcDbEntity
  8
0
  6
Continuous
 62
     7
370
    15
100
AcDbLine
 10
123.451700103
 20
243.0459948871
 30
0.0
 11
123.451700103
 21
266.0459948871
 31
0.0
  0
LINE
  5
86
330
1F
100
AcDbEntity
  8
0
  6
Continuous
 62
     7
370
    15
100
AcDbLine
 10
123.451700103
 20
266.0459948871
 30
0.0
 11
123.7677218516
 21
266.0459948871
 31
0.0
  0
LINE
  5
87
330
1F
100
AcDbEntity
  8
0
  6
Continuous
 62
     7
370
    15
100
AcDbLine
 10
153.1327258364
 20
243.0459948871
 30
0.0
 11
153.1327258364
 21
266.0459948871
 31
0.0
  0
LINE
  5
88
330
1F
100
AcDbEntity
  8
0
  6
Continuous
 62
     7
370
    15
100
AcDbLine
 10
152.8315082074
 20
243.0459948871
 30
0.0
 11
152.8315082074
 21
266.0459948871
 31
0.0
  0
LINE
  5
89
330
1F
100
AcDbEntity
  8
0
  6
Continuous
 62
     7
370
    15
100
AcDbLine
 10
152.8315082074
 20
266.0459948871
 30
0.0
 11
153.1327258364
 21
266.0459948871
 31
0.0
  0
SPLINE
  5
8A
330
1F
100
AcDbEntity
  8
0
  6
Continuous
 62
     7
370
    15
100
AcDbSpline
210
0.0
220
0.0
230
1.0
 70
    24
 71
     3
 72
    12
 73
     8
 74
     0
 42
0.00000001
 43
0.00000001
 12
1.0
 22
0.0
 32
0.0
 13
1.0
 23
0.0
 33
0.0
 40
0.0
 40
0.0
 40
0.0
 40
0.0
 40
0.2521901443938569
 40
0.4756996394991408
 40
0.6872357177778089
 40
0.8986512162988528
 40
1.0
 40
1.0
 40
1.0
 40
1.0
 10
152.8315082074269
 20
266.045994887119
 30
0.0
 10
152.7916610989809
 20
266.045994887119
 30
0.0
 10
152.716498545867
 20
266.045994887119
 30
0.0
 10
152.2221020485413
 20
266.0459948871189
 30
0.0
 10
151.4932829224647
 20
266.045994887119
 30
0.0
 10
150.7637680681933
 20
266.045994887119
 30
0.0
 10
150.2553707025941
 20
266.045994887119
 30
0.0
 10
150.0906285706785
 20
266.045994887119
 30
0.0
  0
LINE
  5
8B
330
1F
100
AcDbEntity
  8
0
  6
Continuous
 62
     7
370
    15
100
AcDbLine
 10
153.1246818546
 20
266.0459948871
 30
0.0
 11
153.1327258364
 21
266.0459948871
 31
0.0
  0
LINE
  5
8C
330
1F
100
AcDbEntity
  8
0
  6
Continuous
 62
     7
370
    15
100
AcDbLine
 10
120.6836503078
 20
243.0459948871
 30
0.0
 11
120.6836503078
 21
266.0459948871
 31
0.0
  0
SPLINE
  5
8D
330
1F
100
AcDbEntity
  8
0
  6
Continuous
 62
     7
370
    15
100
AcDbSpline
210
0.0
220
0.0
230
1.0
 70
    24
 71
     3
 72
     9
 73
     5
 74
     0
 42
0.00000001
 43
0.00000001
 12
1.0
 22
0.0
 32
0.0
 13
1.0
 23
0.0
 33
0.0
 40
0.0
 40
0.0
 40
0.0
 40
0.0
 40
0.4667736274858869
 40
1.0
 40
1.0
 40
1.0
 40
1.0
 10
123.314051678913
 20
266.045994887119
 30
0.0
 10
122.9324348313342
 20
266.045994887119
 30
0.0
 10
122.1148718305404
 20
266.045994887119
 30
0.0
 10
121.1814013734744
 20
266.045994887119
 30
0.0
 10
120.683650307804
 20
266.045994887119
 30
0.0
  0
LINE
  5
8E
330
1F
100
AcDbEntity
  8
0
  6
Continuous
 62
     7
370
    15
100
AcDbLine
 10
120.4050021169
 20
243.0459948871
 30
0.0
 11
120.4050021169
 21
266.0459948871
 31
0.0
  0
LINE
  5
8F
330
1F
100
AcDbEntity
  8
0
  6
Continuous
 62
     7
370
    15
100
AcDbLine
 10
120.4050021169
 20
266.0459948871
 30
0.0
 11
120.6836503078
 21
266.0459948871
 31
0.0
  0
LINE
  5
90
330
1F
100
AcDbEntity
  8
0
  6
Continuous
 62
     7
370
    15
100
AcDbLine
 10
156.0098061891
 20
243.0459948871
 30
0.0
 11
156.0098061891
 21
266.0459948871
 31
0.0
  0
LINE
  5
91
330
1F
100
AcDbEntity
  8
0
  6
Continuous
 62
     7
370
    15
100
AcDbLine
 10
155.7489673823
 20
243.0459948871
 30
0.0
 11
155.7489673823
 21
266.0459948871
 31
0.0
  0
LINE
  5
92
330
1F
100
AcDbEntity
  8
0
  6
Continuous
 62
     7
370
    15
100
AcDbLine
 10
155.7489673823
 20
266.0459948871
 30
0.0
 11
156.0098061891
 21
266.0459948871
 31
0.0
  0
SPLINE
  5
93
330
1F
100
AcDbEntity
  8
0
  6
Continuous
 62
     7
370
    15
100
AcDbSpline
210
0.0
220
0.0
230
1.0
 70
    24
 71
     3
 72
    11
 73
     7
 74
     0
 42
0.00000001
 43
0.00000001
 12
1.0
 22
0.0
 32
0.0
 13
1.0
 23
0.0
 33
0.0
 40
0.0
 40
0.0
 40
0.0
 40
0.0
 40
0.3143401577776502
 40
0.5929315758723744
 40
0.856598835279367
 40
1.0
 40
1.0
 40
1.0
 40
1.0
 10
155.7489673822998
 20
266.045994887119
 30
0.0
 10
155.63314183445
 20
266.045994887119
 30
0.0
 10
155.414663148499
 20
266.045994887119
 30
0.0
 10
154.7220583816547
 20
266.0459948871189
 30
0.0
 10
153.9903044077165
 20
266.045994887119
 30
0.0
 10
153.4579210818221
 20
266.045994887119
 30
0.0
 10
153.2703742604868
 20
266.045994887119
 30
0.0
  0
LWPOLYLINE
  5
94
330
1F
100
AcDbEntity
  8
0
  6
Continuous
 62
     7
370
    15
100
AcDbPolyline
 90
       21
 70
   128
 43
0.0
 10
105.9977968876
 20
240.5459948871
 10
105.4703633661
 20
240.6150700861
 10
104.9720759049
 20
240.8184785766
 10
104.5304699485
 20
241.1449799731
 10
104.1699487123
 20
241.5765317564
 10
103.9104346574
 20
242.0892863062
 10
103.7662685716
 20
242.6549087245
 10
103.7454170958
 20
243.2421426264
 10
103.8490324859
 20
243.8185373731
 10
104.0713889389
 20
244.3522412989
 10
104.4001990019
 20
244.8137618401
 10
104.8172925784
 20
245.177595298
 10
105.2996210109
 20
245.4236361779
 10
105.8205307536
 20
245.5382882215
 10
106.351236251
 20
245.5152157386
 10
106.862410633
 20
245.3556937184
 10
107.3258063217
 20
245.0685373731
 10
107.7158159977
 20
244.6696150079
 10
108.0108876642
 20
244.1809711365
 10
108.1947156138
 20
243.6296082968
 10
108.2571414849
 20
243.0459948871
  0
LWPOLYLINE
  5
95
330
1F
100
AcDbEntity
  8
0
  6
Continuous
 62
     7
370
    15
100
AcDbPolyline
 90
       22
 70
   128
 43
0.0
 10
108.7090104043
 20
243.0459948871
 10
108.6410346209
 20
243.713557689
 10
108.4405158604
 20
244.3476461045
 10
108.1175089707
 20
244.9164642927
 10
107.688210866
 20
245.3914893345
 10
107.1741483458
 20
245.7489014908
 10
106.6010986515
 20
245.9707786237
 10
105.9977968876
 20
246.0459948871
 10
105.3944951238
 20
245.9707786237
 10
104.8214454295
 20
245.7489014908
 10
104.3073829093
 20
245.3914893345
 10
103.8780848046
 20
244.9164642927
 10
103.5550779149
 20
244.3476461045
 10
103.3545591543
 20
243.713557689
 10
103.286583371
 20
243.0459948871
 10
103.3545591543
 20
242.3784320853
 10
103.5550779149
 20
241.7443436698
 10
103.8780848046
 20
241.1755254815
 10
104.3073829093
 20
240.7005004397
 10
104.8214454295
 20
240.3430882834
 10
105.3944951238
 20
240.1212111506
 10
105.9977968876
 20
240.0459948871
  0
LWPOLYLINE
  5
96
330
1F
100
AcDbEntity
  8
0
  6
Continuous
 62
     7
370
    15
100
AcDbPolyline
 90
       22
 70
   128
 43
0.0
 10
166.5482320935
 20
243.0459948871
 10
166.6162078769
 20
243.713557689
 10
166.8167266374
 20
244.3476461045
 10
167.1397335272
 20
244.9164642927
 10
167.5690316319
 20
245.3914893345
 10
168.083094152
 20
245.7489014908
 10
168.6561438463
 20
245.9707786237
 10
169.2594456102
 20
246.0459948871
 10
169.8627473741
 20
245.9707786237
 10
170.4357970684
 20
245.7489014908
 10
170.9498595885
 20
245.3914893345
 10
171.3791576932
 20
244.9164642927
 10
171.702164583
 20
244.3476461045
 10
171.9026833435
 20
243.713557689
 10
171.9706591269
 20
243.0459948871
 10
171.9026833435
 20
242.3784320853
 10
171.702164583
 20
241.7443436698
 10
171.3791576932
 20
241.1755254815
 10
170.9498595885
 20
240.7005004397
 10
170.4357970684
 20
240.3430882834
 10
169.8627473741
 20
240.1212111506
 10
169.2594456102
 20
240.0459948871
  0
LWPOLYLINE
  5
97
330
1F
100
AcDbEntity
  8
0
  6
Continuous
 62
     7
370
    15
100
AcDbPolyline
 90
       21
 70
   128
 43
0.0
 10
169.2594456102
 20
240.5459948871
 10
169.7868791318
 20
240.6150700861
 10
170.285166593
 20
240.8184785766
 10
170.7267725494
 20
241.1449799731
 10
171.0872937855
 20
241.5765317564
 10
171.3468078405
 20
242.0892863062
 10
171.4909739263
 20
242.6549087245
 10
171.511825402
 20
243.2421426264
 10
171.4082100119
 20
243.8185373731
 10
171.1858535589
 20
244.3522412989
 10
170.8570434959
 20
244.8137618401
 10
170.4399499194
 20
245.177595298
 10
169.9576214869
 20
245.4236361779
 10
169.4367117442
 20
245.5382882215
 10
168.9060062468
 20
245.5152157386
 10
168.3948318648
 20
245.3556937184
 10
167.9314361761
 20
245.0685373731
 10
167.5414265001
 20
244.6696150079
 10
167.2463548337
 20
244.1809711365
 10
167.062526884
 20
243.6296082968
 10
167.000101013
 20
243.0459948871
  0
LINE
  5
98
330
1F
100
AcDbEntity
  8
0
  6
Continuous
 62
     7
370
    15
100
AcDbLine
 10
118.0168201857
 20
243.0459948871
 30
0.0
 11
118.0168201857
 21
266.0459948871
 31
0.0
  0
SPLINE
  5
99
330
1F
100
AcDbEntity
  8
0
  6
Continuous
 62
     7
370
    15
100
AcDbSpline
210
0.0
220
0.0
230
1.0
 70
    24
 71
     3
 72
     9
 73
     5
 74
     0
 42
0.00000001
 43
0.00000001
 12
1.0
 22
0.0
 32
0.0
 13
1.0
 23
0.0
 33
0.0
 40
0.0
 40
0.0
 40
0.0
 40
0.0
 40
0.344263165902004
 40
1.0
 40
1.0
 40
1.0
 40
1.0
 10
120.2673536927201
 20
266.045994887119
 30
0.0
 10
120.0194316786795
 20
266.045994887119
 30
0.0
 10
119.2992790785866
 20
266.045994887119
 30
0.0
 10
118.524724290385
 20
266.045994887119
 30
0.0
 10
118.0168201857342
 20
266.045994887119
 30
0.0
  0
LINE
  5
9A
330
1F
100
AcDbEntity
  8
0
  6
Continuous
 62
     7
370
    15
100
AcDbLine
 10
117.7824067956
 20
243.0459948871
 30
0.0
 11
117.7824067956
 21
266.0459948871
 31
0.0
  0
LINE
  5
9B
330
1F
100
AcDbEntity
  8
0
  6
Continuous
 62
     7
370
    15
100
AcDbLine
 10
117.7824067956
 20
266.0459948871
 30
0.0
 11
118.0168201857
 21
266.0459948871
 31
0.0
  0
LINE
  5
9C
330
1F
100
AcDbEntity
  8
0
  6
Continuous
 62
     7
370
    15
100
AcDbLine
 10
158.4342807649
 20
243.0459948871
 30
0.0
 11
158.4342807649
 21
266.0459948871
 31
0.0
  0
LINE
  5
9D
330
1F
100
AcDbEntity
  8
0
  6
Continuous
 62
     7
370
    15
100
AcDbLine
 10
158.2202434974
 20
243.0459948871
 30
0.0
 11
158.2202434974
 21
266.0459948871
 31
0.0
  0
LINE
  5
9E
330
1F
100
AcDbEntity
  8
0
  6
Continuous
 62
     7
370
    15
100
AcDbLine
 10
158.2202434974
 20
266.0459948871
 30
0.0
 11
158.4342807649
 21
266.0459948871
 31
0.0
  0
SPLINE
  5
9F
330
1F
100
AcDbEntity
  8
0
  6
Continuous
 62
     7
370
    15
100
AcDbSpline
210
0.0
220
0.0
230
1.0
 70
    24
 71
     3
 72
    10
 73
     6
 74
     0
 42
0.00000001
 43
0.00000001
 12
1.0
 22
0.0
 32
0.0
 13
1.0
 23
0.0
 33
0.0
 40
0.0
 40
0.0
 40
0.0
 40
0.0
 40
0.4150655242457543
 40
0.7829271866543117
 40
1.0
 40
1.0
 40
1.0
 40
1.0
 10
158.2202434973877
 20
266.045994887119
 30
0.0
 10
158.0287531023344
 20
266.045994887119
 30
0.0
 10
157.6675498042698
 20
266.045994887119
 30
0.0
 10
156.9235438946314
 20
266.045994887119
 30
0.0
 10
156.3575124094703
 20
266.045994887119
 30
0.0
 10
156.1474546132227
 20
266.045994887119
 30
0.0
  0
LINE
  5
A0
330
1F
100
AcDbEntity
  8
0
  6
Continuous
 62
     7
370
    15
100
AcDbLine
 10
115.8328976937
 20
243.0459948871
 30
0.0
 11
115.8328976937
 21
266.0459948871
 31
0.0
  0
SPLINE
  5
A1
330
1F
100
AcDbEntity
  8
0
  6
Continuous
 62
     7
370
    15
100
AcDbSpline
210
0.0
220
0.0
230
1.0
 70
    24
 71
     3
 72
     9
 73
     5
 74
     0
 42
0.00000001
 43
0.00000001
 12
1.0
 22
0.0
 32
0.0
 13
1.0
 23
0.0
 33
0.0
 40
0.0
 40
0.0
 40
0.0
 40
0.0
 40
0.1718892509107696
 40
1.0
 40
1.0
 40
1.0
 40
1.0
 10
117.6447583714728
 20
266.045994887119
 30
0.0
 10
117.5420410841136
 20
266.045994887119
 30
0.0
 10
116.944462778228
 20
266.045994887119
 30
0.0
 10
116.3364224365223
 20
266.045994887119
 30
0.0
 10
115.8328976936758
 20
266.045994887119
 30
0.0
  0
LINE
  5
A2
330
1F
100
AcDbEntity
  8
0
  6
Continuous
 62
     7
370
    15
100
AcDbLine
 10
115.64849114
 20
243.0459948871
 30
0.0
 11
115.64849114
 21
266.0459948871
 31
0.0
  0
LINE
  5
A3
330
1F
100
AcDbEntity
  8
0
  6
Continuous
 62
     7
370
    15
100
AcDbLine
 10
115.64849114
 20
266.0459948871
 30
0.0
 11
115.8328976937
 21
266.0459948871
 31
0.0
  0
LINE
  5
A4
330
1F
100
AcDbEntity
  8
0
  6
Continuous
 62
     7
370
    15
100
AcDbLine
 10
160.184485533
 20
243.0459948871
 30
0.0
 11
160.184485533
 21
266.0459948871
 31
0.0
  0
SPLINE
  5
A5
330
1F
100
AcDbEntity
  8
0
  6
Continuous
 62
     7
370
    15
100
AcDbSpline
210
0.0
220
0.0
230
1.0
 70
    24
 71
     3
 72
     9
 73
     5
 74
     0
 42
0.00000001
 43
0.00000001
 12
1.0
 22
0.0
 32
0.0
 13
1.0
 23
0.0
 33
0.0
 40
0.0
 40
0.0
 40
0.0
 40
0.0
 40
0.5858355847185106
 40
1.0
 40
1.0
 40
1.0
 40
1.0
 10
160.1844855330421
 20
266.045994887119
 30
0.0
 10
159.9309620736563
 20
266.045994887119
 30
0.0
 10
159.498206764831
 20
266.045994887119
 30
0.0
 10
158.8432068470382
 20
266.045994887119
 30
0.0
 10
158.5719291890761
 20
266.045994887119
 30
0.0
  0
LINE
  5
A6
330
1F
100
AcDbEntity
  8
0
  6
Continuous
 62
     7
370
    15
100
AcDbLine
 10
160.3464509535
 20
243.0459948871
 30
0.0
 11
160.3464509535
 21
266.0459948871
 31
0.0
  0
LINE
  5
A7
330
1F
100
AcDbEntity
  8
0
  6
Continuous
 62
     7
370
    15
100
AcDbLine
 10
160.184485533
 20
266.0459948871
 30
0.0
 11
160.3464509535
 21
266.0459948871
 31
0.0
  0
LINE
  5
A8
330
1F
100
AcDbEntity
  8
0
  6
Continuous
 62
     7
370
    15
100
AcDbLine
 10
114.1856582514
 20
243.0459948871
 30
0.0
 11
114.1856582514
 21
266.0459948871
 31
0.0
  0
LINE
  5
A9
330
1F
100
AcDbEntity
  8
0
  6
Continuous
 62
     7
370
    15
100
AcDbLine
 10
115.5108427159
 20
266.0459948871
 30
0.0
 11
114.1856582514
 21
266.0459948871
 31
0.0
  0
LINE
  5
AA
330
1F
100
AcDbEntity
  8
0
  6
Continuous
 62
     7
370
    15
100
AcDbLine
 10
114.0557992356
 20
243.0459948871
 30
0.0
 11
114.0557992356
 21
266.0459948871
 31
0.0
  0
LINE
  5
AB
330
1F
100
AcDbEntity
  8
0
  6
Continuous
 62
     7
370
    15
100
AcDbLine
 10
113.1156623609
 20
243.0459948871
 30
0.0
 11
113.1156623609
 21
266.0459948871
 31
0.0
  0
LINE
  5
AC
330
1F
100
AcDbEntity
  8
0
  6
Continuous
 62
     7
370
    15
100
AcDbLine
 10
113.9181508114
 20
266.0459948871
 30
0.0
 11
113.1156623609
 21
266.0459948871
 31
0.0
  0
LINE
  5
AD
330
1F
100
AcDbEntity
  8
0
  6
Continuous
 62
     7
370
    15
100
AcDbLine
 10
161.5933273314
 20
243.0459948871
 30
0.0
 11
161.5933273314
 21
266.0459948871
 31
0.0
  0
SPLINE
  5
AE
330
1F
100
AcDbEntity
  8
0
  6
Continuous
 62
     7
370
    15
100
AcDbSpline
210
0.0
220
0.0
230
1.0
 70
    24
 71
     3
 72
     9
 73
     5
 74
     0
 42
0.00000001
 43
0.00000001
 12
1.0
 22
0.0
 32
0.0
 13
1.0
 23
0.0
 33
0.0
 40
0.0
 40
0.0
 40
0.0
 40
0.0
 40
0.9302476667987502
 40
1.0
 40
1.0
 40
1.0
 40
1.0
 10
161.5933273313995
 20
266.045994887119
 30
0.0
 10
161.2888408726866
 20
266.045994887119
 30
0.0
 10
160.9615232458006
 20
266.045994887119
 30
0.0
 10
160.5152294137019
 20
266.045994887119
 30
0.0
 10
160.4840993776198
 20
266.045994887119
 30
0.0
  0
LINE
  5
AF
330
1F
100
AcDbEntity
  8
0
  6
Continuous
 62
     7
370
    15
100
AcDbLine
 10
161.6992327785
 20
243.0459948871
 30
0.0
 11
161.6992327785
 21
266.0459948871
 31
0.0
  0
LINE
  5
B0
330
1F
100
AcDbEntity
  8
0
  6
Continuous
 62
     7
370
    15
100
AcDbLine
 10
161.5933273314
 20
266.0459948871
 30
0.0
 11
161.6992327785
 21
266.0459948871
 31
0.0
  0
LINE
  5
B1
330
1F
100
AcDbEntity
  8
0
  6
Continuous
 62
     7
370
    15
100
AcDbLine
 10
113.0435484428
 20
243.0459948871
 30
0.0
 11
113.0435484428
 21
266.0459948871
 31
0.0
  0
LINE
  5
B2
330
1F
100
AcDbEntity
  8
0
  6
Continuous
 62
     7
370
    15
100
AcDbLine
 10
162.4120785317
 20
243.0459948871
 30
0.0
 11
162.4120785317
 21
266.0459948871
 31
0.0
  0
LINE
  5
B3
330
1F
100
AcDbEntity
  8
0
  6
Continuous
 62
     7
370
    15
100
AcDbLine
 10
162.4120785317
 20
266.0459948871
 30
0.0
 11
161.8368812027
 21
266.0459948871
 31
0.0
  0
LINE
  5
B4
330
1F
100
AcDbEntity
  8
0
  6
Continuous
 62
     7
370
    15
100
AcDbLine
 10
112.649256872
 20
243.0459948871
 30
0.0
 11
112.649256872
 21
266.0459948871
 31
0.0
  0
LINE
  5
B5
330
1F
100
AcDbEntity
  8
0
  6
Continuous
 62
     7
370
    15
100
AcDbLine
 10
112.9059000187
 20
266.0459948871
 30
0.0
 11
112.649256872
 21
266.0459948871
 31
0.0
  0
LINE
  5
B6
330
1F
100
AcDbEntity
  8
0
  6
Continuous
 62
     7
370
    15
100
AcDbLine
 10
162.459316262
 20
243.0459948871
 30
0.0
 11
162.459316262
 21
266.0459948871
 31
0.0
  0
LINE
  5
B7
330
1F
100
AcDbEntity
  8
0
  6
Continuous
 62
     7
370
    15
100
AcDbLine
 10
162.4120785317
 20
266.0459948871
 30
0.0
 11
162.459316262
 21
266.0459948871
 31
0.0
  0
LINE
  5
B8
330
1F
100
AcDbEntity
  8
0
  6
Continuous
 62
     7
370
    15
100
AcDbLine
 10
162.6205787621
 20
243.0459948871
 30
0.0
 11
162.6205787621
 21
266.0459948871
 31
0.0
  0
LINE
  5
B9
330
1F
100
AcDbEntity
  8
0
  6
Continuous
 62
     7
370
    15
100
AcDbLine
 10
112.6366637357
 20
243.0459948871
 30
0.0
 11
112.6366637357
 21
266.0459948871
 31
0.0
  0
LINE
  5
BA
330
1F
100
AcDbEntity
  8
0
  6
Continuous
 62
     7
370
    15
100
AcDbLine
 10
99.6286286322
 20
243.0526506806
 30
0.0
 11
90.4222780908
 21
215.1690343496
 31
0.0
  0
ARC
  5
BB
330
1F
100
AcDbEntity
  8
0
  6
Continuous
 62
     7
370
    15
100
AcDbCircle
 10
102.6286212489
 20
243.0459948871
 30
0.0
 40
3.000000000000015
100
AcDbArc
 50
179.8728836036
 51
225.4930640648
  0
LINE
  5
BC
330
1F
100
AcDbEntity
  8
0
  6
Continuous
 62
     7
370
    15
100
AcDbLine
 10
91.8700544905
 20
214.6910211363
 30
0.0
 11
100.525634444
 21
240.9064981009
 31
0.0
  0
LINE
  5
BD
330
1F
100
AcDbEntity
  8
0
  6
Continuous
 62
     7
370
    15
100
AcDbLine
 10
90.4222780908
 20
215.1690343496
 30
0.0
 11
91.8700544905
 21
214.6910211363
 31
0.0
  0
LINE
  5
BE
330
1F
100
AcDbEntity
  8
0
  6
Continuous
 62
     7
370
    15
100
AcDbLine
 10
184.834964407
 20
215.1690343496
 30
0.0
 11
175.6286138656
 21
243.0526506806
 31
0.0
  0
LINE
  5
BF
330
1F
100
AcDbEntity
  8
0
  6
Continuous
 62
     7
370
    15
100
AcDbLine
 10
183.3871880073
 20
214.6910211363
 30
0.0
 11
184.834964407
 21
215.1690343496
 31
0.0
  0
ARC
  5
C0
330
1F
100
AcDbEntity
  8
0
  6
Continuous
 62
     7
370
    15
100
AcDbCircle
 10
172.6286212489
 20
243.0459948871
 30
0.0
 40
3.0
100
AcDbArc
 50
314.5069359352
 51
0.1271163964
  0
LINE
  5
C1
330
1F
100
AcDbEntity
  8
0
  6
Continuous
 62
     7
370
    15
100
AcDbLine
 10
174.7316080538
 20
240.9064981009
 30
0.0
 11
183.3871880073
 21
214.6910211363
 31
0.0
  0
LINE
  5
C2
330
1F
100
AcDbEntity
  8
0
  6
Continuous
 62
     7
370
    15
100
AcDbLine
 10
328.417423971
 20
218.0459948871
 30
0.0
 11
328.417423971
 21
223.0459948871
 31
0.0
  0
LINE
  5
C3
330
1F
100
AcDbEntity
  8
0
  6
Continuous
 62
     7
370
    15
100
AcDbLine
 10
242.417423971
 20
223.0459948871
 30
0.0
 11
242.417423971
 21
218.0459948871
 31
0.0
  0
LINE
  5
C4
330
1F
100
AcDbEntity
  8
0
  6
Continuous
 62
     7
370
    15
100
AcDbLine
 10
300.4004460369
 20
246.0459948871
 30
0.0
 11
270.4344019052
 21
246.0459948871
 31
0.0
  0
LINE
  5
C5
330
1F
100
AcDbEntity
  8
0
  6
Continuous
 62
     7
370
    15
100
AcDbLine
 10
320.417423971
 20
223.0459948871
 30
0.0
 11
320.417423971
 21
243.0459948871
 31
0.0
  0
LINE
  5
C6
330
1F
100
AcDbEntity
  8
0
  6
Continuous
 62
     7
370
    15
100
AcDbLine
 10
250.417423971
 20
243.0459948871
 30
0.0
 11
250.417423971
 21
223.0459948871
 31
0.0
  0
LINE
  5
C7
330
1F
100
AcDbEntity
  8
0
  6
Continuous
 62
     7
370
    15
100
AcDbLine
 10
287.692234086
 20
246.0459948871
 30
0.0
 11
287.692234086
 21
266.0459948871
 31
0.0
  0
LINE
  5
C8
330
1F
100
AcDbEntity
  8
0
  6
Continuous
 62
     7
370
    15
100
AcDbLine
 10
284.3858117354
 20
246.0459948871
 30
0.0
 11
284.3858117354
 21
266.0459948871
 31
0.0
  0
LINE
  5
C9
330
1F
100
AcDbEntity
  8
0
  6
Continuous
 62
     7
370
    15
100
AcDbLine
 10
281.8504129229
 20
266.0459948871
 30
0.0
 11
281.8504129229
 21
246.0459948871
 31
0.0
  0
LINE
  5
CA
330
1F
100
AcDbEntity
  8
0
  6
Continuous
 62
     7
370
    15
100
AcDbLine
 10
291.0844558818
 20
246.0459948871
 30
0.0
 11
291.0844558818
 21
266.0459948871
 31
0.0
  0
LINE
  5
CB
330
1F
100
AcDbEntity
  8
0
  6
Continuous
 62
     7
370
    15
100
AcDbLine
 10
281.280225631
 20
246.0459948871
 30
0.0
 11
281.280225631
 21
266.0459948871
 31
0.0
  0
LINE
  5
CC
330
1F
100
AcDbEntity
  8
0
  6
Continuous
 62
     7
370
    15
100
AcDbLine
 10
294.469258402
 20
246.0459948871
 30
0.0
 11
294.469258402
 21
266.0459948871
 31
0.0
  0
LINE
  5
CD
330
1F
100
AcDbEntity
  8
0
  6
Continuous
 62
     7
370
    15
100
AcDbLine
 10
297.7685153575
 20
246.0459948871
 30
0.0
 11
297.7685153575
 21
266.0459948871
 31
0.0
  0
LINE
  5
CE
330
1F
100
AcDbEntity
  8
0
  6
Continuous
 62
     7
370
    15
100
AcDbLine
 10
300.9220051086
 20
245.7874585215
 30
0.0
 11
300.9220051086
 21
266.0459948871
 31
0.0
  0
LINE
  5
CF
330
1F
100
AcDbEntity
  8
0
  6
Continuous
 62
     7
370
    15
100
AcDbLine
 10
242.417423971
 20
218.0459948871
 30
0.0
 11
280.417423971
 21
218.0459948871
 31
0.0
  0
LINE
  5
D0
330
1F
100
AcDbEntity
  8
0
  6
Continuous
 62
     7
370
    15
100
AcDbLine
 10
290.417423971
 20
218.0459948871
 30
0.0
 11
328.417423971
 21
218.0459948871
 31
0.0
  0
LINE
  5
D1
330
1F
100
AcDbEntity
  8
0
  6
Continuous
 62
     7
370
    15
100
AcDbLine
 10
242.417423971
 20
223.0459948871
 30
0.0
 11
280.417423971
 21
223.0459948871
 31
0.0
  0
LINE
  5
D2
330
1F
100
AcDbEntity
  8
0
  6
Continuous
 62
     7
370
    15
100
AcDbLine
 10
290.417423971
 20
223.0459948871
 30
0.0
 11
328.417423971
 21
223.0459948871
 31
0.0
  0
LWPOLYLINE
  5
D3
330
1F
100
AcDbEntity
  8
0
  6
Continuous
 62
     7
370
    15
100
AcDbPolyline
 90
       15
 70
   128
 43
0.0
 10
270.4344019052
 20
246.0459948871
 10
270.1486273854
 20
245.9707786237
 10
269.8771827934
 20
245.7489014908
 10
269.6336794944
 20
245.3914893345
 10
269.4303277606
 20
244.9164642927
 10
269.277324497
 20
244.3476461045
 10
269.1823419262
 20
243.713557689
 10
269.1501428709
 20
243.0459948871
 10
269.1823419262
 20
242.3784320853
 10
269.277324497
 20
241.7443436698
 10
269.4303277606
 20
241.1755254815
 10
269.6336794944
 20
240.7005004397
 10
269.8771827934
 20
240.3430882834
 10
270.1486273854
 20
240.1212111506
 10
270.4344019052
 20
240.0459948871
  0
LWPOLYLINE
  5
D4
330
1F
100
AcDbEntity
  8
0
  6
Continuous
 62
     7
370
    15
100
AcDbPolyline
 90
       15
 70
   128
 43
0.0
 10
300.4004460369
 20
246.0459948871
 10
300.6862205566
 20
245.9707786237
 10
300.9576651487
 20
245.7489014908
 10
301.2011684477
 20
245.3914893345
 10
301.4045201815
 20
244.9164642927
 10
301.557523445
 20
244.3476461045
 10
301.6525060158
 20
243.713557689
 10
301.6847050711
 20
243.0459948871
 10
301.6525060158
 20
242.3784320853
 10
301.557523445
 20
241.7443436698
 10
301.4045201815
 20
241.1755254815
 10
301.2011684477
 20
240.7005004397
 10
300.9576651487
 20
240.3430882834
 10
300.6862205566
 20
240.1212111506
 10
300.4004460369
 20
240.0459948871
  0
LINE
  5
D5
330
1F
100
AcDbEntity
  8
0
  6
Continuous
 62
     7
370
    15
100
AcDbLine
 10
300.4004460369
 20
240.0459948871
 30
0.0
 11
290.417423971
 21
240.0459948871
 31
0.0
  0
LINE
  5
D6
330
1F
100
AcDbEntity
  8
0
  6
Continuous
 62
     7
370
    15
100
AcDbLine
 10
280.417423971
 20
240.0459948871
 30
0.0
 11
270.4344019052
 21
240.0459948871
 31
0.0
  0
LINE
  5
D7
330
1F
100
AcDbEntity
  8
0
  6
Continuous
 62
     7
370
    15
100
AcDbLine
 10
250.417423971
 20
243.0459948871
 30
0.0
 11
269.1501428709
 21
243.0459948871
 31
0.0
  0
LINE
  5
D8
330
1F
100
AcDbEntity
  8
0
  6
Continuous
 62
     7
370
    15
100
AcDbLine
 10
301.6847050711
 20
243.0459948871
 30
0.0
 11
320.417423971
 21
243.0459948871
 31
0.0
  0
LINE
  5
D9
330
1F
100
AcDbEntity
  8
0
  6
Continuous
 62
     7
370
    15
100
AcDbLine
 10
286.0515057145
 20
246.0459948871
 30
0.0
 11
286.0515057145
 21
266.0459948871
 31
0.0
  0
SPLINE
  5
DA
330
1F
100
AcDbEntity
  8
0
  6
Continuous
 62
     7
370
    15
100
AcDbSpline
210
0.0
220
0.0
230
1.0
 70
    24
 71
     3
 72
    10
 73
     6
 74
     0
 42
0.00000001
 43
0.00000001
 12
1.0
 22
0.0
 32
0.0
 13
1.0
 23
0.0
 33
0.0
 40
0.0
 40
0.0
 40
0.0
 40
0.0
 40
0.220786377040242
 40
0.7356136100594349
 40
1.0
 40
1.0
 40
1.0
 40
1.0
 10
285.9286522715827
 20
266.045994887119
 30
0.0
 10
285.822398028661
 20
266.045994887119
 30
0.0
 10
285.4683813168168
 20
266.045994887119
 30
0.0
 10
284.9033476718166
 20
266.0459948871189
 30
0.0
 10
284.5998309815654
 20
266.045994887119
 30
0.0
 10
284.4968480771888
 20
266.045994887119
 30
0.0
  0
LINE
  5
DB
330
1F
100
AcDbEntity
  8
0
  6
Continuous
 62
     7
370
    15
100
AcDbLine
 10
286.432980629
 20
246.0459948871
 30
0.0
 11
286.432980629
 21
266.0459948871
 31
0.0
  0
LINE
  5
DC
330
1F
100
AcDbEntity
  8
0
  6
Continuous
 62
     7
370
    15
100
AcDbLine
 10
286.0515057145
 20
266.0459948871
 30
0.0
 11
286.432980629
 21
266.0459948871
 31
0.0
  0
SPLINE
  5
DD
330
1F
100
AcDbEntity
  8
0
  6
Continuous
 62
     7
370
    15
100
AcDbSpline
210
0.0
220
0.0
230
1.0
 70
    24
 71
     3
 72
    10
 73
     6
 74
     0
 42
0.00000001
 43
0.00000001
 12
1.0
 22
0.0
 32
0.0
 13
1.0
 23
0.0
 33
0.0
 40
0.0
 40
0.0
 40
0.0
 40
0.0
 40
0.2606198561920155
 40
0.6062715303622326
 40
0.9999999999999999
 40
0.9999999999999999
 40
0.9999999999999999
 40
0.9999999999999999
 10
287.6705554215778
 20
266.045994887119
 30
0.0
 10
287.6615846718968
 20
266.045994887119
 30
0.0
 10
287.6407163074634
 20
266.045994887119
 30
0.0
 10
287.2314495944537
 20
266.0459948871189
 30
0.0
 10
286.7104297279575
 20
266.045994887119
 30
0.0
 10
286.4329806290003
 20
266.045994887119
 30
0.0
  0
LINE
  5
DE
330
1F
100
AcDbEntity
  8
0
  6
Continuous
 62
     7
370
    15
100
AcDbLine
 10
282.512843938
 20
246.0459948871
 30
0.0
 11
282.512843938
 21
266.0459948871
 31
0.0
  0
SPLINE
  5
DF
330
1F
100
AcDbEntity
  8
0
  6
Continuous
 62
     7
370
    15
100
AcDbSpline
210
0.0
220
0.0
230
1.0
 70
    24
 71
     3
 72
    11
 73
     7
 74
     0
 42
0.00000001
 43
0.00000001
 12
1.0
 22
0.0
 32
0.0
 13
1.0
 23
0.0
 33
0.0
 40
0.0
 40
0.0
 40
0.0
 40
0.0
 40
0.152813915681847
 40
0.410644624462721
 40
0.6861614529056824
 40
1.0
 40
1.0
 40
1.0
 40
1.0
 10
284.3591996530554
 20
266.045994887119
 30
0.0
 10
284.3621991798018
 20
266.045994887119
 30
0.0
 10
284.3702595683395
 20
266.045994887119
 30
0.0
 10
284.0991261704692
 20
266.045994887119
 30
0.0
 10
283.4983359180922
 20
266.045994887119
 30
0.0
 10
282.8552791154741
 20
266.045994887119
 30
0.0
 10
282.512843937974
 20
266.045994887119
 30
0.0
  0
LINE
  5
E0
330
1F
100
AcDbEntity
  8
0
  6
Continuous
 62
     7
370
    15
100
AcDbLine
 10
282.1340956122
 20
246.0459948871
 30
0.0
 11
282.1340956122
 21
266.0459948871
 31
0.0
  0
LINE
  5
E1
330
1F
100
AcDbEntity
  8
0
  6
Continuous
 62
     7
370
    15
100
AcDbLine
 10
282.1340956122
 20
266.0459948871
 30
0.0
 11
282.512843938
 21
266.0459948871
 31
0.0
  0
SPLINE
  5
E2
330
1F
100
AcDbEntity
  8
0
  6
Continuous
 62
     7
370
    15
100
AcDbSpline
210
0.0
220
0.0
230
1.0
 70
    24
 71
     3
 72
     9
 73
     5
 74
     0
 42
0.00000001
 43
0.00000001
 12
1.0
 22
0.0
 32
0.0
 13
1.0
 23
0.0
 33
0.0
 40
0.0
 40
0.0
 40
0.0
 40
0.0
 40
0.2016294001889699
 40
1.0
 40
1.0
 40
1.0
 40
1.0
 10
281.9964371880533
 20
266.045994887119
 30
0.0
 10
281.9700642168413
 20
266.045994887119
 30
0.0
 10
281.8392649822687
 20
266.045994887119
 30
0.0
 10
281.8791071560738
 20
266.045994887119
 30
0.0
 10
281.9109159762725
 20
266.045994887119
 30
0.0
  0
LINE
  5
E3
330
1F
100
AcDbEntity
  8
0
  6
Continuous
 62
     7
370
    15
100
AcDbLine
 10
289.95330262
 20
246.0459948871
 30
0.0
 11
289.95330262
 21
266.0459948871
 31
0.0
  0
SPLINE
  5
E4
330
1F
100
AcDbEntity
  8
0
  6
Continuous
 62
     7
370
    15
100
AcDbSpline
210
0.0
220
0.0
230
1.0
 70
    24
 71
     3
 72
    10
 73
     6
 74
     0
 42
0.00000001
 43
0.00000001
 12
1.0
 22
0.0
 32
0.0
 13
1.0
 23
0.0
 33
0.0
 40
0.0
 40
0.0
 40
0.0
 40
0.0
 40
0.336109464349559
 40
0.8059122700117001
 40
1.0
 40
1.0
 40
1.0
 40
1.0
 10
289.8079431488547
 20
266.045994887119
 30
0.0
 10
289.6164042132311
 20
266.045994887119
 30
0.0
 10
289.1571384240256
 20
266.045994887119
 30
0.0
 10
288.4203782144475
 20
266.0459948871189
 30
0.0
 10
287.9466947344074
 20
266.045994887119
 30
0.0
 10
287.8082138457111
 20
266.045994887119
 30
0.0
  0
LINE
  5
E5
330
1F
100
AcDbEntity
  8
0
  6
Continuous
 62
     7
370
    15
100
AcDbLine
 10
290.3281109447
 20
246.0459948871
 30
0.0
 11
290.3281109447
 21
266.0459948871
 31
0.0
  0
LINE
  5
E6
330
1F
100
AcDbEntity
  8
0
  6
Continuous
 62
     7
370
    15
100
AcDbLine
 10
289.95330262
 20
266.0459948871
 30
0.0
 11
290.3281109447
 21
266.0459948871
 31
0.0
  0
SPLINE
  5
E7
330
1F
100
AcDbEntity
  8
0
  6
Continuous
 62
     7
370
    15
100
AcDbSpline
210
0.0
220
0.0
230
1.0
 70
    24
 71
     3
 72
    10
 73
     6
 74
     0
 42
0.00000001
 43
0.00000001
 12
1.0
 22
0.0
 32
0.0
 13
1.0
 23
0.0
 33
0.0
 40
0.0
 40
0.0
 40
0.0
 40
0.0
 40
0.047822821706186
 40
0.4929546507662325
 40
0.9999999999999999
 40
0.9999999999999999
 40
0.9999999999999999
 40
0.9999999999999999
 10
291.0700583996776
 20
266.045994887119
 30
0.0
 10
291.0746907297467
 20
266.045994887119
 30
0.0
 10
291.1224404979531
 20
266.0459948871189
 30
0.0
 10
290.91359629097
 20
266.045994887119
 30
0.0
 10
290.5315532684305
 20
266.045994887119
 30
0.0
 10
290.3281109446678
 20
266.045994887119
 30
0.0
  0
LINE
  5
E8
330
1F
100
AcDbEntity
  8
0
  6
Continuous
 62
     7
370
    15
100
AcDbLine
 10
278.6642276471
 20
246.0459948871
 30
0.0
 11
278.6642276471
 21
266.0459948871
 31
0.0
  0
LINE
  5
E9
330
1F
100
AcDbEntity
  8
0
  6
Continuous
 62
     7
370
    15
100
AcDbLine
 10
278.2975319508
 20
246.0459948871
 30
0.0
 11
278.2975319508
 21
266.0459948871
 31
0.0
  0
LINE
  5
EA
330
1F
100
AcDbEntity
  8
0
  6
Continuous
 62
     7
370
    15
100
AcDbLine
 10
278.2975319508
 20
266.0459948871
 30
0.0
 11
278.6642276471
 21
266.0459948871
 31
0.0
  0
LINE
  5
EB
330
1F
100
AcDbEntity
  8
0
  6
Continuous
 62
     7
370
    15
100
AcDbLine
 10
281.7732675521
 20
266.0459948871
 30
0.0
 11
281.3846940406
 21
266.0459948871
 31
0.0
  0
SPLINE
  5
EC
330
1F
100
AcDbEntity
  8
0
  6
Continuous
 62
     7
370
    15
100
AcDbSpline
210
0.0
220
0.0
230
1.0
 70
    24
 71
     3
 72
    12
 73
     8
 74
     0
 42
0.00000001
 43
0.00000001
 12
1.0
 22
0.0
 32
0.0
 13
1.0
 23
0.0
 33
0.0
 40
0.0
 40
0.0
 40
0.0
 40
0.0
 40
0.1354402707244106
 40
0.3357994808454521
 40
0.5379407739995656
 40
0.7539481233588434
 40
1.0
 40
1.0
 40
1.0
 40
1.0
 10
281.2470456164676
 20
266.045994887119
 30
0.0
 10
281.2541535119764
 20
266.045994887119
 30
0.0
 10
281.2717762441889
 20
266.045994887119
 30
0.0
 10
281.0644357997942
 20
266.045994887119
 30
0.0
 10
280.5987281265231
 20
266.045994887119
 30
0.0
 10
279.8021814348223
 20
266.0459948871189
 30
0.0
 10
279.0596397003216
 20
266.045994887119
 30
0.0
 10
278.6642276471098
 20
266.045994887119
 30
0.0
  0
LINE
  5
ED
330
1F
100
AcDbEntity
  8
0
  6
Continuous
 62
     7
370
    15
100
AcDbLine
 10
293.7434111393
 20
246.0459948871
 30
0.0
 11
293.7434111393
 21
266.0459948871
 31
0.0
  0
SPLINE
  5
EE
330
1F
100
AcDbEntity
  8
0
  6
Continuous
 62
     7
370
    15
100
AcDbSpline
210
0.0
220
0.0
230
1.0
 70
    24
 71
     3
 72
    11
 73
     7
 74
     0
 42
0.00000001
 43
0.00000001
 12
1.0
 22
0.0
 32
0.0
 13
1.0
 23
0.0
 33
0.0
 40
0.0
 40
0.0
 40
0.0
 40
0.0
 40
0.0159631018825312
 40
0.3159832231858926
 40
0.729069508095066
 40
1.0
 40
1.0
 40
1.0
 40
1.0
 10
293.605752715203
 20
266.045994887119
 30
0.0
 10
293.5996045820258
 20
266.045994887119
 30
0.0
 10
293.4779047424682
 20
266.0459948871189
 30
0.0
 10
292.9317949543666
 20
266.045994887119
 30
0.0
 10
292.1289668019074
 20
266.045994887119
 30
0.0
 10
291.4780252951676
 20
266.045994887119
 30
0.0
 10
291.2201955041444
 20
266.045994887119
 30
0.0
  0
LINE
  5
EF
330
1F
100
AcDbEntity
  8
0
  6
Continuous
 62
     7
370
    15
100
AcDbLine
 10
294.1023238494
 20
246.0459948871
 30
0.0
 11
294.1023238494
 21
266.0459948871
 31
0.0
  0
LINE
  5
F0
330
1F
100
AcDbEntity
  8
0
  6
Continuous
 62
     7
370
    15
100
AcDbLine
 10
293.7434111393
 20
266.0459948871
 30
0.0
 11
294.1023238494
 21
266.0459948871
 31
0.0
  0
SPLINE
  5
F1
330
1F
100
AcDbEntity
  8
0
  6
Continuous
 62
     7
370
    15
100
AcDbSpline
210
0.0
220
0.0
230
1.0
 70
    24
 71
     3
 72
     9
 73
     5
 74
     0
 42
0.00000001
 43
0.00000001
 12
1.0
 22
0.0
 32
0.0
 13
1.0
 23
0.0
 33
0.0
 40
0.0
 40
0.0
 40
0.0
 40
0.0
 40
0.29237290943482
 40
1.0
 40
1.0
 40
1.0
 40
1.0
 10
294.4297516757091
 20
266.045994887119
 30
0.0
 10
294.438424819568
 20
266.045994887119
 30
0.0
 10
294.4680894826712
 20
266.045994887119
 30
0.0
 10
294.2538942199681
 20
266.045994887119
 30
0.0
 10
294.1023238494087
 20
266.045994887119
 30
0.0
  0
LINE
  5
F2
330
1F
100
AcDbEntity
  8
0
  6
Continuous
 62
     7
370
    15
100
AcDbLine
 10
274.9818974623
 20
246.0459948871
 30
0.0
 11
274.9818974623
 21
266.0459948871
 31
0.0
  0
LINE
  5
F3
330
1F
100
AcDbEntity
  8
0
  6
Continuous
 62
     7
370
    15
100
AcDbLine
 10
274.6362836605
 20
246.0459948871
 30
0.0
 11
274.6362836605
 21
266.0459948871
 31
0.0
  0
LINE
  5
F4
330
1F
100
AcDbEntity
  8
0
  6
Continuous
 62
     7
370
    15
100
AcDbLine
 10
274.6362836605
 20
266.0459948871
 30
0.0
 11
274.9818974623
 21
266.0459948871
 31
0.0
  0
SPLINE
  5
F5
330
1F
100
AcDbEntity
  8
0
  6
Continuous
 62
     7
370
    15
100
AcDbSpline
210
0.0
220
0.0
230
1.0
 70
    24
 71
     3
 72
    11
 73
     7
 74
     0
 42
0.00000001
 43
0.00000001
 12
1.0
 22
0.0
 32
0.0
 13
1.0
 23
0.0
 33
0.0
 40
0.0
 40
0.0
 40
0.0
 40
0.0
 40
0.2029287164287268
 40
0.4455075993874377
 40
0.7047263898722521
 40
1.0
 40
1.0
 40
1.0
 40
1.0
 10
278.1598835266404
 20
266.045994887119
 30
0.0
 10
278.0591678430573
 20
266.045994887119
 30
0.0
 10
277.8380576758841
 20
266.045994887119
 30
0.0
 10
277.203597092594
 20
266.045994887119
 30
0.0
 10
276.2482928305976
 20
266.045994887119
 30
0.0
 10
275.4219399299063
 20
266.045994887119
 30
0.0
 10
274.9818974623142
 20
266.045994887119
 30
0.0
  0
LINE
  5
F6
330
1F
100
AcDbEntity
  8
0
  6
Continuous
 62
     7
370
    15
100
AcDbLine
 10
297.3285062223
 20
246.0459948871
 30
0.0
 11
297.3285062223
 21
266.0459948871
 31
0.0
  0
SPLINE
  5
F7
330
1F
100
AcDbEntity
  8
0
  6
Continuous
 62
     7
370
    15
100
AcDbSpline
210
0.0
220
0.0
230
1.0
 70
    24
 71
     3
 72
    13
 73
     9
 74
     0
 42
0.00000001
 43
0.00000001
 12
1.0
 22
0.0
 32
0.0
 13
1.0
 23
0.0
 33
0.0
 40
0.0
 40
0.0
 40
0.0
 40
0.0
 40
0.0922499854372663
 40
0.3079473924142148
 40
0.5120898765860327
 40
0.7161159954954218
 40
0.9970317924712431
 40
1.0
 40
1.0
 40
1.0
 40
1.0
 10
297.3511147197637
 20
266.045994887119
 30
0.0
 10
297.3613979341243
 20
266.045994887119
 30
0.0
 10
297.3957251920961
 20
266.045994887119
 30
0.0
 10
297.1368801317811
 20
266.045994887119
 30
0.0
 10
296.5968918896976
 20
266.045994887119
 30
0.0
 10
295.7364310672316
 20
266.045994887119
 30
0.0
 10
295.0281658520426
 20
266.0459948871189
 30
0.0
 10
294.5772980580402
 20
266.045994887119
 30
0.0
 10
294.5725839171961
 20
266.045994887119
 30
0.0
  0
LINE
  5
F8
330
1F
100
AcDbEntity
  8
0
  6
Continuous
 62
     7
370
    15
100
AcDbLine
 10
297.6626856956
 20
246.0459948871
 30
0.0
 11
297.6626856956
 21
266.0459948871
 31
0.0
  0
LINE
  5
F9
330
1F
100
AcDbEntity
  8
0
  6
Continuous
 62
     7
370
    15
100
AcDbLine
 10
297.3285062223
 20
266.0459948871
 30
0.0
 11
297.6626856956
 21
266.0459948871
 31
0.0
  0
LINE
  5
FA
330
1F
100
AcDbEntity
  8
0
  6
Continuous
 62
     7
370
    15
100
AcDbLine
 10
271.5565245737
 20
246.0459948871
 30
0.0
 11
271.5565245737
 21
266.0459948871
 31
0.0
  0
SPLINE
  5
FB
330
1F
100
AcDbEntity
  8
0
  6
Continuous
 62
     7
370
    15
100
AcDbSpline
210
0.0
220
0.0
230
1.0
 70
    24
 71
     3
 72
    10
 73
     6
 74
     0
 42
0.00000001
 43
0.00000001
 12
1.0
 22
0.0
 32
0.0
 13
1.0
 23
0.0
 33
0.0
 40
0.0
 40
0.0
 40
0.0
 40
0.0
 40
0.2138221658867894
 40
0.581351219557613
 40
1.0
 40
1.0
 40
1.0
 40
1.0
 10
274.4986352363329
 20
266.045994887119
 30
0.0
 10
274.340766592018
 20
266.045994887119
 30
0.0
 10
273.9115448201699
 20
266.045994887119
 30
0.0
 10
272.9109075658216
 20
266.045994887119
 30
0.0
 10
272.0271406615631
 20
266.045994887119
 30
0.0
 10
271.5565245736898
 20
266.045994887119
 30
0.0
  0
LINE
  5
FC
330
1F
100
AcDbEntity
  8
0
  6
Continuous
 62
     7
370
    15
100
AcDbLine
 10
271.2405028252
 20
246.0459948871
 30
0.0
 11
271.2405028252
 21
266.0459948871
 31
0.0
  0
LINE
  5
FD
330
1F
100
AcDbEntity
  8
0
  6
Continuous
 62
     7
370
    15
100
AcDbLine
 10
271.2405028252
 20
266.0459948871
 30
0.0
 11
271.5565245737
 21
266.0459948871
 31
0.0
  0
LINE
  5
FE
330
1F
100
AcDbEntity
  8
0
  6
Continuous
 62
     7
370
    15
100
AcDbLine
 10
300.6203109295
 20
246.0017038798
 30
0.0
 11
300.6203109295
 21
266.0459948871
 31
0.0
  0
SPLINE
  5
FF
330
1F
100
AcDbEntity
  8
0
  6
Continuous
 62
     7
370
    15
100
AcDbSpline
210
0.0
220
0.0
230
1.0
 70
    24
 71
     3
 72
    12
 73
     8
 74
     0
 42
0.00000001
 43
0.00000001
 12
1.0
 22
0.0
 32
0.0
 13
1.0
 23
0.0
 33
0.0
 40
0.0
 40
0.0
 40
0.0
 40
0.0
 40
0.2521901443938608
 40
0.4756996394991468
 40
0.6872357177778174
 40
0.8986512162988645
 40
1.0
 40
1.0
 40
1.0
 40
1.0
 10
300.6203109295386
 20
266.045994887119
 30
0.0
 10
300.5804638210926
 20
266.045994887119
 30
0.0
 10
300.5053012679787
 20
266.045994887119
 30
0.0
 10
300.0109047706529
 20
266.045994887119
 30
0.0
 10
299.2820856445764
 20
266.0459948871189
 30
0.0
 10
298.552570790305
 20
266.045994887119
 30
0.0
 10
298.0441734247058
 20
266.045994887119
 30
0.0
 10
297.8794312927902
 20
266.045994887119
 30
0.0
  0
LINE
  5
100
330
1F
100
AcDbEntity
  8
0
  6
Continuous
 62
     7
370
    15
100
AcDbLine
 10
300.9215285585
 20
245.7879529793
 30
0.0
 11
300.9215285585
 21
266.0459948871
 31
0.0
  0
LINE
  5
101
330
1F
100
AcDbEntity
  8
0
  6
Continuous
 62
     7
370
    15
100
AcDbLine
 10
300.6203109295
 20
266.0459948871
 30
0.0
 11
300.9215285585
 21
266.0459948871
 31
0.0
  0
LINE
  5
102
330
1F
100
AcDbEntity
  8
0
  6
Continuous
 62
     7
370
    15
100
AcDbLine
 10
300.9134845767
 20
266.0459948871
 30
0.0
 11
300.9215285585
 21
266.0459948871
 31
0.0
  0
LINE
  5
103
330
1F
100
AcDbEntity
  8
0
  6
Continuous
 62
     7
370
    15
100
AcDbLine
 10
268.4724530299
 20
243.0459948871
 30
0.0
 11
268.4724530299
 21
266.0459948871
 31
0.0
  0
SPLINE
  5
104
330
1F
100
AcDbEntity
  8
0
  6
Continuous
 62
     7
370
    15
100
AcDbSpline
210
0.0
220
0.0
230
1.0
 70
    24
 71
     3
 72
     9
 73
     5
 74
     0
 42
0.00000001
 43
0.00000001
 12
1.0
 22
0.0
 32
0.0
 13
1.0
 23
0.0
 33
0.0
 40
0.0
 40
0.0
 40
0.0
 40
0.0
 40
0.4667736274859525
 40
1.0
 40
1.0
 40
1.0
 40
1.0
 10
271.1028544010247
 20
266.045994887119
 30
0.0
 10
270.7212375534459
 20
266.045994887119
 30
0.0
 10
269.903674552652
 20
266.045994887119
 30
0.0
 10
268.9702040955859
 20
266.045994887119
 30
0.0
 10
268.4724530299155
 20
266.045994887119
 30
0.0
  0
LINE
  5
105
330
1F
100
AcDbEntity
  8
0
  6
Continuous
 62
     7
370
    15
100
AcDbLine
 10
268.193804839
 20
243.0459948871
 30
0.0
 11
268.193804839
 21
266.0459948871
 31
0.0
  0
LINE
  5
106
330
1F
100
AcDbEntity
  8
0
  6
Continuous
 62
     7
370
    15
100
AcDbLine
 10
268.193804839
 20
266.0459948871
 30
0.0
 11
268.4724530299
 21
266.0459948871
 31
0.0
  0
LINE
  5
107
330
1F
100
AcDbEntity
  8
0
  6
Continuous
 62
     7
370
    15
100
AcDbLine
 10
303.5377701044
 20
243.0459948871
 30
0.0
 11
303.5377701044
 21
266.0459948871
 31
0.0
  0
SPLINE
  5
108
330
1F
100
AcDbEntity
  8
0
  6
Continuous
 62
     7
370
    15
100
AcDbSpline
210
0.0
220
0.0
230
1.0
 70
    24
 71
     3
 72
    11
 73
     7
 74
     0
 42
0.00000001
 43
0.00000001
 12
1.0
 22
0.0
 32
0.0
 13
1.0
 23
0.0
 33
0.0
 40
0.0
 40
0.0
 40
0.0
 40
0.0
 40
0.3143401577776592
 40
0.59293157587239
 40
0.8565988352793888
 40
1.0
 40
1.0
 40
1.0
 40
1.0
 10
303.5377701044114
 20
266.045994887119
 30
0.0
 10
303.4219445565616
 20
266.045994887119
 30
0.0
 10
303.2034658706107
 20
266.045994887119
 30
0.0
 10
302.5108611037663
 20
266.045994887119
 30
0.0
 10
301.7791071298282
 20
266.045994887119
 30
0.0
 10
301.2467238039338
 20
266.045994887119
 30
0.0
 10
301.0591769825986
 20
266.045994887119
 30
0.0
  0
LINE
  5
109
330
1F
100
AcDbEntity
  8
0
  6
Continuous
 62
     7
370
    15
100
AcDbLine
 10
303.7986089112
 20
243.0459948871
 30
0.0
 11
303.7986089112
 21
266.0459948871
 31
0.0
  0
LINE
  5
10A
330
1F
100
AcDbEntity
  8
0
  6
Continuous
 62
     7
370
    15
100
AcDbLine
 10
303.5377701044
 20
266.0459948871
 30
0.0
 11
303.7986089112
 21
266.0459948871
 31
0.0
  0
LINE
  5
10B
330
1F
100
AcDbEntity
  8
0
  6
Continuous
 62
     7
370
    15
100
AcDbLine
 10
265.8056229078
 20
243.0459948871
 30
0.0
 11
265.8056229078
 21
266.0459948871
 31
0.0
  0
SPLINE
  5
10C
330
1F
100
AcDbEntity
  8
0
  6
Continuous
 62
     7
370
    15
100
AcDbSpline
210
0.0
220
0.0
230
1.0
 70
    24
 71
     3
 72
     9
 73
     5
 74
     0
 42
0.00000001
 43
0.00000001
 12
1.0
 22
0.0
 32
0.0
 13
1.0
 23
0.0
 33
0.0
 40
0.0
 40
0.0
 40
0.0
 40
0.0
 40
0.3442631659020049
 40
1.0
 40
1.0
 40
1.0
 40
1.0
 10
268.0561564148315
 20
266.045994887119
 30
0.0
 10
267.808234400791
 20
266.045994887119
 30
0.0
 10
267.088081800698
 20
266.045994887119
 30
0.0
 10
266.3135270124964
 20
266.045994887119
 30
0.0
 10
265.8056229078456
 20
266.045994887119
 30
0.0
  0
LINE
  5
10D
330
1F
100
AcDbEntity
  8
0
  6
Continuous
 62
     7
370
    15
100
AcDbLine
 10
265.5712095177
 20
243.0459948871
 30
0.0
 11
265.5712095177
 21
266.0459948871
 31
0.0
  0
LINE
  5
10E
330
1F
100
AcDbEntity
  8
0
  6
Continuous
 62
     7
370
    15
100
AcDbLine
 10
265.5712095177
 20
266.0459948871
 30
0.0
 11
265.8056229078
 21
266.0459948871
 31
0.0
  0
LINE
  5
10F
330
1F
100
AcDbEntity
  8
0
  6
Continuous
 62
     7
370
    15
100
AcDbLine
 10
306.0090462195
 20
243.0459948871
 30
0.0
 11
306.0090462195
 21
266.0459948871
 31
0.0
  0
SPLINE
  5
110
330
1F
100
AcDbEntity
  8
0
  6
Continuous
 62
     7
370
    15
100
AcDbSpline
210
0.0
220
0.0
230
1.0
 70
    24
 71
     3
 72
    10
 73
     6
 74
     0
 42
0.00000001
 43
0.00000001
 12
1.0
 22
0.0
 32
0.0
 13
1.0
 23
0.0
 33
0.0
 40
0.0
 40
0.0
 40
0.0
 40
0.0
 40
0.4150655242457875
 40
0.7829271866543733
 40
1.0
 40
1.0
 40
1.0
 40
1.0
 10
306.0090462194992
 20
266.045994887119
 30
0.0
 10
305.8175558244458
 20
266.045994887119
 30
0.0
 10
305.4563525263812
 20
266.045994887119
 30
0.0
 10
304.7123466167429
 20
266.045994887119
 30
0.0
 10
304.1463151315818
 20
266.045994887119
 30
0.0
 10
303.9362573353343
 20
266.045994887119
 30
0.0
  0
LINE
  5
111
330
1F
100
AcDbEntity
  8
0
  6
Continuous
 62
     7
370
    15
100
AcDbLine
 10
306.2230834871
 20
243.0459948871
 30
0.0
 11
306.2230834871
 21
266.0459948871
 31
0.0
  0
LINE
  5
112
330
1F
100
AcDbEntity
  8
0
  6
Continuous
 62
     7
370
    15
100
AcDbLine
 10
306.0090462195
 20
266.0459948871
 30
0.0
 11
306.2230834871
 21
266.0459948871
 31
0.0
  0
LINE
  5
113
330
1F
100
AcDbEntity
  8
0
  6
Continuous
 62
     7
370
    15
100
AcDbLine
 10
263.6217004158
 20
243.0459948871
 30
0.0
 11
263.6217004158
 21
266.0459948871
 31
0.0
  0
SPLINE
  5
114
330
1F
100
AcDbEntity
  8
0
  6
Continuous
 62
     7
370
    15
100
AcDbSpline
210
0.0
220
0.0
230
1.0
 70
    24
 71
     3
 72
     9
 73
     5
 74
     0
 42
0.00000001
 43
0.00000001
 12
1.0
 22
0.0
 32
0.0
 13
1.0
 23
0.0
 33
0.0
 40
0.0
 40
0.0
 40
0.0
 40
0.0
 40
0.1718892509107692
 40
0.9999999999999999
 40
0.9999999999999999
 40
0.9999999999999999
 40
0.9999999999999999
 10
265.4335610935843
 20
266.045994887119
 30
0.0
 10
265.3308438062251
 20
266.045994887119
 30
0.0
 10
264.7332655003394
 20
266.0459948871189
 30
0.0
 10
264.1252251586337
 20
266.045994887119
 30
0.0
 10
263.6217004157872
 20
266.045994887119
 30
0.0
  0
LINE
  5
115
330
1F
100
AcDbEntity
  8
0
  6
Continuous
 62
     7
370
    15
100
AcDbLine
 10
263.4372938621
 20
243.0459948871
 30
0.0
 11
263.4372938621
 21
266.0459948871
 31
0.0
  0
LINE
  5
116
330
1F
100
AcDbEntity
  8
0
  6
Continuous
 62
     7
370
    15
100
AcDbLine
 10
263.4372938621
 20
266.0459948871
 30
0.0
 11
263.6217004158
 21
266.0459948871
 31
0.0
  0
LINE
  5
117
330
1F
100
AcDbEntity
  8
0
  6
Continuous
 62
     7
370
    15
100
AcDbLine
 10
307.9732882552
 20
243.0459948871
 30
0.0
 11
307.9732882552
 21
266.0459948871
 31
0.0
  0
SPLINE
  5
118
330
1F
100
AcDbEntity
  8
0
  6
Continuous
 62
     7
370
    15
100
AcDbSpline
210
0.0
220
0.0
230
1.0
 70
    24
 71
     3
 72
     9
 73
     5
 74
     0
 42
0.00000001
 43
0.00000001
 12
1.0
 22
0.0
 32
0.0
 13
1.0
 23
0.0
 33
0.0
 40
0.0
 40
0.0
 40
0.0
 40
0.0
 40
0.5858355847185105
 40
0.9999999999999999
 40
0.9999999999999999
 40
0.9999999999999999
 40
0.9999999999999999
 10
307.9732882551535
 20
266.045994887119
 30
0.0
 10
307.7197647957678
 20
266.045994887119
 30
0.0
 10
307.2870094869425
 20
266.045994887119
 30
0.0
 10
306.6320095691497
 20
266.045994887119
 30
0.0
 10
306.3607319111875
 20
266.045994887119
 30
0.0
  0
LINE
  5
119
330
1F
100
AcDbEntity
  8
0
  6
Continuous
 62
     7
370
    15
100
AcDbLine
 10
308.1352536756
 20
243.0459948871
 30
0.0
 11
308.1352536756
 21
266.0459948871
 31
0.0
  0
LINE
  5
11A
330
1F
100
AcDbEntity
  8
0
  6
Continuous
 62
     7
370
    15
100
AcDbLine
 10
307.9732882552
 20
266.0459948871
 30
0.0
 11
308.1352536756
 21
266.0459948871
 31
0.0
  0
LINE
  5
11B
330
1F
100
AcDbEntity
  8
0
  6
Continuous
 62
     7
370
    15
100
AcDbLine
 10
261.9744609735
 20
243.0459948871
 30
0.0
 11
261.9744609735
 21
266.0459948871
 31
0.0
  0
LINE
  5
11C
330
1F
100
AcDbEntity
  8
0
  6
Continuous
 62
     7
370
    15
100
AcDbLine
 10
263.299645438
 20
266.0459948871
 30
0.0
 11
261.9744609735
 21
266.0459948871
 31
0.0
  0
LINE
  5
11D
330
1F
100
AcDbEntity
  8
0
  6
Continuous
 62
     7
370
    15
100
AcDbLine
 10
261.8446019577
 20
243.0459948871
 30
0.0
 11
261.8446019577
 21
266.0459948871
 31
0.0
  0
LINE
  5
11E
330
1F
100
AcDbEntity
  8
0
  6
Continuous
 62
     7
370
    15
100
AcDbLine
 10
260.904465083
 20
243.0459948871
 30
0.0
 11
260.904465083
 21
266.0459948871
 31
0.0
  0
LINE
  5
11F
330
1F
100
AcDbEntity
  8
0
  6
Continuous
 62
     7
370
    15
100
AcDbLine
 10
261.7069535335
 20
266.0459948871
 30
0.0
 11
260.904465083
 21
266.0459948871
 31
0.0
  0
LINE
  5
120
330
1F
100
AcDbEntity
  8
0
  6
Continuous
 62
     7
370
    15
100
AcDbLine
 10
309.3821300535
 20
243.0459948871
 30
0.0
 11
309.3821300535
 21
266.0459948871
 31
0.0
  0
SPLINE
  5
121
330
1F
100
AcDbEntity
  8
0
  6
Continuous
 62
     7
370
    15
100
AcDbSpline
210
0.0
220
0.0
230
1.0
 70
    24
 71
     3
 72
     9
 73
     5
 74
     0
 42
0.00000001
 43
0.00000001
 12
1.0
 22
0.0
 32
0.0
 13
1.0
 23
0.0
 33
0.0
 40
0.0
 40
0.0
 40
0.0
 40
0.0
 40
0.930247666798752
 40
1.0
 40
1.0
 40
1.0
 40
1.0
 10
309.3821300535109
 20
266.045994887119
 30
0.0
 10
309.0776435947981
 20
266.045994887119
 30
0.0
 10
308.750325967912
 20
266.0459948871189
 30
0.0
 10
308.3040321358134
 20
266.045994887119
 30
0.0
 10
308.2729020997313
 20
266.045994887119
 30
0.0
  0
LINE
  5
122
330
1F
100
AcDbEntity
  8
0
  6
Continuous
 62
     7
370
    15
100
AcDbLine
 10
309.4880355007
 20
243.0459948871
 30
0.0
 11
309.4880355007
 21
266.0459948871
 31
0.0
  0
LINE
  5
123
330
1F
100
AcDbEntity
  8
0
  6
Continuous
 62
     7
370
    15
100
AcDbLine
 10
309.3821300535
 20
266.0459948871
 30
0.0
 11
309.4880355007
 21
266.0459948871
 31
0.0
  0
LINE
  5
124
330
1F
100
AcDbEntity
  8
0
  6
Continuous
 62
     7
370
    15
100
AcDbLine
 10
260.8323511649
 20
243.0459948871
 30
0.0
 11
260.8323511649
 21
266.0459948871
 31
0.0
  0
LINE
  5
125
330
1F
100
AcDbEntity
  8
0
  6
Continuous
 62
     7
370
    15
100
AcDbLine
 10
310.2008812538
 20
243.0459948871
 30
0.0
 11
310.2008812538
 21
266.0459948871
 31
0.0
  0
LINE
  5
126
330
1F
100
AcDbEntity
  8
0
  6
Continuous
 62
     7
370
    15
100
AcDbLine
 10
310.2008812538
 20
266.0459948871
 30
0.0
 11
309.6256839248
 21
266.0459948871
 31
0.0
  0
LINE
  5
127
330
1F
100
AcDbEntity
  8
0
  6
Continuous
 62
     7
370
    15
100
AcDbLine
 10
260.4380595941
 20
243.0459948871
 30
0.0
 11
260.4380595941
 21
266.0459948871
 31
0.0
  0
LINE
  5
128
330
1F
100
AcDbEntity
  8
0
  6
Continuous
 62
     7
370
    15
100
AcDbLine
 10
260.6947027408
 20
266.0459948871
 30
0.0
 11
260.4380595941
 21
266.0459948871
 31
0.0
  0
LINE
  5
129
330
1F
100
AcDbEntity
  8
0
  6
Continuous
 62
     7
370
    15
100
AcDbLine
 10
310.2481189841
 20
243.0459948871
 30
0.0
 11
310.2481189841
 21
266.0459948871
 31
0.0
  0
LINE
  5
12A
330
1F
100
AcDbEntity
  8
0
  6
Continuous
 62
     7
370
    15
100
AcDbLine
 10
310.2008812538
 20
266.0459948871
 30
0.0
 11
310.2481189841
 21
266.0459948871
 31
0.0
  0
LINE
  5
12B
330
1F
100
AcDbEntity
  8
0
  6
Continuous
 62
     7
370
    15
100
AcDbLine
 10
310.4093814842
 20
243.0459948871
 30
0.0
 11
310.4093814842
 21
266.0459948871
 31
0.0
  0
LINE
  5
12C
330
1F
100
AcDbEntity
  8
0
  6
Continuous
 62
     7
370
    15
100
AcDbLine
 10
260.4254664578
 20
243.0459948871
 30
0.0
 11
260.4254664578
 21
266.0459948871
 31
0.0
  0
LINE
  5
12D
330
1F
100
AcDbEntity
  8
0
  6
Continuous
 62
     7
370
    15
100
AcDbLine
 10
280.417423971
 20
215.1690343496
 30
0.0
 11
280.417423971
 21
214.6910211363
 31
0.0
  0
LINE
  5
12E
330
1F
100
AcDbEntity
  8
0
  6
Continuous
 62
     7
370
    15
100
AcDbLine
 10
280.417423971
 20
215.1690343496
 30
0.0
 11
290.417423971
 21
215.1690343496
 31
0.0
  0
LINE
  5
12F
330
1F
100
AcDbEntity
  8
0
  6
Continuous
 62
     7
370
    15
100
AcDbLine
 10
290.417423971
 20
215.1690343496
 30
0.0
 11
290.417423971
 21
214.6910211363
 31
0.0
  0
LINE
  5
130
330
1F
100
AcDbEntity
  8
0
  6
Continuous
 62
     7
370
    15
100
AcDbLine
 10
280.417423971
 20
214.6910211363
 30
0.0
 11
290.417423971
 21
214.6910211363
 31
0.0
  0
LINE
  5
131
330
1F
100
AcDbEntity
  8
0
  6
Continuous
 62
     7
370
    15
100
AcDbLine
 10
280.417423971
 20
243.0526506806
 30
0.0
 11
280.417423971
 21
215.1690343496
 31
0.0
  0
LINE
  5
132
330
1F
100
AcDbEntity
  8
0
  6
Continuous
 62
     7
370
    15
100
AcDbLine
 10
280.417423971
 20
243.0526506806
 30
0.0
 11
290.417423971
 21
243.0526506806
 31
0.0
  0
LINE
  5
133
330
1F
100
AcDbEntity
  8
0
  6
Continuous
 62
     7
370
    15
100
AcDbLine
 10
290.417423971
 20
243.0526506806
 30
0.0
 11
290.417423971
 21
215.1690343496
 31
0.0
  0
ARC
  5
134
330
1F
100
AcDbEntity
  8
0
  6
Continuous
 62
     7
370
    15
100
AcDbCircle
 10
137.6286212489
 20
126.8044806568
 30
0.0
 40
38.00000000000002
100
AcDbArc
 50
154.6538240581
 51
205.3461759419
  0
ARC
  5
135
330
1F
100
AcDbEntity
  8
0
  6
Continuous
 62
     7
370
    15
100
AcDbCircle
 10
137.6286212489
 20
126.8044806568
 30
0.0
 40
38.00000000000001
100
AcDbArc
 50
334.6538240581
 51
25.3461759419
  0
ARC
  5
136
330
1F
100
AcDbEntity
  8
0
  6
Continuous
 62
     7
370
    15
100
AcDbCircle
 10
137.6286212489
 20
126.8044806568
 30
0.0
 40
5.036493142300335
100
AcDbArc
 50
220.6870809372
 51
223.9634488671
  0
SPLINE
  5
137
330
1F
100
AcDbEntity
  8
0
  6
Continuous
 62
     7
370
    15
100
AcDbSpline
210
0.0
220
0.0
230
1.0
 70
     8
 71
     3
 72
     9
 73
     5
 74
     0
 42
0.00000001
 43
0.00000001
 12
1.0
 22
0.0
 32
0.0
 13
1.0
 23
0.0
 33
0.0
 40
0.193007273915561
 40
0.193007273915561
 40
0.193007273915561
 40
0.193007273915561
 40
0.5157029187818981
 40
1.0
 40
1.0
 40
1.0
 40
1.0
 10
133.8095424186686
 20
123.5210525609383
 30
0.0
 10
131.7992241260956
 20
121.5312802084089
 30
0.0
 10
127.549166247104
 20
115.8293678979531
 30
0.0
 10
128.7674666557527
 20
107.5641457462869
 30
0.0
 10
123.7677218515781
 20
105.9988211407891
 30
0.0
  0
ARC
  5
138
330
1F
100
AcDbEntity
  8
0
  6
Continuous
 62
     7
370
    15
100
AcDbCircle
 10
137.6286212489
 20
126.8044806568
 30
0.0
 40
25.00000000000001
100
AcDbArc
 50
235.453364163
 51
236.3281250137
  0
SPLINE
  5
139
330
1F
100
AcDbEntity
  8
0
  6
Continuous
 62
     7
370
    15
100
AcDbSpline
210
0.0
220
0.0
230
1.0
 70
     8
 71
     3
 72
    10
 73
     6
 74
     0
 42
0.00000001
 43
0.00000001
 12
1.0
 22
0.0
 32
0.0
 13
1.0
 23
0.0
 33
0.0
 40
0.1792841064268909
 40
0.1792841064268909
 40
0.1792841064268909
 40
0.1792841064268909
 40
0.3468266318508666
 40
0.6544165337112624
 40
0.9908353460662696
 40
0.9908353460662696
 40
0.9908353460662696
 40
0.9908353460662696
 10
123.4517001030464
 20
106.2128584083441
 30
0.0
 10
125.1091929854877
 20
106.7999420880588
 30
0.0
 10
127.9062277077562
 20
109.58261892135
 30
0.0
 10
127.8733191569299
 20
117.3198430400524
 30
0.0
 10
131.3806718406353
 20
121.8710172697445
 30
0.0
 10
133.5011255519964
 20
123.9182993658439
 30
0.0
  0
ARC
  5
13A
330
1F
100
AcDbEntity
  8
0
  6
Continuous
 62
     7
370
    15
100
AcDbCircle
 10
137.6286212489
 20
126.8044806568
 30
0.0
 40
5.036493142300332
100
AcDbArc
 50
211.6870809372
 51
214.9634488671
  0
SPLINE
  5
13B
330
1F
100
AcDbEntity
  8
0
  6
Continuous
 62
     7
370
    15
100
AcDbSpline
210
0.0
220
0.0
230
1.0
 70
     8
 71
     3
 72
     9
 73
     5
 74
     0
 42
0.00000001
 43
0.00000001
 12
1.0
 22
0.0
 32
0.0
 13
1.0
 23
0.0
 33
0.0
 40
0.193007273915561
 40
0.193007273915561
 40
0.193007273915561
 40
0.193007273915561
 40
0.5157029187818981
 40
1.0
 40
1.0
 40
1.0
 40
1.0
 10
133.3429202987898
 20
124.1589125630908
 30
0.0
 10
131.0460833868105
 20
122.5081206767182
 30
0.0
 10
125.9563751708836
 20
117.5412638992751
 30
0.0
 10
125.8667106741138
 20
109.1872161749604
 30
0.0
 10
120.683650307804
 20
108.4232957166422
 30
0.0
  0
ARC
  5
13C
330
1F
100
AcDbEntity
  8
0
  6
Continuous
 62
     7
370
    15
100
AcDbCircle
 10
137.6286212489
 20
126.8044806568
 30
0.0
 40
25.00000000000002
100
AcDbArc
 50
226.453364163
 51
227.3281250137
  0
SPLINE
  5
13D
330
1F
100
AcDbEntity
  8
0
  6
Continuous
 62
     7
370
    15
100
AcDbSpline
210
0.0
220
0.0
230
1.0
 70
     8
 71
     3
 72
    10
 73
     6
 74
     0
 42
0.00000001
 43
0.00000001
 12
1.0
 22
0.0
 32
0.0
 13
1.0
 23
0.0
 33
0.0
 40
0.1792841064268909
 40
0.1792841064268909
 40
0.1792841064268909
 40
0.1792841064268909
 40
0.3468266318508666
 40
0.6544165337112624
 40
0.9908353460662696
 40
0.9908353460662696
 40
0.9908353460662696
 40
0.9908353460662696
 10
120.4050021168535
 20
108.6841345234318
 30
0.0
 10
122.1339286328302
 20
109.0047012164671
 30
0.0
 10
125.3318337780502
 20
111.315566049876
 30
0.0
 10
126.5096989019988
 20
118.9626801320336
 30
0.0
 10
130.6858307599763
 20
122.9091510139347
 30
0.0
 10
133.1004436469491
 20
124.599515628182
 30
0.0
  0
ARC
  5
13E
330
1F
100
AcDbEntity
  8
0
  6
Continuous
 62
     7
370
    15
100
AcDbCircle
 10
137.6286212489
 20
126.8044806568
 30
0.0
 40
5.036493142300333
100
AcDbArc
 50
202.6870809372
 51
205.9634488671
  0
SPLINE
  5
13F
330
1F
100
AcDbEntity
  8
0
  6
Continuous
 62
     7
370
    15
100
AcDbSpline
210
0.0
220
0.0
230
1.0
 70
     8
 71
     3
 72
     9
 73
     5
 74
     0
 42
0.00000001
 43
0.00000001
 12
1.0
 22
0.0
 32
0.0
 13
1.0
 23
0.0
 33
0.0
 40
0.193007273915561
 40
0.193007273915561
 40
0.193007273915561
 40
0.193007273915561
 40
0.5157029187818981
 40
1.0
 40
1.0
 40
1.0
 40
1.0
 10
132.9818263597289
 20
124.861915231848
 30
0.0
 10
130.455026575881
 20
123.5907517865389
 30
0.0
 10
124.650993531068
 20
119.4812510400219
 30
0.0
 10
123.2555719663693
 20
111.2440821235262
 30
0.0
 10
118.0168201857342
 20
111.3003760693781
 30
0.0
  0
ARC
  5
140
330
1F
100
AcDbEntity
  8
0
  6
Continuous
 62
     7
370
    15
100
AcDbCircle
 10
137.6286212489
 20
126.8044806568
 30
0.0
 40
25.00000000000001
100
AcDbArc
 50
217.453364163
 51
218.3281250137
  0
SPLINE
  5
141
330
1F
100
AcDbEntity
  8
0
  6
Continuous
 62
     7
370
    15
100
AcDbSpline
210
0.0
220
0.0
230
1.0
 70
     8
 71
     3
 72
    10
 73
     6
 74
     0
 42
0.00000001
 43
0.00000001
 12
1.0
 22
0.0
 32
0.0
 13
1.0
 23
0.0
 33
0.0
 40
0.1792841064268909
 40
0.1792841064268909
 40
0.1792841064268909
 40
0.1792841064268909
 40
0.3468266318508666
 40
0.6544165337112624
 40
0.9908353460662696
 40
0.9908353460662696
 40
0.9908353460662696
 40
0.9908353460662696
 10
117.7824067956062
 20
111.6015936983047
 30
0.0
 10
119.5401950363169
 20
111.6477499887781
 30
0.0
 10
123.0602275665745
 20
113.4299016607855
 30
0.0
 10
125.4198634168361
 20
120.798608378379
 30
0.0
 10
130.1619442229555
 20
124.0432007017908
 30
0.0
 10
132.811260502622
 20
125.3350254473846
 30
0.0
  0
ARC
  5
142
330
1F
100
AcDbEntity
  8
0
  6
Continuous
 62
     7
370
    15
100
AcDbCircle
 10
137.6286212489
 20
126.8044806568
 30
0.0
 40
5.03649314230032
100
AcDbArc
 50
193.6870809372
 51
196.9634488671
  0
SPLINE
  5
143
330
1F
100
AcDbEntity
  8
0
  6
Continuous
 62
     7
370
    15
100
AcDbSpline
210
0.0
220
0.0
230
1.0
 70
     8
 71
     3
 72
     9
 73
     5
 74
     0
 42
0.00000001
 43
0.00000001
 12
1.0
 22
0.0
 32
0.0
 13
1.0
 23
0.0
 33
0.0
 40
0.193007273915561
 40
0.193007273915561
 40
0.193007273915561
 40
0.193007273915561
 40
0.5157029187818981
 40
1.0
 40
1.0
 40
1.0
 40
1.0
 10
132.7351519326679
 20
125.6127503083731
 30
0.0
 10
130.0406074735973
 20
124.7525155669006
 30
0.0
 10
123.6651641559427
 20
121.6015603983398
 30
0.0
 10
120.9983454333769
 20
113.6840967259836
 30
0.0
 10
115.8328976936758
 20
114.5592189322298
 30
0.0
  0
ARC
  5
144
330
1F
100
AcDbEntity
  8
0
  6
Continuous
 62
     7
370
    15
100
AcDbCircle
 10
137.6286212489
 20
126.8044806568
 30
0.0
 40
25.00000000000001
100
AcDbArc
 50
208.453364163
 51
209.3281250137
  0
SPLINE
  5
145
330
1F
100
AcDbEntity
  8
0
  6
Continuous
 62
     7
370
    15
100
AcDbSpline
210
0.0
220
0.0
230
1.0
 70
     8
 71
     3
 72
    10
 73
     6
 74
     0
 42
0.00000001
 43
0.00000001
 12
1.0
 22
0.0
 32
0.0
 13
1.0
 23
0.0
 33
0.0
 40
0.1792841064268909
 40
0.1792841064268909
 40
0.1792841064268909
 40
0.1792841064268909
 40
0.3468266318508666
 40
0.6544165337112624
 40
0.9908353460662696
 40
0.9908353460662696
 40
0.9908353460662696
 40
0.9908353460662696
 10
115.6484911400089
 20
114.8933984055853
 30
0.0
 10
117.3918585252025
 20
114.6640077724414
 30
0.0
 10
121.1473435572846
 20
115.8735637942602
 30
0.0
 10
124.6306480680433
 20
122.782421132567
 30
0.0
 10
129.821912054794
 20
125.2452422663024
 30
0.0
 10
132.6406967677722
 20
126.1067181306857
 30
0.0
  0
ARC
  5
146
330
1F
100
AcDbEntity
  8
0
  6
Continuous
 62
     7
370
    15
100
AcDbCircle
 10
137.6286212489
 20
126.8044806568
 30
0.0
 40
5.036493142300349
100
AcDbArc
 50
184.6870809372
 51
187.9634488671
  0
SPLINE
  5
147
330
1F
100
AcDbEntity
  8
0
  6
Continuous
 62
     7
370
    15
100
AcDbSpline
210
0.0
220
0.0
230
1.0
 70
     8
 71
     3
 72
     9
 73
     5
 74
     0
 42
0.00000001
 43
0.00000001
 12
1.0
 22
0.0
 32
0.0
 13
1.0
 23
0.0
 33
0.0
 40
0.193007273915561
 40
0.193007273915561
 40
0.193007273915561
 40
0.193007273915561
 40
0.5157029187818981
 40
1.0
 40
1.0
 40
1.0
 40
1.0
 10
132.6089709606663
 20
126.3929297412032
 30
0.0
 10
129.8130304536358
 20
125.9648055378577
 30
0.0
 10
123.0231614365036
 20
123.8499829209239
 30
0.0
 10
119.150611483684
 20
116.4471787248759
 30
0.0
 10
114.1856582514067
 20
118.1195807784346
 30
0.0
  0
ARC
  5
148
330
1F
100
AcDbEntity
  8
0
  6
Continuous
 62
     7
370
    15
100
AcDbCircle
 10
137.6286212489
 20
126.8044806568
 30
0.0
 40
25.00000000000001
100
AcDbArc
 50
199.453364163
 51
200.3281250137
  0
SPLINE
  5
149
330
1F
100
AcDbEntity
  8
0
  6
Continuous
 62
     7
370
    15
100
AcDbSpline
210
0.0
220
0.0
230
1.0
 70
     8
 71
     3
 72
    10
 73
     6
 74
     0
 42
0.00000001
 43
0.00000001
 12
1.0
 22
0.0
 32
0.0
 13
1.0
 23
0.0
 33
0.0
 40
0.1792841064268909
 40
0.1792841064268909
 40
0.1792841064268909
 40
0.1792841064268909
 40
0.3468266318508666
 40
0.6544165337112624
 40
0.9908353460662696
 40
0.9908353460662696
 40
0.9908353460662696
 40
0.9908353460662696
 10
114.0557992355623
 20
118.4784934885069
 30
0.0
 10
115.7418182743108
 20
117.9792042904375
 30
0.0
 10
119.6402833029873
 20
118.5863813785242
 30
0.0
 10
124.1614859567634
 20
124.8652703406922
 30
0.0
 10
129.6741069759742
 20
126.485677454804
 30
0.0
 10
132.5929522876204
 20
126.8955920431212
 30
0.0
  0
ARC
  5
14A
330
1F
100
AcDbEntity
  8
0
  6
Continuous
 62
     7
370
    15
100
AcDbCircle
 10
137.6286212489
 20
126.8044806568
 30
0.0
 40
5.036493142300331
100
AcDbArc
 50
175.6870809372
 51
178.9634488671
  0
SPLINE
  5
14B
330
1F
100
AcDbEntity
  8
0
  6
Continuous
 62
     7
370
    15
100
AcDbSpline
210
0.0
220
0.0
230
1.0
 70
     8
 71
     3
 72
     9
 73
     5
 74
     0
 42
0.00000001
 43
0.00000001
 12
1.0
 22
0.0
 32
0.0
 13
1.0
 23
0.0
 33
0.0
 40
0.193007273915561
 40
0.193007273915561
 40
0.193007273915561
 40
0.193007273915561
 40
0.5157029187818981
 40
1.0
 40
1.0
 40
1.0
 40
1.0
 10
132.6063904380255
 20
127.1832429234349
 30
0.0
 10
129.7778992175127
 20
127.1977710969656
 30
0.0
 10
122.7407936103881
 20
126.1711549831815
 30
0.0
 10
117.7578674594095
 20
119.4652918712471
 30
0.0
 10
113.1156623608698
 20
121.8937936831754
 30
0.0
  0
ARC
  5
14C
330
1F
100
AcDbEntity
  8
0
  6
Continuous
 62
     7
370
    15
100
AcDbCircle
 10
137.6286212489
 20
126.8044806568
 30
0.0
 40
25.00000000000001
100
AcDbArc
 50
190.453364163
 51
191.3281250137
  0
SPLINE
  5
14D
330
1F
100
AcDbEntity
  8
0
  6
Continuous
 62
     7
370
    15
100
AcDbSpline
210
0.0
220
0.0
230
1.0
 70
     8
 71
     3
 72
    10
 73
     6
 74
     0
 42
0.00000001
 43
0.00000001
 12
1.0
 22
0.0
 32
0.0
 13
1.0
 23
0.0
 33
0.0
 40
0.1792841064268909
 40
0.1792841064268909
 40
0.1792841064268909
 40
0.1792841064268909
 40
0.3468266318508666
 40
0.6544165337112624
 40
0.9908353460662696
 40
0.9908353460662696
 40
0.9908353460662696
 40
0.9908353460662696
 10
113.0435484427954
 20
122.2686020078794
 30
0.0
 10
114.6307037507883
 20
121.511708401987
 30
0.0
 10
118.5761556287895
 20
121.5015558413277
 30
0.0
 10
124.0239294112358
 20
126.9958693426706
 30
0.0
 10
129.7221684380734
 20
127.7339626361865
 30
0.0
 10
132.6692026897227
 20
127.6822224908446
 30
0.0
  0
ARC
  5
14E
330
1F
100
AcDbEntity
  8
0
  6
Continuous
 62
     7
370
    15
100
AcDbCircle
 10
137.6286212489
 20
126.8044806568
 30
0.0
 40
5.036493142300341
100
AcDbArc
 50
166.6870809372
 51
169.9634488671
  0
SPLINE
  5
14F
330
1F
100
AcDbEntity
  8
0
  6
Continuous
 62
     7
370
    15
100
AcDbSpline
210
0.0
220
0.0
230
1.0
 70
     8
 71
     3
 72
     9
 73
     5
 74
     0
 42
0.00000001
 43
0.00000001
 12
1.0
 22
0.0
 32
0.0
 13
1.0
 23
0.0
 33
0.0
 40
0.193007273915561
 40
0.193007273915561
 40
0.193007273915561
 40
0.193007273915561
 40
0.5157029187818981
 40
1.0
 40
1.0
 40
1.0
 40
1.0
 10
132.7274739057772
 20
127.9642297216226
 30
0.0
 10
129.9360788128554
 20
128.421052540181
 30
0.0
 10
122.8250135106002
 20
128.5079216254115
 30
0.0
 10
116.8544073406836
 20
122.6641202028901
 30
0.0
 10
112.6492568720028
 20
125.788923998843
 30
0.0
  0
ARC
  5
150
330
1F
100
AcDbEntity
  8
0
  6
Continuous
 62
     7
370
    15
100
AcDbCircle
 10
137.6286212489
 20
126.8044806568
 30
0.0
 40
25.00000000000001
100
AcDbArc
 50
181.453364163
 51
182.3281250137
  0
SPLINE
  5
151
330
1F
100
AcDbEntity
  8
0
  6
Continuous
 62
     7
370
    15
100
AcDbSpline
210
0.0
220
0.0
230
1.0
 70
     8
 71
     3
 72
    10
 73
     6
 74
     0
 42
0.00000001
 43
0.00000001
 12
1.0
 22
0.0
 32
0.0
 13
1.0
 23
0.0
 33
0.0
 40
0.1792841064268909
 40
0.1792841064268909
 40
0.1792841064268909
 40
0.1792841064268909
 40
0.3468266318508666
 40
0.6544165337112624
 40
0.9908353460662696
 40
0.9908353460662696
 40
0.9908353460662696
 40
0.9908353460662696
 10
112.6366637356938
 20
126.1703989133071
 30
0.0
 10
114.085874281782
 20
125.1745381321545
 30
0.0
 10
117.9811628896674
 20
124.547305912487
 30
0.0
 10
124.2213655301353
 20
129.1217557200206
 30
0.0
 10
129.964913008388
 20
128.959360886463
 30
0.0
 10
132.8675704361189
 20
128.4472400215562
 30
0.0
  0
ARC
  5
152
330
1F
100
AcDbEntity
  8
0
  6
Continuous
 62
     7
370
    15
100
AcDbCircle
 10
137.6286212489
 20
126.8044806568
 30
0.0
 40
5.036493142300333
100
AcDbArc
 50
157.6870809372
 51
160.9634488671
  0
SPLINE
  5
153
330
1F
100
AcDbEntity
  8
0
  6
Continuous
 62
     7
370
    15
100
AcDbSpline
210
0.0
220
0.0
230
1.0
 70
     8
 71
     3
 72
     9
 73
     5
 74
     0
 42
0.00000001
 43
0.00000001
 12
1.0
 22
0.0
 32
0.0
 13
1.0
 23
0.0
 33
0.0
 40
0.193007273915561
 40
0.193007273915561
 40
0.193007273915561
 40
0.193007273915561
 40
0.5157029187818981
 40
1.0
 40
1.0
 40
1.0
 40
1.0
 10
132.9692398870924
 20
128.7166596488484
 30
0.0
 10
130.2836743330583
 20
129.6045286185335
 30
0.0
 10
123.2737473636869
 20
130.8027438975982
 30
0.0
 10
116.4624773140414
 20
125.9648979499774
 30
0.0
 10
112.7979262358528
 20
129.7090606898693
 30
0.0
  0
ARC
  5
154
330
1F
100
AcDbEntity
  8
0
  6
Continuous
 62
     7
370
    15
100
AcDbCircle
 10
137.6286212489
 20
126.8044806568
 30
0.0
 40
25.00000000000002
100
AcDbArc
 50
172.453364163
 51
173.3281250137
  0
SPLINE
  5
155
330
1F
100
AcDbEntity
  8
0
  6
Continuous
 62
     7
370
    15
100
AcDbSpline
210
0.0
220
0.0
230
1.0
 70
     8
 71
     3
 72
    10
 73
     6
 74
     0
 42
0.00000001
 43
0.00000001
 12
1.0
 22
0.0
 32
0.0
 13
1.0
 23
0.0
 33
0.0
 40
0.1792841064268909
 40
0.1792841064268909
 40
0.1792841064268909
 40
0.1792841064268909
 40
0.3468266318508666
 40
0.6544165337112624
 40
0.9908353460662696
 40
0.9908353460662696
 40
0.9908353460662696
 40
0.9908353460662696
 10
112.8451639661193
 20
130.0878090156566
 30
0.0
 10
114.1207453770039
 20
128.8775024567483
 30
0.0
 10
117.8699557815258
 20
127.6486351169852
 30
0.0
 10
124.7489327809618
 20
131.1905830947196
 30
0.0
 10
130.3963635099737
 20
130.1316988338483
 30
0.0
 10
133.1831710545477
 20
129.1718073647022
 30
0.0
  0
ARC
  5
156
330
1F
100
AcDbEntity
  8
0
  6
Continuous
 62
     7
370
    15
100
AcDbCircle
 10
137.6286212489
 20
126.8044806568
 30
0.0
 40
5.036493142300326
100
AcDbArc
 50
148.6870809372
 51
151.9634488671
  0
SPLINE
  5
157
330
1F
100
AcDbEntity
  8
0
  6
Continuous
 62
     7
370
    15
100
AcDbSpline
210
0.0
220
0.0
230
1.0
 70
     8
 71
     3
 72
     9
 73
     5
 74
     0
 42
0.00000001
 43
0.00000001
 12
1.0
 22
0.0
 32
0.0
 13
1.0
 23
0.0
 33
0.0
 40
0.193007273915561
 40
0.193007273915561
 40
0.193007273915561
 40
0.193007273915561
 40
0.5157029187818981
 40
1.0
 40
1.0
 40
1.0
 40
1.0
 10
133.3257353011358
 20
129.4220053831322
 30
0.0
 10
130.812126822811
 20
130.7190582232422
 30
0.0
 10
124.0759458529229
 20
132.999115659322
 30
0.0
 10
116.59172799748
 20
129.2863490097224
 30
0.0
 10
113.5580097192764
 20
133.5576769807334
 30
0.0
  0
ARC
  5
158
330
1F
100
AcDbEntity
  8
0
  6
Continuous
 62
     7
370
    15
100
AcDbCircle
 10
137.6286212489
 20
126.8044806568
 30
0.0
 40
25.00000000000001
100
AcDbArc
 50
163.453364163
 51
164.3281250137
  0
SPLINE
  5
159
330
1F
100
AcDbEntity
  8
0
  6
Continuous
 62
     7
370
    15
100
AcDbSpline
210
0.0
220
0.0
230
1.0
 70
     8
 71
     3
 72
    10
 73
     6
 74
     0
 42
0.00000001
 43
0.00000001
 12
1.0
 22
0.0
 32
0.0
 13
1.0
 23
0.0
 33
0.0
 40
0.1792841064268909
 40
0.1792841064268909
 40
0.1792841064268909
 40
0.1792841064268909
 40
0.3468266318508666
 40
0.6544165337112624
 40
0.9908353460662696
 40
0.9908353460662696
 40
0.9908353460662696
 40
0.9908353460662696
 10
113.6639151664262
 20
133.9243726770695
 30
0.0
 10
114.7344583943593
 20
132.529422104663
 30
0.0
 10
118.2452725924423
 20
130.7291784370861
 30
0.0
 10
125.5936407071046
 20
133.1514100707581
 30
0.0
 10
131.0058961995794
 20
131.2221096273111
 30
0.0
 10
133.6082334103652
 20
129.8380832675932
 30
0.0
  0
ARC
  5
15A
330
1F
100
AcDbEntity
  8
0
  6
Continuous
 62
     7
370
    15
100
AcDbCircle
 10
137.6286212489
 20
126.8044806568
 30
0.0
 40
5.036493142300325
100
AcDbArc
 50
139.6870809372
 51
142.9634488671
  0
SPLINE
  5
15B
330
1F
100
AcDbEntity
  8
0
  6
Continuous
 62
     7
370
    15
100
AcDbSpline
210
0.0
220
0.0
230
1.0
 70
     8
 71
     3
 72
     9
 73
     5
 74
     0
 42
0.00000001
 43
0.00000001
 12
1.0
 22
0.0
 32
0.0
 13
1.0
 23
0.0
 33
0.0
 40
0.193007273915561
 40
0.193007273915561
 40
0.193007273915561
 40
0.193007273915561
 40
0.5157029187818981
 40
1.0
 40
1.0
 40
1.0
 40
1.0
 10
133.7881820476732
 20
130.0628989715877
 30
0.0
 10
131.5084240279822
 20
131.7371979365275
 30
0.0
 10
125.211856189159
 20
135.0429549484694
 30
0.0
 10
117.2389768102148
 20
132.5466882337701
 30
0.0
 10
114.9107915443392
 20
137.2400071655291
 30
0.0
  0
ARC
  5
15C
330
1F
100
AcDbEntity
  8
0
  6
Continuous
 62
     7
370
    15
100
AcDbCircle
 10
137.6286212489
 20
126.8044806568
 30
0.0
 40
25.00000000000002
100
AcDbArc
 50
154.453364163
 51
155.3281250137
  0
SPLINE
  5
15D
330
1F
100
AcDbEntity
  8
0
  6
Continuous
 62
     7
370
    15
100
AcDbSpline
210
0.0
220
0.0
230
1.0
 70
     8
 71
     3
 72
    10
 73
     6
 74
     0
 42
0.00000001
 43
0.00000001
 12
1.0
 22
0.0
 32
0.0
 13
1.0
 23
0.0
 33
0.0
 40
0.1792841064268909
 40
0.1792841064268909
 40
0.1792841064268909
 40
0.1792841064268909
 40
0.3468266318508666
 40
0.6544165337112624
 40
0.9908353460662696
 40
0.9908353460662696
 40
0.9908353460662696
 40
0.9908353460662696
 10
115.0727569647835
 20
137.585620967377
 30
0.0
 10
115.9119016825642
 20
136.0403746941404
 30
0.0
 10
119.0978717769271
 20
133.7130826725117
 30
0.0
 10
126.7346897959972
 20
134.9559545803744
 30
0.0
 10
131.778502359464
 20
132.2037437342503
 30
0.0
 10
134.13229105767
 20
130.4296618062571
 30
0.0
  0
ARC
  5
15E
330
1F
100
AcDbEntity
  8
0
  6
Continuous
 62
     7
370
    15
100
AcDbCircle
 10
137.6286212489
 20
126.8044806568
 30
0.0
 40
5.036493142300341
100
AcDbArc
 50
130.6870809372
 51
133.9634488671
  0
SPLINE
  5
15F
330
1F
100
AcDbEntity
  8
0
  6
Continuous
 62
     7
370
    15
100
AcDbSpline
210
0.0
220
0.0
230
1.0
 70
     8
 71
     3
 72
     9
 73
     5
 74
     0
 42
0.00000001
 43
0.00000001
 12
1.0
 22
0.0
 32
0.0
 13
1.0
 23
0.0
 33
0.0
 40
0.193007273915561
 40
0.193007273915561
 40
0.193007273915561
 40
0.193007273915561
 40
0.5157029187818981
 40
1.0
 40
1.0
 40
1.0
 40
1.0
 10
134.3451931530321
 20
130.6235594870631
 30
0.0
 10
132.3554208005027
 20
132.6338777796362
 30
0.0
 10
126.6535084900469
 20
136.8839356586277
 30
0.0
 10
118.3882863383806
 20
135.6656352499789
 30
0.0
 10
116.8229617328828
 20
140.6653800541535
 30
0.0
  0
ARC
  5
160
330
1F
100
AcDbEntity
  8
0
  6
Continuous
 62
     7
370
    15
100
AcDbCircle
 10
137.6286212489
 20
126.8044806568
 30
0.0
 40
25.00000000000003
100
AcDbArc
 50
145.453364163
 51
146.3281250137
  0
SPLINE
  5
161
330
1F
100
AcDbEntity
  8
0
  6
Continuous
 62
     7
370
    15
100
AcDbSpline
210
0.0
220
0.0
230
1.0
 70
     8
 71
     3
 72
    10
 73
     6
 74
     0
 42
0.00000001
 43
0.00000001
 12
1.0
 22
0.0
 32
0.0
 13
1.0
 23
0.0
 33
0.0
 40
0.1792841064268909
 40
0.1792841064268909
 40
0.1792841064268909
 40
0.1792841064268909
 40
0.3468266318508666
 40
0.6544165337112624
 40
0.9908353460662696
 40
0.9908353460662696
 40
0.9908353460662696
 40
0.9908353460662696
 10
117.0369990004378
 20
140.9814018026852
 30
0.0
 10
117.6240826801526
 20
139.3239089202439
 30
0.0
 10
120.4067595134438
 20
136.5268741979754
 30
0.0
 10
128.1439836321462
 20
136.5597827488018
 30
0.0
 10
132.6951578618383
 20
133.0524300650964
 30
0.0
 10
134.7424399579378
 20
130.9319763537354
 30
0.0
  0
ARC
  5
162
330
1F
100
AcDbEntity
  8
0
  6
Continuous
 62
     7
370
    15
100
AcDbCircle
 10
137.6286212489
 20
126.8044806568
 30
0.0
 40
5.036493142300327
100
AcDbArc
 50
121.6870809372
 51
124.9634488671
  0
SPLINE
  5
163
330
1F
100
AcDbEntity
  8
0
  6
Continuous
 62
     7
370
    15
100
AcDbSpline
210
0.0
220
0.0
230
1.0
 70
     8
 71
     3
 72
     9
 73
     5
 74
     0
 42
0.00000001
 43
0.00000001
 12
1.0
 22
0.0
 32
0.0
 13
1.0
 23
0.0
 33
0.0
 40
0.193007273915561
 40
0.193007273915561
 40
0.193007273915561
 40
0.193007273915561
 40
0.5157029187818981
 40
1.0
 40
1.0
 40
1.0
 40
1.0
 10
134.9830531551846
 20
131.090181606942
 30
0.0
 10
133.3322612688121
 20
133.3870185189213
 30
0.0
 10
128.3654044913691
 20
138.4767267348482
 30
0.0
 10
120.0113567670544
 20
138.5663912316181
 30
0.0
 10
119.2474363087362
 20
143.7494515979278
 30
0.0
  0
ARC
  5
164
330
1F
100
AcDbEntity
  8
0
  6
Continuous
 62
     7
370
    15
100
AcDbCircle
 10
137.6286212489
 20
126.8044806568
 30
0.0
 40
25.00000000000001
100
AcDbArc
 50
136.453364163
 51
137.3281250137
  0
SPLINE
  5
165
330
1F
100
AcDbEntity
  8
0
  6
Continuous
 62
     7
370
    15
100
AcDbSpline
210
0.0
220
0.0
230
1.0
 70
     8
 71
     3
 72
    10
 73
     6
 74
     0
 42
0.00000001
 43
0.00000001
 12
1.0
 22
0.0
 32
0.0
 13
1.0
 23
0.0
 33
0.0
 40
0.1792841064268909
 40
0.1792841064268909
 40
0.1792841064268909
 40
0.1792841064268909
 40
0.3468266318508666
 40
0.6544165337112624
 40
0.9908353460662696
 40
0.9908353460662696
 40
0.9908353460662696
 40
0.9908353460662696
 10
119.5082751155258
 20
144.0280997888784
 30
0.0
 10
119.828841808561
 20
142.2991732729017
 30
0.0
 10
122.13970664197
 20
139.1012681276816
 30
0.0
 10
129.7868207241276
 20
137.9234030037331
 30
0.0
 10
133.7332916060286
 20
133.7472711457555
 30
0.0
 10
135.4236562202759
 20
131.3326582587827
 30
0.0
  0
ARC
  5
166
330
1F
100
AcDbEntity
  8
0
  6
Continuous
 62
     7
370
    15
100
AcDbCircle
 10
137.6286212489
 20
126.8044806568
 30
0.0
 40
5.036493142300321
100
AcDbArc
 50
112.6870809372
 51
115.9634488671
  0
SPLINE
  5
167
330
1F
100
AcDbEntity
  8
0
  6
Continuous
 62
     7
370
    15
100
AcDbSpline
210
0.0
220
0.0
230
1.0
 70
     8
 71
     3
 72
     9
 73
     5
 74
     0
 42
0.00000001
 43
0.00000001
 12
1.0
 22
0.0
 32
0.0
 13
1.0
 23
0.0
 33
0.0
 40
0.193007273915561
 40
0.193007273915561
 40
0.193007273915561
 40
0.193007273915561
 40
0.5157029187818981
 40
1.0
 40
1.0
 40
1.0
 40
1.0
 10
135.686055823942
 20
131.4512755460028
 30
0.0
 10
134.4148923786329
 20
133.9780753298508
 30
0.0
 10
130.3053916321158
 20
139.7821083746638
 30
0.0
 10
122.0682227156201
 20
141.1775299393625
 30
0.0
 10
122.1245166614721
 20
146.4162817199977
 30
0.0
  0
ARC
  5
168
330
1F
100
AcDbEntity
  8
0
  6
Continuous
 62
     7
370
    15
100
AcDbCircle
 10
137.6286212489
 20
126.8044806568
 30
0.0
 40
25.00000000000002
100
AcDbArc
 50
127.453364163
 51
128.3281250137
  0
SPLINE
  5
169
330
1F
100
AcDbEntity
  8
0
  6
Continuous
 62
     7
370
    15
100
AcDbSpline
210
0.0
220
0.0
230
1.0
 70
     8
 71
     3
 72
    10
 73
     6
 74
     0
 42
0.00000001
 43
0.00000001
 12
1.0
 22
0.0
 32
0.0
 13
1.0
 23
0.0
 33
0.0
 40
0.1792841064268909
 40
0.1792841064268909
 40
0.1792841064268909
 40
0.1792841064268909
 40
0.3468266318508666
 40
0.6544165337112624
 40
0.9908353460662696
 40
0.9908353460662696
 40
0.9908353460662696
 40
0.9908353460662696
 10
122.4257342903987
 20
146.6506951101257
 30
0.0
 10
122.4718905808721
 20
144.892906869415
 30
0.0
 10
124.2540422528794
 20
141.3728743391573
 30
0.0
 10
131.622748970473
 20
139.0132384888958
 30
0.0
 10
134.8673412938847
 20
134.2711576827763
 30
0.0
 10
136.1591660394785
 20
131.6218414031098
 30
0.0
  0
ARC
  5
16A
330
1F
100
AcDbEntity
  8
0
  6
Continuous
 62
     7
370
    15
100
AcDbCircle
 10
137.6286212489
 20
126.8044806568
 30
0.0
 40
5.03649314230032
100
AcDbArc
 50
103.6870809372
 51
106.9634488671
  0
SPLINE
  5
16B
330
1F
100
AcDbEntity
  8
0
  6
Continuous
 62
     7
370
    15
100
AcDbSpline
210
0.0
220
0.0
230
1.0
 70
     8
 71
     3
 72
     9
 73
     5
 74
     0
 42
0.00000001
 43
0.00000001
 12
1.0
 22
0.0
 32
0.0
 13
1.0
 23
0.0
 33
0.0
 40
0.193007273915561
 40
0.193007273915561
 40
0.193007273915561
 40
0.193007273915561
 40
0.5157029187818981
 40
1.0
 40
1.0
 40
1.0
 40
1.0
 10
136.436890900467
 20
131.6979499730639
 30
0.0
 10
135.5766561589945
 20
134.3924944321345
 30
0.0
 10
132.4257009904337
 20
140.7679377497891
 30
0.0
 10
124.5082373180775
 20
143.434756472355
 30
0.0
 10
125.3833595243238
 20
148.600204212056
 30
0.0
  0
ARC
  5
16C
330
1F
100
AcDbEntity
  8
0
  6
Continuous
 62
     7
370
    15
100
AcDbCircle
 10
137.6286212489
 20
126.8044806568
 30
0.0
 40
25.00000000000001
100
AcDbArc
 50
118.453364163
 51
119.3281250137
  0
SPLINE
  5
16D
330
1F
100
AcDbEntity
  8
0
  6
Continuous
 62
     7
370
    15
100
AcDbSpline
210
0.0
220
0.0
230
1.0
 70
     8
 71
     3
 72
    10
 73
     6
 74
     0
 42
0.00000001
 43
0.00000001
 12
1.0
 22
0.0
 32
0.0
 13
1.0
 23
0.0
 33
0.0
 40
0.1792841064268909
 40
0.1792841064268909
 40
0.1792841064268909
 40
0.1792841064268909
 40
0.3468266318508666
 40
0.6544165337112624
 40
0.9908353460662696
 40
0.9908353460662696
 40
0.9908353460662696
 40
0.9908353460662696
 10
125.7175389976793
 20
148.784610765723
 30
0.0
 10
125.4881483645354
 20
147.0412433805294
 30
0.0
 10
126.6977043863541
 20
143.2857583484472
 30
0.0
 10
133.6065617246609
 20
139.8024538376885
 30
0.0
 10
136.0693828583963
 20
134.6111898509378
 30
0.0
 10
136.9308587227796
 20
131.7924051379596
 30
0.0
  0
ARC
  5
16E
330
1F
100
AcDbEntity
  8
0
  6
Continuous
 62
     7
370
    15
100
AcDbCircle
 10
137.6286212489
 20
126.8044806568
 30
0.0
 40
5.036493142300336
100
AcDbArc
 50
94.6870809372
 51
97.9634488671
  0
SPLINE
  5
16F
330
1F
100
AcDbEntity
  8
0
  6
Continuous
 62
     7
370
    15
100
AcDbSpline
210
0.0
220
0.0
230
1.0
 70
     8
 71
     3
 72
     9
 73
     5
 74
     0
 42
0.00000001
 43
0.00000001
 12
1.0
 22
0.0
 32
0.0
 13
1.0
 23
0.0
 33
0.0
 40
0.193007273915561
 40
0.193007273915561
 40
0.193007273915561
 40
0.193007273915561
 40
0.5157029187818981
 40
1.0
 40
1.0
 40
1.0
 40
1.0
 10
137.2170703332971
 20
131.8241309450655
 30
0.0
 10
136.7889461299516
 20
134.620071452096
 30
0.0
 10
134.6741235130178
 20
141.4099404692282
 30
0.0
 10
127.2713193169699
 20
145.2824904220478
 30
0.0
 10
128.9437213705286
 20
150.2474436543251
 30
0.0
  0
ARC
  5
170
330
1F
100
AcDbEntity
  8
0
  6
Continuous
 62
     7
370
    15
100
AcDbCircle
 10
137.6286212489
 20
126.8044806568
 30
0.0
 40
25.0
100
AcDbArc
 50
109.453364163
 51
110.3281250137
  0
SPLINE
  5
171
330
1F
100
AcDbEntity
  8
0
  6
Continuous
 62
     7
370
    15
100
AcDbSpline
210
0.0
220
0.0
230
1.0
 70
     8
 71
     3
 72
    10
 73
     6
 74
     0
 42
0.00000001
 43
0.00000001
 12
1.0
 22
0.0
 32
0.0
 13
1.0
 23
0.0
 33
0.0
 40
0.1792841064268909
 40
0.1792841064268909
 40
0.1792841064268909
 40
0.1792841064268909
 40
0.3468266318508666
 40
0.6544165337112624
 40
0.9908353460662696
 40
0.9908353460662696
 40
0.9908353460662696
 40
0.9908353460662696
 10
129.3026340806008
 20
150.3773026701695
 30
0.0
 10
128.8033448825315
 20
148.691283631421
 30
0.0
 10
129.4105219706182
 20
144.7928186027445
 30
0.0
 10
135.6894109327862
 20
140.2716159489684
 30
0.0
 10
137.309818046898
 20
134.7589949297576
 30
0.0
 10
137.7197326352151
 20
131.8401496181114
 30
0.0
  0
ARC
  5
172
330
1F
100
AcDbEntity
  8
0
  6
Continuous
 62
     7
370
    15
100
AcDbCircle
 10
137.6286212489
 20
126.8044806568
 30
0.0
 40
5.036493142300332
100
AcDbArc
 50
85.6870809372
 51
88.9634488671
  0
SPLINE
  5
173
330
1F
100
AcDbEntity
  8
0
  6
Continuous
 62
     7
370
    15
100
AcDbSpline
210
0.0
220
0.0
230
1.0
 70
     8
 71
     3
 72
     9
 73
     5
 74
     0
 42
0.00000001
 43
0.00000001
 12
1.0
 22
0.0
 32
0.0
 13
1.0
 23
0.0
 33
0.0
 40
0.193007273915561
 40
0.193007273915561
 40
0.193007273915561
 40
0.193007273915561
 40
0.5157029187818981
 40
1.0
 40
1.0
 40
1.0
 40
1.0
 10
138.0073835155288
 20
131.8267114677063
 30
0.0
 10
138.0219116890596
 20
134.6552026882191
 30
0.0
 10
136.9952955752754
 20
141.6923082953437
 30
0.0
 10
130.289432463341
 20
146.6752344463223
 30
0.0
 10
132.7179342752694
 20
151.317439544862
 30
0.0
  0
ARC
  5
174
330
1F
100
AcDbEntity
  8
0
  6
Continuous
 62
     7
370
    15
100
AcDbCircle
 10
137.6286212489
 20
126.8044806568
 30
0.0
 40
25.0
100
AcDbArc
 50
100.453364163
 51
101.3281250137
  0
SPLINE
  5
175
330
1F
100
AcDbEntity
  8
0
  6
Continuous
 62
     7
370
    15
100
AcDbSpline
210
0.0
220
0.0
230
1.0
 70
     8
 71
     3
 72
    10
 73
     6
 74
     0
 42
0.00000001
 43
0.00000001
 12
1.0
 22
0.0
 32
0.0
 13
1.0
 23
0.0
 33
0.0
 40
0.1792841064268909
 40
0.1792841064268909
 40
0.1792841064268909
 40
0.1792841064268909
 40
0.3468266318508666
 40
0.6544165337112624
 40
0.9908353460662696
 40
0.9908353460662696
 40
0.9908353460662696
 40
0.9908353460662696
 10
133.0927425999734
 20
151.3895534629364
 30
0.0
 10
132.335848994081
 20
149.8023981549435
 30
0.0
 10
132.3256964334216
 20
145.8569462769423
 30
0.0
 10
137.8200099347645
 20
140.409172494496
 30
0.0
 10
138.5581032282804
 20
134.7109334676584
 30
0.0
 10
138.5063630829385
 20
131.7638992160091
 30
0.0
  0
ARC
  5
176
330
1F
100
AcDbEntity
  8
0
  6
Continuous
 62
     7
370
    15
100
AcDbCircle
 10
137.6286212489
 20
126.8044806568
 30
0.0
 40
5.036493142300317
100
AcDbArc
 50
76.6870809372
 51
79.9634488671
  0
SPLINE
  5
177
330
1F
100
AcDbEntity
  8
0
  6
Continuous
 62
     7
370
    15
100
AcDbSpline
210
0.0
220
0.0
230
1.0
 70
     8
 71
     3
 72
     9
 73
     5
 74
     0
 42
0.00000001
 43
0.00000001
 12
1.0
 22
0.0
 32
0.0
 13
1.0
 23
0.0
 33
0.0
 40
0.193007273915561
 40
0.193007273915561
 40
0.193007273915561
 40
0.193007273915561
 40
0.5157029187818981
 40
1.0
 40
1.0
 40
1.0
 40
1.0
 10
138.7883703137165
 20
131.7056279999545
 30
0.0
 10
139.2451931322749
 20
134.4970230928764
 30
0.0
 10
139.3320622175054
 20
141.6080883951316
 30
0.0
 10
133.4882607949841
 20
147.5786945650482
 30
0.0
 10
136.613064590937
 20
151.783845033729
 30
0.0
  0
ARC
  5
178
330
1F
100
AcDbEntity
  8
0
  6
Continuous
 62
     7
370
    15
100
AcDbCircle
 10
137.6286212489
 20
126.8044806568
 30
0.0
 40
25.00000000000001
100
AcDbArc
 50
91.453364163
 51
92.3281250137
  0
SPLINE
  5
179
330
1F
100
AcDbEntity
  8
0
  6
Continuous
 62
     7
370
    15
100
AcDbSpline
210
0.0
220
0.0
230
1.0
 70
     8
 71
     3
 72
    10
 73
     6
 74
     0
 42
0.00000001
 43
0.00000001
 12
1.0
 22
0.0
 32
0.0
 13
1.0
 23
0.0
 33
0.0
 40
0.1792841064268909
 40
0.1792841064268909
 40
0.1792841064268909
 40
0.1792841064268909
 40
0.3468266318508666
 40
0.6544165337112624
 40
0.9908353460662696
 40
0.9908353460662696
 40
0.9908353460662696
 40
0.9908353460662696
 10
136.9945395054011
 20
151.796438170038
 30
0.0
 10
135.9986787242485
 20
150.3472276239498
 30
0.0
 10
135.3714465045809
 20
146.4519390160644
 30
0.0
 10
139.9458963121146
 20
140.2117363755965
 30
0.0
 10
139.783501478557
 20
134.4681888973438
 30
0.0
 10
139.2713806136501
 20
131.5655314696129
 30
0.0
  0
ARC
  5
17A
330
1F
100
AcDbEntity
  8
0
  6
Continuous
 62
     7
370
    15
100
AcDbCircle
 10
137.6286212489
 20
126.8044806568
 30
0.0
 40
5.036493142300333
100
AcDbArc
 50
67.6870809372
 51
70.9634488671
  0
SPLINE
  5
17B
330
1F
100
AcDbEntity
  8
0
  6
Continuous
 62
     7
370
    15
100
AcDbSpline
210
0.0
220
0.0
230
1.0
 70
     8
 71
     3
 72
     9
 73
     5
 74
     0
 42
0.00000001
 43
0.00000001
 12
1.0
 22
0.0
 32
0.0
 13
1.0
 23
0.0
 33
0.0
 40
0.193007273915561
 40
0.193007273915561
 40
0.193007273915561
 40
0.193007273915561
 40
0.5157029187818981
 40
1.0
 40
1.0
 40
1.0
 40
1.0
 10
139.5408002409423
 20
131.4638620186394
 30
0.0
 10
140.4286692106274
 20
134.1494275726734
 30
0.0
 10
141.6268844896921
 20
141.1593545420449
 30
0.0
 10
136.7890385420714
 20
147.9706245916904
 30
0.0
 10
140.5332012819632
 20
151.635175669879
 30
0.0
  0
ARC
  5
17C
330
1F
100
AcDbEntity
  8
0
  6
Continuous
 62
     7
370
    15
100
AcDbCircle
 10
137.6286212489
 20
126.8044806568
 30
0.0
 40
25.00000000000001
100
AcDbArc
 50
82.453364163
 51
83.3281250137
  0
SPLINE
  5
17D
330
1F
100
AcDbEntity
  8
0
  6
Continuous
 62
     7
370
    15
100
AcDbSpline
210
0.0
220
0.0
230
1.0
 70
     8
 71
     3
 72
    10
 73
     6
 74
     0
 42
0.00000001
 43
0.00000001
 12
1.0
 22
0.0
 32
0.0
 13
1.0
 23
0.0
 33
0.0
 40
0.1792841064268909
 40
0.1792841064268909
 40
0.1792841064268909
 40
0.1792841064268909
 40
0.3468266318508666
 40
0.6544165337112624
 40
0.9908353460662696
 40
0.9908353460662696
 40
0.9908353460662696
 40
0.9908353460662696
 10
140.9119496077506
 20
151.5879379396125
 30
0.0
 10
139.7016430488423
 20
150.3123565287279
 30
0.0
 10
138.4727757090792
 20
146.563146124206
 30
0.0
 10
142.0147236868136
 20
139.6841691247699
 30
0.0
 10
140.9558394259422
 20
134.0367383957581
 30
0.0
 10
139.9959479567961
 20
131.249930851184
 30
0.0
  0
ARC
  5
17E
330
1F
100
AcDbEntity
  8
0
  6
Continuous
 62
     7
370
    15
100
AcDbCircle
 10
137.6286212489
 20
126.8044806568
 30
0.0
 40
5.036493142300317
100
AcDbArc
 50
58.6870809372
 51
61.9634488671
  0
SPLINE
  5
17F
330
1F
100
AcDbEntity
  8
0
  6
Continuous
 62
     7
370
    15
100
AcDbSpline
210
0.0
220
0.0
230
1.0
 70
     8
 71
     3
 72
     9
 73
     5
 74
     0
 42
0.00000001
 43
0.00000001
 12
1.0
 22
0.0
 32
0.0
 13
1.0
 23
0.0
 33
0.0
 40
0.193007273915561
 40
0.193007273915561
 40
0.193007273915561
 40
0.193007273915561
 40
0.5157029187818981
 40
1.0
 40
1.0
 40
1.0
 40
1.0
 10
140.2461459752261
 20
131.1073666045959
 30
0.0
 10
141.5431988153361
 20
133.6209750829208
 30
0.0
 10
143.823256251416
 20
140.3571560528089
 30
0.0
 10
140.1104896018164
 20
147.8413739082517
 30
0.0
 10
144.3818175728274
 20
150.8750921864554
 30
0.0
  0
ARC
  5
180
330
1F
100
AcDbEntity
  8
0
  6
Continuous
 62
     7
370
    15
100
AcDbCircle
 10
137.6286212489
 20
126.8044806568
 30
0.0
 40
24.99999999999999
100
AcDbArc
 50
73.453364163
 51
74.3281250137
  0
SPLINE
  5
181
330
1F
100
AcDbEntity
  8
0
  6
Continuous
 62
     7
370
    15
100
AcDbSpline
210
0.0
220
0.0
230
1.0
 70
     8
 71
     3
 72
    10
 73
     6
 74
     0
 42
0.00000001
 43
0.00000001
 12
1.0
 22
0.0
 32
0.0
 13
1.0
 23
0.0
 33
0.0
 40
0.1792841064268909
 40
0.1792841064268909
 40
0.1792841064268909
 40
0.1792841064268909
 40
0.3468266318508666
 40
0.6544165337112624
 40
0.9908353460662696
 40
0.9908353460662696
 40
0.9908353460662696
 40
0.9908353460662696
 10
144.7485132691635
 20
150.7691867393056
 30
0.0
 10
143.3535626967569
 20
149.6986435113724
 30
0.0
 10
141.5533190291801
 20
146.1878293132895
 30
0.0
 10
143.9755506628521
 20
138.8394611986271
 30
0.0
 10
142.046250219405
 20
133.4272057061524
 30
0.0
 10
140.6622238596871
 20
130.8248684953666
 30
0.0
  0
ARC
  5
182
330
1F
100
AcDbEntity
  8
0
  6
Continuous
 62
     7
370
    15
100
AcDbCircle
 10
137.6286212489
 20
126.8044806568
 30
0.0
 40
5.036493142300305
100
AcDbArc
 50
49.6870809372
 51
52.9634488671
  0
SPLINE
  5
183
330
1F
100
AcDbEntity
  8
0
  6
Continuous
 62
     7
370
    15
100
AcDbSpline
210
0.0
220
0.0
230
1.0
 70
     8
 71
     3
 72
     9
 73
     5
 74
     0
 42
0.00000001
 43
0.00000001
 12
1.0
 22
0.0
 32
0.0
 13
1.0
 23
0.0
 33
0.0
 40
0.193007273915561
 40
0.193007273915561
 40
0.193007273915561
 40
0.193007273915561
 40
0.5157029187818981
 40
1.0
 40
1.0
 40
1.0
 40
1.0
 10
140.8870395636816
 20
130.6449198580585
 30
0.0
 10
142.5613385286213
 20
132.9246778777496
 30
0.0
 10
145.8670955405634
 20
139.2212457165728
 30
0.0
 10
143.3708288258641
 20
147.1941250955169
 30
0.0
 10
148.0641477576231
 20
149.5223103613926
 30
0.0
  0
ARC
  5
184
330
1F
100
AcDbEntity
  8
0
  6
Continuous
 62
     7
370
    15
100
AcDbCircle
 10
137.6286212489
 20
126.8044806568
 30
0.0
 40
25.00000000000002
100
AcDbArc
 50
64.453364163
 51
65.3281250137
  0
SPLINE
  5
185
330
1F
100
AcDbEntity
  8
0
  6
Continuous
 62
     7
370
    15
100
AcDbSpline
210
0.0
220
0.0
230
1.0
 70
     8
 71
     3
 72
    10
 73
     6
 74
     0
 42
0.00000001
 43
0.00000001
 12
1.0
 22
0.0
 32
0.0
 13
1.0
 23
0.0
 33
0.0
 40
0.1792841064268909
 40
0.1792841064268909
 40
0.1792841064268909
 40
0.1792841064268909
 40
0.3468266318508666
 40
0.6544165337112624
 40
0.9908353460662696
 40
0.9908353460662696
 40
0.9908353460662696
 40
0.9908353460662696
 10
148.409761559471
 20
149.3603449409482
 30
0.0
 10
146.8645152862343
 20
148.5212002231676
 30
0.0
 10
144.5372232646057
 20
145.3352301288047
 30
0.0
 10
145.7800951724683
 20
137.6984121097346
 30
0.0
 10
143.0278843263443
 20
132.6545995462677
 30
0.0
 10
141.253802398351
 20
130.3008108480618
 30
0.0
  0
ARC
  5
186
330
1F
100
AcDbEntity
  8
0
  6
Continuous
 62
     7
370
    15
100
AcDbCircle
 10
137.6286212489
 20
126.8044806568
 30
0.0
 40
5.036493142300339
100
AcDbArc
 50
40.6870809372
 51
43.9634488671
  0
SPLINE
  5
187
330
1F
100
AcDbEntity
  8
0
  6
Continuous
 62
     7
370
    15
100
AcDbSpline
210
0.0
220
0.0
230
1.0
 70
     8
 71
     3
 72
     9
 73
     5
 74
     0
 42
0.00000001
 43
0.00000001
 12
1.0
 22
0.0
 32
0.0
 13
1.0
 23
0.0
 33
0.0
 40
0.193007273915561
 40
0.193007273915561
 40
0.193007273915561
 40
0.193007273915561
 40
0.5157029187818981
 40
1.0
 40
1.0
 40
1.0
 40
1.0
 10
141.447700079157
 20
130.0879087526997
 30
0.0
 10
143.4580183717301
 20
132.077681105229
 30
0.0
 10
147.7080762507216
 20
137.7795934156848
 30
0.0
 10
146.4897758420729
 20
146.0448155673511
 30
0.0
 10
151.4895206462475
 20
147.6101401728489
 30
0.0
  0
ARC
  5
188
330
1F
100
AcDbEntity
  8
0
  6
Continuous
 62
     7
370
    15
100
AcDbCircle
 10
137.6286212489
 20
126.8044806568
 30
0.0
 40
24.99999999999999
100
AcDbArc
 50
55.453364163
 51
56.3281250137
  0
SPLINE
  5
189
330
1F
100
AcDbEntity
  8
0
  6
Continuous
 62
     7
370
    15
100
AcDbSpline
210
0.0
220
0.0
230
1.0
 70
     8
 71
     3
 72
    10
 73
     6
 74
     0
 42
0.00000001
 43
0.00000001
 12
1.0
 22
0.0
 32
0.0
 13
1.0
 23
0.0
 33
0.0
 40
0.1792841064268909
 40
0.1792841064268909
 40
0.1792841064268909
 40
0.1792841064268909
 40
0.3468266318508666
 40
0.6544165337112624
 40
0.9908353460662696
 40
0.9908353460662696
 40
0.9908353460662696
 40
0.9908353460662696
 10
151.8055423947791
 20
147.3961029052939
 30
0.0
 10
150.1480495123379
 20
146.8090192255792
 30
0.0
 10
147.3510147900694
 20
144.0263423922879
 30
0.0
 10
147.3839233408957
 20
136.2891182735856
 30
0.0
 10
143.8765706571903
 20
131.7379440438934
 30
0.0
 10
141.7561169458293
 20
129.690661947794
 30
0.0
  0
ARC
  5
18A
330
1F
100
AcDbEntity
  8
0
  6
Continuous
 62
     7
370
    15
100
AcDbCircle
 10
137.6286212489
 20
126.8044806568
 30
0.0
 40
5.036493142300322
100
AcDbArc
 50
31.6870809372
 51
34.9634488671
  0
SPLINE
  5
18B
330
1F
100
AcDbEntity
  8
0
  6
Continuous
 62
     7
370
    15
100
AcDbSpline
210
0.0
220
0.0
230
1.0
 70
     8
 71
     3
 72
     9
 73
     5
 74
     0
 42
0.00000001
 43
0.00000001
 12
1.0
 22
0.0
 32
0.0
 13
1.0
 23
0.0
 33
0.0
 40
0.193007273915561
 40
0.193007273915561
 40
0.193007273915561
 40
0.193007273915561
 40
0.5157029187818981
 40
1.0
 40
1.0
 40
1.0
 40
1.0
 10
141.9143221990359
 20
129.4500487505471
 30
0.0
 10
144.2111591110152
 20
131.1008406369197
 30
0.0
 10
149.3008673269422
 20
136.0676974143627
 30
0.0
 10
149.390531823712
 20
144.4217451386774
 30
0.0
 10
154.5735921900218
 20
145.1856655969955
 30
0.0
  0
ARC
  5
18C
330
1F
100
AcDbEntity
  8
0
  6
Continuous
 62
     7
370
    15
100
AcDbCircle
 10
137.6286212489
 20
126.8044806568
 30
0.0
 40
25.00000000000001
100
AcDbArc
 50
46.453364163
 51
47.3281250137
  0
SPLINE
  5
18D
330
1F
100
AcDbEntity
  8
0
  6
Continuous
 62
     7
370
    15
100
AcDbSpline
210
0.0
220
0.0
230
1.0
 70
     8
 71
     3
 72
    10
 73
     6
 74
     0
 42
0.00000001
 43
0.00000001
 12
1.0
 22
0.0
 32
0.0
 13
1.0
 23
0.0
 33
0.0
 40
0.1792841064268909
 40
0.1792841064268909
 40
0.1792841064268909
 40
0.1792841064268909
 40
0.3468266318508666
 40
0.6544165337112624
 40
0.9908353460662696
 40
0.9908353460662696
 40
0.9908353460662696
 40
0.9908353460662696
 10
154.8522403809724
 20
144.924826790206
 30
0.0
 10
153.1233138649957
 20
144.6042600971707
 30
0.0
 10
149.9254087197755
 20
142.2933952637618
 30
0.0
 10
148.747543595827
 20
134.6462811816042
 30
0.0
 10
144.5714117378494
 20
130.6998102997031
 30
0.0
 10
142.1567988508766
 20
129.0094456854559
 30
0.0
  0
ARC
  5
18E
330
1F
100
AcDbEntity
  8
0
  6
Continuous
 62
     7
370
    15
100
AcDbCircle
 10
137.6286212489
 20
126.8044806568
 30
0.0
 40
5.036493142300322
100
AcDbArc
 50
22.6870809372
 51
25.9634488671
  0
SPLINE
  5
18F
330
1F
100
AcDbEntity
  8
0
  6
Continuous
 62
     7
370
    15
100
AcDbSpline
210
0.0
220
0.0
230
1.0
 70
     8
 71
     3
 72
     9
 73
     5
 74
     0
 42
0.00000001
 43
0.00000001
 12
1.0
 22
0.0
 32
0.0
 13
1.0
 23
0.0
 33
0.0
 40
0.193007273915561
 40
0.193007273915561
 40
0.193007273915561
 40
0.193007273915561
 40
0.5157029187818981
 40
1.0
 40
1.0
 40
1.0
 40
1.0
 10
142.2754161380968
 20
128.7470460817898
 30
0.0
 10
144.8022159219447
 20
130.0182095270989
 30
0.0
 10
150.6062489667578
 20
134.1277102736159
 30
0.0
 10
152.0016705314564
 20
142.3648791901116
 30
0.0
 10
157.2404223120916
 20
142.3085852442597
 30
0.0
  0
ARC
  5
190
330
1F
100
AcDbEntity
  8
0
  6
Continuous
 62
     7
370
    15
100
AcDbCircle
 10
137.6286212489
 20
126.8044806568
 30
0.0
 40
25.0
100
AcDbArc
 50
37.453364163
 51
38.3281250137
  0
SPLINE
  5
191
330
1F
100
AcDbEntity
  8
0
  6
Continuous
 62
     7
370
    15
100
AcDbSpline
210
0.0
220
0.0
230
1.0
 70
     8
 71
     3
 72
    10
 73
     6
 74
     0
 42
0.00000001
 43
0.00000001
 12
1.0
 22
0.0
 32
0.0
 13
1.0
 23
0.0
 33
0.0
 40
0.1792841064268909
 40
0.1792841064268909
 40
0.1792841064268909
 40
0.1792841064268909
 40
0.3468266318508666
 40
0.6544165337112624
 40
0.9908353460662696
 40
0.9908353460662696
 40
0.9908353460662696
 40
0.9908353460662696
 10
157.4748357022196
 20
142.0073676153331
 30
0.0
 10
155.7170474615089
 20
141.9612113248597
 30
0.0
 10
152.1970149312512
 20
140.1790596528523
 30
0.0
 10
149.8373790809896
 20
132.8103529352588
 30
0.0
 10
145.0952982748702
 20
129.5657606118471
 30
0.0
 10
142.4459819952037
 20
128.2739358662533
 30
0.0
  0
ARC
  5
192
330
1F
100
AcDbEntity
  8
0
  6
Continuous
 62
     7
370
    15
100
AcDbCircle
 10
137.6286212489
 20
126.8044806568
 30
0.0
 40
5.036493142300328
100
AcDbArc
 50
13.6870809372
 51
16.9634488671
  0
SPLINE
  5
193
330
1F
100
AcDbEntity
  8
0
  6
Continuous
 62
     7
370
    15
100
AcDbSpline
210
0.0
220
0.0
230
1.0
 70
     8
 71
     3
 72
     9
 73
     5
 74
     0
 42
0.00000001
 43
0.00000001
 12
1.0
 22
0.0
 32
0.0
 13
1.0
 23
0.0
 33
0.0
 40
0.193007273915561
 40
0.193007273915561
 40
0.193007273915561
 40
0.193007273915561
 40
0.5157029187818981
 40
1.0
 40
1.0
 40
1.0
 40
1.0
 10
142.5220905651579
 20
127.9962110052648
 30
0.0
 10
145.2166350242284
 20
128.8564457467373
 30
0.0
 10
151.592078341883
 20
132.007400915298
 30
0.0
 10
154.2588970644489
 20
139.9248645876542
 30
0.0
 10
159.4243448041499
 20
139.0497423814079
 30
0.0
  0
ARC
  5
194
330
1F
100
AcDbEntity
  8
0
  6
Continuous
 62
     7
370
    15
100
AcDbCircle
 10
137.6286212489
 20
126.8044806568
 30
0.0
 40
24.99999999999999
100
AcDbArc
 50
28.453364163
 51
29.3281250137
  0
SPLINE
  5
195
330
1F
100
AcDbEntity
  8
0
  6
Continuous
 62
     7
370
    15
100
AcDbSpline
210
0.0
220
0.0
230
1.0
 70
     8
 71
     3
 72
    10
 73
     6
 74
     0
 42
0.00000001
 43
0.00000001
 12
1.0
 22
0.0
 32
0.0
 13
1.0
 23
0.0
 33
0.0
 40
0.1792841064268909
 40
0.1792841064268909
 40
0.1792841064268909
 40
0.1792841064268909
 40
0.3468266318508666
 40
0.6544165337112624
 40
0.9908353460662696
 40
0.9908353460662696
 40
0.9908353460662696
 40
0.9908353460662696
 10
159.6087513578169
 20
138.7155629080524
 30
0.0
 10
157.8653839726233
 20
138.9449535411964
 30
0.0
 10
154.1098989405411
 20
137.7353975193776
 30
0.0
 10
150.6265944297824
 20
130.8265401810709
 30
0.0
 10
145.4353304430316
 20
128.3637190473355
 30
0.0
 10
142.6165457300535
 20
127.5022431829522
 30
0.0
  0
ARC
  5
196
330
1F
100
AcDbEntity
  8
0
  6
Continuous
 62
     7
370
    15
100
AcDbCircle
 10
137.6286212489
 20
126.8044806568
 30
0.0
 40
5.036493142300318
100
AcDbArc
 50
4.6870809372
 51
7.9634488671
  0
SPLINE
  5
197
330
1F
100
AcDbEntity
  8
0
  6
Continuous
 62
     7
370
    15
100
AcDbSpline
210
0.0
220
0.0
230
1.0
 70
     8
 71
     3
 72
     9
 73
     5
 74
     0
 42
0.00000001
 43
0.00000001
 12
1.0
 22
0.0
 32
0.0
 13
1.0
 23
0.0
 33
0.0
 40
0.193007273915561
 40
0.193007273915561
 40
0.193007273915561
 40
0.193007273915561
 40
0.5157029187818981
 40
1.0
 40
1.0
 40
1.0
 40
1.0
 10
142.6482715371594
 20
127.2160315724347
 30
0.0
 10
145.4442120441899
 20
127.6441557757801
 30
0.0
 10
152.2340810613221
 20
129.7589783927139
 30
0.0
 10
156.1066310141418
 20
137.1617825887619
 30
0.0
 10
161.071584246419
 20
135.4893805352031
 30
0.0
  0
ARC
  5
198
330
1F
100
AcDbEntity
  8
0
  6
Continuous
 62
     7
370
    15
100
AcDbCircle
 10
137.6286212489
 20
126.8044806568
 30
0.0
 40
25.0
100
AcDbArc
 50
19.453364163
 51
20.3281250137
  0
SPLINE
  5
199
330
1F
100
AcDbEntity
  8
0
  6
Continuous
 62
     7
370
    15
100
AcDbSpline
210
0.0
220
0.0
230
1.0
 70
     8
 71
     3
 72
    10
 73
     6
 74
     0
 42
0.00000001
 43
0.00000001
 12
1.0
 22
0.0
 32
0.0
 13
1.0
 23
0.0
 33
0.0
 40
0.1792841064268909
 40
0.1792841064268909
 40
0.1792841064268909
 40
0.1792841064268909
 40
0.3468266318508666
 40
0.6544165337112624
 40
0.9908353460662696
 40
0.9908353460662696
 40
0.9908353460662696
 40
0.9908353460662696
 10
161.2014432622634
 20
135.1304678251309
 30
0.0
 10
159.5154242235149
 20
135.6297570232002
 30
0.0
 10
155.6169591948384
 20
135.0225799351136
 30
0.0
 10
151.0957565410623
 20
128.7436909729456
 30
0.0
 10
145.5831355218515
 20
127.1232838588338
 30
0.0
 10
142.6642902102053
 20
126.7133692705167
 30
0.0
  0
ARC
  5
19A
330
1F
100
AcDbEntity
  8
0
  6
Continuous
 62
     7
370
    15
100
AcDbCircle
 10
137.6286212489
 20
126.8044806568
 30
0.0
 40
5.036493142300333
100
AcDbArc
 50
355.6870809372
 51
358.9634488671
  0
SPLINE
  5
19B
330
1F
100
AcDbEntity
  8
0
  6
Continuous
 62
     7
370
    15
100
AcDbSpline
210
0.0
220
0.0
230
1.0
 70
     8
 71
     3
 72
     9
 73
     5
 74
     0
 42
0.00000001
 43
0.00000001
 12
1.0
 22
0.0
 32
0.0
 13
1.0
 23
0.0
 33
0.0
 40
0.193007273915561
 40
0.193007273915561
 40
0.193007273915561
 40
0.193007273915561
 40
0.5157029187818981
 40
1.0
 40
1.0
 40
1.0
 40
1.0
 10
142.6508520598002
 20
126.425718390203
 30
0.0
 10
145.479343280313
 20
126.4111902166722
 30
0.0
 10
152.5164488874376
 20
127.4378063304563
 30
0.0
 10
157.4993750384162
 20
134.1436694423907
 30
0.0
 10
162.1415801369559
 20
131.7151676304623
 30
0.0
  0
ARC
  5
19C
330
1F
100
AcDbEntity
  8
0
  6
Continuous
 62
     7
370
    15
100
AcDbCircle
 10
137.6286212489
 20
126.8044806568
 30
0.0
 40
25.00000000000001
100
AcDbArc
 50
10.453364163
 51
11.3281250137
  0
SPLINE
  5
19D
330
1F
100
AcDbEntity
  8
0
  6
Continuous
 62
     7
370
    15
100
AcDbSpline
210
0.0
220
0.0
230
1.0
 70
     8
 71
     3
 72
    10
 73
     6
 74
     0
 42
0.00000001
 43
0.00000001
 12
1.0
 22
0.0
 32
0.0
 13
1.0
 23
0.0
 33
0.0
 40
0.1792841064268909
 40
0.1792841064268909
 40
0.1792841064268909
 40
0.1792841064268909
 40
0.3468266318508666
 40
0.6544165337112624
 40
0.9908353460662696
 40
0.9908353460662696
 40
0.9908353460662696
 40
0.9908353460662696
 10
162.2136940550303
 20
131.3403593057583
 30
0.0
 10
160.6265387470374
 20
132.0972529116507
 30
0.0
 10
156.6810868690362
 20
132.1074054723101
 30
0.0
 10
151.2333130865899
 20
126.6130919709672
 30
0.0
 10
145.5350740597522
 20
125.8749986774514
 30
0.0
 10
142.5880398081029
 20
125.9267388227933
 30
0.0
  0
ARC
  5
19E
330
1F
100
AcDbEntity
  8
0
  6
Continuous
 62
     7
370
    15
100
AcDbCircle
 10
137.6286212489
 20
126.8044806568
 30
0.0
 40
5.036493142300318
100
AcDbArc
 50
346.6870809372
 51
349.9634488671
  0
SPLINE
  5
19F
330
1F
100
AcDbEntity
  8
0
  6
Continuous
 62
     7
370
    15
100
AcDbSpline
210
0.0
220
0.0
230
1.0
 70
     8
 71
     3
 72
     9
 73
     5
 74
     0
 42
0.00000001
 43
0.00000001
 12
1.0
 22
0.0
 32
0.0
 13
1.0
 23
0.0
 33
0.0
 40
0.193007273915561
 40
0.193007273915561
 40
0.193007273915561
 40
0.193007273915561
 40
0.5157029187818981
 40
1.0
 40
1.0
 40
1.0
 40
1.0
 10
142.5297685920484
 20
125.6447315920152
 30
0.0
 10
145.3211636849703
 20
125.1879087734569
 30
0.0
 10
152.4322289872255
 20
125.1010396882264
 30
0.0
 10
158.4028351571421
 20
130.9448411107477
 30
0.0
 10
162.6079856258228
 20
127.8200373147947
 30
0.0
  0
ARC
  5
1A0
330
1F
100
AcDbEntity
  8
0
  6
Continuous
 62
     7
370
    15
100
AcDbCircle
 10
137.6286212489
 20
126.8044806568
 30
0.0
 40
25.0
100
AcDbArc
 50
1.453364163
 51
2.3281250137
  0
SPLINE
  5
1A1
330
1F
100
AcDbEntity
  8
0
  6
Continuous
 62
     7
370
    15
100
AcDbSpline
210
0.0
220
0.0
230
1.0
 70
     8
 71
     3
 72
    10
 73
     6
 74
     0
 42
0.00000001
 43
0.00000001
 12
1.0
 22
0.0
 32
0.0
 13
1.0
 23
0.0
 33
0.0
 40
0.1792841064268909
 40
0.1792841064268909
 40
0.1792841064268909
 40
0.1792841064268909
 40
0.3468266318508666
 40
0.6544165337112624
 40
0.9908353460662696
 40
0.9908353460662696
 40
0.9908353460662696
 40
0.9908353460662696
 10
162.6205787621319
 20
127.4385624003307
 30
0.0
 10
161.1713682160437
 20
128.4344231814832
 30
0.0
 10
157.2760796081583
 20
129.0616554011508
 30
0.0
 10
151.0358769676903
 20
124.4872055936172
 30
0.0
 10
145.2923294894377
 20
124.6496004271748
 30
0.0
 10
142.3896720617068
 20
125.1617212920817
 30
0.0
  0
ARC
  5
1A2
330
1F
100
AcDbEntity
  8
0
  6
Continuous
 62
     7
370
    15
100
AcDbCircle
 10
137.6286212489
 20
126.8044806568
 30
0.0
 40
5.036493142300294
100
AcDbArc
 50
337.6870809372
 51
340.9634488671
  0
SPLINE
  5
1A3
330
1F
100
AcDbEntity
  8
0
  6
Continuous
 62
     7
370
    15
100
AcDbSpline
210
0.0
220
0.0
230
1.0
 70
     8
 71
     3
 72
     9
 73
     5
 74
     0
 42
0.00000001
 43
0.00000001
 12
1.0
 22
0.0
 32
0.0
 13
1.0
 23
0.0
 33
0.0
 40
0.193007273915561
 40
0.193007273915561
 40
0.193007273915561
 40
0.193007273915561
 40
0.5157029187818981
 40
1.0
 40
1.0
 40
1.0
 40
1.0
 10
142.2880026107332
 20
124.8923016647894
 30
0.0
 10
144.9735681647673
 20
124.0044326951044
 30
0.0
 10
151.9834951341388
 20
122.8062174160396
 30
0.0
 10
158.7947651837843
 20
127.6440633636603
 30
0.0
 10
162.4593162619729
 20
123.8999006237684
 30
0.0
  0
ARC
  5
1A4
330
1F
100
AcDbEntity
  8
0
  6
Continuous
 62
     7
370
    15
100
AcDbCircle
 10
137.6286212489
 20
126.8044806568
 30
0.0
 40
24.99999999999999
100
AcDbArc
 50
352.453364163
 51
353.3281250137
  0
SPLINE
  5
1A5
330
1F
100
AcDbEntity
  8
0
  6
Continuous
 62
     7
370
    15
100
AcDbSpline
210
0.0
220
0.0
230
1.0
 70
     8
 71
     3
 72
    10
 73
     6
 74
     0
 42
0.00000001
 43
0.00000001
 12
1.0
 22
0.0
 32
0.0
 13
1.0
 23
0.0
 33
0.0
 40
0.1792841064268909
 40
0.1792841064268909
 40
0.1792841064268909
 40
0.1792841064268909
 40
0.3468266318508666
 40
0.6544165337112624
 40
0.9908353460662696
 40
0.9908353460662696
 40
0.9908353460662696
 40
0.9908353460662696
 10
162.4120785317064
 20
123.5211522979811
 30
0.0
 10
161.1364971208217
 20
124.7314588568894
 30
0.0
 10
157.3872867162999
 20
125.9603261966525
 30
0.0
 10
150.5083097168638
 20
122.4183782189181
 30
0.0
 10
144.860878987852
 20
123.4772624797895
 30
0.0
 10
142.0740714432779
 20
124.4371539489357
 30
0.0
  0
ARC
  5
1A6
330
1F
100
AcDbEntity
  8
0
  6
Continuous
 62
     7
370
    15
100
AcDbCircle
 10
137.6286212489
 20
126.8044806568
 30
0.0
 40
5.036493142300312
100
AcDbArc
 50
328.6870809372
 51
331.9634488671
  0
SPLINE
  5
1A7
330
1F
100
AcDbEntity
  8
0
  6
Continuous
 62
     7
370
    15
100
AcDbSpline
210
0.0
220
0.0
230
1.0
 70
     8
 71
     3
 72
     9
 73
     5
 74
     0
 42
0.00000001
 43
0.00000001
 12
1.0
 22
0.0
 32
0.0
 13
1.0
 23
0.0
 33
0.0
 40
0.193007273915561
 40
0.193007273915561
 40
0.193007273915561
 40
0.193007273915561
 40
0.5157029187818981
 40
1.0
 40
1.0
 40
1.0
 40
1.0
 10
141.9315071966898
 20
124.1869559305056
 30
0.0
 10
144.4451156750147
 20
122.8899030903957
 30
0.0
 10
151.1812966449028
 20
120.6098456543158
 30
0.0
 10
158.6655145003456
 20
124.3226123039153
 30
0.0
 10
161.6992327785493
 20
120.0512843329043
 30
0.0
  0
ARC
  5
1A8
330
1F
100
AcDbEntity
  8
0
  6
Continuous
 62
     7
370
    15
100
AcDbCircle
 10
137.6286212489
 20
126.8044806568
 30
0.0
 40
24.99999999999999
100
AcDbArc
 50
343.453364163
 51
344.3281250137
  0
SPLINE
  5
1A9
330
1F
100
AcDbEntity
  8
0
  6
Continuous
 62
     7
370
    15
100
AcDbSpline
210
0.0
220
0.0
230
1.0
 70
     8
 71
     3
 72
    10
 73
     6
 74
     0
 42
0.00000001
 43
0.00000001
 12
1.0
 22
0.0
 32
0.0
 13
1.0
 23
0.0
 33
0.0
 40
0.1792841064268909
 40
0.1792841064268909
 40
0.1792841064268909
 40
0.1792841064268909
 40
0.3468266318508666
 40
0.6544165337112624
 40
0.9908353460662696
 40
0.9908353460662696
 40
0.9908353460662696
 40
0.9908353460662696
 10
161.5933273313994
 20
119.6845886365682
 30
0.0
 10
160.5227841034663
 20
121.0795392089748
 30
0.0
 10
157.0119699053834
 20
122.8797828765516
 30
0.0
 10
149.663601790721
 20
120.4575512428797
 30
0.0
 10
144.2513462982462
 20
122.3868516863268
 30
0.0
 10
141.6490090874605
 20
123.7708780460447
 30
0.0
  0
ARC
  5
1AA
330
1F
100
AcDbEntity
  8
0
  6
Continuous
 62
     7
370
    15
100
AcDbCircle
 10
137.6286212489
 20
126.8044806568
 30
0.0
 40
5.036493142300322
100
AcDbArc
 50
319.6870809372
 51
322.9634488671
  0
SPLINE
  5
1AB
330
1F
100
AcDbEntity
  8
0
  6
Continuous
 62
     7
370
    15
100
AcDbSpline
210
0.0
220
0.0
230
1.0
 70
     8
 71
     3
 72
     9
 73
     5
 74
     0
 42
0.00000001
 43
0.00000001
 12
1.0
 22
0.0
 32
0.0
 13
1.0
 23
0.0
 33
0.0
 40
0.193007273915561
 40
0.193007273915561
 40
0.193007273915561
 40
0.193007273915561
 40
0.5157029187818981
 40
1.0
 40
1.0
 40
1.0
 40
1.0
 10
141.4690604501524
 20
123.5460623420502
 30
0.0
 10
143.7488184698435
 20
121.8717633771104
 30
0.0
 10
150.0453863086666
 20
118.5660063651684
 30
0.0
 10
158.0182656876108
 20
121.0622730798677
 30
0.0
 10
160.3464509534864
 20
116.3689541481086
 30
0.0
  0
ARC
  5
1AC
330
1F
100
AcDbEntity
  8
0
  6
Continuous
 62
     7
370
    15
100
AcDbCircle
 10
137.6286212489
 20
126.8044806568
 30
0.0
 40
25.00000000000001
100
AcDbArc
 50
334.453364163
 51
335.3281250137
  0
SPLINE
  5
1AD
330
1F
100
AcDbEntity
  8
0
  6
Continuous
 62
     7
370
    15
100
AcDbSpline
210
0.0
220
0.0
230
1.0
 70
     8
 71
     3
 72
    10
 73
     6
 74
     0
 42
0.00000001
 43
0.00000001
 12
1.0
 22
0.0
 32
0.0
 13
1.0
 23
0.0
 33
0.0
 40
0.1792841064268909
 40
0.1792841064268909
 40
0.1792841064268909
 40
0.1792841064268909
 40
0.3468266318508666
 40
0.6544165337112624
 40
0.9908353460662696
 40
0.9908353460662696
 40
0.9908353460662696
 40
0.9908353460662696
 10
160.1844855330421
 20
116.0233403462608
 30
0.0
 10
159.3453408152614
 20
117.5685866194974
 30
0.0
 10
156.1593707208985
 20
119.895878641126
 30
0.0
 10
148.5225527018284
 20
118.6530067332635
 30
0.0
 10
143.4787401383616
 20
121.4052175793875
 30
0.0
 10
141.1249514401557
 20
123.1792995073808
 30
0.0
  0
ARC
  5
1AE
330
1F
100
AcDbEntity
  8
0
  6
Continuous
 62
     7
370
    15
100
AcDbCircle
 10
137.6286212489
 20
126.8044806568
 30
0.0
 40
5.03649314230031
100
AcDbArc
 50
310.6870809372
 51
313.9634488671
  0
SPLINE
  5
1AF
330
1F
100
AcDbEntity
  8
0
  6
Continuous
 62
     7
370
    15
100
AcDbSpline
210
0.0
220
0.0
230
1.0
 70
     8
 71
     3
 72
     9
 73
     5
 74
     0
 42
0.00000001
 43
0.00000001
 12
1.0
 22
0.0
 32
0.0
 13
1.0
 23
0.0
 33
0.0
 40
0.193007273915561
 40
0.193007273915561
 40
0.193007273915561
 40
0.193007273915561
 40
0.5157029187818981
 40
1.0
 40
1.0
 40
1.0
 40
1.0
 10
140.9120493447935
 20
122.9854018265748
 30
0.0
 10
142.9018216973229
 20
120.9750835340017
 30
0.0
 10
148.6037340077787
 20
116.7250256550101
 30
0.0
 10
156.868956159445
 20
117.9433260636589
 30
0.0
 10
158.4342807649428
 20
112.9435812594843
 30
0.0
  0
ARC
  5
1B0
330
1F
100
AcDbEntity
  8
0
  6
Continuous
 62
     7
370
    15
100
AcDbCircle
 10
137.6286212489
 20
126.8044806568
 30
0.0
 40
24.99999999999999
100
AcDbArc
 50
325.453364163
 51
326.3281250137
  0
SPLINE
  5
1B1
330
1F
100
AcDbEntity
  8
0
  6
Continuous
 62
     7
370
    15
100
AcDbSpline
210
0.0
220
0.0
230
1.0
 70
     8
 71
     3
 72
    10
 73
     6
 74
     0
 42
0.00000001
 43
0.00000001
 12
1.0
 22
0.0
 32
0.0
 13
1.0
 23
0.0
 33
0.0
 40
0.1792841064268909
 40
0.1792841064268909
 40
0.1792841064268909
 40
0.1792841064268909
 40
0.3468266318508666
 40
0.6544165337112624
 40
0.9908353460662696
 40
0.9908353460662696
 40
0.9908353460662696
 40
0.9908353460662696
 10
158.2202434973877
 20
112.6275595109526
 30
0.0
 10
157.633159817673
 20
114.2850523933938
 30
0.0
 10
154.8504829843818
 20
117.0820871156624
 30
0.0
 10
147.1132588656794
 20
117.0491785648361
 30
0.0
 10
142.5620846359873
 20
120.5565312485414
 30
0.0
 10
140.5148025398879
 20
122.6769849599025
 30
0.0
  0
ARC
  5
1B2
330
1F
100
AcDbEntity
  8
0
  6
Continuous
 62
     7
370
    15
100
AcDbCircle
 10
137.6286212489
 20
126.8044806568
 30
0.0
 40
5.036493142300322
100
AcDbArc
 50
301.6870809372
 51
304.9634488671
  0
SPLINE
  5
1B3
330
1F
100
AcDbEntity
  8
0
  6
Continuous
 62
     7
370
    15
100
AcDbSpline
210
0.0
220
0.0
230
1.0
 70
     8
 71
     3
 72
     9
 73
     5
 74
     0
 42
0.00000001
 43
0.00000001
 12
1.0
 22
0.0
 32
0.0
 13
1.0
 23
0.0
 33
0.0
 40
0.193007273915561
 40
0.193007273915561
 40
0.193007273915561
 40
0.193007273915561
 40
0.5157029187818981
 40
1.0
 40
1.0
 40
1.0
 40
1.0
 10
140.274189342641
 20
122.5187797066959
 30
0.0
 10
141.9249812290135
 20
120.2219427947166
 30
0.0
 10
146.8918380064566
 20
115.1322345787896
 30
0.0
 10
155.2458857307712
 20
115.0425700820197
 30
0.0
 10
156.0098061890893
 20
109.85950971571
 30
0.0
  0
ARC
  5
1B4
330
1F
100
AcDbEntity
  8
0
  6
Continuous
 62
     7
370
    15
100
AcDbCircle
 10
137.6286212489
 20
126.8044806568
 30
0.0
 40
24.99999999999999
100
AcDbArc
 50
316.453364163
 51
317.3281250137
  0
SPLINE
  5
1B5
330
1F
100
AcDbEntity
  8
0
  6
Continuous
 62
     7
370
    15
100
AcDbSpline
210
0.0
220
0.0
230
1.0
 70
     8
 71
     3
 72
    10
 73
     6
 74
     0
 42
0.00000001
 43
0.00000001
 12
1.0
 22
0.0
 32
0.0
 13
1.0
 23
0.0
 33
0.0
 40
0.1792841064268909
 40
0.1792841064268909
 40
0.1792841064268909
 40
0.1792841064268909
 40
0.3468266318508666
 40
0.6544165337112624
 40
0.9908353460662696
 40
0.9908353460662696
 40
0.9908353460662696
 40
0.9908353460662696
 10
155.7489673822998
 20
109.5808615247594
 30
0.0
 10
155.4284006892645
 20
111.3097880407361
 30
0.0
 10
153.1175358558556
 20
114.5076931859562
 30
0.0
 10
145.4704217736981
 20
115.6855583099048
 30
0.0
 10
141.523950891797
 20
119.8616901678824
 30
0.0
 10
139.8335862775498
 20
122.2763030548552
 30
0.0
  0
ARC
  5
1B6
330
1F
100
AcDbEntity
  8
0
  6
Continuous
 62
     7
370
    15
100
AcDbCircle
 10
137.6286212489
 20
126.8044806568
 30
0.0
 40
5.036493142300321
100
AcDbArc
 50
292.6870809372
 51
295.9634488671
  0
SPLINE
  5
1B7
330
1F
100
AcDbEntity
  8
0
  6
Continuous
 62
     7
370
    15
100
AcDbSpline
210
0.0
220
0.0
230
1.0
 70
     8
 71
     3
 72
     9
 73
     5
 74
     0
 42
0.00000001
 43
0.00000001
 12
1.0
 22
0.0
 32
0.0
 13
1.0
 23
0.0
 33
0.0
 40
0.193007273915561
 40
0.193007273915561
 40
0.193007273915561
 40
0.193007273915561
 40
0.5157029187818981
 40
1.0
 40
1.0
 40
1.0
 40
1.0
 10
139.5711866738837
 20
122.157685767635
 30
0.0
 10
140.8423501191928
 20
119.6308859837871
 30
0.0
 10
144.9518508657098
 20
113.826852938974
 30
0.0
 10
153.1890197822054
 20
112.4314313742753
 30
0.0
 10
153.1327258363534
 20
107.1926795936401
 30
0.0
  0
ARC
  5
1B8
330
1F
100
AcDbEntity
  8
0
  6
Continuous
 62
     7
370
    15
100
AcDbCircle
 10
137.6286212489
 20
126.8044806568
 30
0.0
 40
24.99999999999998
100
AcDbArc
 50
307.453364163
 51
308.3281250137
  0
SPLINE
  5
1B9
330
1F
100
AcDbEntity
  8
0
  6
Continuous
 62
     7
370
    15
100
AcDbSpline
210
0.0
220
0.0
230
1.0
 70
     8
 71
     3
 72
    10
 73
     6
 74
     0
 42
0.00000001
 43
0.00000001
 12
1.0
 22
0.0
 32
0.0
 13
1.0
 23
0.0
 33
0.0
 40
0.1792841064268909
 40
0.1792841064268909
 40
0.1792841064268909
 40
0.1792841064268909
 40
0.3468266318508666
 40
0.6544165337112624
 40
0.9908353460662696
 40
0.9908353460662696
 40
0.9908353460662696
 40
0.9908353460662696
 10
152.8315082074269
 20
106.9582662035122
 30
0.0
 10
152.7853519169535
 20
108.7160544442228
 30
0.0
 10
151.0032002449461
 20
112.2360869744805
 30
0.0
 10
143.6344935273526
 20
114.5957228247421
 30
0.0
 10
140.3899012039409
 20
119.3378036308616
 30
0.0
 10
139.0980764583472
 20
121.9871199105281
 30
0.0
  0
ARC
  5
1BA
330
1F
100
AcDbEntity
  8
0
  6
Continuous
 62
     7
370
    15
100
AcDbCircle
 10
137.6286212489
 20
126.8044806568
 30
0.0
 40
5.036493142300317
100
AcDbArc
 50
283.6870809372
 51
286.9634488671
  0
SPLINE
  5
1BB
330
1F
100
AcDbEntity
  8
0
  6
Continuous
 62
     7
370
    15
100
AcDbSpline
210
0.0
220
0.0
230
1.0
 70
     8
 71
     3
 72
     9
 73
     5
 74
     0
 42
0.00000001
 43
0.00000001
 12
1.0
 22
0.0
 32
0.0
 13
1.0
 23
0.0
 33
0.0
 40
0.193007273915561
 40
0.193007273915561
 40
0.193007273915561
 40
0.193007273915561
 40
0.5157029187818981
 40
1.0
 40
1.0
 40
1.0
 40
1.0
 10
138.8203515973586
 20
121.9110113405739
 30
0.0
 10
139.6805863388311
 20
119.2164668815034
 30
0.0
 10
142.8315415073918
 20
112.8410235638488
 30
0.0
 10
150.7490051797481
 20
110.1742048412828
 30
0.0
 10
149.8738829735017
 20
105.0087571015818
 30
0.0
  0
ARC
  5
1BC
330
1F
100
AcDbEntity
  8
0
  6
Continuous
 62
     7
370
    15
100
AcDbCircle
 10
137.6286212489
 20
126.8044806568
 30
0.0
 40
25.00000000000001
100
AcDbArc
 50
298.453364163
 51
299.3281250137
  0
SPLINE
  5
1BD
330
1F
100
AcDbEntity
  8
0
  6
Continuous
 62
     7
370
    15
100
AcDbSpline
210
0.0
220
0.0
230
1.0
 70
     8
 71
     3
 72
    10
 73
     6
 74
     0
 42
0.00000001
 43
0.00000001
 12
1.0
 22
0.0
 32
0.0
 13
1.0
 23
0.0
 33
0.0
 40
0.1792841064268909
 40
0.1792841064268909
 40
0.1792841064268909
 40
0.1792841064268909
 40
0.3468266318508666
 40
0.6544165337112624
 40
0.9908353460662696
 40
0.9908353460662696
 40
0.9908353460662696
 40
0.9908353460662696
 10
149.5397035001463
 20
104.8243505479149
 30
0.0
 10
149.7690941332902
 20
106.5677179331085
 30
0.0
 10
148.5595381114715
 20
110.3232029651906
 30
0.0
 10
141.6506807731647
 20
113.8065074759494
 30
0.0
 10
139.1878596394293
 20
118.9977714627001
 30
0.0
 10
138.3263837750461
 20
121.8165561756783
 30
0.0
  0
ARC
  5
1BE
330
1F
100
AcDbEntity
  8
0
  6
Continuous
 62
     7
370
    15
100
AcDbCircle
 10
137.6286212489
 20
126.8044806568
 30
0.0
 40
5.036493142300331
100
AcDbArc
 50
274.6870809372
 51
277.9634488671
  0
SPLINE
  5
1BF
330
1F
100
AcDbEntity
  8
0
  6
Continuous
 62
     7
370
    15
100
AcDbSpline
210
0.0
220
0.0
230
1.0
 70
     8
 71
     3
 72
     9
 73
     5
 74
     0
 42
0.00000001
 43
0.00000001
 12
1.0
 22
0.0
 32
0.0
 13
1.0
 23
0.0
 33
0.0
 40
0.193007273915561
 40
0.193007273915561
 40
0.193007273915561
 40
0.193007273915561
 40
0.5157029187818981
 40
1.0
 40
1.0
 40
1.0
 40
1.0
 10
138.0401721645286
 20
121.7848303685724
 30
0.0
 10
138.468296367874
 20
118.9888898615419
 30
0.0
 10
140.5831189848078
 20
112.1990208444097
 30
0.0
 10
147.9859231808557
 20
108.32647089159
 30
0.0
 10
146.3135211272969
 20
103.3615176593128
 30
0.0
  0
ARC
  5
1C0
330
1F
100
AcDbEntity
  8
0
  6
Continuous
 62
     7
370
    15
100
AcDbCircle
 10
137.6286212489
 20
126.8044806568
 30
0.0
 40
25.0
100
AcDbArc
 50
289.453364163
 51
290.3281250137
  0
SPLINE
  5
1C1
330
1F
100
AcDbEntity
  8
0
  6
Continuous
 62
     7
370
    15
100
AcDbSpline
210
0.0
220
0.0
230
1.0
 70
     8
 71
     3
 72
    10
 73
     6
 74
     0
 42
0.00000001
 43
0.00000001
 12
1.0
 22
0.0
 32
0.0
 13
1.0
 23
0.0
 33
0.0
 40
0.1792841064268909
 40
0.1792841064268909
 40
0.1792841064268909
 40
0.1792841064268909
 40
0.3468266318508666
 40
0.6544165337112624
 40
0.9908353460662696
 40
0.9908353460662696
 40
0.9908353460662696
 40
0.9908353460662696
 10
145.9546084172247
 20
103.2316586434684
 30
0.0
 10
146.453897615294
 20
104.9176776822168
 30
0.0
 10
145.8467205272074
 20
108.8161427108933
 30
0.0
 10
139.5678315650394
 20
113.3373453646695
 30
0.0
 10
137.9474244509277
 20
118.8499663838803
 30
0.0
 10
137.5375098626105
 20
121.7688116955265
 30
0.0
  0
ARC
  5
1C2
330
1F
100
AcDbEntity
  8
0
  6
Continuous
 62
     7
370
    15
100
AcDbCircle
 10
137.6286212489
 20
126.8044806568
 30
0.0
 40
5.036493142300319
100
AcDbArc
 50
265.6870809372
 51
268.9634488671
  0
SPLINE
  5
1C3
330
1F
100
AcDbEntity
  8
0
  6
Continuous
 62
     7
370
    15
100
AcDbSpline
210
0.0
220
0.0
230
1.0
 70
     8
 71
     3
 72
     9
 73
     5
 74
     0
 42
0.00000001
 43
0.00000001
 12
1.0
 22
0.0
 32
0.0
 13
1.0
 23
0.0
 33
0.0
 40
0.193007273915561
 40
0.193007273915561
 40
0.193007273915561
 40
0.193007273915561
 40
0.5157029187818981
 40
1.0
 40
1.0
 40
1.0
 40
1.0
 10
137.2498589822969
 20
121.7822498459316
 30
0.0
 10
137.2353308087661
 20
118.9537586254188
 30
0.0
 10
138.2619469225502
 20
111.9166530182942
 30
0.0
 10
144.9678100344845
 20
106.9337268673156
 30
0.0
 10
142.5393082225561
 20
102.2915217687759
 30
0.0
  0
ARC
  5
1C4
330
1F
100
AcDbEntity
  8
0
  6
Continuous
 62
     7
370
    15
100
AcDbCircle
 10
137.6286212489
 20
126.8044806568
 30
0.0
 40
25.0
100
AcDbArc
 50
280.453364163
 51
281.3281250137
  0
SPLINE
  5
1C5
330
1F
100
AcDbEntity
  8
0
  6
Continuous
 62
     7
370
    15
100
AcDbSpline
210
0.0
220
0.0
230
1.0
 70
     8
 71
     3
 72
    10
 73
     6
 74
     0
 42
0.00000001
 43
0.00000001
 12
1.0
 22
0.0
 32
0.0
 13
1.0
 23
0.0
 33
0.0
 40
0.1792841064268909
 40
0.1792841064268909
 40
0.1792841064268909
 40
0.1792841064268909
 40
0.3468266318508666
 40
0.6544165337112624
 40
0.9908353460662696
 40
0.9908353460662696
 40
0.9908353460662696
 40
0.9908353460662696
 10
142.1644998978521
 20
102.2194078507015
 30
0.0
 10
142.9213935037445
 20
103.8065631586944
 30
0.0
 10
142.9315460644039
 20
107.7520150366956
 30
0.0
 10
137.4372325630611
 20
113.1997888191419
 30
0.0
 10
136.6991392695452
 20
118.8980278459795
 30
0.0
 10
136.7508794148871
 20
121.8450620976288
 30
0.0
  0
ARC
  5
1C6
330
1F
100
AcDbEntity
  8
0
  6
Continuous
 62
     7
370
    15
100
AcDbCircle
 10
137.6286212489
 20
126.8044806568
 30
0.0
 40
5.036493142300328
100
AcDbArc
 50
256.6870809372
 51
259.9634488671
  0
SPLINE
  5
1C7
330
1F
100
AcDbEntity
  8
0
  6
Continuous
 62
     7
370
    15
100
AcDbSpline
210
0.0
220
0.0
230
1.0
 70
     8
 71
     3
 72
     9
 73
     5
 74
     0
 42
0.00000001
 43
0.00000001
 12
1.0
 22
0.0
 32
0.0
 13
1.0
 23
0.0
 33
0.0
 40
0.193007273915561
 40
0.193007273915561
 40
0.193007273915561
 40
0.193007273915561
 40
0.5157029187818981
 40
1.0
 40
1.0
 40
1.0
 40
1.0
 10
136.4688721841091
 20
121.9033333136834
 30
0.0
 10
136.0120493655507
 20
119.1119382207615
 30
0.0
 10
135.9251802803202
 20
112.0008729185063
 30
0.0
 10
141.7689817028415
 20
106.0302667485897
 30
0.0
 10
138.6441779068885
 20
101.8251162799089
 30
0.0
  0
ARC
  5
1C8
330
1F
100
AcDbEntity
  8
0
  6
Continuous
 62
     7
370
    15
100
AcDbCircle
 10
137.6286212489
 20
126.8044806568
 30
0.0
 40
25.00000000000001
100
AcDbArc
 50
271.453364163
 51
272.3281250137
  0
SPLINE
  5
1C9
330
1F
100
AcDbEntity
  8
0
  6
Continuous
 62
     7
370
    15
100
AcDbSpline
210
0.0
220
0.0
230
1.0
 70
     8
 71
     3
 72
    10
 73
     6
 74
     0
 42
0.00000001
 43
0.00000001
 12
1.0
 22
0.0
 32
0.0
 13
1.0
 23
0.0
 33
0.0
 40
0.1792841064268909
 40
0.1792841064268909
 40
0.1792841064268909
 40
0.1792841064268909
 40
0.3468266318508666
 40
0.6544165337112624
 40
0.9908353460662696
 40
0.9908353460662696
 40
0.9908353460662696
 40
0.9908353460662696
 10
138.2627029924245
 20
101.8125231435999
 30
0.0
 10
139.258563773577
 20
103.2617336896881
 30
0.0
 10
139.8857959932446
 20
107.1570222975735
 30
0.0
 10
135.311346185711
 20
113.3972249380415
 30
0.0
 10
135.4737410192687
 20
119.1407724162941
 30
0.0
 10
135.9858618841756
 20
122.043429844025
 30
0.0
  0
ARC
  5
1CA
330
1F
100
AcDbEntity
  8
0
  6
Continuous
 62
     7
370
    15
100
AcDbCircle
 10
137.6286212489
 20
126.8044806568
 30
0.0
 40
5.036493142300329
100
AcDbArc
 50
247.6870809372
 51
250.9634488671
  0
SPLINE
  5
1CB
330
1F
100
AcDbEntity
  8
0
  6
Continuous
 62
     7
370
    15
100
AcDbSpline
210
0.0
220
0.0
230
1.0
 70
     8
 71
     3
 72
     9
 73
     5
 74
     0
 42
0.00000001
 43
0.00000001
 12
1.0
 22
0.0
 32
0.0
 13
1.0
 23
0.0
 33
0.0
 40
0.193007273915561
 40
0.193007273915561
 40
0.193007273915561
 40
0.193007273915561
 40
0.5157029187818981
 40
1.0
 40
1.0
 40
1.0
 40
1.0
 10
135.7164422568833
 20
122.1450992949986
 30
0.0
 10
134.8285732871982
 20
119.4595337409645
 30
0.0
 10
133.6303580081334
 20
112.449606771593
 30
0.0
 10
138.4682039557541
 20
105.6383367219475
 30
0.0
 10
134.7240412158622
 20
101.9737856437589
 30
0.0
  0
ARC
  5
1CC
330
1F
100
AcDbEntity
  8
0
  6
Continuous
 62
     7
370
    15
100
AcDbCircle
 10
137.6286212489
 20
126.8044806568
 30
0.0
 40
25.00000000000002
100
AcDbArc
 50
262.453364163
 51
263.3281250137
  0
SPLINE
  5
1CD
330
1F
100
AcDbEntity
  8
0
  6
Continuous
 62
     7
370
    15
100
AcDbSpline
210
0.0
220
0.0
230
1.0
 70
     8
 71
     3
 72
    10
 73
     6
 74
     0
 42
0.00000001
 43
0.00000001
 12
1.0
 22
0.0
 32
0.0
 13
1.0
 23
0.0
 33
0.0
 40
0.1792841064268909
 40
0.1792841064268909
 40
0.1792841064268909
 40
0.1792841064268909
 40
0.3468266318508666
 40
0.6544165337112624
 40
0.9908353460662696
 40
0.9908353460662696
 40
0.9908353460662696
 40
0.9908353460662696
 10
134.3452928900749
 20
102.0210233740254
 30
0.0
 10
135.5555994489832
 20
103.2966047849101
 30
0.0
 10
136.7844667887463
 20
107.0458151894319
 30
0.0
 10
133.242518811012
 20
113.924792188868
 30
0.0
 10
134.3014030718834
 20
119.5722229178798
 30
0.0
 10
135.2612945410296
 20
122.3590304624539
 30
0.0
  0
ARC
  5
1CE
330
1F
100
AcDbEntity
  8
0
  6
Continuous
 62
     7
370
    15
100
AcDbCircle
 10
137.6286212489
 20
126.8044806568
 30
0.0
 40
5.036493142300319
100
AcDbArc
 50
238.6870809372
 51
241.9634488671
  0
SPLINE
  5
1CF
330
1F
100
AcDbEntity
  8
0
  6
Continuous
 62
     7
370
    15
100
AcDbSpline
210
0.0
220
0.0
230
1.0
 70
     8
 71
     3
 72
     9
 73
     5
 74
     0
 42
0.00000001
 43
0.00000001
 12
1.0
 22
0.0
 32
0.0
 13
1.0
 23
0.0
 33
0.0
 40
0.193007273915561
 40
0.193007273915561
 40
0.193007273915561
 40
0.193007273915561
 40
0.5157029187818981
 40
1.0
 40
1.0
 40
1.0
 40
1.0
 10
135.0110965225995
 20
122.501594709042
 30
0.0
 10
133.7140436824895
 20
119.9879862307171
 30
0.0
 10
131.4339862464096
 20
113.251805260829
 30
0.0
 10
135.1467528960092
 20
105.7675874053862
 30
0.0
 10
130.8754249249982
 20
102.7338691271825
 30
0.0
  0
ARC
  5
1D0
330
1F
100
AcDbEntity
  8
0
  6
Continuous
 62
     7
370
    15
100
AcDbCircle
 10
137.6286212489
 20
126.8044806568
 30
0.0
 40
25.00000000000001
100
AcDbArc
 50
253.453364163
 51
254.3281250137
  0
SPLINE
  5
1D1
330
1F
100
AcDbEntity
  8
0
  6
Continuous
 62
     7
370
    15
100
AcDbSpline
210
0.0
220
0.0
230
1.0
 70
     8
 71
     3
 72
    10
 73
     6
 74
     0
 42
0.00000001
 43
0.00000001
 12
1.0
 22
0.0
 32
0.0
 13
1.0
 23
0.0
 33
0.0
 40
0.1792841064268909
 40
0.1792841064268909
 40
0.1792841064268909
 40
0.1792841064268909
 40
0.3468266318508666
 40
0.6544165337112624
 40
0.9908353460662696
 40
0.9908353460662696
 40
0.9908353460662696
 40
0.9908353460662696
 10
130.508729228662
 20
102.8397745743324
 30
0.0
 10
131.9036798010686
 20
103.9103178022655
 30
0.0
 10
133.7039234686454
 20
107.4211320003484
 30
0.0
 10
131.2816918349735
 20
114.7695001150108
 30
0.0
 10
133.2109922784207
 20
120.1817556074856
 30
0.0
 10
134.5950186381386
 20
122.7840928182713
 30
0.0
  0
ARC
  5
1D2
330
1F
100
AcDbEntity
  8
0
  6
Continuous
 62
     7
370
    15
100
AcDbCircle
 10
137.6286212489
 20
126.8044806568
 30
0.0
 40
5.036493142300327
100
AcDbArc
 50
229.6870809372
 51
232.9634488671
  0
SPLINE
  5
1D3
330
1F
100
AcDbEntity
  8
0
  6
Continuous
 62
     7
370
    15
100
AcDbSpline
210
0.0
220
0.0
230
1.0
 70
     8
 71
     3
 72
     9
 73
     5
 74
     0
 42
0.00000001
 43
0.00000001
 12
1.0
 22
0.0
 32
0.0
 13
1.0
 23
0.0
 33
0.0
 40
0.193007273915561
 40
0.193007273915561
 40
0.193007273915561
 40
0.193007273915561
 40
0.5157029187818981
 40
1.0
 40
1.0
 40
1.0
 40
1.0
 10
134.3702029341441
 20
122.9640414555794
 30
0.0
 10
132.6959039692043
 20
120.6842834358883
 30
0.0
 10
129.3901469572623
 20
114.3877155970652
 30
0.0
 10
131.8864136719615
 20
106.414836218121
 30
0.0
 10
127.1930947402025
 20
104.0866509522454
 30
0.0
  0
ARC
  5
1D4
330
1F
100
AcDbEntity
  8
0
  6
Continuous
 62
     7
370
    15
100
AcDbCircle
 10
137.6286212489
 20
126.8044806568
 30
0.0
 40
25.00000000000001
100
AcDbArc
 50
244.453364163
 51
245.3281250137
  0
SPLINE
  5
1D5
330
1F
100
AcDbEntity
  8
0
  6
Continuous
 62
     7
370
    15
100
AcDbSpline
210
0.0
220
0.0
230
1.0
 70
     8
 71
     3
 72
    10
 73
     6
 74
     0
 42
0.00000001
 43
0.00000001
 12
1.0
 22
0.0
 32
0.0
 13
1.0
 23
0.0
 33
0.0
 40
0.1792841064268909
 40
0.1792841064268909
 40
0.1792841064268909
 40
0.1792841064268909
 40
0.3468266318508666
 40
0.6544165337112624
 40
0.9908353460662696
 40
0.9908353460662696
 40
0.9908353460662696
 40
0.9908353460662696
 10
126.8474809383546
 20
104.2486163726897
 30
0.0
 10
128.3927272115912
 20
105.0877610904704
 30
0.0
 10
130.7200192332199
 20
108.2737311848333
 30
0.0
 10
129.4771473253573
 20
115.9105492039034
 30
0.0
 10
132.2293581714814
 20
120.9543617673702
 30
0.0
 10
134.0034400994747
 20
123.3081504655761
 30
0.0
  0
ARC
  5
1D6
330
1F
100
AcDbEntity
  8
0
  6
Continuous
 62
     7
370
    15
100
AcDbCircle
 10
137.6286212489
 20
126.8044806568
 30
0.0
 40
32.00000000000001
100
AcDbArc
 50
154.6538240581
 51
205.3461759419
  0
LINE
  5
1D7
330
1F
100
AcDbEntity
  8
0
  6
Continuous
 62
     7
370
    15
100
AcDbLine
 10
108.7090104043
 20
113.1057176252
 30
0.0
 11
103.286583371
 21
110.5371995567
 31
0.0
  0
LINE
  5
1D8
330
1F
100
AcDbEntity
  8
0
  6
Continuous
 62
     7
370
    15
100
AcDbLine
 10
108.7090104043
 20
140.5032436885
 30
0.0
 11
103.286583371
 21
143.0717617569
 31
0.0
  0
LINE
  5
1D9
330
1F
100
AcDbEntity
  8
0
  6
Continuous
 62
     7
370
    15
100
AcDbLine
 10
166.5482320935
 20
113.1057176252
 30
0.0
 11
171.9706591269
 21
110.5371995567
 31
0.0
  0
ARC
  5
1DA
330
1F
100
AcDbEntity
  8
0
  6
Continuous
 62
     7
370
    15
100
AcDbCircle
 10
137.6286212489
 20
126.8044806568
 30
0.0
 40
31.99999999999999
100
AcDbArc
 50
334.6538240581
 51
25.3461759419
  0
LINE
  5
1DB
330
1F
100
AcDbEntity
  8
0
  6
Continuous
 62
     7
370
    15
100
AcDbLine
 10
166.5482320935
 20
140.5032436885
 30
0.0
 11
171.9706591269
 21
143.0717617569
 31
0.0
  0
ARC
  5
1DC
330
1F
100
AcDbEntity
  8
0
  6
Continuous
 62
     7
370
    15
100
AcDbCircle
 10
137.6286212489
 20
126.8044806568
 30
0.0
 40
35.00000000000001
100
AcDbArc
 50
270.0
 51
334.6538240581
  0
ARC
  5
1DD
330
1F
100
AcDbEntity
  8
0
  6
Continuous
 62
     7
370
    15
100
AcDbCircle
 10
137.6286212489
 20
126.8044806568
 30
0.0
 40
35.00000000000002
100
AcDbArc
 50
25.3461759419
 51
154.6538240581
  0
ARC
  5
1DE
330
1F
100
AcDbEntity
  8
0
  6
Continuous
 62
     7
370
    15
100
AcDbCircle
 10
137.6286212489
 20
126.8044806568
 30
0.0
 40
35.00000000000003
100
AcDbArc
 50
205.3461759419
 51
270.0
  0
ARC
  5
1DF
330
1F
100
AcDbEntity
  8
0
  6
Continuous
 62
     7
370
    15
100
AcDbCircle
 10
137.6286212489
 20
126.8044806568
 30
0.0
 40
43.0
100
AcDbArc
 50
270.0
 51
353.3225946728
  0
ARC
  5
1E0
330
1F
100
AcDbEntity
  8
0
  6
Continuous
 62
     7
370
    15
100
AcDbCircle
 10
137.6286212489
 20
126.8044806568
 30
0.0
 40
43.00000000000001
100
AcDbArc
 50
6.6774053272
 51
173.3225946728
  0
ARC
  5
1E1
330
1F
100
AcDbEntity
  8
0
  6
Continuous
 62
     7
370
    15
100
AcDbCircle
 10
137.6286212489
 20
126.8044806568
 30
0.0
 40
43.00000000000001
100
AcDbArc
 50
186.6774053272
 51
270.0
  0
LINE
  5
1E2
330
1F
100
AcDbEntity
  8
0
  6
Continuous
 62
     7
370
    15
100
AcDbLine
 10
99.6286286322
 20
131.8044806568
 30
0.0
 11
90.4222780908
 21
131.8044806568
 31
0.0
  0
LINE
  5
1E3
330
1F
100
AcDbEntity
  8
0
  6
Continuous
 62
     7
370
    15
100
AcDbLine
 10
99.6286286322
 20
131.8044806568
 30
0.0
 11
99.6286286322
 21
121.8044806568
 31
0.0
  0
LINE
  5
1E4
330
1F
100
AcDbEntity
  8
0
  6
Continuous
 62
     7
370
    15
100
AcDbLine
 10
99.6286286322
 20
121.8044806568
 30
0.0
 11
90.4222780908
 21
121.8044806568
 31
0.0
  0
LINE
  5
1E5
330
1F
100
AcDbEntity
  8
0
  6
Continuous
 62
     7
370
    15
100
AcDbLine
 10
90.4222780908
 20
131.8044806568
 30
0.0
 11
90.4222780908
 21
121.8044806568
 31
0.0
  0
LINE
  5
1E6
330
1F
100
AcDbEntity
  8
0
  6
Continuous
 62
     7
370
    15
100
AcDbLine
 10
99.9590048452
 20
131.8044806568
 30
0.0
 11
99.6286286322
 21
131.8044806568
 31
0.0
  0
LINE
  5
1E7
330
1F
100
AcDbEntity
  8
0
  6
Continuous
 62
     7
370
    15
100
AcDbLine
 10
99.9590048452
 20
121.8044806568
 30
0.0
 11
99.6286286322
 21
121.8044806568
 31
0.0
  0
LINE
  5
1E8
330
1F
100
AcDbEntity
  8
0
  6
Continuous
 62
     7
370
    15
100
AcDbLine
 10
175.6286138656
 20
131.8044806568
 30
0.0
 11
175.2982376526
 21
131.8044806568
 31
0.0
  0
LINE
  5
1E9
330
1F
100
AcDbEntity
  8
0
  6
Continuous
 62
     7
370
    15
100
AcDbLine
 10
175.6286138656
 20
131.8044806568
 30
0.0
 11
175.6286138656
 21
121.8044806568
 31
0.0
  0
LINE
  5
1EA
330
1F
100
AcDbEntity
  8
0
  6
Continuous
 62
     7
370
    15
100
AcDbLine
 10
175.6286138656
 20
121.8044806568
 30
0.0
 11
175.2982376526
 21
121.8044806568
 31
0.0
  0
LINE
  5
1EB
330
1F
100
AcDbEntity
  8
0
  6
Continuous
 62
     7
370
    15
100
AcDbLine
 10
184.834964407
 20
131.8044806568
 30
0.0
 11
175.6286138656
 21
131.8044806568
 31
0.0
  0
LINE
  5
1EC
330
1F
100
AcDbEntity
  8
0
  6
Continuous
 62
     7
370
    15
100
AcDbLine
 10
184.834964407
 20
131.8044806568
 30
0.0
 11
184.834964407
 21
121.8044806568
 31
0.0
  0
LINE
  5
1ED
330
1F
100
AcDbEntity
  8
0
  6
Continuous
 62
     7
370
    15
100
AcDbLine
 10
184.834964407
 20
121.8044806568
 30
0.0
 11
175.6286138656
 21
121.8044806568
 31
0.0
  0
CIRCLE
  5
1EE
330
1F
100
AcDbEntity
  8
0
  6
Continuous
 62
     7
370
    15
100
AcDbCircle
 10
137.6286212489
 20
357.0438785818
 30
0.0
 40
24.99999999999994
  0
CIRCLE
  5
1EF
330
1F
100
AcDbEntity
  8
0
  6
Continuous
 62
     7
370
    15
100
AcDbCircle
 10
137.6286212489
 20
357.0438785818
 30
0.0
 40
43.00000000000006
  0
CIRCLE
  5
1F0
330
1F
100
AcDbEntity
  8
0
  6
Continuous
 62
     7
370
    15
100
AcDbCircle
 10
137.6286212489
 20
357.0438785818
 30
0.0
 40
19.99999999999994
  0
CIRCLE
  5
1F1
330
1F
100
AcDbEntity
  8
0
  6
Continuous
 62
     7
370
    15
100
AcDbCircle
 10
137.6286212489
 20
357.0438785818
 30
0.0
 40
23.99999999999994
  0
LINE
  5
1F2
330
1F
100
AcDbEntity
  8
0
  6
Continuous
 62
     7
370
    15
100
AcDbLine
 10
90.4222780908
 20
352.0438785818
 30
0.0
 11
91.8700544905
 21
352.0438785818
 31
0.0
  0
LINE
  5
1F3
330
1F
100
AcDbEntity
  8
0
  6
Continuous
 62
     7
370
    15
100
AcDbLine
 10
90.4222780908
 20
352.0438785818
 30
0.0
 11
90.4222780908
 21
362.0438785818
 31
0.0
  0
LINE
  5
1F4
330
1F
100
AcDbEntity
  8
0
  6
Continuous
 62
     7
370
    15
100
AcDbLine
 10
90.4222780908
 20
362.0438785818
 30
0.0
 11
91.8700544905
 21
362.0438785818
 31
0.0
  0
LINE
  5
1F5
330
1F
100
AcDbEntity
  8
0
  6
Continuous
 62
     7
370
    15
100
AcDbLine
 10
91.8700544905
 20
352.0438785818
 30
0.0
 11
91.8700544905
 21
362.0438785818
 31
0.0
  0
LINE
  5
1F6
330
1F
100
AcDbEntity
  8
0
  6
Continuous
 62
     7
370
    15
100
AcDbLine
 10
91.8700544905
 20
362.0438785818
 30
0.0
 11
94.9203082408
 21
362.0438785818
 31
0.0
  0
LINE
  5
1F7
330
1F
100
AcDbEntity
  8
0
  6
Continuous
 62
     7
370
    15
100
AcDbLine
 10
91.8700544905
 20
352.0438785818
 30
0.0
 11
94.9203082408
 21
352.0438785818
 31
0.0
  0
LINE
  5
1F8
330
1F
100
AcDbEntity
  8
0
  6
Continuous
 62
     7
370
    15
100
AcDbLine
 10
183.3871880073
 20
352.0438785818
 30
0.0
 11
184.834964407
 21
352.0438785818
 31
0.0
  0
LINE
  5
1F9
330
1F
100
AcDbEntity
  8
0
  6
Continuous
 62
     7
370
    15
100
AcDbLine
 10
183.3871880073
 20
352.0438785818
 30
0.0
 11
183.3871880073
 21
362.0438785818
 31
0.0
  0
LINE
  5
1FA
330
1F
100
AcDbEntity
  8
0
  6
Continuous
 62
     7
370
    15
100
AcDbLine
 10
183.3871880073
 20
362.0438785818
 30
0.0
 11
184.834964407
 21
362.0438785818
 31
0.0
  0
LINE
  5
1FB
330
1F
100
AcDbEntity
  8
0
  6
Continuous
 62
     7
370
    15
100
AcDbLine
 10
184.834964407
 20
352.0438785818
 30
0.0
 11
184.834964407
 21
362.0438785818
 31
0.0
  0
LINE
  5
1FC
330
1F
100
AcDbEntity
  8
0
  6
Continuous
 62
     7
370
    15
100
AcDbLine
 10
180.336934257
 20
362.0438785818
 30
0.0
 11
183.3871880073
 21
362.0438785818
 31
0.0
  0
LINE
  5
1FD
330
1F
100
AcDbEntity
  8
0
  6
Continuous
 62
     7
370
    15
100
AcDbLine
 10
180.336934257
 20
352.0438785818
 30
0.0
 11
183.3871880073
 21
352.0438785818
 31
0.0
  0
ENDSEC
  0
SECTION
  2
OBJECTS
  0
DICTIONARY
  5
C
330
0
100
AcDbDictionary
281
     1
  3
ACAD_GROUP
350
D
  3
ACAD_LAYOUT
350
1A
  3
ACAD_MLINESTYLE
350
17
  3
ACAD_PLOTSETTINGS
350
19
  3
ACAD_PLOTSTYLENAME
350
E
  0
DICTIONARY
  5
D
102
{ACAD_REACTORS
330
C
102
}
330
C
100
AcDbDictionary
281
     1
  0
DICTIONARY
  5
1A
102
{ACAD_REACTORS
330
C
102
}
330
C
100
AcDbDictionary
281
     1
  3
Layout1
350
1E
  3
Layout2
350
26
  3
Model
350
22
  0
DICTIONARY
  5
17
102
{ACAD_REACTORS
330
C
102
}
330
C
100
AcDbDictionary
281
     1
  3
Standard
350
18
  0
DICTIONARY
  5
19
102
{ACAD_REACTORS
330
C
102
}
330
C
100
AcDbDictionary
281
     1
  0
ACDBDICTIONARYWDFLT
  5
E
102
{ACAD_REACTORS
330
C
102
}
330
C
100
AcDbDictionary
281
     1
  3
Normal
350
F
100
AcDbDictionaryWithDefault
340
F
  0
LAYOUT
  5
1E
102
{ACAD_REACTORS
330
1A
102
}
330
1A
100
AcDbPlotSettings
  1

  2
none_device
  4

  6

 40
0.0
 41
0.0
 42
0.0
 43
0.0
 44
0.0
 45
0.0
 46
0.0
 47
0.0
 48
0.0
 49
0.0
140
0.0
141
0.0
142
1.0
143
1.0
 70
   688
 72
     0
 73
     0
 74
     5
  7

 75
    16
147
1.0
148
0.0
149
0.0
100
AcDbLayout
  1
Layout1
 70
     1
 71
     1
 10
0.0
 20
0.0
 11
420.0
 21
297.0
 12
0.0
 22
0.0
 32
0.0
 14
1.0000000000E+20
 24
1.0000000000E+20
 34
1.0000000000E+20
 15
-1.0000000000E+20
 25
-1.0000000000E+20
 35
-1.0000000000E+20
146
0.0
 13
0.0
 23
0.0
 33
0.0
 16
1.0
 26
0.0
 36
0.0
 17
0.0
 27
1.0
 37
0.0
 76
     0
330
1B
  0
LAYOUT
  5
26
102
{ACAD_REACTORS
330
1A
102
}
330
1A
100
AcDbPlotSettings
  1

  2
none_device
  4

  6

 40
0.0
 41
0.0
 42
0.0
 43
0.0
 44
0.0
 45
0.0
 46
0.0
 47
0.0
 48
0.0
 49
0.0
140
0.0
141
0.0
142
1.0
143
1.0
 70
   688
 72
     0
 73
     0
 74
     5
  7

 75
    16
147
1.0
148
0.0
149
0.0
100
AcDbLayout
  1
Layout2
 70
     1
 71
     2
 10
0.0
 20
0.0
 11
0.0
 21
0.0
 12
0.0
 22
0.0
 32
0.0
 14
0.0
 24
0.0
 34
0.0
 15
0.0
 25
0.0
 35
0.0
146
0.0
 13
0.0
 23
0.0
 33
0.0
 16
1.0
 26
0.0
 36
0.0
 17
0.0
 27
1.0
 37
0.0
 76
     0
330
23
  0
LAYOUT
  5
22
102
{ACAD_REACTORS
330
1A
102
}
330
1A
100
AcDbPlotSettings
  1

  2
none_device
  4

  6

 40
0.0
 41
0.0
 42
0.0
 43
0.0
 44
0.0
 45
0.0
 46
0.0
 47
0.0
 48
0.0
 49
0.0
140
0.0
141
0.0
142
1.0
143
1.0
 70
  1712
 72
     0
 73
     0
 74
     0
  7

 75
     0
147
1.0
148
0.0
149
0.0
100
AcDbLayout
  1
Model
 70
     1
 71
     0
 10
0.0
 20
0.0
 11
558.8
 21
431.8
 12
0.0
 22
0.0
 32
0.0
 14
0.0
 24
0.0
 34
0.0
 15
558.8
 25
431.8
 35
0.0
146
0.0
 13
0.0
 23
0.0
 33
0.0
 16
1.0
 26
0.0
 36
0.0
 17
0.0
 27
1.0
 37
0.0
 76
     0
330
1F
331
29
  0
MLINESTYLE
  5
18
102
{ACAD_REACTORS
330
17
102
}
330
17
100
AcDbMlineStyle
  2
Standard
 70
     0
  3

 62
   256
 51
90.0
 52
90.0
 71
     2
 49
0.5
 62
   256
  6
BYLAYER
 49
-0.5
 62
   256
  6
BYLAYER
  0
ACDBPLACEHOLDER
  5
F
102
{ACAD_REACTORS
330
E
102
}
330
E
  0
ENDSEC
  0
EOF
