  0
SECTION
  2
HEADER
  9
$ACADVER
  1
AC1021
  9
$ACADMAINTVER
 70
    50
  9
$DWGCODEPAGE
  3
ANSI_1251
  9
$LASTSAVEDBY
  1
Игорь
  9
$INSBASE
 10
0.0
 20
0.0
 30
0.0
  9
$EXTMIN
 10
1306.532668340174
 20
538.4981491082562
 30
-0.0015258207003583
  9
$EXTMAX
 10
2475.104745714814
 20
1836.151496422188
 30
0.0000000349246037
  9
$LIMMIN
 10
0.0
 20
0.0
  9
$LIMMAX
 10
5588.0
 20
4318.0
  9
$ORTHOMODE
 70
     0
  9
$REGENMODE
 70
     1
  9
$FILLMODE
 70
     1
  9
$QTEXTMODE
 70
     0
  9
$MIRRTEXT
 70
     1
  9
$LTSCALE
 40
20.0
  9
$ATTMODE
 70
     1
  9
$TEXTSIZE
 40
70.0
  9
$TRACEWID
 40
1.0
  9
$TEXTSTYLE
  7
Standard
  9
$CLAYER
  8
0
  9
$CELTYPE
  6
ByLayer
  9
$CECOLOR
 62
   256
  9
$CELTSCALE
 40
1.0
  9
$DISPSILH
 70
     0
  9
$DIMSCALE
 40
1.0
  9
$DIMASZ
 40
70.0
  9
$DIMEXO
 40
0.2
  9
$DIMDLI
 40
3.75
  9
$DIMRND
 40
0.0
  9
$DIMDLE
 40
0.0
  9
$DIMEXE
 40
20.0
  9
$DIMTP
 40
0.0
  9
$DIMTM
 40
0.0
  9
$DIMTXT
 40
70.0
  9
$DIMCEN
 40
2.5
  9
$DIMTSZ
 40
0.0
  9
$DIMTOL
 70
     0
  9
$DIMLIM
 70
     0
  9
$DIMTIH
 70
     1
  9
$DIMTOH
 70
     1
  9
$DIMSE1
 70
     0
  9
$DIMSE2
 70
     0
  9
$DIMTAD
 70
     1
  9
$DIMZIN
 70
     0
  9
$DIMBLK
  1

  9
$DIMASO
 70
     1
  9
$DIMSHO
 70
     1
  9
$DIMPOST
  1

  9
$DIMAPOST
  1

  9
$DIMALT
 70
     0
  9
$DIMALTD
 70
     3
  9
$DIMALTF
 40
0.0393700787401575
  9
$DIMLFAC
 40
1.0
  9
$DIMTOFL
 70
     1
  9
$DIMTVP
 40
0.0
  9
$DIMTIX
 70
     0
  9
$DIMSOXD
 70
     0
  9
$DIMSAH
 70
     0
  9
$DIMBLK1
  1

  9
$DIMBLK2
  1

  9
$DIMSTYLE
  2
ISO-25
  9
$DIMCLRD
 70
     0
  9
$DIMCLRE
 70
     0
  9
$DIMCLRT
 70
     0
  9
$DIMTFAC
 40
1.0
  9
$DIMGAP
 40
60.0
  9
$DIMJUST
 70
     0
  9
$DIMSD1
 70
     0
  9
$DIMSD2
 70
     0
  9
$DIMTOLJ
 70
     0
  9
$DIMTZIN
 70
     0
  9
$DIMALTZ
 70
     0
  9
$DIMALTTZ
 70
     0
  9
$DIMUPT
 70
     0
  9
$DIMDEC
 70
     2
  9
$DIMTDEC
 70
     3
  9
$DIMALTU
 70
     2
  9
$DIMALTTD
 70
     3
  9
$DIMTXSTY
  7
Standard
  9
$DIMAUNIT
 70
     0
  9
$DIMADEC
 70
     2
  9
$DIMALTRND
 40
0.0
  9
$DIMAZIN
 70
     0
  9
$DIMDSEP
 70
    44
  9
$DIMATFIT
 70
     3
  9
$DIMFRAC
 70
     0
  9
$DIMLDRBLK
  1

  9
$DIMLUNIT
 70
     2
  9
$DIMLWD
 70
    -2
  9
$DIMLWE
 70
    -2
  9
$DIMTMOVE
 70
     0
  9
$DIMFXL
 40
1.0
  9
$DIMFXLON
 70
     0
  9
$DIMJOGANG
 40
0.7853981633974483
  9
$DIMTFILL
 70
     0
  9
$DIMTFILLCLR
 70
     0
  9
$DIMARCSYM
 70
     0
  9
$DIMLTYPE
  6

  9
$DIMLTEX1
  6

  9
$DIMLTEX2
  6

  9
$LUNITS
 70
     2
  9
$LUPREC
 70
     2
  9
$SKETCHINC
 40
1.0
  9
$FILLETRAD
 40
10.0
  9
$AUNITS
 70
     0
  9
$AUPREC
 70
     2
  9
$MENU
  1
.
  9
$ELEVATION
 40
0.0
  9
$PELEVATION
 40
0.0
  9
$THICKNESS
 40
0.0
  9
$LIMCHECK
 70
     0
  9
$CHAMFERA
 40
10.0
  9
$CHAMFERB
 40
10.0
  9
$CHAMFERC
 40
20.0
  9
$CHAMFERD
 40
0.0
  9
$SKPOLY
 70
     0
  9
$TDCREATE
 40
2458074.909071690
  9
$TDUCREATE
 40
2458074.825738357
  9
$TDUPDATE
 40
2458074.909839039
  9
$TDUUPDATE
 40
2458074.826505706
  9
$TDINDWG
 40
0.0006720949
  9
$TDUSRTIMER
 40
0.0006720949
  9
$USRTIMER
 70
     1
  9
$ANGBASE
 50
0.0
  9
$ANGDIR
 70
     0
  9
$PDMODE
 70
     0
  9
$PDSIZE
 40
-1.0
  9
$PLINEWID
 40
0.0
  9
$SPLFRAME
 70
     0
  9
$SPLINETYPE
 70
     6
  9
$SPLINESEGS
 70
     8
  9
$HANDSEED
  5
192
  9
$SURFTAB1
 70
     6
  9
$SURFTAB2
 70
     6
  9
$SURFTYPE
 70
     6
  9
$SURFU
 70
     6
  9
$SURFV
 70
     6
  9
$UCSBASE
  2

  9
$UCSNAME
  2

  9
$UCSORG
 10
0.0
 20
0.0
 30
0.0
  9
$UCSXDIR
 10
1.0
 20
0.0
 30
0.0
  9
$UCSYDIR
 10
0.0
 20
1.0
 30
0.0
  9
$UCSORTHOREF
  2

  9
$UCSORTHOVIEW
 70
     0
  9
$UCSORGTOP
 10
0.0
 20
0.0
 30
0.0
  9
$UCSORGBOTTOM
 10
0.0
 20
0.0
 30
0.0
  9
$UCSORGLEFT
 10
0.0
 20
0.0
 30
0.0
  9
$UCSORGRIGHT
 10
0.0
 20
0.0
 30
0.0
  9
$UCSORGFRONT
 10
0.0
 20
0.0
 30
0.0
  9
$UCSORGBACK
 10
0.0
 20
0.0
 30
0.0
  9
$PUCSBASE
  2

  9
$PUCSNAME
  2

  9
$PUCSORG
 10
0.0
 20
0.0
 30
0.0
  9
$PUCSXDIR
 10
1.0
 20
0.0
 30
0.0
  9
$PUCSYDIR
 10
0.0
 20
1.0
 30
0.0
  9
$PUCSORTHOREF
  2

  9
$PUCSORTHOVIEW
 70
     0
  9
$PUCSORGTOP
 10
0.0
 20
0.0
 30
0.0
  9
$PUCSORGBOTTOM
 10
0.0
 20
0.0
 30
0.0
  9
$PUCSORGLEFT
 10
0.0
 20
0.0
 30
0.0
  9
$PUCSORGRIGHT
 10
0.0
 20
0.0
 30
0.0
  9
$PUCSORGFRONT
 10
0.0
 20
0.0
 30
0.0
  9
$PUCSORGBACK
 10
0.0
 20
0.0
 30
0.0
  9
$USERI1
 70
     0
  9
$USERI2
 70
     0
  9
$USERI3
 70
     0
  9
$USERI4
 70
     0
  9
$USERI5
 70
     0
  9
$USERR1
 40
0.0
  9
$USERR2
 40
0.0
  9
$USERR3
 40
0.0
  9
$USERR4
 40
0.0
  9
$USERR5
 40
0.0
  9
$WORLDVIEW
 70
     1
  9
$SHADEDGE
 70
     3
  9
$SHADEDIF
 70
    70
  9
$TILEMODE
 70
     1
  9
$MAXACTVP
 70
    64
  9
$PINSBASE
 10
0.0
 20
0.0
 30
0.0
  9
$PLIMCHECK
 70
     0
  9
$PEXTMIN
 10
1.000000000000000E+20
 20
1.000000000000000E+20
 30
1.000000000000000E+20
  9
$PEXTMAX
 10
-1.000000000000000E+20
 20
-1.000000000000000E+20
 30
-1.000000000000000E+20
  9
$PLIMMIN
 10
0.0
 20
0.0
  9
$PLIMMAX
 10
420.0
 20
297.0
  9
$UNITMODE
 70
     0
  9
$VISRETAIN
 70
     1
  9
$PLINEGEN
 70
     0
  9
$PSLTSCALE
 70
     1
  9
$TREEDEPTH
 70
  3020
  9
$CMLSTYLE
  2
Standard
  9
$CMLJUST
 70
     0
  9
$CMLSCALE
 40
20.0
  9
$PROXYGRAPHICS
 70
     1
  9
$MEASUREMENT
 70
     1
  9
$CELWEIGHT
370
    -1
  9
$ENDCAPS
280
     0
  9
$JOINSTYLE
280
     0
  9
$LWDISPLAY
290
     1
  9
$INSUNITS
 70
     4
  9
$HYPERLINKBASE
  1

  9
$STYLESHEET
  1

  9
$XEDIT
290
     1
  9
$CEPSNTYPE
380
     0
  9
$PSTYLEMODE
290
     1
  9
$FINGERPRINTGUID
  2
{8C4B8277-EA7C-4319-B639-455CF03ABE6E}
  9
$VERSIONGUID
  2
{484DDC0B-BB4A-48C4-B1C2-42F3C659A45A}
  9
$EXTNAMES
290
     1
  9
$PSVPSCALE
 40
0.0
  9
$OLESTARTUP
290
     0
  9
$SORTENTS
280
   127
  9
$INDEXCTL
280
     0
  9
$HIDETEXT
280
     0
  9
$XCLIPFRAME
290
     0
  9
$HALOGAP
280
     0
  9
$OBSCOLOR
 70
   257
  9
$OBSLTYPE
280
     0
  9
$INTERSECTIONDISPLAY
280
     0
  9
$INTERSECTIONCOLOR
 70
   257
  9
$DIMASSOC
280
     1
  9
$PROJECTNAME
  1

  9
$CAMERADISPLAY
290
     0
  9
$LENSLENGTH
 40
50.0
  9
$CAMERAHEIGHT
 40
0.0
  9
$STEPSPERSEC
 40
2.0
  9
$STEPSIZE
 40
6.0
  9
$3DDWFPREC
 40
2.0
  9
$PSOLWIDTH
 40
0.25
  9
$PSOLHEIGHT
 40
4.0
  9
$LOFTANG1
 40
1.570796326794896
  9
$LOFTANG2
 40
1.570796326794896
  9
$LOFTMAG1
 40
0.0
  9
$LOFTMAG2
 40
0.0
  9
$LOFTPARAM
 70
     7
  9
$LOFTNORMALS
280
     1
  9
$LATITUDE
 40
37.795
  9
$LONGITUDE
 40
-122.394
  9
$NORTHDIRECTION
 40
0.0
  9
$TIMEZONE
 70
 -8000
  9
$LIGHTGLYPHDISPLAY
280
     1
  9
$TILEMODELIGHTSYNCH
280
     1
  9
$CMATERIAL
347
122
  9
$SOLIDHIST
280
     1
  9
$SHOWHIST
280
     1
  9
$DWFFRAME
280
     2
  9
$DGNFRAME
280
     0
  9
$REALWORLDSCALE
290
     1
  9
$INTERFERECOLOR
 62
     1
  9
$INTERFEREOBJVS
345
144
  9
$INTERFEREVPVS
346
141
  9
$CSHADOW
280
     0
  9
$SHADOWPLANELOCATION
 40
0.0
  0
ENDSEC
  0
SECTION
  2
CLASSES
  0
CLASS
  1
ACDBDICTIONARYWDFLT
  2
AcDbDictionaryWithDefault
  3
ObjectDBX Classes
 90
        0
 91
        1
280
     0
281
     0
  0
CLASS
  1
VISUALSTYLE
  2
AcDbVisualStyle
  3
ObjectDBX Classes
 90
     4095
 91
       16
280
     0
281
     0
  0
CLASS
  1
MATERIAL
  2
AcDbMaterial
  3
ObjectDBX Classes
 90
     1153
 91
        3
280
     0
281
     0
  0
CLASS
  1
TABLESTYLE
  2
AcDbTableStyle
  3
ObjectDBX Classes
 90
     4095
 91
        1
280
     0
281
     0
  0
CLASS
  1
SCALE
  2
AcDbScale
  3
ObjectDBX Classes
 90
     1153
 91
       17
280
     0
281
     0
  0
CLASS
  1
MLEADERSTYLE
  2
AcDbMLeaderStyle
  3
ACDB_MLEADERSTYLE_CLASS
 90
     4095
 91
        1
280
     0
281
     0
  0
CLASS
  1
DICTIONARYVAR
  2
AcDbDictionaryVar
  3
ObjectDBX Classes
 90
        0
 91
        7
280
     0
281
     0
  0
CLASS
  1
CELLSTYLEMAP
  2
AcDbCellStyleMap
  3
ObjectDBX Classes
 90
     1152
 91
        1
280
     0
281
     0
  0
ENDSEC
  0
SECTION
  2
TABLES
  0
TABLE
  2
VPORT
  5
8
330
0
100
AcDbSymbolTable
 70
     1
  0
VPORT
  5
29
330
8
100
AcDbSymbolTableRecord
100
AcDbViewportTableRecord
  2
*Active
 70
     0
 10
0.0
 20
0.0
 11
1.0
 21
1.0
 12
1890.818707027494
 22
1187.324822765222
 13
0.0
 23
0.0
 14
10.0
 24
10.0
 15
10.0
 25
10.0
 16
0.0
 26
0.0
 36
1.0
 17
0.0
 27
0.0
 37
0.0
 40
1313.673759009165
 41
2.604123711340206
 42
50.0
 43
0.0
 44
0.0
 50
0.0
 51
0.0
 71
     0
 72
  2000
 73
     1
 74
     3
 75
     0
 76
     0
 77
     0
 78
     0
281
     0
 65
     1
110
0.0
120
0.0
130
0.0
111
1.0
121
0.0
131
0.0
112
0.0
122
1.0
132
0.0
 79
     0
146
0.0
348
140
 60
     3
 61
     5
292
     1
282
     1
141
0.0
142
0.0
 63
   250
421
  3355443
  0
ENDTAB
  0
TABLE
  2
LTYPE
  5
5
330
0
100
AcDbSymbolTable
 70
     6
  0
LTYPE
  5
14
330
5
100
AcDbSymbolTableRecord
100
AcDbLinetypeTableRecord
  2
ByBlock
 70
     0
  3

 72
    65
 73
     0
 40
0.0
  0
LTYPE
  5
15
330
5
100
AcDbSymbolTableRecord
100
AcDbLinetypeTableRecord
  2
ByLayer
 70
     0
  3

 72
    65
 73
     0
 40
0.0
  0
LTYPE
  5
16
330
5
100
AcDbSymbolTableRecord
100
AcDbLinetypeTableRecord
  2
Continuous
 70
     0
  3
Solid line
 72
    65
 73
     0
 40
0.0
  0
LTYPE
  5
3F
330
5
100
AcDbSymbolTableRecord
100
AcDbLinetypeTableRecord
  2
HIDDEN
 70
     0
  3
Hidden __ __ __ __ __ __ __ __ __ __ __ __ __ __
 72
    65
 73
     2
 40
1.905
 49
1.27
 74
     0
 49
-0.635
 74
     0
  0
LTYPE
  5
40
330
5
100
AcDbSymbolTableRecord
100
AcDbLinetypeTableRecord
  2
PHANTOM
 70
     0
  3
Phantom ______  __  __  ______  __  __  ______
 72
    65
 73
     6
 40
12.7
 49
6.349999999999999
 74
     0
 49
-1.27
 74
     0
 49
1.27
 74
     0
 49
-1.27
 74
     0
 49
1.27
 74
     0
 49
-1.27
 74
     0
  0
LTYPE
  5
41
330
5
100
AcDbSymbolTableRecord
100
AcDbLinetypeTableRecord
  2
CENTER
 70
     0
  3
Center ____ _ ____ _ ____ _ ____ _ ____ _ ____
 72
    65
 73
     4
 40
10.16
 49
6.349999999999999
 74
     0
 49
-1.27
 74
     0
 49
1.27
 74
     0
 49
-1.27
 74
     0
  0
LTYPE
  5
42
330
5
100
AcDbSymbolTableRecord
100
AcDbLinetypeTableRecord
  2
CENTERX2
 70
     0
  3
Center (2x) ________  __  ________  __  _____
 72
    65
 73
     4
 40
20.32
 49
12.7
 74
     0
 49
-2.54
 74
     0
 49
2.54
 74
     0
 49
-2.54
 74
     0
  0
LTYPE
  5
43
330
5
100
AcDbSymbolTableRecord
100
AcDbLinetypeTableRecord
  2
DOT2
 70
     0
  3
Dot (.5x) ........................................
 72
    65
 73
     2
 40
0.635
 49
0.0
 74
     0
 49
-0.635
 74
     0
  0
ENDTAB
  0
TABLE
  2
LAYER
  5
2
330
0
100
AcDbSymbolTable
 70
     2
  0
LAYER
  5
10
102
{ACAD_XDICTIONARY
360
185
102
}
330
2
100
AcDbSymbolTableRecord
100
AcDbLayerTableRecord
  2
0
 70
     0
 62
     7
  6
Continuous
370
    -3
390
F
347
132
  0
LAYER
  5
166
330
2
100
AcDbSymbolTableRecord
100
AcDbLayerTableRecord
  2
Defpoints
 70
     0
 62
     7
  6
Continuous
290
     0
370
    -3
390
F
347
132
  0
ENDTAB
  0
TABLE
  2
STYLE
  5
3
330
0
100
AcDbSymbolTable
 70
     2
  0
STYLE
  5
11
330
3
100
AcDbSymbolTableRecord
100
AcDbTextStyleTableRecord
  2
Standard
 70
     0
 40
0.0
 41
1.0
 50
0.0
 71
     0
 42
70.0
  3
txt
  4

  0
STYLE
  5
92
330
3
100
AcDbSymbolTableRecord
100
AcDbTextStyleTableRecord
  2
SLDTEXTSTYLE0
 70
     0
 40
0.0
 41
0.605
 50
0.0
 71
     0
 42
0.2
  3
TXT
  4

  0
ENDTAB
  0
TABLE
  2
VIEW
  5
6
330
0
100
AcDbSymbolTable
 70
     0
  0
ENDTAB
  0
TABLE
  2
UCS
  5
7
330
0
100
AcDbSymbolTable
 70
     0
  0
ENDTAB
  0
TABLE
  2
APPID
  5
9
330
0
100
AcDbSymbolTable
 70
     2
  0
APPID
  5
12
330
9
100
AcDbSymbolTableRecord
100
AcDbRegAppTableRecord
  2
ACAD
 70
     0
  0
APPID
  5
162
330
9
100
AcDbSymbolTableRecord
100
AcDbRegAppTableRecord
  2
ACAD_MLEADERVER
 70
     0
  0
ENDTAB
  0
TABLE
  2
DIMSTYLE
  5
A
330
0
100
AcDbSymbolTable
 70
     2
100
AcDbDimStyleTable
 71
     1
340
27
  0
DIMSTYLE
105
27
330
A
100
AcDbSymbolTableRecord
100
AcDbDimStyleTableRecord
  2
ISO-25
 70
     0
 41
2.5
 42
0.625
 43
3.75
 44
1.25
 73
     0
 74
     0
 77
     1
 78
     8
140
2.5
141
2.5
143
0.03937007874016
147
0.625
171
     3
172
     1
271
     2
272
     2
274
     3
278
    44
283
     0
284
     8
340
11
  0
DIMSTYLE
105
93
330
A
100
AcDbSymbolTableRecord
100
AcDbDimStyleTableRecord
  2
SLDDIMSTYLE0
 70
     0
 41
70.0
 44
0.0
 45
0.000000001
 73
     0
 74
     0
 77
     2
 78
    12
 79
     3
140
70.0
144
0.25
147
17.5
173
     1
271
     2
272
     3
276
     2
284
    12
340
92
  0
ENDTAB
  0
TABLE
  2
BLOCK_RECORD
  5
1
330
0
100
AcDbSymbolTable
 70
     3
  0
BLOCK_RECORD
  5
1F
330
1
100
AcDbSymbolTableRecord
100
AcDbBlockTableRecord
  2
*Model_Space
340
22
 70
     0
280
     1
281
     0
  0
BLOCK_RECORD
  5
1B
330
1
100
AcDbSymbolTableRecord
100
AcDbBlockTableRecord
  2
*Paper_Space
340
1E
 70
     0
280
     1
281
     0
  0
BLOCK_RECORD
  5
23
330
1
100
AcDbSymbolTableRecord
100
AcDbBlockTableRecord
  2
*Paper_Space0
340
26
 70
     0
280
     1
281
     0
  0
BLOCK_RECORD
  5
94
330
1
100
AcDbSymbolTableRecord
100
AcDbBlockTableRecord
  2
_D
340
0
 70
     0
280
     1
281
     0
  0
BLOCK_RECORD
  5
167
330
1
100
AcDbSymbolTableRecord
100
AcDbBlockTableRecord
  2
*D2
340
0
 70
     0
280
     1
281
     0
  0
ENDTAB
  0
ENDSEC
  0
SECTION
  2
BLOCKS
  0
BLOCK
  5
20
330
1F
100
AcDbEntity
  8
0
100
AcDbBlockBegin
  2
*Model_Space
 70
     0
 10
0.0
 20
0.0
 30
0.0
  3
*Model_Space
  1

  0
ENDBLK
  5
21
330
1F
100
AcDbEntity
  8
0
100
AcDbBlockEnd
  0
BLOCK
  5
1C
330
1B
100
AcDbEntity
 67
     1
  8
0
100
AcDbBlockBegin
  2
*Paper_Space
 70
     0
 10
0.0
 20
0.0
 30
0.0
  3
*Paper_Space
  1

  0
ENDBLK
  5
1D
330
1B
100
AcDbEntity
 67
     1
  8
0
100
AcDbBlockEnd
  0
BLOCK
  5
24
330
23
100
AcDbEntity
 67
     1
  8
0
100
AcDbBlockBegin
  2
*Paper_Space0
 70
     0
 10
0.0
 20
0.0
 30
0.0
  3
*Paper_Space0
  1

  0
ENDBLK
  5
25
330
23
100
AcDbEntity
 67
     1
  8
0
100
AcDbBlockEnd
  0
BLOCK
  5
95
330
94
100
AcDbEntity
  8
0
100
AcDbBlockBegin
  2
_D
 70
     0
 10
0.0
 20
0.0
 30
0.0
  3
_D
  1

  0
LINE
  5
173
330
94
100
AcDbEntity
  8
0
  6
Continuous
 62
     0
370
    -2
100
AcDbLine
 10
1857.632308500107
 20
1568.430665340142
 30
0.0
 11
1857.632308500107
 21
1870.779415456828
 31
0.0
  0
LINE
  5
174
330
94
100
AcDbEntity
  8
0
  6
Continuous
 62
     0
370
    -2
100
AcDbLine
 10
1306.879516444703
 20
1568.430665340142
 30
0.0
 11
1306.879516444703
 21
1870.779415456828
 31
0.0
  0
LINE
  5
175
330
94
100
AcDbEntity
  8
0
  6
Continuous
 62
     0
370
    -2
100
AcDbLine
 10
1787.632308500107
 20
1870.779415456828
 30
0.0
 11
1376.879516444703
 21
1870.779415456828
 31
0.0
  0
SOLID
  5
176
330
94
100
AcDbEntity
  8
0
  6
Continuous
 62
     0
100
AcDbTrace
 10
1787.632308500107
 20
1882.446082123495
 30
0.0
 11
1787.632308500107
 21
1859.112748790161
 31
0.0
 12
1857.632308500107
 22
1870.779415456828
 32
0.0
 13
1857.632308500107
 23
1870.779415456828
 33
0.0
  0
SOLID
  5
177
330
94
100
AcDbEntity
  8
0
  6
Continuous
 62
     0
100
AcDbTrace
 10
1376.879516444703
 20
1882.446082123495
 30
0.0
 11
1376.879516444703
 21
1859.112748790161
 31
0.0
 12
1306.879516444703
 22
1870.779415456828
 32
0.0
 13
1306.879516444703
 23
1870.779415456828
 33
0.0
  0
MTEXT
  5
178
330
94
100
AcDbEntity
  8
0
  6
Continuous
 62
     0
370
     0
100
AcDbMText
 10
1599.598265559945
 20
1958.279415456828
 30
0.0
 40
70.0
 41
0.0
 46
0.0
 71
     2
 72
     1
  1
\A1;137.69
  7
SLDTEXTSTYLE0
 73
     1
 44
1.0
  0
POINT
  5
179
330
94
100
AcDbEntity
  8
Defpoints
  6
Continuous
 62
     0
100
AcDbPoint
 10
1857.632308500107
 20
1568.368165340142
 30
0.0
  0
POINT
  5
17A
330
94
100
AcDbEntity
  8
Defpoints
  6
Continuous
 62
     0
100
AcDbPoint
 10
1306.879516444703
 20
1568.368165340142
 30
0.0
  0
POINT
  5
17B
330
94
100
AcDbEntity
  8
Defpoints
  6
Continuous
 62
     0
100
AcDbPoint
 10
1306.879516444703
 20
1870.779415456828
 30
0.0
  0
ENDBLK
  5
96
330
94
100
AcDbEntity
  8
0
100
AcDbBlockEnd
  0
BLOCK
  5
168
330
167
100
AcDbEntity
  8
0
100
AcDbBlockBegin
  2
*D2
 70
     1
 10
0.0
 20
0.0
 30
0.0
  3
*D2
  1

  0
LINE
  5
17C
330
167
100
AcDbEntity
  8
0
 62
     0
370
    -2
100
AcDbLine
 10
1317.759709945265
 20
538.3063105933699
 30
0.0
 11
1317.759709945265
 21
434.0717016147123
 31
0.0
  0
LINE
  5
17D
330
167
100
AcDbEntity
  8
0
 62
     0
370
    -2
100
AcDbLine
 10
1852.759709945266
 20
538.3063105933699
 30
0.0
 11
1852.759709945266
 21
434.0717016147123
 31
0.0
  0
LINE
  5
17E
330
167
100
AcDbEntity
  8
0
 62
     0
370
    -2
100
AcDbLine
 10
1387.759709945265
 20
454.0717016147123
 30
0.0
 11
1782.759709945265
 21
454.0717016147123
 31
0.0
  0
SOLID
  5
17F
330
167
100
AcDbEntity
  8
0
 62
     0
100
AcDbTrace
 10
1387.759709945265
 20
465.7383682813789
 30
0.0
 11
1387.759709945265
 21
442.4050349480456
 31
0.0
 12
1317.759709945265
 22
454.0717016147123
 32
0.0
 13
1317.759709945265
 23
454.0717016147123
 33
0.0
  0
SOLID
  5
180
330
167
100
AcDbEntity
  8
0
 62
     0
100
AcDbTrace
 10
1782.759709945265
 20
465.7383682813789
 30
0.0
 11
1782.759709945265
 21
442.4050349480456
 31
0.0
 12
1852.759709945266
 22
454.0717016147123
 32
0.0
 13
1852.759709945266
 23
454.0717016147123
 33
0.0
  0
MTEXT
  5
181
330
167
100
AcDbEntity
  8
0
 62
     0
100
AcDbMText
 10
1585.259709945265
 20
554.9050349480457
 30
0.0
 40
70.0
 41
0.0
 46
0.0
 71
     5
 72
     1
  1
535,00
 73
     1
 44
1.0
  0
POINT
  5
182
330
167
100
AcDbEntity
  8
Defpoints
 62
     0
100
AcDbPoint
 10
1317.759709945265
 20
538.50631059337
 30
0.0
  0
POINT
  5
183
330
167
100
AcDbEntity
  8
Defpoints
 62
     0
100
AcDbPoint
 10
1852.759709945266
 20
538.50631059337
 30
0.0
  0
POINT
  5
184
330
167
100
AcDbEntity
  8
Defpoints
 62
     0
100
AcDbPoint
 10
1852.759709945266
 20
454.0717016147123
 30
0.0
  0
ENDBLK
  5
169
330
167
100
AcDbEntity
  8
0
100
AcDbBlockEnd
  0
ENDSEC
  0
SECTION
  2
ENTITIES
  0
ARC
  5
44
330
1F
100
AcDbEntity
  8
0
  6
Continuous
 62
     7
370
    15
100
AcDbCircle
 10
1687.269802650421
 20
1220.868165340139
 30
0.0
 40
5.000000000000113
100
AcDbArc
 50
270.0
 51
0.0
  0
ARC
  5
45
330
1F
100
AcDbEntity
  8
0
  6
Continuous
 62
     7
370
    15
100
AcDbCircle
 10
1677.269802650421
 20
1220.868165340139
 30
0.0
 40
5.000000000000113
100
AcDbArc
 50
180.0
 51
270.0
  0
LINE
  5
46
330
1F
100
AcDbEntity
  8
0
  6
Continuous
 62
     7
370
    15
100
AcDbLine
 10
1637.135779101132
 20
1230.868165340139
 30
0.0
 11
1637.135779101132
 21
1220.868165340139
 31
0.0
  0
LINE
  5
47
330
1F
100
AcDbEntity
  8
0
  6
Continuous
 62
     7
370
    15
100
AcDbLine
 10
1657.135779101131
 20
1220.868165340139
 30
0.0
 11
1657.135779101131
 21
1230.868165340139
 31
0.0
  0
ARC
  5
48
330
1F
100
AcDbEntity
  8
0
  6
Continuous
 62
     7
370
    15
100
AcDbCircle
 10
1652.135779101132
 20
1220.868165340139
 30
0.0
 40
5.000000000000113
100
AcDbArc
 50
270.0
 51
0.0
  0
ARC
  5
49
330
1F
100
AcDbEntity
  8
0
  6
Continuous
 62
     7
370
    15
100
AcDbCircle
 10
1642.135779101131
 20
1220.868165340139
 30
0.0
 40
5.000000000000113
100
AcDbArc
 50
180.0
 51
270.0
  0
LINE
  5
4A
330
1F
100
AcDbEntity
  8
0
  6
Continuous
 62
     7
370
    15
100
AcDbLine
 10
1672.26980265042
 20
1230.868165340139
 30
0.0
 11
1672.26980265042
 21
1220.868165340139
 31
0.0
  0
LINE
  5
4B
330
1F
100
AcDbEntity
  8
0
  6
Continuous
 62
     7
370
    15
100
AcDbLine
 10
1692.269802650421
 20
1220.868165340139
 30
0.0
 11
1692.269802650421
 21
1230.868165340139
 31
0.0
  0
ARC
  5
4C
330
1F
100
AcDbEntity
  8
0
  6
Continuous
 62
     7
370
    15
100
AcDbCircle
 10
1347.253746497616
 20
1384.962268721956
 30
0.0
 40
4.651568492667064
100
AcDbArc
 50
126.0000000000042
 51
306.0000000000042
  0
LINE
  5
4D
330
1F
100
AcDbEntity
  8
0
  6
Continuous
 62
     7
370
    15
100
AcDbLine
 10
1349.679862736785
 20
1392.47460020653
 30
0.0
 11
1344.519623137598
 21
1388.725466683023
 31
0.0
  0
LINE
  5
4E
330
1F
100
AcDbEntity
  8
0
  6
Continuous
 62
     7
370
    15
100
AcDbLine
 10
1391.128820868911
 20
1798.830916870306
 30
0.0
 11
1394.880245974633
 21
1793.667523178788
 31
0.0
  0
ARC
  5
4F
330
1F
100
AcDbEntity
  8
0
  6
Continuous
 62
     7
370
    15
100
AcDbCircle
 10
1394.892018829977
 20
1801.565040230324
 30
0.0
 40
4.651568492666343
100
AcDbArc
 50
35.99999999998602
 51
215.999999999986
  0
LINE
  5
50
330
1F
100
AcDbEntity
  8
0
  6
Continuous
 62
     7
370
    15
100
AcDbLine
 10
1402.351726608932
 20
1799.211354308154
 30
0.0
 11
1398.655216791043
 21
1804.299163590342
 31
0.0
  0
LINE
  5
51
330
1F
100
AcDbEntity
  8
0
  6
Continuous
 62
     7
370
    15
100
AcDbLine
 10
1749.992335972004
 20
1814.346854210407
 30
0.0
 11
1748.068173670391
 21
1811.698472006415
 31
0.0
  0
LINE
  5
52
330
1F
100
AcDbEntity
  8
0
  6
Continuous
 62
     7
370
    15
100
AcDbLine
 10
1756.188576949892
 20
1807.047806273689
 30
0.0
 11
1757.518731894136
 21
1808.878607490372
 31
0.0
  0
LINE
  5
53
330
1F
100
AcDbEntity
  8
0
  6
Continuous
 62
     7
370
    15
100
AcDbLine
 10
1819.454928816279
 20
1388.354597827764
 30
0.0
 11
1818.553628673753
 21
1389.009430711806
 31
0.0
  0
ARC
  5
54
330
1F
100
AcDbEntity
  8
0
  6
Continuous
 62
     7
370
    15
100
AcDbCircle
 10
1816.720805456261
 20
1384.591399866698
 30
0.0
 40
4.651568492666345
100
AcDbArc
 50
233.9999999999958
 51
53.99999999999578
  0
ARC
  5
55
330
1F
100
AcDbEntity
  8
0
  6
Continuous
 62
     7
370
    15
100
AcDbCircle
 10
1517.759709945265
 20
1500.868165340139
 30
0.0
 40
170.0000000000001
100
AcDbArc
 50
180.0
 51
270.0
  0
LINE
  5
56
330
1F
100
AcDbEntity
  8
0
  6
Continuous
 62
     7
370
    15
100
AcDbLine
 10
1517.759709945267
 20
1330.868165340139
 30
0.0
 11
1652.759709945264
 21
1330.868165340139
 31
0.0
  0
ARC
  5
57
330
1F
100
AcDbEntity
  8
0
  6
Continuous
 62
     7
370
    15
100
AcDbCircle
 10
1652.759709945265
 20
1500.868165340139
 30
0.0
 40
170.0000000000001
100
AcDbArc
 50
270.0
 51
0.0
  0
LINE
  5
58
330
1F
100
AcDbEntity
  8
0
  6
Continuous
 62
     7
370
    15
100
AcDbLine
 10
1822.759709945265
 20
1500.868165340141
 30
0.0
 11
1822.759709945265
 21
1635.868165340138
 31
0.0
  0
ARC
  5
59
330
1F
100
AcDbEntity
  8
0
  6
Continuous
 62
     7
370
    15
100
AcDbCircle
 10
1652.759709945265
 20
1635.868165340139
 30
0.0
 40
170.0
100
AcDbArc
 50
0.0
 51
90.0
  0
LINE
  5
5A
330
1F
100
AcDbEntity
  8
0
  6
Continuous
 62
     7
370
    15
100
AcDbLine
 10
1347.759709945265
 20
1635.868165340138
 30
0.0
 11
1347.759709945265
 21
1500.86816534014
 31
0.0
  0
LINE
  5
5B
330
1F
100
AcDbEntity
  8
0
  6
Continuous
 62
     7
370
    15
100
AcDbLine
 10
1852.759709945265
 20
1500.868165340139
 30
0.0
 11
1852.759709945266
 21
1635.868165340139
 31
0.0
  0
ARC
  5
5C
330
1F
100
AcDbEntity
  8
0
  6
Continuous
 62
     7
370
    15
100
AcDbCircle
 10
1652.759709945265
 20
1635.868165340139
 30
0.0
 40
199.9999999999999
100
AcDbArc
 50
61.54018217570129
 51
90.0
  0
LINE
  5
5D
330
1F
100
AcDbEntity
  8
0
  6
Continuous
 62
     7
370
    15
100
AcDbLine
 10
1652.759709945265
 20
1835.868165340139
 30
0.0
 11
1517.759709945267
 21
1835.868165340139
 31
0.0
  0
ARC
  5
5E
330
1F
100
AcDbEntity
  8
0
  6
Continuous
 62
     7
370
    15
100
AcDbCircle
 10
1517.759709945265
 20
1635.868165340139
 30
0.0
 40
200.0
100
AcDbArc
 50
127.908141520261
 51
180.0
  0
LINE
  5
5F
330
1F
100
AcDbEntity
  8
0
  6
Continuous
 62
     7
370
    15
100
AcDbLine
 10
1349.987869857633
 20
1381.19907076089
 30
0.0
 11
1354.905151408257
 21
1384.771684929594
 31
0.0
  0
ARC
  5
60
330
1F
100
AcDbEntity
  8
0
  6
Continuous
 62
     7
370
    15
100
AcDbCircle
 10
1517.759709945265
 20
1500.868165340139
 30
0.0
 40
200.0000000000001
100
AcDbArc
 50
215.4844793853959
 51
270.0
  0
LINE
  5
61
330
1F
100
AcDbEntity
  8
0
  6
Continuous
 62
     7
370
    15
100
AcDbLine
 10
1517.759709945267
 20
1300.868165340139
 30
0.0
 11
1652.759709945265
 21
1300.868165340139
 31
0.0
  0
ARC
  5
62
330
1F
100
AcDbEntity
  8
0
  6
Continuous
 62
     7
370
    15
100
AcDbCircle
 10
1652.759709945265
 20
1500.868165340139
 30
0.0
 40
200.0000000000001
100
AcDbArc
 50
270.0
 51
323.3274656270069
  0
LINE
  5
63
330
1F
100
AcDbEntity
  8
0
  6
Continuous
 62
     7
370
    15
100
AcDbLine
 10
1652.759709945264
 20
1805.868165340139
 30
0.0
 11
1517.759709945267
 21
1805.868165340139
 31
0.0
  0
ARC
  5
64
330
1F
100
AcDbEntity
  8
0
  6
Continuous
 62
     7
370
    15
100
AcDbCircle
 10
1517.759709945265
 20
1635.868165340139
 30
0.0
 40
170.0
100
AcDbArc
 50
90.0
 51
180.0
  0
LINE
  5
65
330
1F
100
AcDbEntity
  8
0
  6
Continuous
 62
     7
370
    15
100
AcDbLine
 10
1317.759709945265
 20
1635.868165340138
 30
0.0
 11
1317.759709945265
 21
1500.868165340141
 31
0.0
  0
LINE
  5
66
330
1F
100
AcDbEntity
  8
0
  6
Continuous
 62
     7
370
    15
100
AcDbLine
 10
1813.172116557815
 20
1381.420018411148
 30
0.0
 11
1813.986682096244
 21
1380.828201905632
 31
0.0
  0
ARC
  5
67
330
1F
100
AcDbEntity
  8
0
  6
Continuous
 62
     7
370
    15
100
AcDbCircle
 10
1517.759709945265
 20
1635.868165340139
 30
0.0
 40
200.0
100
AcDbArc
 50
90.0
 51
125.2426143309411
  0
ARC
  5
68
330
1F
100
AcDbEntity
  8
0
  6
Continuous
 62
     7
370
    15
100
AcDbCircle
 10
1517.759709945265
 20
1500.868165340139
 30
0.0
 40
200.0
100
AcDbArc
 50
180.0
 51
212.8176979988521
  0
ARC
  5
69
330
1F
100
AcDbEntity
  8
0
  6
Continuous
 62
     7
370
    15
100
AcDbCircle
 10
1652.759709945265
 20
1635.868165340139
 30
0.0
 40
200.0000000000002
100
AcDbArc
 50
0.0
 51
58.8591066671638
  0
ARC
  5
6A
330
1F
100
AcDbEntity
  8
0
  6
Continuous
 62
     7
370
    15
100
AcDbCircle
 10
1652.759709945265
 20
1500.868165340139
 30
0.0
 40
200.0
100
AcDbArc
 50
325.9930354018422
 51
0.0
  0
ARC
  5
6B
330
1F
100
AcDbEntity
  8
0
  6
Continuous
 62
     7
370
    15
100
AcDbCircle
 10
1753.75553393307
 20
1811.61273085039
 30
0.0
 40
4.65156849266632
100
AcDbArc
 50
324.000000000014
 51
144.0000000000139
  0
CIRCLE
  5
6C
330
1F
100
AcDbEntity
  8
0
  6
Continuous
 62
     7
370
    15
100
AcDbCircle
 10
1585.259709945266
 20
1568.368165340139
 30
0.0
 40
205.5518088798
  0
SPLINE
  5
6D
330
1F
100
AcDbEntity
  8
0
  6
Continuous
 62
     7
370
    15
100
AcDbSpline
210
0.0
220
0.0
230
1.0
 70
     8
 71
     3
 72
    30
 73
    26
 74
     0
 42
0.0000000001
 43
0.0000000001
 40
0.0
 40
0.0
 40
0.0
 40
0.0
 40
0.124999999999996
 40
0.124999999999996
 40
0.1874999999999938
 40
0.1874999999999938
 40
0.2499999999999916
 40
0.2499999999999916
 40
0.3124999999999894
 40
0.3124999999999894
 40
0.3749999999999873
 40
0.3749999999999873
 40
0.499999999999979
 40
0.499999999999979
 40
0.56249999999998
 40
0.56249999999998
 40
0.6249999999999809
 40
0.6249999999999809
 40
0.6874999999999819
 40
0.6874999999999819
 40
0.7499999999999828
 40
0.7499999999999828
 40
0.8749999999999912
 40
0.8749999999999912
 40
1.0
 40
1.0
 40
1.0
 40
1.0
 10
1667.251139948867
 20
1557.893999246848
 30
0.0
 10
1667.251139948867
 20
1557.192003111271
 30
0.0
 10
1667.178031420614
 20
1556.501047970317
 30
0.0
 10
1666.961799265667
 20
1555.480709475455
 30
0.0
 10
1666.871266287541
 20
1555.141667556597
 30
0.0
 10
1666.655629659448
 20
1554.476729314757
 30
0.0
 10
1666.53169649969
 20
1554.153787108145
 30
0.0
 10
1666.253267818488
 20
1553.525977892218
 30
0.0
 10
1666.098766072377
 20
1553.221114552141
 30
0.0
 10
1665.759803128308
 20
1552.629116504537
 30
0.0
 10
1665.574124626051
 20
1552.340393974142
 30
0.0
 10
1664.982161527094
 20
1551.515149256161
 30
0.0
 10
1664.542474584724
 20
1551.018870815495
 30
0.0
 10
1663.821452207267
 20
1550.348223292248
 30
0.0
 10
1663.56952024764
 20
1550.136221948683
 30
0.0
 10
1663.053935485939
 20
1549.743379505823
 30
0.0
 10
1662.789851003733
 20
1549.561917341939
 30
0.0
 10
1662.249860956612
 20
1549.227183377906
 30
0.0
 10
1661.973952724958
 20
1549.073917757196
 30
0.0
 10
1661.410708869624
 20
1548.794725407932
 30
0.0
 10
1661.122326547125
 20
1548.668415277074
 30
0.0
 10
1660.24771667149
 20
1548.333117018047
 30
0.0
 10
1659.657302059866
 20
1548.168831619516
 30
0.0
 10
1658.463249240652
 20
1547.949186903275
 30
0.0
 10
1657.856955680705
 20
1547.893999246848
 30
0.0
 10
1657.251139948867
 20
1547.893999246848
 30
0.0
  0
SPLINE
  5
6E
330
1F
100
AcDbEntity
  8
0
  6
Continuous
 62
     7
370
    15
100
AcDbSpline
210
0.0
220
0.0
230
1.0
 70
    24
 71
     3
 72
    12
 73
     8
 74
     0
 42
0.0000000001
 43
0.0000000001
 40
0.0
 40
0.0
 40
0.0
 40
0.0
 40
0.250000000000001
 40
0.250000000000001
 40
0.500000000000002
 40
0.500000000000002
 40
1.0
 40
1.0
 40
1.0
 40
1.0
 10
1667.251139948867
 20
1578.84233143343
 30
0.0
 10
1667.251139948867
 20
1577.103554513691
 30
0.0
 10
1667.251139948867
 20
1575.360317375265
 30
0.0
 10
1667.251139948867
 20
1571.864741349108
 30
0.0
 10
1667.251139948867
 20
1570.111077508984
 30
0.0
 10
1667.251139948867
 20
1564.844171711701
 30
0.0
 10
1667.251139948867
 20
1561.357402268668
 30
0.0
 10
1667.251139948867
 20
1557.893999246848
 30
0.0
  0
SPLINE
  5
6F
330
1F
100
AcDbEntity
  8
0
  6
Continuous
 62
     7
370
    15
100
AcDbSpline
210
0.0
220
0.0
230
1.0
 70
     8
 71
     3
 72
    26
 73
    22
 74
     0
 42
0.0000000001
 43
0.0000000001
 40
0.0
 40
0.0
 40
0.0
 40
0.0
 40
0.1249999999999993
 40
0.1249999999999993
 40
0.2499999999999987
 40
0.2499999999999987
 40
0.374999999999998
 40
0.374999999999998
 40
0.4999999999999974
 40
0.4999999999999974
 40
0.5624999999999987
 40
0.5624999999999987
 40
0.625
 40
0.625
 40
0.6875000000000014
 40
0.6875000000000014
 40
0.7500000000000027
 40
0.7500000000000027
 40
0.8750000000000014
 40
0.8750000000000014
 40
1.0
 40
1.0
 40
1.0
 40
1.0
 10
1657.251139948868
 20
1588.84233143343
 30
0.0
 10
1657.858136426892
 20
1588.84233143343
 30
0.0
 10
1658.459887884088
 20
1588.787511768722
 30
0.0
 10
1659.652703354441
 20
1588.568593648762
 30
0.0
 10
1660.243777553401
 20
1588.404582115882
 30
0.0
 10
1661.413865436393
 20
1587.956289654841
 30
0.0
 10
1661.977740995435
 20
1587.67742925504
 30
0.0
 10
1663.05281578365
 20
1587.011803171488
 30
0.0
 10
1663.565580540366
 20
1586.624629258716
 30
0.0
 10
1664.292167053152
 20
1585.950989335803
 30
0.0
 10
1664.525577986314
 20
1585.712036470561
 30
0.0
 10
1664.965343596765
 20
1585.214250935165
 30
0.0
 10
1665.173106597147
 20
1584.954151978459
 30
0.0
 10
1665.563848511219
 20
1584.411063991968
 30
0.0
 10
1665.746832319304
 20
1584.128079437589
 30
0.0
 10
1666.086671093847
 20
1583.538000736379
 30
0.0
 10
1666.2442934463
 20
1583.22916951169
 30
0.0
 10
1666.669179127748
 20
1582.27528506524
 30
0.0
 10
1666.883695418931
 20
1581.616952723249
 30
0.0
 10
1667.175234304244
 20
1580.25548372931
 30
0.0
 10
1667.251139948867
 20
1579.547057144135
 30
0.0
 10
1667.251139948867
 20
1578.84233143343
 30
0.0
  0
SPLINE
  5
70
330
1F
100
AcDbEntity
  8
0
  6
Continuous
 62
     7
370
    15
100
AcDbSpline
210
0.0
220
0.0
230
1.0
 70
    24
 71
     3
 72
    10
 73
     6
 74
     0
 42
0.0000000001
 43
0.0000000001
 40
0.0
 40
0.0
 40
0.0
 40
0.0
 40
0.5
 40
0.5
 40
1.0
 40
1.0
 40
1.0
 40
1.0
 10
1630.980613699566
 20
1588.84233143343
 30
0.0
 10
1635.491964367458
 20
1588.84233143343
 30
0.0
 10
1639.932695831092
 20
1588.84233143343
 30
0.0
 10
1648.686662747916
 20
1588.84233143343
 30
0.0
 10
1652.999633522586
 20
1588.84233143343
 30
0.0
 10
1657.251139948867
 20
1588.84233143343
 30
0.0
  0
ARC
  5
71
330
1F
100
AcDbEntity
  8
0
  6
Continuous
 62
     7
370
    15
100
AcDbCircle
 10
1585.259709945266
 20
1568.368165340139
 30
0.0
 40
50.09583333297942
100
AcDbArc
 50
24.12319572018737
 51
155.8768042798126
  0
SPLINE
  5
72
330
1F
100
AcDbEntity
  8
0
  6
Continuous
 62
     7
370
    15
100
AcDbSpline
210
0.0
220
0.0
230
1.0
 70
    24
 71
     3
 72
    10
 73
     6
 74
     0
 42
0.0000000001
 43
0.0000000001
 40
0.0
 40
0.0
 40
0.0
 40
0.0
 40
0.5
 40
0.5
 40
1.0
 40
1.0
 40
1.0
 40
1.0
 10
1513.268279941664
 20
1588.84233143343
 30
0.0
 10
1517.518198781981
 20
1588.84233143343
 30
0.0
 10
1521.830303656433
 20
1588.84233143343
 30
0.0
 10
1530.58418403349
 20
1588.84233143343
 30
0.0
 10
1535.025689715795
 20
1588.84233143343
 30
0.0
 10
1539.538806190966
 20
1588.84233143343
 30
0.0
  0
SPLINE
  5
73
330
1F
100
AcDbEntity
  8
0
  6
Continuous
 62
     7
370
    15
100
AcDbSpline
210
0.0
220
0.0
230
1.0
 70
     8
 71
     3
 72
    30
 73
    26
 74
     0
 42
0.0000000001
 43
0.0000000001
 40
0.0
 40
0.0
 40
0.0
 40
0.0
 40
0.1250000000000035
 40
0.1250000000000035
 40
0.1875000000000057
 40
0.1875000000000057
 40
0.2500000000000078
 40
0.2500000000000078
 40
0.3125000000000099
 40
0.3125000000000099
 40
0.375000000000012
 40
0.375000000000012
 40
0.5000000000000124
 40
0.5000000000000124
 40
0.5625000000000108
 40
0.5625000000000108
 40
0.6250000000000093
 40
0.6250000000000093
 40
0.6875000000000077
 40
0.6875000000000077
 40
0.7500000000000062
 40
0.7500000000000062
 40
0.8750000000000031
 40
0.8750000000000031
 40
1.0
 40
1.0
 40
1.0
 40
1.0
 10
1503.268279941664
 20
1578.84233143343
 30
0.0
 10
1503.268279941664
 20
1579.544327569008
 30
0.0
 10
1503.341388469916
 20
1580.235282709961
 30
0.0
 10
1503.557620624864
 20
1581.255621204823
 30
0.0
 10
1503.648153602989
 20
1581.594663123681
 30
0.0
 10
1503.863790231082
 20
1582.259601365521
 30
0.0
 10
1503.987723390841
 20
1582.582543572133
 30
0.0
 10
1504.266152072042
 20
1583.210352788061
 30
0.0
 10
1504.420653818153
 20
1583.515216128137
 30
0.0
 10
1504.759616762223
 20
1584.107214175741
 30
0.0
 10
1504.945295264479
 20
1584.395936706136
 30
0.0
 10
1505.537258363437
 20
1585.221181424117
 30
0.0
 10
1505.976945305806
 20
1585.717459864783
 30
0.0
 10
1506.697967683263
 20
1586.388107388031
 30
0.0
 10
1506.94989964289
 20
1586.600108731595
 30
0.0
 10
1507.465484404591
 20
1586.992951174455
 30
0.0
 10
1507.729568886797
 20
1587.174413338339
 30
0.0
 10
1508.269558933918
 20
1587.509147302372
 30
0.0
 10
1508.545467165572
 20
1587.662412923082
 30
0.0
 10
1509.108711020907
 20
1587.941605272346
 30
0.0
 10
1509.397093343405
 20
1588.067915403204
 30
0.0
 10
1510.27170321904
 20
1588.403213662231
 30
0.0
 10
1510.862117830664
 20
1588.567499060761
 30
0.0
 10
1512.056170649879
 20
1588.787143777002
 30
0.0
 10
1512.662464209826
 20
1588.84233143343
 30
0.0
 10
1513.268279941664
 20
1588.84233143343
 30
0.0
  0
SPLINE
  5
74
330
1F
100
AcDbEntity
  8
0
  6
Continuous
 62
     7
370
    15
100
AcDbSpline
210
0.0
220
0.0
230
1.0
 70
    24
 71
     3
 72
    12
 73
     8
 74
     0
 42
0.0000000001
 43
0.0000000001
 40
0.0
 40
0.0
 40
0.0
 40
0.0
 40
0.249999999999999
 40
0.249999999999999
 40
0.4999999999999981
 40
0.4999999999999981
 40
1.0
 40
1.0
 40
1.0
 40
1.0
 10
1503.268279941664
 20
1557.893999246848
 30
0.0
 10
1503.268279941664
 20
1559.632776166587
 30
0.0
 10
1503.268279941664
 20
1561.376013305014
 30
0.0
 10
1503.268279941664
 20
1564.871589331171
 30
0.0
 10
1503.268279941664
 20
1566.625253171294
 30
0.0
 10
1503.268279941664
 20
1571.892158968577
 30
0.0
 10
1503.268279941664
 20
1575.37892841161
 30
0.0
 10
1503.268279941664
 20
1578.842331433429
 30
0.0
  0
SPLINE
  5
75
330
1F
100
AcDbEntity
  8
0
  6
Continuous
 62
     7
370
    15
100
AcDbSpline
210
0.0
220
0.0
230
1.0
 70
     8
 71
     3
 72
    26
 73
    22
 74
     0
 42
0.0000000001
 43
0.0000000001
 40
0.0
 40
0.0
 40
0.0
 40
0.0
 40
0.1250000000000012
 40
0.1250000000000012
 40
0.2500000000000024
 40
0.2500000000000024
 40
0.3750000000000035
 40
0.3750000000000035
 40
0.5000000000000048
 40
0.5000000000000048
 40
0.5625000000000037
 40
0.5625000000000037
 40
0.6250000000000027
 40
0.6250000000000027
 40
0.6875000000000016
 40
0.6875000000000016
 40
0.7500000000000005
 40
0.7500000000000005
 40
0.8750000000000001
 40
0.8750000000000001
 40
1.0
 40
1.0
 40
1.0
 40
1.0
 10
1513.268279941663
 20
1547.893999246848
 30
0.0
 10
1512.661283463639
 20
1547.893999246849
 30
0.0
 10
1512.059532006443
 20
1547.948818911556
 30
0.0
 10
1510.866716536089
 20
1548.167737031516
 30
0.0
 10
1510.275642337129
 20
1548.331748564396
 30
0.0
 10
1509.105554454138
 20
1548.780041025437
 30
0.0
 10
1508.541678895096
 20
1549.058901425238
 30
0.0
 10
1507.46660410688
 20
1549.72452750879
 30
0.0
 10
1506.953839350164
 20
1550.111701421563
 30
0.0
 10
1506.227252837379
 20
1550.785341344474
 30
0.0
 10
1505.993841904216
 20
1551.024294209717
 30
0.0
 10
1505.554076293765
 20
1551.522079745114
 30
0.0
 10
1505.346313293383
 20
1551.782178701818
 30
0.0
 10
1504.955571379312
 20
1552.32526668831
 30
0.0
 10
1504.772587571227
 20
1552.608251242689
 30
0.0
 10
1504.432748796683
 20
1553.198329943899
 30
0.0
 10
1504.27512644423
 20
1553.507161168587
 30
0.0
 10
1503.850240762783
 20
1554.461045615038
 30
0.0
 10
1503.6357244716
 20
1555.119377957029
 30
0.0
 10
1503.344185586287
 20
1556.480846950967
 30
0.0
 10
1503.268279941664
 20
1557.189273536143
 30
0.0
 10
1503.268279941664
 20
1557.893999246848
 30
0.0
  0
SPLINE
  5
76
330
1F
100
AcDbEntity
  8
0
  6
Continuous
 62
     7
370
    15
100
AcDbSpline
210
0.0
220
0.0
230
1.0
 70
    24
 71
     3
 72
    10
 73
     6
 74
     0
 42
0.0000000001
 43
0.0000000001
 40
0.0
 40
0.0
 40
0.0
 40
0.0
 40
0.5
 40
0.5
 40
1.0
 40
1.0
 40
1.0
 40
1.0
 10
1539.538806190966
 20
1547.893999246848
 30
0.0
 10
1535.027455523074
 20
1547.893999246848
 30
0.0
 10
1530.58672405944
 20
1547.893999246849
 30
0.0
 10
1521.832757142616
 20
1547.893999246848
 30
0.0
 10
1517.519786367944
 20
1547.893999246848
 30
0.0
 10
1513.268279941663
 20
1547.893999246848
 30
0.0
  0
ARC
  5
77
330
1F
100
AcDbEntity
  8
0
  6
Continuous
 62
     7
370
    15
100
AcDbCircle
 10
1585.259709945266
 20
1568.368165340139
 30
0.0
 40
50.09583333297942
100
AcDbArc
 50
204.1231957201874
 51
335.8768042798126
  0
SPLINE
  5
78
330
1F
100
AcDbEntity
  8
0
  6
Continuous
 62
     7
370
    15
100
AcDbSpline
210
0.0
220
0.0
230
1.0
 70
    24
 71
     3
 72
    10
 73
     6
 74
     0
 42
0.0000000001
 43
0.0000000001
 40
0.0
 40
0.0
 40
0.0
 40
0.0
 40
0.5
 40
0.5
 40
1.0
 40
1.0
 40
1.0
 40
1.0
 10
1657.251139948867
 20
1547.893999246848
 30
0.0
 10
1653.00122110855
 20
1547.893999246848
 30
0.0
 10
1648.689116234098
 20
1547.893999246849
 30
0.0
 10
1639.935235857042
 20
1547.893999246848
 30
0.0
 10
1635.493730174737
 20
1547.893999246848
 30
0.0
 10
1630.980613699566
 20
1547.893999246848
 30
0.0
  0
ARC
  5
79
330
1F
100
AcDbEntity
  8
0
  6
Continuous
 62
     7
370
    15
100
AcDbCircle
 10
1710.259709945265
 20
1295.868165340139
 30
0.0
 40
20.00000000000008
100
AcDbArc
 50
0.0
 51
57.96424420549945
  0
LINE
  5
7A
330
1F
100
AcDbEntity
  8
0
  6
Continuous
 62
     7
370
    15
100
AcDbLine
 10
1730.259709945265
 20
1250.868165340139
 30
0.0
 11
1730.259709945265
 21
1295.868165340139
 31
0.0
  0
ARC
  5
7B
330
1F
100
AcDbEntity
  8
0
  6
Continuous
 62
     7
370
    15
100
AcDbCircle
 10
1710.259709945265
 20
1250.868165340139
 30
0.0
 40
20.0
100
AcDbArc
 50
270.0
 51
0.0
  0
LINE
  5
7C
330
1F
100
AcDbEntity
  8
0
  6
Continuous
 62
     7
370
    15
100
AcDbLine
 10
1710.259709945265
 20
1230.868165340139
 30
0.0
 11
1460.259709945265
 21
1230.868165340139
 31
0.0
  0
ARC
  5
7D
330
1F
100
AcDbEntity
  8
0
  6
Continuous
 62
     7
370
    15
100
AcDbCircle
 10
1460.259709945265
 20
1250.868165340139
 30
0.0
 40
20.0
100
AcDbArc
 50
180.0
 51
270.0
  0
LINE
  5
7E
330
1F
100
AcDbEntity
  8
0
  6
Continuous
 62
     7
370
    15
100
AcDbLine
 10
1440.259709945265
 20
1250.868165340139
 30
0.0
 11
1440.259709945265
 21
1295.868165340139
 31
0.0
  0
ARC
  5
7F
330
1F
100
AcDbEntity
  8
0
  6
Continuous
 62
     7
370
    15
100
AcDbCircle
 10
1460.259709945265
 20
1295.868165340139
 30
0.0
 40
20.0
100
AcDbArc
 50
122.0357557945005
 51
180.0
  0
LINE
  5
80
330
1F
100
AcDbEntity
  8
0
  6
Continuous
 62
     7
370
    15
100
AcDbLine
 10
1687.269802650421
 20
1215.868165340139
 30
0.0
 11
1677.269802650421
 21
1215.868165340139
 31
0.0
  0
LINE
  5
81
330
1F
100
AcDbEntity
  8
0
  6
Continuous
 62
     7
370
    15
100
AcDbLine
 10
1652.135779101132
 20
1215.868165340139
 30
0.0
 11
1642.135779101131
 21
1215.868165340139
 31
0.0
  0
LINE
  5
82
330
1F
100
AcDbEntity
  8
0
  6
Continuous
 62
     7
370
    15
100
AcDbLine
 10
1324.975449499562
 20
1447.630688649342
 30
0.0
 11
1324.975449499562
 21
1210.868165340139
 31
0.0
  0
LINE
  5
83
330
1F
100
AcDbEntity
  8
0
  6
Continuous
 62
     7
370
    15
100
AcDbLine
 10
1319.975449499562
 20
1210.868165340139
 30
0.0
 11
1324.975449499562
 21
1210.868165340139
 31
0.0
  0
LINE
  5
84
330
1F
100
AcDbEntity
  8
0
  6
Continuous
 62
     7
370
    15
100
AcDbLine
 10
1319.975449499562
 20
1471.180014169241
 30
0.0
 11
1319.975449499562
 21
1210.868165340139
 31
0.0
  0
LINE
  5
85
330
1F
100
AcDbEntity
  8
0
  6
Continuous
 62
     7
370
    15
100
AcDbLine
 10
1844.975449499562
 20
1211.082263801119
 30
0.0
 11
1849.808177449341
 21
1211.08226380112
 31
0.0
  0
LINE
  5
86
330
1F
100
AcDbEntity
  8
0
  6
Continuous
 62
     7
370
    15
100
AcDbLine
 10
1844.975449499562
 20
1445.61321562887
 30
0.0
 11
1844.975449499562
 21
1211.082263801119
 31
0.0
  0
LINE
  5
87
330
1F
100
AcDbEntity
  8
0
  6
Continuous
 62
     7
370
    15
100
AcDbLine
 10
1849.975449499562
 20
1467.612307629776
 30
0.0
 11
1849.975449499562
 21
1210.868165340139
 31
0.0
  0
CIRCLE
  5
88
330
1F
100
AcDbEntity
  8
0
  6
Continuous
 62
     7
370
    15
100
AcDbCircle
 10
1585.259709945266
 20
1568.368165340139
 30
0.0
 40
13.63463443446159
  0
CIRCLE
  5
89
330
1F
100
AcDbEntity
  8
0
  6
Continuous
 62
     7
370
    15
100
AcDbCircle
 10
1585.259709945266
 20
1568.368165340139
 30
0.0
 40
28.63463443446159
  0
LINE
  5
8A
330
1F
100
AcDbEntity
  8
0
  6
Continuous
 62
     7
370
    15
100
AcDbLine
 10
1844.975449499562
 20
1211.868165340139
 30
0.0
 11
1324.975449499562
 21
1211.868165340139
 31
0.0
  0
LINE
  5
8B
330
1F
100
AcDbEntity
  8
0
  6
Continuous
 62
     7
370
    15
100
AcDbLine
 10
1849.975449499562
 20
1210.868165340139
 30
0.0
 11
1324.975449499562
 21
1210.868165340139
 31
0.0
  0
LINE
  5
8C
330
1F
100
AcDbEntity
  8
0
  6
Continuous
 62
     7
370
    15
100
AcDbLine
 10
1849.808177449341
 20
1211.08226380112
 30
0.0
 11
1849.975449499562
 21
1210.868165340139
 31
0.0
  0
LINE
  5
8D
330
1F
100
AcDbEntity
  8
0
  6
Continuous
 62
     8
370
    15
100
AcDbLine
 10
1672.26980265042
 20
1220.868165340139
 30
0.0
 11
1692.269802650421
 21
1220.868165340139
 31
0.0
  0
LINE
  5
8E
330
1F
100
AcDbEntity
  8
0
  6
Continuous
 62
     8
370
    15
100
AcDbLine
 10
1637.135779101132
 20
1220.868165340139
 30
0.0
 11
1657.135779101131
 21
1220.868165340139
 31
0.0
  0
POINT
  5
8F
330
1F
100
AcDbEntity
  8
0
  6
Continuous
 62
     7
370
     0
100
AcDbPoint
 10
1306.879516444702
 20
1568.368165340139
 30
0.0
  0
POINT
  5
90
330
1F
100
AcDbEntity
  8
0
  6
Continuous
 62
     7
370
     0
100
AcDbPoint
 10
1857.632308500105
 20
1568.368165340139
 30
0.0
  0
LINE
  5
9D
330
1F
100
AcDbEntity
  8
0
  6
Continuous
 62
     7
370
    15
100
AcDbLine
 10
2445.039900984661
 20
1380.31070022929
 30
0.0
 11
2475.03990098466
 21
1380.31070022929
 31
0.0
  0
ARC
  5
9E
330
1F
100
AcDbEntity
  8
0
  6
Continuous
 62
     7
370
    15
100
AcDbCircle
 10
2379.762925122605
 20
1664.547363884717
 30
0.0
 40
349.7991821268364
100
AcDbArc
 50
274.5862539152203
 51
280.7551718675547
  0
LINE
  5
9F
330
1F
100
AcDbEntity
  8
0
  6
Continuous
 62
     7
370
    15
100
AcDbLine
 10
2106.535431797545
 20
1446.129862965244
 30
0.0
 11
2109.95271133985
 21
1441.922306096722
 31
0.0
  0
ARC
  5
A0
330
1F
100
AcDbEntity
  8
0
  6
Continuous
 62
     7
370
    15
100
AcDbCircle
 10
2379.762925122605
 20
1664.547363884717
 30
0.0
 40
349.7991821268365
100
AcDbArc
 50
226.3229514121525
 51
267.7143727895873
  0
ARC
  5
A1
330
1F
100
AcDbEntity
  8
0
  6
Continuous
 62
     7
370
    15
100
AcDbCircle
 10
2379.762925122605
 20
1472.188966795561
 30
0.0
 40
349.7991821268365
100
AcDbArc
 50
79.24482813244534
 51
141.0252573452812
  0
LINE
  5
A2
330
1F
100
AcDbEntity
  8
0
  6
Continuous
 62
     7
370
    15
100
AcDbLine
 10
2475.03990098466
 20
1806.21660872299
 30
0.0
 11
2445.039900984661
 21
1806.21660872299
 31
0.0
  0
LWPOLYLINE
  5
A3
330
1F
100
AcDbEntity
  8
0
  6
Continuous
 62
     7
370
    15
100
AcDbPolyline
 90
        9
 70
   128
 43
0.0
 10
2072.973276406253
 20
1496.501003444804
 10
2072.981601843497
 20
1496.485805211344
 10
2072.989928033655
 20
1496.470607390349
 10
2072.998254976707
 20
1496.455409981853
 10
2073.006582672633
 20
1496.440212985895
 10
2073.014911121411
 20
1496.425016402511
 10
2073.023240323022
 20
1496.40982023174
 10
2073.031570277445
 20
1496.394624473619
 10
2073.03990098466
 20
1496.379429128183
  0
LWPOLYLINE
  5
A4
330
1F
100
AcDbEntity
  8
0
  6
Continuous
 62
     7
370
    15
100
AcDbPolyline
 90
        9
 70
   128
 43
0.0
 10
2073.03990098466
 20
1640.356901552094
 10
2073.031570277445
 20
1640.341706206659
 10
2073.023240323022
 20
1640.326510448538
 10
2073.014911121411
 20
1640.311314277766
 10
2073.006582672633
 20
1640.296117694383
 10
2072.998254976707
 20
1640.280920698425
 10
2072.989928033655
 20
1640.265723289929
 10
2072.981601843497
 20
1640.250525468934
 10
2072.973276406253
 20
1640.235327235474
  0
ARC
  5
A5
330
1F
100
AcDbEntity
  8
0
  6
Continuous
 62
     7
370
    15
100
AcDbCircle
 10
2110.038158400054
 20
1584.466762446539
 30
0.0
 40
66.96221543401941
100
AcDbArc
 50
123.6087917614385
 51
180.0
  0
ARC
  5
A6
330
1F
100
AcDbEntity
  8
0
  6
Continuous
 62
     7
370
    15
100
AcDbCircle
 10
2110.038158400054
 20
1552.269568233739
 30
0.0
 40
66.96221543401941
100
AcDbArc
 50
180.0
 51
236.3912082385614
  0
LINE
  5
A7
330
1F
100
AcDbEntity
  8
0
  6
Continuous
 62
     7
370
    15
100
AcDbLine
 10
2043.075942966035
 20
1584.466762446539
 30
0.0
 11
2043.075942966035
 21
1552.269568233739
 31
0.0
  0
ARC
  5
A8
330
1F
100
AcDbEntity
  8
0
  6
Continuous
 62
     7
370
    15
100
AcDbCircle
 10
2416.818692169226
 20
1220.868165340139
 30
0.0
 40
5.000000000000113
100
AcDbArc
 50
270.0
 51
0.0
  0
ARC
  5
A9
330
1F
100
AcDbEntity
  8
0
  6
Continuous
 62
     7
370
    15
100
AcDbCircle
 10
2406.818692169226
 20
1220.868165340139
 30
0.0
 40
5.000000000000113
100
AcDbArc
 50
180.0
 51
270.0
  0
LINE
  5
AA
330
1F
100
AcDbEntity
  8
0
  6
Continuous
 62
     7
370
    15
100
AcDbLine
 10
2401.818692169226
 20
1230.868165340139
 30
0.0
 11
2401.818692169226
 21
1220.868165340139
 31
0.0
  0
LINE
  5
AB
330
1F
100
AcDbEntity
  8
0
  6
Continuous
 62
     7
370
    15
100
AcDbLine
 10
2421.818692169226
 20
1220.868165340139
 30
0.0
 11
2421.818692169226
 21
1230.868165340139
 31
0.0
  0
LINE
  5
AC
330
1F
100
AcDbEntity
  8
0
  6
Continuous
 62
     7
370
    15
100
AcDbLine
 10
2445.039900984661
 20
1500.868165340141
 30
0.0
 11
2475.03990098466
 21
1500.868165340141
 31
0.0
  0
LINE
  5
AD
330
1F
100
AcDbEntity
  8
0
  6
Continuous
 62
     7
370
    15
100
AcDbLine
 10
2445.039900984661
 20
1635.868165340138
 30
0.0
 11
2445.039900984661
 21
1500.868165340141
 31
0.0
  0
LINE
  5
AE
330
1F
100
AcDbEntity
  8
0
  6
Continuous
 62
     7
370
    15
100
AcDbLine
 10
2445.039900984661
 20
1635.868165340138
 30
0.0
 11
2475.03990098466
 21
1635.868165340138
 31
0.0
  0
LINE
  5
AF
330
1F
100
AcDbEntity
  8
0
  6
Continuous
 62
     7
370
    15
100
AcDbLine
 10
2475.03990098466
 20
1635.868165340138
 30
0.0
 11
2475.03990098466
 21
1500.868165340141
 31
0.0
  0
LINE
  5
B0
330
1F
100
AcDbEntity
  8
0
  6
Continuous
 62
     7
370
    15
100
AcDbLine
 10
2475.03990098466
 20
1793.667523178788
 30
0.0
 11
2475.03990098466
 21
1635.868165340138
 31
0.0
  0
LINE
  5
B1
330
1F
100
AcDbEntity
  8
0
  6
Continuous
 62
     7
370
    15
100
AcDbLine
 10
2445.039900984661
 20
1793.667523178788
 30
0.0
 11
2445.039900984661
 21
1635.868165340138
 31
0.0
  0
LINE
  5
B2
330
1F
100
AcDbEntity
  8
0
  6
Continuous
 62
     7
370
    15
100
AcDbLine
 10
2445.039900984661
 20
1793.667523178788
 30
0.0
 11
2475.03990098466
 21
1793.667523178788
 31
0.0
  0
LINE
  5
B3
330
1F
100
AcDbEntity
  8
0
  6
Continuous
 62
     7
370
    15
100
AcDbLine
 10
2475.03990098466
 20
1500.868165340141
 30
0.0
 11
2475.03990098466
 21
1392.47460020653
 31
0.0
  0
LINE
  5
B4
330
1F
100
AcDbEntity
  8
0
  6
Continuous
 62
     7
370
    15
100
AcDbLine
 10
2475.03990098466
 20
1392.47460020653
 30
0.0
 11
2445.039900984661
 21
1392.47460020653
 31
0.0
  0
LINE
  5
B5
330
1F
100
AcDbEntity
  8
0
  6
Continuous
 62
     7
370
    15
100
AcDbLine
 10
2445.039900984661
 20
1500.868165340141
 30
0.0
 11
2445.039900984661
 21
1392.47460020653
 31
0.0
  0
LINE
  5
B6
330
1F
100
AcDbEntity
  8
0
  6
Continuous
 62
     7
370
    15
100
AcDbLine
 10
1977.615146292622
 20
1211.868165340139
 30
0.0
 11
1977.533049042971
 21
1211.868165340139
 31
0.0
  0
LINE
  5
B7
330
1F
100
AcDbEntity
  8
0
  6
Continuous
 62
     7
370
    15
100
AcDbLine
 10
1976.751763298796
 20
1210.868165340139
 30
0.0
 11
1977.533049042971
 21
1211.868165340139
 31
0.0
  0
LINE
  5
B8
330
1F
100
AcDbEntity
  8
0
  6
Continuous
 62
     7
370
    15
100
AcDbLine
 10
1977.03990098466
 20
1210.868165340139
 30
0.0
 11
1976.751763298796
 21
1210.868165340139
 31
0.0
  0
LINE
  5
B9
330
1F
100
AcDbEntity
  8
0
  6
Continuous
 62
     7
370
    15
100
AcDbLine
 10
2208.331382570109
 20
1612.942686217627
 30
0.0
 11
1977.03990098466
 21
1210.868165340139
 31
0.0
  0
ARC
  5
BA
330
1F
100
AcDbEntity
  8
0
  6
Continuous
 62
     7
370
    15
100
AcDbCircle
 10
2224.825020174922
 20
1601.619273916619
 30
0.0
 40
20.00649263558003
100
AcDbArc
 50
330.0885713370713
 51
145.529150042406
  0
LINE
  5
BB
330
1F
100
AcDbEntity
  8
0
  6
Continuous
 62
     7
370
    15
100
AcDbLine
 10
2242.16659396269
 20
1591.642823338337
 30
0.0
 11
2022.326242666842
 21
1210.868165340139
 31
0.0
  0
LINE
  5
BC
330
1F
100
AcDbEntity
  8
0
  6
Continuous
 62
     7
370
    15
100
AcDbLine
 10
1977.03990098466
 20
1210.868165340139
 30
0.0
 11
2022.326242666842
 21
1210.868165340139
 31
0.0
  0
ARC
  5
BD
330
1F
100
AcDbEntity
  8
0
  6
Continuous
 62
     7
370
    15
100
AcDbCircle
 10
2213.557555791821
 20
1583.891819685109
 30
0.0
 40
57.30609622334508
100
AcDbArc
 50
261.3903226155183
 51
220.7107551641406
  0
LINE
  5
BE
330
1F
100
AcDbEntity
  8
0
  6
Continuous
 62
     7
370
    15
100
AcDbLine
 10
2073.03990098466
 20
1692.204751572456
 30
0.0
 11
2445.039900984661
 21
1692.204751572456
 31
0.0
  0
LINE
  5
BF
330
1F
100
AcDbEntity
  8
0
  6
Continuous
 62
     7
370
    15
100
AcDbLine
 10
2073.03990098466
 20
1446.129421154104
 30
0.0
 11
2112.37283453666
 21
1446.129421154104
 31
0.0
  0
LINE
  5
C0
330
1F
100
AcDbEntity
  8
0
  6
Continuous
 62
     7
370
    15
100
AcDbLine
 10
2158.154392040925
 20
1446.129421154104
 30
0.0
 11
2445.039900984661
 21
1446.129421154104
 31
0.0
  0
LINE
  5
C1
330
1F
100
AcDbEntity
  8
0
  6
Continuous
 62
     7
370
    15
100
AcDbLine
 10
2073.03990098466
 20
1446.129421154104
 30
0.0
 11
2073.03990098466
 21
1692.204751572456
 31
0.0
  0
LINE
  5
C2
330
1F
100
AcDbEntity
  8
0
  6
Continuous
 62
     7
370
    15
100
AcDbLine
 10
2445.039900984661
 20
1388.725466683023
 30
0.0
 11
2475.03990098466
 21
1388.725466683023
 31
0.0
  0
LINE
  5
C3
330
1F
100
AcDbEntity
  8
0
  6
Continuous
 62
     7
370
    15
100
AcDbLine
 10
2475.03990098466
 20
1388.725466683023
 30
0.0
 11
2475.03990098466
 21
1380.31070022929
 31
0.0
  0
LINE
  5
C4
330
1F
100
AcDbEntity
  8
0
  6
Continuous
 62
     7
370
    15
100
AcDbLine
 10
2445.039900984661
 20
1388.725466683023
 30
0.0
 11
2445.039900984661
 21
1380.31070022929
 31
0.0
  0
LINE
  5
C5
330
1F
100
AcDbEntity
  8
0
  6
Continuous
 62
     7
370
    15
100
AcDbLine
 10
2475.03990098466
 20
1392.47460020653
 30
0.0
 11
2475.03990098466
 21
1388.725466683023
 31
0.0
  0
LINE
  5
C6
330
1F
100
AcDbEntity
  8
0
  6
Continuous
 62
     7
370
    15
100
AcDbLine
 10
2445.039900984661
 20
1392.47460020653
 30
0.0
 11
2445.039900984661
 21
1388.725466683023
 31
0.0
  0
LINE
  5
C7
330
1F
100
AcDbEntity
  8
0
  6
Continuous
 62
     7
370
    15
100
AcDbLine
 10
2445.039900984661
 20
1300.868165340139
 30
0.0
 11
2475.03990098466
 21
1300.868165340139
 31
0.0
  0
LINE
  5
C8
330
1F
100
AcDbEntity
  8
0
  6
Continuous
 62
     7
370
    15
100
AcDbLine
 10
2475.03990098466
 20
1380.31070022929
 30
0.0
 11
2475.03990098466
 21
1300.868165340139
 31
0.0
  0
LINE
  5
C9
330
1F
100
AcDbEntity
  8
0
  6
Continuous
 62
     7
370
    15
100
AcDbLine
 10
2445.039900984661
 20
1380.31070022929
 30
0.0
 11
2445.039900984661
 21
1312.822509971471
 31
0.0
  0
LINE
  5
CA
330
1F
100
AcDbEntity
  8
0
  6
Continuous
 62
     7
370
    15
100
AcDbLine
 10
2445.039900984661
 20
1798.830916870306
 30
0.0
 11
2475.03990098466
 21
1798.830916870306
 31
0.0
  0
LINE
  5
CB
330
1F
100
AcDbEntity
  8
0
  6
Continuous
 62
     7
370
    15
100
AcDbLine
 10
2475.03990098466
 20
1806.21660872299
 30
0.0
 11
2475.03990098466
 21
1798.830916870306
 31
0.0
  0
LINE
  5
CC
330
1F
100
AcDbEntity
  8
0
  6
Continuous
 62
     7
370
    15
100
AcDbLine
 10
2445.039900984661
 20
1806.21660872299
 30
0.0
 11
2445.039900984661
 21
1798.830916870306
 31
0.0
  0
LINE
  5
CD
330
1F
100
AcDbEntity
  8
0
  6
Continuous
 62
     7
370
    15
100
AcDbLine
 10
2475.03990098466
 20
1798.830916870306
 30
0.0
 11
2475.03990098466
 21
1793.667523178788
 31
0.0
  0
LINE
  5
CE
330
1F
100
AcDbEntity
  8
0
  6
Continuous
 62
     7
370
    15
100
AcDbLine
 10
2445.039900984661
 20
1798.830916870306
 30
0.0
 11
2445.039900984661
 21
1793.667523178788
 31
0.0
  0
LINE
  5
CF
330
1F
100
AcDbEntity
  8
0
  6
Continuous
 62
     7
370
    15
100
AcDbLine
 10
2445.039900984661
 20
1835.868165340139
 30
0.0
 11
2475.03990098466
 21
1835.868165340139
 31
0.0
  0
LINE
  5
D0
330
1F
100
AcDbEntity
  8
0
  6
Continuous
 62
     7
370
    15
100
AcDbLine
 10
2475.03990098466
 20
1835.868165340139
 30
0.0
 11
2475.03990098466
 21
1806.21660872299
 31
0.0
  0
LINE
  5
D1
330
1F
100
AcDbEntity
  8
0
  6
Continuous
 62
     7
370
    15
100
AcDbLine
 10
2445.039900984661
 20
1835.868165340139
 30
0.0
 11
2445.039900984661
 21
1806.21660872299
 31
0.0
  0
LINE
  5
D2
330
1F
100
AcDbEntity
  8
0
  6
Continuous
 62
     7
370
    15
100
AcDbLine
 10
2445.039900984661
 20
1230.868165340139
 30
0.0
 11
2365.812534667586
 21
1230.868165340139
 31
0.0
  0
LINE
  5
D3
330
1F
100
AcDbEntity
  8
0
  6
Continuous
 62
     7
370
    15
100
AcDbLine
 10
2365.812534667586
 20
1230.868165340139
 30
0.0
 11
2365.812534667586
 21
1250.868165340139
 31
0.0
  0
LINE
  5
D4
330
1F
100
AcDbEntity
  8
0
  6
Continuous
 62
     7
370
    15
100
AcDbLine
 10
2365.812534667586
 20
1250.868165340139
 30
0.0
 11
2445.039900984661
 21
1250.868165340139
 31
0.0
  0
LINE
  5
D5
330
1F
100
AcDbEntity
  8
0
  6
Continuous
 62
     7
370
    15
100
AcDbLine
 10
2445.039900984661
 20
1250.868165340139
 30
0.0
 11
2445.039900984661
 21
1230.868165340139
 31
0.0
  0
LINE
  5
D6
330
1F
100
AcDbEntity
  8
0
  6
Continuous
 62
     7
370
    15
100
AcDbLine
 10
2445.039900984661
 20
1312.822509971471
 30
0.0
 11
2445.039900984661
 21
1295.868165340139
 31
0.0
  0
LINE
  5
D7
330
1F
100
AcDbEntity
  8
0
  6
Continuous
 62
     7
370
    15
100
AcDbLine
 10
2445.039900984661
 20
1295.868165340139
 30
0.0
 11
2365.812534667586
 21
1295.868165340139
 31
0.0
  0
LINE
  5
D8
330
1F
100
AcDbEntity
  8
0
  6
Continuous
 62
     7
370
    15
100
AcDbLine
 10
2365.812534667586
 20
1295.868165340139
 30
0.0
 11
2365.812534667586
 21
1315.868165340139
 31
0.0
  0
LINE
  5
D9
330
1F
100
AcDbEntity
  8
0
  6
Continuous
 62
     7
370
    15
100
AcDbLine
 10
2365.812534667586
 20
1315.868165340139
 30
0.0
 11
2445.039900984661
 21
1315.868165340139
 31
0.0
  0
LINE
  5
DA
330
1F
100
AcDbEntity
  8
0
  6
Continuous
 62
     7
370
    15
100
AcDbLine
 10
2445.039900984661
 20
1250.868165340139
 30
0.0
 11
2445.039900984661
 21
1295.868165340139
 31
0.0
  0
LINE
  5
DB
330
1F
100
AcDbEntity
  8
0
  6
Continuous
 62
     7
370
    15
100
AcDbLine
 10
2365.812534667586
 20
1250.868165340139
 30
0.0
 11
2365.812534667586
 21
1295.868165340139
 31
0.0
  0
LINE
  5
DC
330
1F
100
AcDbEntity
  8
0
  6
Continuous
 62
     7
370
    15
100
AcDbLine
 10
2072.973276406253
 20
1640.235327235474
 30
0.0
 11
2072.973276406253
 21
1496.501003444804
 31
0.0
  0
LINE
  5
DD
330
1F
100
AcDbEntity
  8
0
  6
Continuous
 62
     7
370
    15
100
AcDbLine
 10
2416.818691566959
 20
1215.868165340139
 30
0.0
 11
2406.818692169226
 21
1215.868165340139
 31
0.0
  0
LINE
  5
DE
330
1F
100
AcDbEntity
  8
0
  6
Continuous
 62
     7
370
    15
100
AcDbLine
 10
2109.781374067293
 20
1442.130121058601
 30
0.0
 11
1976.749019130359
 21
1210.868165340139
 31
0.0
  0
LINE
  5
DF
330
1F
100
AcDbEntity
  8
0
  6
Continuous
 62
     7
370
    15
100
AcDbLine
 10
1976.749019130359
 20
1210.868165340139
 30
0.0
 11
1976.751763298796
 21
1210.868165340139
 31
0.0
  0
LINE
  5
E0
330
1F
100
AcDbEntity
  8
0
  6
Continuous
 62
     8
370
    15
100
AcDbLine
 10
2401.818692169226
 20
1220.868165340139
 30
0.0
 11
2421.818692169226
 21
1220.868165340139
 31
0.0
  0
LINE
  5
E1
330
1F
100
AcDbEntity
  8
0
  6
Continuous
 62
     7
370
    15
100
AcDbLine
 10
1758.407102425736
 20
538.50631059337
 30
0.0
 11
1758.407102425736
 21
568.50631059337
 31
0.0
  0
LINE
  5
E2
330
1F
100
AcDbEntity
  8
0
  6
Continuous
 62
     7
370
    15
100
AcDbLine
 10
1390.240450337311
 20
568.50631059337
 30
0.0
 11
1390.240450337311
 21
538.50631059337
 31
0.0
  0
LINE
  5
E3
330
1F
100
AcDbEntity
  8
0
  6
Continuous
 62
     7
370
    15
100
AcDbLine
 10
1330.54397039097
 20
857.2947520095544
 30
0.0
 11
1324.975449499562
 21
857.2947520095544
 31
0.0
  0
LINE
  5
E4
330
1F
100
AcDbEntity
  8
0
  6
Continuous
 62
     7
370
    15
100
AcDbLine
 10
1324.975449499562
 20
742.6825595628645
 30
0.0
 11
1330.54397039097
 21
742.6825595628645
 31
0.0
  0
LINE
  5
E5
330
1F
100
AcDbEntity
  8
0
  6
Continuous
 62
     7
370
    15
100
AcDbLine
 10
1844.975449499562
 20
857.2947520095544
 30
0.0
 11
1839.975449499562
 21
857.2947520095544
 31
0.0
  0
LINE
  5
E6
330
1F
100
AcDbEntity
  8
0
  6
Continuous
 62
     7
370
    15
100
AcDbLine
 10
1839.975449499562
 20
742.6825595628645
 30
0.0
 11
1844.975449499562
 21
742.6825595628645
 31
0.0
  0
LWPOLYLINE
  5
E7
330
1F
100
AcDbEntity
  8
0
  6
Continuous
 62
     7
370
    15
100
AcDbPolyline
 90
        9
 70
   128
 43
0.0
 10
1513.392548049931
 20
940.5729351717774
 10
1513.377349816472
 20
940.5646097345332
 10
1513.362151995476
 20
940.5562835443749
 10
1513.34695458698
 20
940.5479566013227
 10
1513.331757591022
 20
940.5396289053971
 10
1513.316561007639
 20
940.5313004566187
 10
1513.301364836867
 20
940.5229712550079
 10
1513.286169078746
 20
940.5146413005848
 10
1513.270973733311
 20
940.5063105933702
  0
LWPOLYLINE
  5
E8
330
1F
100
AcDbEntity
  8
0
  6
Continuous
 62
     7
370
    15
100
AcDbPolyline
 90
        9
 70
   128
 43
0.0
 10
1657.248446157221
 20
940.5063105933702
 10
1657.233250811787
 20
940.5146413005848
 10
1657.218055053665
 20
940.5229712550079
 10
1657.202858882894
 20
940.5313004566187
 10
1657.18766229951
 20
940.5396289053971
 10
1657.172465303552
 20
940.5479566013227
 10
1657.157267895057
 20
940.5562835443747
 10
1657.14207007406
 20
940.564609734533
 10
1657.126871840602
 20
940.5729351717774
  0
ARC
  5
E9
330
1F
100
AcDbEntity
  8
0
  6
Continuous
 62
     7
370
    15
100
AcDbCircle
 10
1601.358307051667
 20
903.5080531779764
 30
0.0
 40
66.96221543401946
100
AcDbArc
 50
33.60879176141329
 51
90.0
  0
ARC
  5
EA
330
1F
100
AcDbEntity
  8
0
  6
Continuous
 62
     7
370
    15
100
AcDbCircle
 10
1569.161112838866
 20
903.5080531779764
 30
0.0
 40
66.96221543401946
100
AcDbArc
 50
90.0
 51
146.3912082385867
  0
LINE
  5
EB
330
1F
100
AcDbEntity
  8
0
  6
Continuous
 62
     7
370
    15
100
AcDbLine
 10
1601.358307051667
 20
970.4702686119956
 30
0.0
 11
1569.161112838866
 21
970.4702686119956
 31
0.0
  0
LINE
  5
EC
330
1F
100
AcDbEntity
  8
0
  6
Continuous
 62
     7
370
    15
100
AcDbLine
 10
1319.975449499562
 20
768.7146987675287
 30
0.0
 11
1324.975449499562
 21
768.7146987675287
 31
0.0
  0
LINE
  5
ED
330
1F
100
AcDbEntity
  8
0
  6
Continuous
 62
     7
370
    15
100
AcDbLine
 10
1844.975449499562
 20
769.0055806218299
 30
0.0
 11
1849.975449499562
 21
769.0055806218299
 31
0.0
  0
LINE
  5
EE
330
1F
100
AcDbEntity
  8
0
  6
Continuous
 62
     7
370
    15
100
AcDbLine
 10
1748.068173670391
 20
538.50631059337
 30
0.0
 11
1652.759709945265
 21
538.50631059337
 31
0.0
  0
LINE
  5
EF
330
1F
100
AcDbEntity
  8
0
  6
Continuous
 62
     7
370
    15
100
AcDbLine
 10
1652.759709945265
 20
568.50631059337
 30
0.0
 11
1652.759709945265
 21
538.50631059337
 31
0.0
  0
LINE
  5
F0
330
1F
100
AcDbEntity
  8
0
  6
Continuous
 62
     7
370
    15
100
AcDbLine
 10
1748.068173670391
 20
568.50631059337
 30
0.0
 11
1652.759709945265
 21
568.50631059337
 31
0.0
  0
LINE
  5
F1
330
1F
100
AcDbEntity
  8
0
  6
Continuous
 62
     7
370
    15
100
AcDbLine
 10
1748.068173670391
 20
568.50631059337
 30
0.0
 11
1748.068173670391
 21
538.50631059337
 31
0.0
  0
LINE
  5
F2
330
1F
100
AcDbEntity
  8
0
  6
Continuous
 62
     7
370
    15
100
AcDbLine
 10
1517.759709945267
 20
568.50631059337
 30
0.0
 11
1517.759709945267
 21
538.50631059337
 31
0.0
  0
LINE
  5
F3
330
1F
100
AcDbEntity
  8
0
  6
Continuous
 62
     7
370
    15
100
AcDbLine
 10
1652.759709945265
 20
538.50631059337
 30
0.0
 11
1517.759709945267
 21
538.50631059337
 31
0.0
  0
LINE
  5
F4
330
1F
100
AcDbEntity
  8
0
  6
Continuous
 62
     7
370
    15
100
AcDbLine
 10
1652.759709945265
 20
568.50631059337
 30
0.0
 11
1517.759709945267
 21
568.50631059337
 31
0.0
  0
LINE
  5
F5
330
1F
100
AcDbEntity
  8
0
  6
Continuous
 62
     7
370
    15
100
AcDbLine
 10
1517.759709945267
 20
538.50631059337
 30
0.0
 11
1402.351726608932
 21
538.50631059337
 31
0.0
  0
LINE
  5
F6
330
1F
100
AcDbEntity
  8
0
  6
Continuous
 62
     7
370
    15
100
AcDbLine
 10
1402.351726608932
 20
538.50631059337
 30
0.0
 11
1402.351726608932
 21
568.50631059337
 31
0.0
  0
LINE
  5
F7
330
1F
100
AcDbEntity
  8
0
  6
Continuous
 62
     7
370
    15
100
AcDbLine
 10
1517.759709945267
 20
568.50631059337
 30
0.0
 11
1402.351726608932
 21
568.50631059337
 31
0.0
  0
SPLINE
  5
F8
330
1F
100
AcDbEntity
  8
0
  6
Continuous
 62
     7
370
    15
100
AcDbSpline
210
0.0
220
0.0
230
1.0
 70
     8
 71
     3
 72
   122
 73
   118
 74
     0
 42
0.0000000001
 43
0.0000000001
 40
0.0
 40
0.0
 40
0.0
 40
0.0
 40
0.0156249999999999
 40
0.0156249999999999
 40
0.0234374999999998
 40
0.0234374999999998
 40
0.0312499999999997
 40
0.0312499999999997
 40
0.0624999999999994
 40
0.0624999999999994
 40
0.093749999999999
 40
0.093749999999999
 40
0.1249999999999987
 40
0.1249999999999987
 40
0.1328124999999986
 40
0.1328124999999986
 40
0.1406249999999986
 40
0.1406249999999986
 40
0.1562499999999985
 40
0.1562499999999985
 40
0.1874999999999982
 40
0.1874999999999982
 40
0.218749999999998
 40
0.218749999999998
 40
0.2343749999999979
 40
0.2343749999999979
 40
0.2421874999999978
 40
0.2421874999999978
 40
0.2499999999999977
 40
0.2499999999999977
 40
0.2812499999999976
 40
0.2812499999999976
 40
0.3124999999999976
 40
0.3124999999999976
 40
0.3437499999999974
 40
0.3437499999999974
 40
0.3593749999999973
 40
0.3593749999999973
 40
0.3671874999999973
 40
0.3671874999999973
 40
0.3749999999999973
 40
0.3749999999999973
 40
0.4062499999999971
 40
0.4062499999999971
 40
0.421874999999997
 40
0.421874999999997
 40
0.4296874999999969
 40
0.4296874999999969
 40
0.4335937499999968
 40
0.4335937499999968
 40
0.4374999999999968
 40
0.4374999999999968
 40
0.468749999999997
 40
0.468749999999997
 40
0.484374999999997
 40
0.484374999999997
 40
0.492187499999997
 40
0.492187499999997
 40
0.4960937499999971
 40
0.4960937499999971
 40
0.4999999999999972
 40
0.4999999999999972
 40
0.5312499999999974
 40
0.5312499999999974
 40
0.5468749999999976
 40
0.5468749999999976
 40
0.5546874999999976
 40
0.5546874999999976
 40
0.5624999999999976
 40
0.5624999999999976
 40
0.5781249999999977
 40
0.5781249999999977
 40
0.5937499999999978
 40
0.5937499999999978
 40
0.6249999999999982
 40
0.6249999999999982
 40
0.6328124999999983
 40
0.6328124999999983
 40
0.6367187499999983
 40
0.6367187499999983
 40
0.6406249999999982
 40
0.6406249999999982
 40
0.6562499999999983
 40
0.6562499999999983
 40
0.6874999999999984
 40
0.6874999999999984
 40
0.7187499999999987
 40
0.7187499999999987
 40
0.726562499999999
 40
0.726562499999999
 40
0.7343749999999991
 40
0.7343749999999991
 40
0.7499999999999992
 40
0.7499999999999992
 40
0.7812499999999996
 40
0.7812499999999996
 40
0.8124999999999998
 40
0.8124999999999998
 40
0.8281249999999998
 40
0.8281249999999998
 40
0.8359375
 40
0.8359375
 40
0.84375
 40
0.84375
 40
0.875
 40
0.875
 40
0.90625
 40
0.90625
 40
0.9375000000000001
 40
0.9375000000000001
 40
0.9453125000000001
 40
0.9453125000000001
 40
0.9531250000000001
 40
0.9531250000000001
 40
0.9687500000000001
 40
0.9687500000000001
 40
1.0
 40
1.0
 40
1.0
 40
1.0
 10
1370.997015287002
 20
568.50631059337
 30
0.0
 10
1369.98937325111
 20
573.0991684881543
 30
0.0
 10
1369.086305655554
 20
577.7253816416206
 30
0.0
 10
1367.890727241897
 20
584.7154236382409
 30
0.0
 10
1367.518347371111
 20
587.0564738903172
 30
0.0
 10
1366.828961173057
 20
591.7429632482058
 30
0.0
 10
1366.512268750589
 20
594.0857852954893
 30
0.0
 10
1365.067222490267
 20
605.7978063351948
 30
0.0
 10
1364.353110128808
 20
615.160752922867
 30
0.0
 10
1363.784810716836
 20
633.8736667096057
 30
0.0
 10
1363.930680805664
 20
643.2236330462323
 30
0.0
 10
1365.082919351156
 20
661.9105776813758
 30
0.0
 10
1366.089222911924
 20
671.2475569594066
 30
0.0
 10
1367.900429325786
 20
682.9104293482723
 30
0.0
 10
1368.290400450357
 20
685.2425852822626
 30
0.0
 10
1369.126456569469
 20
689.9060501886347
 30
0.0
 10
1369.571893755157
 20
692.2334021711191
 30
0.0
 10
1370.985565038821
 20
699.1796825833276
 30
0.0
 10
1372.032733526159
 20
703.7720468897557
 30
0.0
 10
1375.483751381792
 20
717.4353811560979
 30
0.0
 10
1378.196356368367
 20
726.3928706094223
 30
0.0
 10
1384.439200695612
 20
744.007334949809
 30
0.0
 10
1387.969364512428
 20
752.6643375950234
 30
0.0
 10
1393.892017515674
 20
765.4192433436287
 30
0.0
 10
1395.971005297111
 20
769.6323712272312
 30
0.0
 10
1399.250459173134
 20
775.8928990855352
 30
0.0
 10
1400.370454424042
 20
777.9698754357448
 30
0.0
 10
1402.664966585693
 20
782.1037891629039
 30
0.0
 10
1403.841053433708
 20
784.1633753943006
 30
0.0
 10
1409.84064483638
 20
794.3771925234434
 30
0.0
 10
1414.997433738148
 20
802.24341668446
 30
0.0
 10
1426.018319468694
 20
817.3721158473858
 30
0.0
 10
1431.882237705881
 20
824.6347432928354
 30
0.0
 10
1444.340024529211
 20
838.5369217377583
 30
0.0
 10
1450.933366234236
 20
845.1769224763355
 30
0.0
 10
1461.417363393922
 20
854.6299057912788
 30
0.0
 10
1465.01137783625
 20
857.6960974084499
 30
0.0
 10
1470.561526102549
 20
862.1595563654929
 30
0.0
 10
1472.433813382522
 20
863.6211150740914
 30
0.0
 10
1476.209198741552
 20
866.4798125605864
 30
0.0
 10
1478.114426639231
 20
867.878674785825
 30
0.0
 10
1487.729463895316
 20
874.7184293293573
 30
0.0
 10
1495.704002683265
 20
879.6990662664134
 30
0.0
 10
1508.134872418384
 20
886.3545169343318
 30
0.0
 10
1512.357051893387
 20
888.4364235799353
 30
0.0
 10
1518.818061715026
 20
891.3371952718014
 30
0.0
 10
1520.993055808374
 20
892.2670452551903
 30
0.0
 10
1524.289113838175
 20
893.6034612420865
 30
0.0
 10
1525.393396903298
 20
894.039202265325
 30
0.0
 10
1527.61345319767
 20
894.8907076515638
 30
0.0
 10
1528.730337922316
 20
895.306857728422
 30
0.0
 10
1538.795617773927
 20
898.9457083707003
 30
0.0
 10
1547.879225975442
 20
901.4437014535804
 30
0.0
 10
1561.728036781282
 20
903.9869543488325
 30
0.0
 10
1566.381643732611
 20
904.6335243050551
 30
0.0
 10
1573.421026034796
 20
905.2856214611633
 30
0.0
 10
1575.777318640192
 20
905.4500103500005
 30
0.0
 10
1579.326897761384
 20
905.6150137697789
 30
0.0
 10
1580.512614282208
 20
905.6564176562504
 30
0.0
 10
1582.889160841667
 20
905.7116722938499
 30
0.0
 10
1584.081736672706
 20
905.7255227192436
 30
0.0
 10
1594.806627580422
 20
905.7245640964374
 30
0.0
 10
1604.188783397821
 20
904.833759339629
 30
0.0
 10
1618.056129264634
 20
902.2847524658898
 30
0.0
 10
1622.644244538939
 20
901.2328400363177
 30
0.0
 10
1629.477097276161
 20
899.3644467606118
 30
0.0
 10
1631.746490589339
 20
898.6932032725915
 30
0.0
 10
1636.269131001459
 20
897.2556056646242
 30
0.0
 10
1638.525779747507
 20
896.4878499829927
 30
0.0
 10
1645.216579935771
 20
894.0652060155027
 30
0.0
 10
1649.587990728881
 20
892.2866970597373
 30
0.0
 10
1658.168906109222
 20
888.4328121845481
 30
0.0
 10
1662.378378119968
 20
886.3573765337402
 30
0.0
 10
1674.781556449255
 20
879.7180796491993
 30
0.0
 10
1682.751441109175
 20
874.7438249050118
 30
0.0
 10
1692.373313788234
 20
867.9017055276203
 30
0.0
 10
1694.280550035928
 20
866.5018573375009
 30
0.0
 10
1697.115998911803
 20
864.3555022032112
 30
0.0
 10
1698.057372750507
 20
863.6319104548256
 30
0.0
 10
1699.925928390201
 20
862.1738160525787
 30
0.0
 10
1700.853767769175
 20
861.4388269304965
 30
0.0
 10
1705.461333173024
 20
857.7346891875199
 30
0.0
 10
1709.046329401567
 20
854.678116146124
 30
0.0
 10
1719.515465650735
 20
845.2445889639129
 30
0.0
 10
1726.115054865235
 20
838.60502801624
 30
0.0
 10
1738.606449508697
 20
824.6727052306967
 30
0.0
 10
1744.497819104391
 20
817.3795411701643
 30
0.0
 10
1751.428037852876
 20
807.8625615550768
 30
0.0
 10
1752.792305125287
 20
805.9390685139288
 30
0.0
 10
1755.477213409369
 20
802.0518205424327
 30
0.0
 10
1756.799131685214
 20
800.0861024222183
 30
0.0
 10
1760.690211487333
 20
794.1420557550338
 30
0.0
 10
1763.176558976069
 20
790.1298928411364
 30
0.0
 10
1770.322371086386
 20
777.9495493149809
 30
0.0
 10
1774.669497081081
 20
769.6379234554606
 30
0.0
 10
1782.558162569666
 20
752.6446965080913
 30
0.0
 10
1786.099558169118
 20
743.9630293350015
 30
0.0
 10
1790.807748574239
 20
730.6631789078982
 30
0.0
 10
1792.276296742936
 20
726.1835794922113
 30
0.0
 10
1794.326131365894
 20
719.3939189711569
 30
0.0
 10
1794.984575346106
 20
717.1163900993068
 30
0.0
 10
1796.244642835487
 20
712.55768961712
 30
0.0
 10
1796.846767652847
 20
710.2750882488708
 30
0.0
 10
1799.719497897767
 20
698.8460180738858
 30
0.0
 10
1801.57745314489
 20
689.6514794079382
 30
0.0
 10
1804.437941518346
 20
671.1627534563084
 30
0.0
 10
1805.440399276211
 20
661.86855739091
 30
0.0
 10
1806.59008255005
 20
643.1805387594825
 30
0.0
 10
1806.737356821039
 20
633.7867218729534
 30
0.0
 10
1806.372009362304
 20
621.9804461453904
 30
0.0
 10
1806.271222222332
 20
619.6129490564008
 30
0.0
 10
1806.014939637659
 20
614.8884009614485
 30
0.0
 10
1805.85957475271
 20
612.5321081691579
 30
0.0
 10
1805.312633666687
 20
605.4809924418593
 30
0.0
 10
1804.840260064878
 20
600.803921384019
 30
0.0
 10
1803.104665850651
 20
586.8426795311449
 30
0.0
 10
1801.523711391292
 20
577.6283175687174
 30
0.0
 10
1799.52240460353
 20
568.5063105933699
 30
0.0
  0
LINE
  5
F9
330
1F
100
AcDbEntity
  8
0
  6
Continuous
 62
     7
370
    15
100
AcDbLine
 10
1749.992335972004
 20
568.50631059337
 30
0.0
 11
1749.992335972004
 21
538.50631059337
 31
0.0
  0
LINE
  5
FA
330
1F
100
AcDbEntity
  8
0
  6
Continuous
 62
     7
370
    15
100
AcDbLine
 10
1758.407102425736
 20
538.50631059337
 30
0.0
 11
1749.992335972004
 21
538.50631059337
 31
0.0
  0
LINE
  5
FB
330
1F
100
AcDbEntity
  8
0
  6
Continuous
 62
     7
370
    15
100
AcDbLine
 10
1758.407102425736
 20
568.50631059337
 30
0.0
 11
1749.992335972004
 21
568.50631059337
 31
0.0
  0
LINE
  5
FC
330
1F
100
AcDbEntity
  8
0
  6
Continuous
 62
     7
370
    15
100
AcDbLine
 10
1749.992335972004
 20
538.50631059337
 30
0.0
 11
1748.068173670391
 21
538.50631059337
 31
0.0
  0
LINE
  5
FD
330
1F
100
AcDbEntity
  8
0
  6
Continuous
 62
     7
370
    15
100
AcDbLine
 10
1749.992335972004
 20
568.50631059337
 30
0.0
 11
1748.068173670391
 21
568.50631059337
 31
0.0
  0
LINE
  5
FE
330
1F
100
AcDbEntity
  8
0
  6
Continuous
 62
     7
370
    15
100
AcDbLine
 10
1852.759709945266
 20
568.50631059337
 30
0.0
 11
1852.759709945266
 21
538.50631059337
 31
0.0
  0
LINE
  5
FF
330
1F
100
AcDbEntity
  8
0
  6
Continuous
 62
     7
370
    15
100
AcDbLine
 10
1852.759709945266
 20
538.50631059337
 30
0.0
 11
1758.407102425736
 21
538.50631059337
 31
0.0
  0
LINE
  5
100
330
1F
100
AcDbEntity
  8
0
  6
Continuous
 62
     7
370
    15
100
AcDbLine
 10
1852.759709945266
 20
568.50631059337
 30
0.0
 11
1758.407102425736
 21
568.50631059337
 31
0.0
  0
LINE
  5
101
330
1F
100
AcDbEntity
  8
0
  6
Continuous
 62
     7
370
    15
100
AcDbLine
 10
1398.655216791043
 20
568.50631059337
 30
0.0
 11
1398.655216791043
 21
538.50631059337
 31
0.0
  0
LINE
  5
102
330
1F
100
AcDbEntity
  8
0
  6
Continuous
 62
     7
370
    15
100
AcDbLine
 10
1398.655216791043
 20
538.50631059337
 30
0.0
 11
1390.240450337311
 21
538.50631059337
 31
0.0
  0
LINE
  5
103
330
1F
100
AcDbEntity
  8
0
  6
Continuous
 62
     7
370
    15
100
AcDbLine
 10
1398.655216791043
 20
568.50631059337
 30
0.0
 11
1390.240450337311
 21
568.50631059337
 31
0.0
  0
LINE
  5
104
330
1F
100
AcDbEntity
  8
0
  6
Continuous
 62
     7
370
    15
100
AcDbLine
 10
1402.351726608932
 20
538.50631059337
 30
0.0
 11
1398.655216791043
 21
538.50631059337
 31
0.0
  0
LINE
  5
105
330
1F
100
AcDbEntity
  8
0
  6
Continuous
 62
     7
370
    15
100
AcDbLine
 10
1402.351726608932
 20
568.50631059337
 30
0.0
 11
1398.655216791043
 21
568.50631059337
 31
0.0
  0
LINE
  5
106
330
1F
100
AcDbEntity
  8
0
  6
Continuous
 62
     7
370
    15
100
AcDbLine
 10
1317.759709945265
 20
568.50631059337
 30
0.0
 11
1317.759709945265
 21
538.50631059337
 31
0.0
  0
LINE
  5
107
330
1F
100
AcDbEntity
  8
0
  6
Continuous
 62
     7
370
    15
100
AcDbLine
 10
1390.240450337311
 20
538.50631059337
 30
0.0
 11
1317.759709945265
 21
538.50631059337
 31
0.0
  0
LINE
  5
108
330
1F
100
AcDbEntity
  8
0
  6
Continuous
 62
     7
370
    15
100
AcDbLine
 10
1390.240450337311
 20
568.50631059337
 30
0.0
 11
1317.759709945265
 21
568.50631059337
 31
0.0
  0
LINE
  5
109
330
1F
100
AcDbEntity
  8
0
  6
Continuous
 62
     7
370
    15
100
AcDbLine
 10
1330.54397039097
 20
940.5063105933702
 30
0.0
 11
1839.975449499562
 21
940.5063105933702
 31
0.0
  0
LINE
  5
10A
330
1F
100
AcDbEntity
  8
0
  6
Continuous
 62
     7
370
    15
100
AcDbLine
 10
1839.975449499562
 20
940.5063105933702
 30
0.0
 11
1839.975449499562
 21
568.50631059337
 31
0.0
  0
LINE
  5
10B
330
1F
100
AcDbEntity
  8
0
  6
Continuous
 62
     7
370
    15
100
AcDbLine
 10
1330.54397039097
 20
940.5063105933702
 30
0.0
 11
1330.54397039097
 21
568.50631059337
 31
0.0
  0
LINE
  5
10C
330
1F
100
AcDbEntity
  8
0
  6
Continuous
 62
     7
370
    15
100
AcDbLine
 10
1324.975449499562
 20
857.2947520095544
 30
0.0
 11
1324.975449499562
 21
742.6825595628645
 31
0.0
  0
LINE
  5
10D
330
1F
100
AcDbEntity
  8
0
  6
Continuous
 62
     7
370
    15
100
AcDbLine
 10
1844.975449499562
 20
857.2947520095544
 30
0.0
 11
1844.975449499562
 21
742.6825595628645
 31
0.0
  0
LINE
  5
10E
330
1F
100
AcDbEntity
  8
0
  6
Continuous
 62
     7
370
    15
100
AcDbLine
 10
1657.126871840602
 20
940.5729351717774
 30
0.0
 11
1513.392548049931
 21
940.5729351717774
 31
0.0
  0
LINE
  5
10F
330
1F
100
AcDbEntity
  8
0
  6
Continuous
 62
     7
370
    15
100
AcDbLine
 10
1319.975449499562
 20
805.2148290079214
 30
0.0
 11
1324.975449499562
 21
805.2148290079214
 31
0.0
  0
LINE
  5
110
330
1F
100
AcDbEntity
  8
0
  6
Continuous
 62
     7
370
    15
100
AcDbLine
 10
1319.975449499562
 20
805.2148290079214
 30
0.0
 11
1319.975449499562
 21
768.7146987675287
 31
0.0
  0
LINE
  5
111
330
1F
100
AcDbEntity
  8
0
  6
Continuous
 62
     7
370
    15
100
AcDbLine
 10
1849.975449499562
 20
805.5057108622227
 30
0.0
 11
1844.975449499562
 21
805.5057108622227
 31
0.0
  0
LINE
  5
112
330
1F
100
AcDbEntity
  8
0
  6
Continuous
 62
     7
370
    15
100
AcDbLine
 10
1849.975449499562
 20
805.5057108622227
 30
0.0
 11
1849.975449499562
 21
769.0055806218299
 31
0.0
  0
LINE
  5
113
330
1F
100
AcDbEntity
  8
0
  6
Continuous
 62
     7
370
    15
100
AcDbLine
 10
1324.975449499562
 20
1036.498649136004
 30
0.0
 11
1319.975449499562
 21
1036.50631059337
 31
0.0
  0
LINE
  5
114
330
1F
100
AcDbEntity
  8
0
  6
Continuous
 62
     7
370
    15
100
AcDbLine
 10
1324.975449499562
 20
857.2947520095542
 30
0.0
 11
1324.975449499562
 21
1036.498649136004
 31
0.0
  0
LINE
  5
115
330
1F
100
AcDbEntity
  8
0
  6
Continuous
 62
     7
370
    15
100
AcDbLine
 10
1319.975449499562
 20
805.2148290079214
 30
0.0
 11
1319.975449499562
 21
1036.50631059337
 31
0.0
  0
LINE
  5
116
330
1F
100
AcDbEntity
  8
0
  6
Continuous
 62
     7
370
    15
100
AcDbLine
 10
1844.975449499562
 20
857.2947520095542
 30
0.0
 11
1844.975449499562
 21
1036.797192447671
 31
0.0
  0
LINE
  5
117
330
1F
100
AcDbEntity
  8
0
  6
Continuous
 62
     7
370
    15
100
AcDbLine
 10
1849.975449499562
 20
1036.797192447671
 30
0.0
 11
1844.975449499562
 21
1036.797192447671
 31
0.0
  0
LINE
  5
118
330
1F
100
AcDbEntity
  8
0
  6
Continuous
 62
     7
370
    15
100
AcDbLine
 10
1849.975449499562
 20
805.5057108622227
 30
0.0
 11
1849.975449499562
 21
1036.797192447671
 31
0.0
  0
LINE
  5
119
330
1F
100
AcDbEntity
  8
0
  6
Continuous
 62
     7
370
    15
100
AcDbLine
 10
1324.975449499562
 20
1035.727769017631
 30
0.0
 11
1844.975449499562
 21
1036.013162535059
 31
0.0
  0
LINE
  5
11A
330
1F
100
AcDbEntity
  8
0
  6
Continuous
 62
     7
370
    15
100
AcDbLine
 10
1844.975449499562
 20
992.0012545376945
 30
0.0
 11
1324.975449499562
 21
992.0012545376945
 31
0.0
  0
CIRCLE
  5
11B
330
1F
100
AcDbEntity
  8
0
  6
Continuous
 62
     7
370
    15
100
AcDbCircle
 10
1586.692578057675
 20
1004.616901157257
 30
0.0
 40
10.0
  0
CIRCLE
  5
11C
330
1F
100
AcDbEntity
  8
0
  6
Continuous
 62
     7
370
    15
100
AcDbCircle
 10
1527.380579145564
 20
1018.224184903097
 30
0.0
 40
10.0
  0
CIRCLE
  5
11D
330
1F
100
AcDbEntity
  8
0
  6
Continuous
 62
     7
370
    15
100
AcDbCircle
 10
1646.004576969785
 20
1018.224184903097
 30
0.0
 40
10.00000000000005
  0
LINE
  5
11E
330
1F
100
AcDbEntity
  8
0
  6
Continuous
 62
     7
370
    15
100
AcDbLine
 10
1319.975449499562
 20
1036.50631059337
 30
0.0
 11
1844.975449499562
 21
1036.794448279234
 31
0.0
  0
LINE
  5
11F
330
1F
100
AcDbEntity
  8
0
  6
Continuous
 62
     7
370
    15
100
AcDbLine
 10
1844.975449499562
 20
991.2199689111877
 30
0.0
 11
1324.975449499562
 21
991.2199689111877
 31
0.0
  0
ENDSEC
  0
SECTION
  2
OBJECTS
  0
DICTIONARY
  5
C
330
0
100
AcDbDictionary
281
     1
  3
ACAD_COLOR
350
14B
  3
ACAD_GROUP
350
D
  3
ACAD_LAYOUT
350
1A
  3
ACAD_MATERIAL
350
121
  3
ACAD_MLEADERSTYLE
350
160
  3
ACAD_MLINESTYLE
350
17
  3
ACAD_PLOTSETTINGS
350
19
  3
ACAD_PLOTSTYLENAME
350
E
  3
ACAD_SCALELIST
350
14E
  3
ACAD_TABLESTYLE
350
14C
  3
ACAD_VISUALSTYLE
350
13A
  3
ACDB_RECOMPOSE_DATA
350
191
  3
AcDbVariableDictionary
350
187
  0
DICTIONARY
  5
185
330
10
100
AcDbDictionary
280
     1
281
     1
  3
ADSK_XREC_LAYER_RECONCILED
360
186
  0
DICTIONARY
  5
14B
102
{ACAD_REACTORS
330
C
102
}
330
C
100
AcDbDictionary
281
     1
  0
DICTIONARY
  5
D
102
{ACAD_REACTORS
330
C
102
}
330
C
100
AcDbDictionary
281
     1
  0
DICTIONARY
  5
1A
102
{ACAD_REACTORS
330
C
102
}
330
C
100
AcDbDictionary
281
     1
  3
Layout1
350
1E
  3
Layout2
350
26
  3
Model
350
22
  0
DICTIONARY
  5
121
102
{ACAD_REACTORS
330
C
102
}
330
C
100
AcDbDictionary
281
     1
  3
ByBlock
350
12A
  3
ByLayer
350
122
  3
Global
350
132
  0
DICTIONARY
  5
160
102
{ACAD_REACTORS
330
C
102
}
330
C
100
AcDbDictionary
281
     1
  3
Standard
350
161
  0
DICTIONARY
  5
17
102
{ACAD_REACTORS
330
C
102
}
330
C
100
AcDbDictionary
281
     1
  3
Standard
350
18
  0
DICTIONARY
  5
19
102
{ACAD_REACTORS
330
C
102
}
330
C
100
AcDbDictionary
281
     1
  0
ACDBDICTIONARYWDFLT
  5
E
102
{ACAD_REACTORS
330
C
102
}
330
C
100
AcDbDictionary
281
     1
  3
Normal
350
F
100
AcDbDictionaryWithDefault
340
F
  0
DICTIONARY
  5
14E
102
{ACAD_REACTORS
330
C
102
}
330
C
100
AcDbDictionary
281
     1
  3
A0
350
14F
  3
A1
350
150
  3
A2
350
151
  3
A3
350
152
  3
A4
350
153
  3
A5
350
154
  3
A6
350
155
  3
A7
350
156
  3
A8
350
157
  3
A9
350
158
  3
B0
350
159
  3
B1
350
15A
  3
B2
350
15B
  3
B3
350
15C
  3
B4
350
15D
  3
B5
350
15E
  3
B6
350
15F
  0
DICTIONARY
  5
14C
102
{ACAD_REACTORS
330
C
102
}
330
C
100
AcDbDictionary
281
     1
  3
Standard
350
14D
  0
DICTIONARY
  5
13A
102
{ACAD_REACTORS
330
C
102
}
330
C
100
AcDbDictionary
281
     1
  3
2dWireframe
350
140
  3
3D Hidden
350
142
  3
3dWireframe
350
141
  3
Basic
350
13F
  3
Brighten
350
146
  3
ColorChange
350
14A
  3
Conceptual
350
143
  3
Dim
350
145
  3
Facepattern
350
149
  3
Flat
350
13B
  3
FlatWithEdges
350
13C
  3
Gouraud
350
13D
  3
GouraudWithEdges
350
13E
  3
Linepattern
350
148
  3
Realistic
350
144
  3
Thicken
350
147
  0
XRECORD
  5
191
102
{ACAD_REACTORS
330
C
102
}
330
C
100
AcDbXrecord
280
     1
 90
        1
330
14D
  0
DICTIONARY
  5
187
102
{ACAD_REACTORS
330
C
102
}
330
C
100
AcDbDictionary
281
     1
  3
CANNOSCALE
350
18B
  3
CMLEADERSTYLE
350
189
  3
CTABLESTYLE
350
188
  3
LAYEREVAL
350
18D
  3
LAYERNOTIFY
350
18E
  3
LIGHTINGUNITS
350
18C
  3
MSLTSCALE
350
18A
  0
XRECORD
  5
186
102
{ACAD_REACTORS
330
185
102
}
330
185
100
AcDbXrecord
280
     1
290
     1
  0
LAYOUT
  5
1E
102
{ACAD_REACTORS
330
1A
102
}
330
1A
100
AcDbPlotSettings
  1

  2
none_device
  4

  6

 40
0.0
 41
0.0
 42
0.0
 43
0.0
 44
0.0
 45
0.0
 46
0.0
 47
0.0
 48
0.0
 49
0.0
140
0.0
141
0.0
142
1.0
143
1.0
 70
   688
 72
     0
 73
     0
 74
     5
  7

 75
    16
147
1.0
 76
     0
 77
     2
 78
   300
148
0.0
149
0.0
100
AcDbLayout
  1
Layout1
 70
     1
 71
     1
 10
0.0
 20
0.0
 11
420.0
 21
297.0
 12
0.0
 22
0.0
 32
0.0
 14
1.000000000000000E+20
 24
1.000000000000000E+20
 34
1.000000000000000E+20
 15
-1.000000000000000E+20
 25
-1.000000000000000E+20
 35
-1.000000000000000E+20
146
0.0
 13
0.0
 23
0.0
 33
0.0
 16
1.0
 26
0.0
 36
0.0
 17
0.0
 27
1.0
 37
0.0
 76
     0
330
1B
  0
LAYOUT
  5
26
102
{ACAD_REACTORS
330
1A
102
}
330
1A
100
AcDbPlotSettings
  1

  2
none_device
  4

  6

 40
0.0
 41
0.0
 42
0.0
 43
0.0
 44
0.0
 45
0.0
 46
0.0
 47
0.0
 48
0.0
 49
0.0
140
0.0
141
0.0
142
1.0
143
1.0
 70
   688
 72
     0
 73
     0
 74
     5
  7

 75
    16
147
1.0
 76
     0
 77
     2
 78
   300
148
0.0
149
0.0
100
AcDbLayout
  1
Layout2
 70
     1
 71
     2
 10
0.0
 20
0.0
 11
0.0
 21
0.0
 12
0.0
 22
0.0
 32
0.0
 14
0.0
 24
0.0
 34
0.0
 15
0.0
 25
0.0
 35
0.0
146
0.0
 13
0.0
 23
0.0
 33
0.0
 16
1.0
 26
0.0
 36
0.0
 17
0.0
 27
1.0
 37
0.0
 76
     0
330
23
  0
LAYOUT
  5
22
102
{ACAD_REACTORS
330
1A
102
}
330
1A
100
AcDbPlotSettings
  1

  2
none_device
  4

  6

 40
0.0
 41
0.0
 42
0.0
 43
0.0
 44
0.0
 45
0.0
 46
0.0
 47
0.0
 48
0.0
 49
0.0
140
0.0
141
0.0
142
1.0
143
1.0
 70
  1712
 72
     0
 73
     0
 74
     0
  7

 75
     0
147
1.0
 76
     0
 77
     2
 78
   300
148
0.0
149
0.0
100
AcDbLayout
  1
Model
 70
     1
 71
     0
 10
0.0
 20
0.0
 11
5588.0
 21
4318.0
 12
0.0
 22
0.0
 32
0.0
 14
0.0
 24
0.0
 34
0.0
 15
5588.0
 25
4318.0
 35
0.0
146
0.0
 13
0.0
 23
0.0
 33
0.0
 16
1.0
 26
0.0
 36
0.0
 17
0.0
 27
1.0
 37
0.0
 76
     0
330
1F
331
29
  0
MATERIAL
  5
12A
102
{ACAD_XDICTIONARY
360
12B
102
}
102
{ACAD_REACTORS
330
121
102
}
330
121
100
AcDbMaterial
  1
ByBlock
 72
     0
 43
0.0008202099737533
 43
0.0
 43
0.0
 43
0.0
 43
0.0
 43
0.0008202099737533
 43
0.0
 43
0.0
 43
0.0
 43
0.0
 43
1.0
 43
0.0
 43
0.0
 43
0.0
 43
0.0
 43
1.0
 77
     0
 47
0.0008202099737533
 47
0.0
 47
0.0
 47
0.0
 47
0.0
 47
0.0008202099737533
 47
0.0
 47
0.0
 47
0.0
 47
0.0
 47
1.0
 47
0.0
 47
0.0
 47
0.0
 47
0.0
 47
1.0
171
     0
 49
0.0008202099737533
 49
0.0
 49
0.0
 49
0.0
 49
0.0
 49
0.0008202099737533
 49
0.0
 49
0.0
 49
0.0
 49
0.0
 49
1.0
 49
0.0
 49
0.0
 49
0.0
 49
0.0
 49
1.0
175
     0
142
0.0008202099737533
142
0.0
142
0.0
142
0.0
142
0.0
142
0.0008202099737533
142
0.0
142
0.0
142
0.0
142
0.0
142
1.0
142
0.0
142
0.0
142
0.0
142
0.0
142
1.0
179
     0
144
0.0008202099737533
144
0.0
144
0.0
144
0.0
144
0.0
144
0.0008202099737533
144
0.0
144
0.0
144
0.0
144
0.0
144
1.0
144
0.0
144
0.0
144
0.0
144
0.0
144
1.0
147
0.0008202099737533
147
0.0
147
0.0
147
0.0
147
0.0
147
0.0008202099737533
147
0.0
147
0.0
147
0.0
147
0.0
147
1.0
147
0.0
147
0.0
147
0.0
147
0.0
147
1.0
  0
MATERIAL
  5
122
102
{ACAD_XDICTIONARY
360
123
102
}
102
{ACAD_REACTORS
330
121
102
}
330
121
100
AcDbMaterial
  1
ByLayer
 72
     0
 43
0.0008202099737533
 43
0.0
 43
0.0
 43
0.0
 43
0.0
 43
0.0008202099737533
 43
0.0
 43
0.0
 43
0.0
 43
0.0
 43
1.0
 43
0.0
 43
0.0
 43
0.0
 43
0.0
 43
1.0
 77
     0
 47
0.0008202099737533
 47
0.0
 47
0.0
 47
0.0
 47
0.0
 47
0.0008202099737533
 47
0.0
 47
0.0
 47
0.0
 47
0.0
 47
1.0
 47
0.0
 47
0.0
 47
0.0
 47
0.0
 47
1.0
171
     0
 49
0.0008202099737533
 49
0.0
 49
0.0
 49
0.0
 49
0.0
 49
0.0008202099737533
 49
0.0
 49
0.0
 49
0.0
 49
0.0
 49
1.0
 49
0.0
 49
0.0
 49
0.0
 49
0.0
 49
1.0
175
     0
142
0.0008202099737533
142
0.0
142
0.0
142
0.0
142
0.0
142
0.0008202099737533
142
0.0
142
0.0
142
0.0
142
0.0
142
1.0
142
0.0
142
0.0
142
0.0
142
0.0
142
1.0
179
     0
144
0.0008202099737533
144
0.0
144
0.0
144
0.0
144
0.0
144
0.0008202099737533
144
0.0
144
0.0
144
0.0
144
0.0
144
1.0
144
0.0
144
0.0
144
0.0
144
0.0
144
1.0
147
0.0008202099737533
147
0.0
147
0.0
147
0.0
147
0.0
147
0.0008202099737533
147
0.0
147
0.0
147
0.0
147
0.0
147
1.0
147
0.0
147
0.0
147
0.0
147
0.0
147
1.0
  0
MATERIAL
  5
132
102
{ACAD_XDICTIONARY
360
133
102
}
102
{ACAD_REACTORS
330
121
102
}
330
121
100
AcDbMaterial
  1
Global
 72
     0
 43
0.0008202099737533
 43
0.0
 43
0.0
 43
0.0
 43
0.0
 43
0.0008202099737533
 43
0.0
 43
0.0
 43
0.0
 43
0.0
 43
1.0
 43
0.0
 43
0.0
 43
0.0
 43
0.0
 43
1.0
 77
     0
 47
0.0008202099737533
 47
0.0
 47
0.0
 47
0.0
 47
0.0
 47
0.0008202099737533
 47
0.0
 47
0.0
 47
0.0
 47
0.0
 47
1.0
 47
0.0
 47
0.0
 47
0.0
 47
0.0
 47
1.0
171
     0
 49
0.0008202099737533
 49
0.0
 49
0.0
 49
0.0
 49
0.0
 49
0.0008202099737533
 49
0.0
 49
0.0
 49
0.0
 49
0.0
 49
1.0
 49
0.0
 49
0.0
 49
0.0
 49
0.0
 49
1.0
175
     0
142
0.0008202099737533
142
0.0
142
0.0
142
0.0
142
0.0
142
0.0008202099737533
142
0.0
142
0.0
142
0.0
142
0.0
142
1.0
142
0.0
142
0.0
142
0.0
142
0.0
142
1.0
179
     0
144
0.0008202099737533
144
0.0
144
0.0
144
0.0
144
0.0
144
0.0008202099737533
144
0.0
144
0.0
144
0.0
144
0.0
144
1.0
144
0.0
144
0.0
144
0.0
144
0.0
144
1.0
147
0.0008202099737533
147
0.0
147
0.0
147
0.0
147
0.0
147
0.0008202099737533
147
0.0
147
0.0
147
0.0
147
0.0
147
1.0
147
0.0
147
0.0
147
0.0
147
0.0
147
1.0
  0
MLEADERSTYLE
  5
161
102
{ACAD_REACTORS
330
160
102
}
330
160
100
AcDbMLeaderStyle
170
     2
171
     1
172
     0
 90
        2
 40
0.0
 41
0.0
173
     1
 91
-1056964608
340
14
 92
       -2
290
     1
 42
2.0
291
     1
 43
0.36
  3
Standard
 44
4.0
300

342
11
174
     1
178
     6
175
     1
176
     0
 93
-1056964608
 45
4.0
292
     0
297
     0
 46
4.0
 94
-1056964608
 47
1.0
 49
1.0
140
1.0
293
     1
141
0.0
294
     1
177
     0
142
1.0
295
     1
296
     0
143
0.125
1001
ACAD_MLEADERVER
1070
     2
  0
MLINESTYLE
  5
18
102
{ACAD_REACTORS
330
17
102
}
330
17
100
AcDbMlineStyle
  2
STANDARD
 70
     0
  3

 62
   256
 51
90.0
 52
90.0
 71
     2
 49
0.5
 62
   256
  6
BYLAYER
 49
-0.5
 62
   256
  6
BYLAYER
  0
ACDBPLACEHOLDER
  5
F
102
{ACAD_REACTORS
330
E
102
}
330
E
  0
SCALE
  5
14F
102
{ACAD_REACTORS
330
14E
102
}
330
14E
100
AcDbScale
 70
     0
300
1:1
140
1.0
141
1.0
290
     1
  0
SCALE
  5
150
102
{ACAD_REACTORS
330
14E
102
}
330
14E
100
AcDbScale
 70
     0
300
1:2
140
1.0
141
2.0
290
     0
  0
SCALE
  5
151
102
{ACAD_REACTORS
330
14E
102
}
330
14E
100
AcDbScale
 70
     0
300
1:4
140
1.0
141
4.0
290
     0
  0
SCALE
  5
152
102
{ACAD_REACTORS
330
14E
102
}
330
14E
100
AcDbScale
 70
     0
300
1:5
140
1.0
141
5.0
290
     0
  0
SCALE
  5
153
102
{ACAD_REACTORS
330
14E
102
}
330
14E
100
AcDbScale
 70
     0
300
1:8
140
1.0
141
8.0
290
     0
  0
SCALE
  5
154
102
{ACAD_REACTORS
330
14E
102
}
330
14E
100
AcDbScale
 70
     0
300
1:10
140
1.0
141
10.0
290
     0
  0
SCALE
  5
155
102
{ACAD_REACTORS
330
14E
102
}
330
14E
100
AcDbScale
 70
     0
300
1:16
140
1.0
141
16.0
290
     0
  0
SCALE
  5
156
102
{ACAD_REACTORS
330
14E
102
}
330
14E
100
AcDbScale
 70
     0
300
1:20
140
1.0
141
20.0
290
     0
  0
SCALE
  5
157
102
{ACAD_REACTORS
330
14E
102
}
330
14E
100
AcDbScale
 70
     0
300
1:30
140
1.0
141
30.0
290
     0
  0
SCALE
  5
158
102
{ACAD_REACTORS
330
14E
102
}
330
14E
100
AcDbScale
 70
     0
300
1:40
140
1.0
141
40.0
290
     0
  0
SCALE
  5
159
102
{ACAD_REACTORS
330
14E
102
}
330
14E
100
AcDbScale
 70
     0
300
1:50
140
1.0
141
50.0
290
     0
  0
SCALE
  5
15A
102
{ACAD_REACTORS
330
14E
102
}
330
14E
100
AcDbScale
 70
     0
300
1:100
140
1.0
141
100.0
290
     0
  0
SCALE
  5
15B
102
{ACAD_REACTORS
330
14E
102
}
330
14E
100
AcDbScale
 70
     0
300
2:1
140
2.0
141
1.0
290
     0
  0
SCALE
  5
15C
102
{ACAD_REACTORS
330
14E
102
}
330
14E
100
AcDbScale
 70
     0
300
4:1
140
4.0
141
1.0
290
     0
  0
SCALE
  5
15D
102
{ACAD_REACTORS
330
14E
102
}
330
14E
100
AcDbScale
 70
     0
300
8:1
140
8.0
141
1.0
290
     0
  0
SCALE
  5
15E
102
{ACAD_REACTORS
330
14E
102
}
330
14E
100
AcDbScale
 70
     0
300
10:1
140
10.0
141
1.0
290
     0
  0
SCALE
  5
15F
102
{ACAD_REACTORS
330
14E
102
}
330
14E
100
AcDbScale
 70
     0
300
100:1
140
100.0
141
1.0
290
     0
  0
TABLESTYLE
  5
14D
102
{ACAD_XDICTIONARY
360
18F
102
}
102
{ACAD_REACTORS
330
14C
102
}
330
14C
100
AcDbTableStyle
  3
Standard
 70
     0
 71
     0
 40
1.5
 41
1.5
280
     0
281
     0
  7
Standard
140
4.5
170
     2
 62
     0
 63
     7
283
     0
 90
      512
 91
        0
  1

274
    -2
284
     1
 64
     0
275
    -2
285
     1
 65
     0
276
    -2
286
     1
 66
     0
277
    -2
287
     1
 67
     0
278
    -2
288
     1
 68
     0
279
    -2
289
     1
 69
     0
  7
Standard
140
6.0
170
     5
 62
     0
 63
     7
283
     0
 90
      512
 91
        0
  1

274
    -2
284
     1
 64
     0
275
    -2
285
     1
 65
     0
276
    -2
286
     1
 66
     0
277
    -2
287
     1
 67
     0
278
    -2
288
     1
 68
     0
279
    -2
289
     1
 69
     0
  7
Standard
140
4.5
170
     5
 62
     0
 63
     7
283
     0
 90
      512
 91
        0
  1

274
    -2
284
     1
 64
     0
275
    -2
285
     1
 65
     0
276
    -2
286
     1
 66
     0
277
    -2
287
     1
 67
     0
278
    -2
288
     1
 68
     0
279
    -2
289
     1
 69
     0
  0
VISUALSTYLE
  5
140
102
{ACAD_REACTORS
330
13A
102
}
330
13A
100
AcDbVisualStyle
  2
2dWireframe
 70
     4
 71
     0
 72
     2
 73
     0
 90
        0
 40
-0.6
 41
-30.0
 62
     5
 63
     7
421
 16777215
 74
     1
 91
        4
 64
     7
 65
   257
 75
     1
175
     1
 42
1.0
 92
        0
 66
   257
 43
1.0
 76
     1
 77
     6
 78
     2
 67
     7
 79
     5
170
     0
171
     0
290
     0
174
     0
 93
        1
 44
0.0
173
     0
291
     0
 45
0.0
  0
VISUALSTYLE
  5
142
102
{ACAD_REACTORS
330
13A
102
}
330
13A
100
AcDbVisualStyle
  2
3D Hidden
 70
     6
 71
     1
 72
     2
 73
     2
 90
        0
 40
-0.6
 41
-30.0
 62
     5
 63
     7
421
 16777215
 74
     2
 91
        2
 64
     7
 65
   257
 75
     2
175
     1
 42
40.0
 92
        0
 66
   257
 43
1.0
 76
     1
 77
     6
 78
     2
 67
     7
 79
     3
170
     0
171
     0
290
     0
174
     0
 93
        1
 44
0.0
173
     0
291
     0
 45
0.0
  0
VISUALSTYLE
  5
141
102
{ACAD_REACTORS
330
13A
102
}
330
13A
100
AcDbVisualStyle
  2
3dWireframe
 70
     5
 71
     0
 72
     2
 73
     0
 90
        0
 40
-0.6
 41
-30.0
 62
     5
 63
     7
421
 16777215
 74
     1
 91
        4
 64
     7
 65
   257
 75
     1
175
     1
 42
1.0
 92
        0
 66
   257
 43
1.0
 76
     1
 77
     6
 78
     2
 67
     7
 79
     5
170
     0
171
     0
290
     0
174
     0
 93
        1
 44
0.0
173
     0
291
     0
 45
0.0
  0
VISUALSTYLE
  5
13F
102
{ACAD_REACTORS
330
13A
102
}
330
13A
100
AcDbVisualStyle
  2
Basic
 70
     7
 71
     1
 72
     0
 73
     1
 90
        0
 40
-0.6
 41
-30.0
 62
     5
 63
     7
421
 16777215
 74
     0
 91
        4
 64
     7
 65
   257
 75
     1
175
     1
 42
1.0
 92
        8
 66
     7
 43
1.0
 76
     1
 77
     6
 78
     2
 67
     7
 79
     5
170
     0
171
     0
290
     0
174
     0
 93
        1
 44
0.0
173
     0
291
     1
 45
0.0
  0
VISUALSTYLE
  5
146
102
{ACAD_REACTORS
330
13A
102
}
330
13A
100
AcDbVisualStyle
  2
Brighten
 70
    12
 71
     2
 72
     2
 73
     0
 90
        0
 40
-0.6
 41
-30.0
 62
     5
 63
     7
421
 16777215
 74
     1
 91
        4
 64
     7
 65
   257
 75
     1
175
     1
 42
1.0
 92
        8
 66
     7
 43
1.0
 76
     1
 77
     6
 78
     2
 67
     7
 79
     5
170
     0
171
     0
290
     0
174
     0
 93
        1
 44
50.0
173
     0
291
     1
 45
0.0
  0
VISUALSTYLE
  5
14A
102
{ACAD_REACTORS
330
13A
102
}
330
13A
100
AcDbVisualStyle
  2
ColorChange
 70
    16
 71
     2
 72
     2
 73
     3
 90
        0
 40
-0.6
 41
-30.0
 62
     5
 63
     8
421
  8421504
 74
     1
 91
        4
 64
     7
 65
   257
 75
     1
175
     1
 42
1.0
 92
        8
 66
     8
424
  8421504
 43
1.0
 76
     1
 77
     6
 78
     2
 67
     7
 79
     5
170
     0
171
     0
290
     0
174
     0
 93
        1
 44
0.0
173
     0
291
     1
 45
0.0
  0
VISUALSTYLE
  5
143
102
{ACAD_REACTORS
330
13A
102
}
330
13A
100
AcDbVisualStyle
  2
Conceptual
 70
     9
 71
     3
 72
     2
 73
     0
 90
        0
 40
-0.6
 41
-30.0
 62
     5
 63
     7
421
 16777215
 74
     2
 91
        2
 64
     7
 65
   257
 75
     1
175
     1
 42
40.0
 92
        8
 66
     7
 43
1.0
 76
     1
 77
     6
 78
     2
 67
     7
 79
     3
170
     0
171
     0
290
     0
174
     0
 93
        1
 44
0.0
173
     0
291
     0
 45
0.0
  0
VISUALSTYLE
  5
145
102
{ACAD_REACTORS
330
13A
102
}
330
13A
100
AcDbVisualStyle
  2
Dim
 70
    11
 71
     2
 72
     2
 73
     0
 90
        0
 40
-0.6
 41
-30.0
 62
     5
 63
     7
421
 16777215
 74
     1
 91
        4
 64
     7
 65
   257
 75
     1
175
     1
 42
1.0
 92
        8
 66
     7
 43
1.0
 76
     1
 77
     6
 78
     2
 67
     7
 79
     5
170
     0
171
     0
290
     0
174
     0
 93
        1
 44
-50.0
173
     0
291
     1
 45
0.0
  0
VISUALSTYLE
  5
149
102
{ACAD_REACTORS
330
13A
102
}
330
13A
100
AcDbVisualStyle
  2
Facepattern
 70
    15
 71
     2
 72
     2
 73
     0
 90
        0
 40
-0.6
 41
-30.0
 62
     5
 63
     7
421
 16777215
 74
     1
 91
        4
 64
     7
 65
   257
 75
     1
175
     1
 42
1.0
 92
        8
 66
     7
 43
1.0
 76
     1
 77
     6
 78
     2
 67
     7
 79
     5
170
     0
171
     0
290
     0
174
     0
 93
        1
 44
0.0
173
     0
291
     1
 45
0.0
  0
VISUALSTYLE
  5
13B
102
{ACAD_REACTORS
330
13A
102
}
330
13A
100
AcDbVisualStyle
  2
Flat
 70
     0
 71
     2
 72
     1
 73
     1
 90
        2
 40
-0.6
 41
30.0
 62
     5
 63
     7
421
 16777215
 74
     0
 91
        4
 64
     7
 65
   257
 75
     1
175
     1
 42
1.0
 92
        8
 66
     7
 43
1.0
 76
     1
 77
     6
 78
     2
 67
     7
 79
     5
170
     0
171
     0
290
     0
174
     0
 93
       13
 44
0.0
173
     0
291
     1
 45
0.0
  0
VISUALSTYLE
  5
13C
102
{ACAD_REACTORS
330
13A
102
}
330
13A
100
AcDbVisualStyle
  2
FlatWithEdges
 70
     1
 71
     2
 72
     1
 73
     1
 90
        2
 40
-0.6
 41
30.0
 62
     5
 63
     7
421
 16777215
 74
     1
 91
        4
 64
     7
 65
   257
 75
     1
175
     1
 42
1.0
 92
        0
 66
   257
 43
1.0
 76
     1
 77
     6
 78
     2
 67
     7
 79
     5
170
     0
171
     0
290
     0
174
     0
 93
       13
 44
0.0
173
     0
291
     1
 45
0.0
  0
VISUALSTYLE
  5
13D
102
{ACAD_REACTORS
330
13A
102
}
330
13A
100
AcDbVisualStyle
  2
Gouraud
 70
     2
 71
     2
 72
     2
 73
     1
 90
        2
 40
-0.6
 41
30.0
 62
     5
 63
     7
421
 16777215
 74
     0
 91
        4
 64
     7
 65
   257
 75
     1
175
     1
 42
1.0
 92
        0
 66
     7
 43
1.0
 76
     1
 77
     6
 78
     2
 67
     7
 79
     5
170
     0
171
     0
290
     0
174
     0
 93
       13
 44
0.0
173
     0
291
     1
 45
0.0
  0
VISUALSTYLE
  5
13E
102
{ACAD_REACTORS
330
13A
102
}
330
13A
100
AcDbVisualStyle
  2
GouraudWithEdges
 70
     3
 71
     2
 72
     2
 73
     1
 90
        2
 40
-0.6
 41
30.0
 62
     5
 63
     7
421
 16777215
 74
     1
 91
        4
 64
     7
 65
   257
 75
     1
175
     1
 42
1.0
 92
        0
 66
   257
 43
1.0
 76
     1
 77
     6
 78
     2
 67
     7
 79
     5
170
     0
171
     0
290
     0
174
     0
 93
       13
 44
0.0
173
     0
291
     1
 45
0.0
  0
VISUALSTYLE
  5
148
102
{ACAD_REACTORS
330
13A
102
}
330
13A
100
AcDbVisualStyle
  2
Linepattern
 70
    14
 71
     2
 72
     2
 73
     0
 90
        0
 40
-0.6
 41
-30.0
 62
     5
 63
     7
421
 16777215
 74
     1
 91
        4
 64
     7
 65
   257
 75
     7
175
     7
 42
1.0
 92
        8
 66
     7
 43
1.0
 76
     1
 77
     6
 78
     2
 67
     7
 79
     5
170
     0
171
     0
290
     0
174
     0
 93
        1
 44
0.0
173
     0
291
     1
 45
0.0
  0
VISUALSTYLE
  5
144
102
{ACAD_REACTORS
330
13A
102
}
330
13A
100
AcDbVisualStyle
  2
Realistic
 70
     8
 71
     2
 72
     2
 73
     0
 90
        0
 40
-0.6
 41
-30.0
 62
     5
 63
     7
421
 16777215
 74
     1
 91
        0
 64
     7
 65
   257
 75
     1
175
     1
 42
1.0
 92
        8
 66
     8
424
  7895160
 43
1.0
 76
     1
 77
     6
 78
     2
 67
     7
 79
     5
170
     0
171
     0
290
     0
174
     0
 93
       13
 44
0.0
173
     0
291
     0
 45
0.0
  0
VISUALSTYLE
  5
147
102
{ACAD_REACTORS
330
13A
102
}
330
13A
100
AcDbVisualStyle
  2
Thicken
 70
    13
 71
     2
 72
     2
 73
     0
 90
        0
 40
-0.6
 41
-30.0
 62
     5
 63
     7
421
 16777215
 74
     1
 91
        4
 64
     7
 65
   257
 75
     1
175
     1
 42
1.0
 92
       12
 66
     7
 43
1.0
 76
     1
 77
     6
 78
     2
 67
     7
 79
     5
170
     0
171
     0
290
     0
174
     0
 93
        1
 44
0.0
173
     0
291
     1
 45
0.0
  0
DICTIONARYVAR
  5
18B
102
{ACAD_REACTORS
330
187
102
}
330
187
100
DictionaryVariables
280
     0
  1
1:1
  0
DICTIONARYVAR
  5
189
102
{ACAD_REACTORS
330
187
102
}
330
187
100
DictionaryVariables
280
     0
  1
STANDARD
  0
DICTIONARYVAR
  5
188
102
{ACAD_REACTORS
330
187
102
}
330
187
100
DictionaryVariables
280
     0
  1
STANDARD
  0
DICTIONARYVAR
  5
18D
102
{ACAD_REACTORS
330
187
102
}
330
187
100
DictionaryVariables
280
     0
  1
1
  0
DICTIONARYVAR
  5
18E
102
{ACAD_REACTORS
330
187
102
}
330
187
100
DictionaryVariables
280
     0
  1
15
  0
DICTIONARYVAR
  5
18C
102
{ACAD_REACTORS
330
187
102
}
330
187
100
DictionaryVariables
280
     0
  1
0
  0
DICTIONARYVAR
  5
18A
102
{ACAD_REACTORS
330
187
102
}
330
187
100
DictionaryVariables
280
     0
  1
0
  0
DICTIONARY
  5
12B
330
12A
100
AcDbDictionary
280
     1
281
     1
  3
BUMPTILE
360
12D
  3
DIFFUSETILE
360
12C
  3
OPACITYTILE
360
130
  3
REFLECTIONTILE
360
12F
  3
REFRACTIONTILE
360
131
  3
SPECULARTILE
360
12E
  0
DICTIONARY
  5
123
330
122
100
AcDbDictionary
280
     1
281
     1
  3
BUMPTILE
360
125
  3
DIFFUSETILE
360
124
  3
OPACITYTILE
360
128
  3
REFLECTIONTILE
360
127
  3
REFRACTIONTILE
360
129
  3
SPECULARTILE
360
126
  0
DICTIONARY
  5
133
330
132
100
AcDbDictionary
280
     1
281
     1
  3
BUMPTILE
360
135
  3
DIFFUSETILE
360
134
  3
OPACITYTILE
360
138
  3
REFLECTIONTILE
360
137
  3
REFRACTIONTILE
360
139
  3
SPECULARTILE
360
136
  0
DICTIONARY
  5
18F
330
14D
100
AcDbDictionary
280
     1
281
     1
  3
ACAD_ROUNDTRIP_2008_TABLESTYLE_CELLSTYLEMAP
360
190
  0
XRECORD
  5
12D
102
{ACAD_REACTORS
330
12B
102
}
330
12B
100
AcDbXrecord
280
     1
270
     1
271
     1
  0
XRECORD
  5
12C
102
{ACAD_REACTORS
330
12B
102
}
330
12B
100
AcDbXrecord
280
     1
270
     1
271
     1
  0
XRECORD
  5
130
102
{ACAD_REACTORS
330
12B
102
}
330
12B
100
AcDbXrecord
280
     1
270
     1
271
     1
  0
XRECORD
  5
12F
102
{ACAD_REACTORS
330
12B
102
}
330
12B
100
AcDbXrecord
280
     1
270
     1
271
     1
  0
XRECORD
  5
131
102
{ACAD_REACTORS
330
12B
102
}
330
12B
100
AcDbXrecord
280
     1
270
     1
271
     1
  0
XRECORD
  5
12E
102
{ACAD_REACTORS
330
12B
102
}
330
12B
100
AcDbXrecord
280
     1
270
     1
271
     1
  0
XRECORD
  5
125
102
{ACAD_REACTORS
330
123
102
}
330
123
100
AcDbXrecord
280
     1
270
     1
271
     1
  0
XRECORD
  5
124
102
{ACAD_REACTORS
330
123
102
}
330
123
100
AcDbXrecord
280
     1
270
     1
271
     1
  0
XRECORD
  5
128
102
{ACAD_REACTORS
330
123
102
}
330
123
100
AcDbXrecord
280
     1
270
     1
271
     1
  0
XRECORD
  5
127
102
{ACAD_REACTORS
330
123
102
}
330
123
100
AcDbXrecord
280
     1
270
     1
271
     1
  0
XRECORD
  5
129
102
{ACAD_REACTORS
330
123
102
}
330
123
100
AcDbXrecord
280
     1
270
     1
271
     1
  0
XRECORD
  5
126
102
{ACAD_REACTORS
330
123
102
}
330
123
100
AcDbXrecord
280
     1
270
     1
271
     1
  0
XRECORD
  5
135
102
{ACAD_REACTORS
330
133
102
}
330
133
100
AcDbXrecord
280
     1
270
     1
271
     1
  0
XRECORD
  5
134
102
{ACAD_REACTORS
330
133
102
}
330
133
100
AcDbXrecord
280
     1
270
     1
271
     1
  0
XRECORD
  5
138
102
{ACAD_REACTORS
330
133
102
}
330
133
100
AcDbXrecord
280
     1
270
     1
271
     1
  0
XRECORD
  5
137
102
{ACAD_REACTORS
330
133
102
}
330
133
100
AcDbXrecord
280
     1
270
     1
271
     1
  0
XRECORD
  5
139
102
{ACAD_REACTORS
330
133
102
}
330
133
100
AcDbXrecord
280
     1
270
     1
271
     1
  0
XRECORD
  5
136
102
{ACAD_REACTORS
330
133
102
}
330
133
100
AcDbXrecord
280
     1
270
     1
271
     1
  0
CELLSTYLEMAP
  5
190
102
{ACAD_REACTORS
330
18F
102
}
330
18F
100
AcDbCellStyleMap
 90
        3
300
CELLSTYLE
  1
TABLEFORMAT_BEGIN
 90
        5
170
     1
 91
        0
 92
    32768
 62
   257
 93
        1
300
CONTENTFORMAT
  1
CONTENTFORMAT_BEGIN
 90
        0
 91
        0
 92
      512
 93
        0
300

 40
0.0
140
1.0
 94
        5
 62
     0
340
11
144
6.0
309
CONTENTFORMAT_END
171
     1
301
MARGIN
  1
CELLMARGIN_BEGIN
 40
1.5
 40
1.5
 40
1.5
 40
1.5
 40
4.5
 40
4.5
309
CELLMARGIN_END
 94
        6
 95
        1
302
GRIDFORMAT
  1
GRIDFORMAT_BEGIN
 90
        0
 91
        1
 62
     0
 92
       -2
340
0
 93
        0
 40
1.125
309
GRIDFORMAT_END
 95
        2
302
GRIDFORMAT
  1
GRIDFORMAT_BEGIN
 90
        0
 91
        1
 62
     0
 92
       -2
340
0
 93
        0
 40
1.125
309
GRIDFORMAT_END
 95
        4
302
GRIDFORMAT
  1
GRIDFORMAT_BEGIN
 90
        0
 91
        1
 62
     0
 92
       -2
340
0
 93
        0
 40
1.125
309
GRIDFORMAT_END
 95
        8
302
GRIDFORMAT
  1
GRIDFORMAT_BEGIN
 90
        0
 91
        1
 62
     0
 92
       -2
340
0
 93
        0
 40
1.125
309
GRIDFORMAT_END
 95
       16
302
GRIDFORMAT
  1
GRIDFORMAT_BEGIN
 90
        0
 91
        1
 62
     0
 92
       -2
340
0
 93
        0
 40
1.125
309
GRIDFORMAT_END
 95
       32
302
GRIDFORMAT
  1
GRIDFORMAT_BEGIN
 90
        0
 91
        1
 62
     0
 92
       -2
340
0
 93
        0
 40
1.125
309
GRIDFORMAT_END
309
TABLEFORMAT_END
  1
CELLSTYLE_BEGIN
 90
        1
 91
        1
300
_TITLE
309
CELLSTYLE_END
300
CELLSTYLE
  1
TABLEFORMAT_BEGIN
 90
        5
170
     1
 91
        0
 92
        0
 62
   257
 93
        1
300
CONTENTFORMAT
  1
CONTENTFORMAT_BEGIN
 90
        0
 91
        0
 92
      512
 93
        0
300

 40
0.0
140
1.0
 94
        5
 62
     0
340
11
144
4.5
309
CONTENTFORMAT_END
171
     1
301
MARGIN
  1
CELLMARGIN_BEGIN
 40
1.5
 40
1.5
 40
1.5
 40
1.5
 40
4.5
 40
4.5
309
CELLMARGIN_END
 94
        6
 95
        1
302
GRIDFORMAT
  1
GRIDFORMAT_BEGIN
 90
        0
 91
        1
 62
     0
 92
       -2
340
0
 93
        0
 40
1.125
309
GRIDFORMAT_END
 95
        2
302
GRIDFORMAT
  1
GRIDFORMAT_BEGIN
 90
        0
 91
        1
 62
     0
 92
       -2
340
0
 93
        0
 40
1.125
309
GRIDFORMAT_END
 95
        4
302
GRIDFORMAT
  1
GRIDFORMAT_BEGIN
 90
        0
 91
        1
 62
     0
 92
       -2
340
0
 93
        0
 40
1.125
309
GRIDFORMAT_END
 95
        8
302
GRIDFORMAT
  1
GRIDFORMAT_BEGIN
 90
        0
 91
        1
 62
     0
 92
       -2
340
0
 93
        0
 40
1.125
309
GRIDFORMAT_END
 95
       16
302
GRIDFORMAT
  1
GRIDFORMAT_BEGIN
 90
        0
 91
        1
 62
     0
 92
       -2
340
0
 93
        0
 40
1.125
309
GRIDFORMAT_END
 95
       32
302
GRIDFORMAT
  1
GRIDFORMAT_BEGIN
 90
        0
 91
        1
 62
     0
 92
       -2
340
0
 93
        0
 40
1.125
309
GRIDFORMAT_END
309
TABLEFORMAT_END
  1
CELLSTYLE_BEGIN
 90
        2
 91
        1
300
_HEADER
309
CELLSTYLE_END
300
CELLSTYLE
  1
TABLEFORMAT_BEGIN
 90
        5
170
     1
 91
        0
 92
        0
 62
   257
 93
        1
300
CONTENTFORMAT
  1
CONTENTFORMAT_BEGIN
 90
        0
 91
        0
 92
      512
 93
        0
300

 40
0.0
140
1.0
 94
        2
 62
     0
340
11
144
4.5
309
CONTENTFORMAT_END
171
     1
301
MARGIN
  1
CELLMARGIN_BEGIN
 40
1.5
 40
1.5
 40
1.5
 40
1.5
 40
4.5
 40
4.5
309
CELLMARGIN_END
 94
        6
 95
        1
302
GRIDFORMAT
  1
GRIDFORMAT_BEGIN
 90
        0
 91
        1
 62
     0
 92
       -2
340
0
 93
        0
 40
1.125
309
GRIDFORMAT_END
 95
        2
302
GRIDFORMAT
  1
GRIDFORMAT_BEGIN
 90
        0
 91
        1
 62
     0
 92
       -2
340
0
 93
        0
 40
1.125
309
GRIDFORMAT_END
 95
        4
302
GRIDFORMAT
  1
GRIDFORMAT_BEGIN
 90
        0
 91
        1
 62
     0
 92
       -2
340
0
 93
        0
 40
1.125
309
GRIDFORMAT_END
 95
        8
302
GRIDFORMAT
  1
GRIDFORMAT_BEGIN
 90
        0
 91
        1
 62
     0
 92
       -2
340
0
 93
        0
 40
1.125
309
GRIDFORMAT_END
 95
       16
302
GRIDFORMAT
  1
GRIDFORMAT_BEGIN
 90
        0
 91
        1
 62
     0
 92
       -2
340
0
 93
        0
 40
1.125
309
GRIDFORMAT_END
 95
       32
302
GRIDFORMAT
  1
GRIDFORMAT_BEGIN
 90
        0
 91
        1
 62
     0
 92
       -2
340
0
 93
        0
 40
1.125
309
GRIDFORMAT_END
309
TABLEFORMAT_END
  1
CELLSTYLE_BEGIN
 90
        3
 91
        2
300
_DATA
309
CELLSTYLE_END
  0
ENDSEC
  0
EOF
