  0
SECTION
  2
HEADER
  9
$ACADVER
  1
AC1021
  9
$ACADMAINTVER
 70
    50
  9
$DWGCODEPAGE
  3
ANSI_1251
  9
$LASTSAVEDBY
  1
Игорь
  9
$INSBASE
 10
0.0
 20
0.0
 30
0.0
  9
$EXTMIN
 10
-858.0137067914263
 20
-254.3726709494865
 30
0.0
  9
$EXTMAX
 10
887.782181105789
 20
203.7505110297027
 30
0.0
  9
$LIMMIN
 10
0.0
 20
0.0
  9
$LIMMAX
 10
279.4
 20
215.9
  9
$ORTHOMODE
 70
     0
  9
$REGENMODE
 70
     1
  9
$FILLMODE
 70
     1
  9
$QTEXTMODE
 70
     0
  9
$MIRRTEXT
 70
     1
  9
$LTSCALE
 40
1.0
  9
$ATTMODE
 70
     1
  9
$TEXTSIZE
 40
3.5
  9
$TRACEWID
 40
1.0
  9
$TEXTSTYLE
  7
Standard
  9
$CLAYER
  8
0
  9
$CELTYPE
  6
ByLayer
  9
$CECOLOR
 62
   256
  9
$CELTSCALE
 40
1.0
  9
$DISPSILH
 70
     0
  9
$DIMSCALE
 40
1.0
  9
$DIMASZ
 40
3.5
  9
$DIMEXO
 40
0.01
  9
$DIMDLI
 40
3.75
  9
$DIMRND
 40
0.0
  9
$DIMDLE
 40
0.0
  9
$DIMEXE
 40
1.0
  9
$DIMTP
 40
0.0
  9
$DIMTM
 40
0.0
  9
$DIMTXT
 40
3.5
  9
$DIMCEN
 40
2.5
  9
$DIMTSZ
 40
0.0
  9
$DIMTOL
 70
     0
  9
$DIMLIM
 70
     0
  9
$DIMTIH
 70
     1
  9
$DIMTOH
 70
     1
  9
$DIMSE1
 70
     0
  9
$DIMSE2
 70
     0
  9
$DIMTAD
 70
     1
  9
$DIMZIN
 70
     0
  9
$DIMBLK
  1

  9
$DIMASO
 70
     1
  9
$DIMSHO
 70
     1
  9
$DIMPOST
  1

  9
$DIMAPOST
  1

  9
$DIMALT
 70
     0
  9
$DIMALTD
 70
     3
  9
$DIMALTF
 40
0.0393700787401575
  9
$DIMLFAC
 40
1.0
  9
$DIMTOFL
 70
     1
  9
$DIMTVP
 40
0.0
  9
$DIMTIX
 70
     0
  9
$DIMSOXD
 70
     0
  9
$DIMSAH
 70
     0
  9
$DIMBLK1
  1

  9
$DIMBLK2
  1

  9
$DIMSTYLE
  2
ISO-25
  9
$DIMCLRD
 70
     0
  9
$DIMCLRE
 70
     0
  9
$DIMCLRT
 70
     0
  9
$DIMTFAC
 40
1.0
  9
$DIMGAP
 40
3.0
  9
$DIMJUST
 70
     0
  9
$DIMSD1
 70
     0
  9
$DIMSD2
 70
     0
  9
$DIMTOLJ
 70
     0
  9
$DIMTZIN
 70
     0
  9
$DIMALTZ
 70
     0
  9
$DIMALTTZ
 70
     0
  9
$DIMUPT
 70
     0
  9
$DIMDEC
 70
     2
  9
$DIMTDEC
 70
     3
  9
$DIMALTU
 70
     2
  9
$DIMALTTD
 70
     3
  9
$DIMTXSTY
  7
Standard
  9
$DIMAUNIT
 70
     0
  9
$DIMADEC
 70
     2
  9
$DIMALTRND
 40
0.0
  9
$DIMAZIN
 70
     0
  9
$DIMDSEP
 70
    44
  9
$DIMATFIT
 70
     3
  9
$DIMFRAC
 70
     0
  9
$DIMLDRBLK
  1

  9
$DIMLUNIT
 70
     2
  9
$DIMLWD
 70
    -2
  9
$DIMLWE
 70
    -2
  9
$DIMTMOVE
 70
     0
  9
$DIMFXL
 40
1.0
  9
$DIMFXLON
 70
     0
  9
$DIMJOGANG
 40
0.7853981633974483
  9
$DIMTFILL
 70
     0
  9
$DIMTFILLCLR
 70
     0
  9
$DIMARCSYM
 70
     0
  9
$DIMLTYPE
  6

  9
$DIMLTEX1
  6

  9
$DIMLTEX2
  6

  9
$LUNITS
 70
     2
  9
$LUPREC
 70
     2
  9
$SKETCHINC
 40
1.0
  9
$FILLETRAD
 40
10.0
  9
$AUNITS
 70
     0
  9
$AUPREC
 70
     2
  9
$MENU
  1
.
  9
$ELEVATION
 40
0.0
  9
$PELEVATION
 40
0.0
  9
$THICKNESS
 40
0.0
  9
$LIMCHECK
 70
     0
  9
$CHAMFERA
 40
10.0
  9
$CHAMFERB
 40
10.0
  9
$CHAMFERC
 40
20.0
  9
$CHAMFERD
 40
0.0
  9
$SKPOLY
 70
     0
  9
$TDCREATE
 40
2458065.909584352
  9
$TDUCREATE
 40
2458065.826251019
  9
$TDUPDATE
 40
2458065.910588785
  9
$TDUUPDATE
 40
2458065.827255452
  9
$TDINDWG
 40
0.0005965509
  9
$TDUSRTIMER
 40
0.0005965509
  9
$USRTIMER
 70
     1
  9
$ANGBASE
 50
0.0
  9
$ANGDIR
 70
     0
  9
$PDMODE
 70
     0
  9
$PDSIZE
 40
-1.0
  9
$PLINEWID
 40
0.0
  9
$SPLFRAME
 70
     0
  9
$SPLINETYPE
 70
     6
  9
$SPLINESEGS
 70
     8
  9
$HANDSEED
  5
343
  9
$SURFTAB1
 70
     6
  9
$SURFTAB2
 70
     6
  9
$SURFTYPE
 70
     6
  9
$SURFU
 70
     6
  9
$SURFV
 70
     6
  9
$UCSBASE
  2

  9
$UCSNAME
  2

  9
$UCSORG
 10
0.0
 20
0.0
 30
0.0
  9
$UCSXDIR
 10
1.0
 20
0.0
 30
0.0
  9
$UCSYDIR
 10
0.0
 20
1.0
 30
0.0
  9
$UCSORTHOREF
  2

  9
$UCSORTHOVIEW
 70
     0
  9
$UCSORGTOP
 10
0.0
 20
0.0
 30
0.0
  9
$UCSORGBOTTOM
 10
0.0
 20
0.0
 30
0.0
  9
$UCSORGLEFT
 10
0.0
 20
0.0
 30
0.0
  9
$UCSORGRIGHT
 10
0.0
 20
0.0
 30
0.0
  9
$UCSORGFRONT
 10
0.0
 20
0.0
 30
0.0
  9
$UCSORGBACK
 10
0.0
 20
0.0
 30
0.0
  9
$PUCSBASE
  2

  9
$PUCSNAME
  2

  9
$PUCSORG
 10
0.0
 20
0.0
 30
0.0
  9
$PUCSXDIR
 10
1.0
 20
0.0
 30
0.0
  9
$PUCSYDIR
 10
0.0
 20
1.0
 30
0.0
  9
$PUCSORTHOREF
  2

  9
$PUCSORTHOVIEW
 70
     0
  9
$PUCSORGTOP
 10
0.0
 20
0.0
 30
0.0
  9
$PUCSORGBOTTOM
 10
0.0
 20
0.0
 30
0.0
  9
$PUCSORGLEFT
 10
0.0
 20
0.0
 30
0.0
  9
$PUCSORGRIGHT
 10
0.0
 20
0.0
 30
0.0
  9
$PUCSORGFRONT
 10
0.0
 20
0.0
 30
0.0
  9
$PUCSORGBACK
 10
0.0
 20
0.0
 30
0.0
  9
$USERI1
 70
     0
  9
$USERI2
 70
     0
  9
$USERI3
 70
     0
  9
$USERI4
 70
     0
  9
$USERI5
 70
     0
  9
$USERR1
 40
0.0
  9
$USERR2
 40
0.0
  9
$USERR3
 40
0.0
  9
$USERR4
 40
0.0
  9
$USERR5
 40
0.0
  9
$WORLDVIEW
 70
     1
  9
$SHADEDGE
 70
     3
  9
$SHADEDIF
 70
    70
  9
$TILEMODE
 70
     1
  9
$MAXACTVP
 70
    64
  9
$PINSBASE
 10
0.0
 20
0.0
 30
0.0
  9
$PLIMCHECK
 70
     0
  9
$PEXTMIN
 10
1.000000000000000E+20
 20
1.000000000000000E+20
 30
1.000000000000000E+20
  9
$PEXTMAX
 10
-1.000000000000000E+20
 20
-1.000000000000000E+20
 30
-1.000000000000000E+20
  9
$PLIMMIN
 10
0.0
 20
0.0
  9
$PLIMMAX
 10
420.0
 20
297.0
  9
$UNITMODE
 70
     0
  9
$VISRETAIN
 70
     1
  9
$PLINEGEN
 70
     0
  9
$PSLTSCALE
 70
     1
  9
$TREEDEPTH
 70
  3020
  9
$CMLSTYLE
  2
Standard
  9
$CMLJUST
 70
     0
  9
$CMLSCALE
 40
20.0
  9
$PROXYGRAPHICS
 70
     1
  9
$MEASUREMENT
 70
     1
  9
$CELWEIGHT
370
    -1
  9
$ENDCAPS
280
     0
  9
$JOINSTYLE
280
     0
  9
$LWDISPLAY
290
     1
  9
$INSUNITS
 70
     4
  9
$HYPERLINKBASE
  1

  9
$STYLESHEET
  1

  9
$XEDIT
290
     1
  9
$CEPSNTYPE
380
     0
  9
$PSTYLEMODE
290
     1
  9
$FINGERPRINTGUID
  2
{D4240146-9109-4CD3-A94F-DBBA0FA40C3A}
  9
$VERSIONGUID
  2
{B78B874B-A76E-4D06-8B1A-E694D7EC0759}
  9
$EXTNAMES
290
     1
  9
$PSVPSCALE
 40
0.0
  9
$OLESTARTUP
290
     0
  9
$SORTENTS
280
   127
  9
$INDEXCTL
280
     0
  9
$HIDETEXT
280
     0
  9
$XCLIPFRAME
290
     0
  9
$HALOGAP
280
     0
  9
$OBSCOLOR
 70
   257
  9
$OBSLTYPE
280
     0
  9
$INTERSECTIONDISPLAY
280
     0
  9
$INTERSECTIONCOLOR
 70
   257
  9
$DIMASSOC
280
     1
  9
$PROJECTNAME
  1

  9
$CAMERADISPLAY
290
     0
  9
$LENSLENGTH
 40
50.0
  9
$CAMERAHEIGHT
 40
0.0
  9
$STEPSPERSEC
 40
2.0
  9
$STEPSIZE
 40
6.0
  9
$3DDWFPREC
 40
2.0
  9
$PSOLWIDTH
 40
0.25
  9
$PSOLHEIGHT
 40
4.0
  9
$LOFTANG1
 40
1.570796326794896
  9
$LOFTANG2
 40
1.570796326794896
  9
$LOFTMAG1
 40
0.0
  9
$LOFTMAG2
 40
0.0
  9
$LOFTPARAM
 70
     7
  9
$LOFTNORMALS
280
     1
  9
$LATITUDE
 40
37.795
  9
$LONGITUDE
 40
-122.394
  9
$NORTHDIRECTION
 40
0.0
  9
$TIMEZONE
 70
 -8000
  9
$LIGHTGLYPHDISPLAY
280
     1
  9
$TILEMODELIGHTSYNCH
280
     1
  9
$CMATERIAL
347
2D9
  9
$SOLIDHIST
280
     1
  9
$SHOWHIST
280
     1
  9
$DWFFRAME
280
     2
  9
$DGNFRAME
280
     0
  9
$REALWORLDSCALE
290
     1
  9
$INTERFERECOLOR
 62
     1
  9
$INTERFEREOBJVS
345
2FB
  9
$INTERFEREVPVS
346
2F8
  9
$CSHADOW
280
     0
  9
$SHADOWPLANELOCATION
 40
0.0
  0
ENDSEC
  0
SECTION
  2
CLASSES
  0
CLASS
  1
ACDBDICTIONARYWDFLT
  2
AcDbDictionaryWithDefault
  3
ObjectDBX Classes
 90
        0
 91
        1
280
     0
281
     0
  0
CLASS
  1
VISUALSTYLE
  2
AcDbVisualStyle
  3
ObjectDBX Classes
 90
     4095
 91
       16
280
     0
281
     0
  0
CLASS
  1
MATERIAL
  2
AcDbMaterial
  3
ObjectDBX Classes
 90
     1153
 91
        3
280
     0
281
     0
  0
CLASS
  1
TABLESTYLE
  2
AcDbTableStyle
  3
ObjectDBX Classes
 90
     4095
 91
        1
280
     0
281
     0
  0
CLASS
  1
SCALE
  2
AcDbScale
  3
ObjectDBX Classes
 90
     1153
 91
       17
280
     0
281
     0
  0
CLASS
  1
MLEADERSTYLE
  2
AcDbMLeaderStyle
  3
ACDB_MLEADERSTYLE_CLASS
 90
     4095
 91
        1
280
     0
281
     0
  0
CLASS
  1
DICTIONARYVAR
  2
AcDbDictionaryVar
  3
ObjectDBX Classes
 90
        0
 91
        7
280
     0
281
     0
  0
CLASS
  1
CELLSTYLEMAP
  2
AcDbCellStyleMap
  3
ObjectDBX Classes
 90
     1152
 91
        1
280
     0
281
     0
  0
ENDSEC
  0
SECTION
  2
TABLES
  0
TABLE
  2
VPORT
  5
8
330
0
100
AcDbSymbolTable
 70
     1
  0
VPORT
  5
29
330
8
100
AcDbSymbolTableRecord
100
AcDbViewportTableRecord
  2
*Active
 70
     0
 10
0.0
 20
0.0
 11
1.0
 21
1.0
 12
14.88423715718136
 22
-25.31107995989192
 13
0.0
 23
0.0
 14
10.0
 24
10.0
 15
10.0
 25
10.0
 16
0.0
 26
0.0
 36
1.0
 17
0.0
 27
0.0
 37
0.0
 40
673.5749083152743
 41
2.604123711340206
 42
50.0
 43
0.0
 44
0.0
 50
0.0
 51
0.0
 71
     0
 72
  2000
 73
     1
 74
     3
 75
     0
 76
     0
 77
     0
 78
     0
281
     0
 65
     1
110
0.0
120
0.0
130
0.0
111
1.0
121
0.0
131
0.0
112
0.0
122
1.0
132
0.0
 79
     0
146
0.0
348
2F7
 60
     3
 61
     5
292
     1
282
     1
141
0.0
142
0.0
 63
   250
421
  3355443
  0
ENDTAB
  0
TABLE
  2
LTYPE
  5
5
330
0
100
AcDbSymbolTable
 70
     6
  0
LTYPE
  5
14
330
5
100
AcDbSymbolTableRecord
100
AcDbLinetypeTableRecord
  2
ByBlock
 70
     0
  3

 72
    65
 73
     0
 40
0.0
  0
LTYPE
  5
15
330
5
100
AcDbSymbolTableRecord
100
AcDbLinetypeTableRecord
  2
ByLayer
 70
     0
  3

 72
    65
 73
     0
 40
0.0
  0
LTYPE
  5
16
330
5
100
AcDbSymbolTableRecord
100
AcDbLinetypeTableRecord
  2
Continuous
 70
     0
  3
Solid line
 72
    65
 73
     0
 40
0.0
  0
LTYPE
  5
3F
330
5
100
AcDbSymbolTableRecord
100
AcDbLinetypeTableRecord
  2
HIDDEN
 70
     0
  3
Hidden __ __ __ __ __ __ __ __ __ __ __ __ __ __
 72
    65
 73
     2
 40
1.905
 49
1.27
 74
     0
 49
-0.635
 74
     0
  0
LTYPE
  5
40
330
5
100
AcDbSymbolTableRecord
100
AcDbLinetypeTableRecord
  2
PHANTOM
 70
     0
  3
Phantom ______  __  __  ______  __  __  ______
 72
    65
 73
     6
 40
12.7
 49
6.349999999999999
 74
     0
 49
-1.27
 74
     0
 49
1.27
 74
     0
 49
-1.27
 74
     0
 49
1.27
 74
     0
 49
-1.27
 74
     0
  0
LTYPE
  5
41
330
5
100
AcDbSymbolTableRecord
100
AcDbLinetypeTableRecord
  2
CENTER
 70
     0
  3
Center ____ _ ____ _ ____ _ ____ _ ____ _ ____
 72
    65
 73
     4
 40
10.16
 49
6.349999999999999
 74
     0
 49
-1.27
 74
     0
 49
1.27
 74
     0
 49
-1.27
 74
     0
  0
LTYPE
  5
42
330
5
100
AcDbSymbolTableRecord
100
AcDbLinetypeTableRecord
  2
CENTERX2
 70
     0
  3
Center (2x) ________  __  ________  __  _____
 72
    65
 73
     4
 40
20.32
 49
12.7
 74
     0
 49
-2.54
 74
     0
 49
2.54
 74
     0
 49
-2.54
 74
     0
  0
LTYPE
  5
43
330
5
100
AcDbSymbolTableRecord
100
AcDbLinetypeTableRecord
  2
DOT2
 70
     0
  3
Dot (.5x) ........................................
 72
    65
 73
     2
 40
0.635
 49
0.0
 74
     0
 49
-0.635
 74
     0
  0
ENDTAB
  0
TABLE
  2
LAYER
  5
2
330
0
100
AcDbSymbolTable
 70
     2
  0
LAYER
  5
10
102
{ACAD_XDICTIONARY
360
336
102
}
330
2
100
AcDbSymbolTableRecord
100
AcDbLayerTableRecord
  2
0
 70
     0
 62
     7
  6
Continuous
370
    -3
390
F
347
2E9
  0
LAYER
  5
31D
330
2
100
AcDbSymbolTableRecord
100
AcDbLayerTableRecord
  2
Defpoints
 70
     0
 62
     7
  6
Continuous
290
     0
370
    -3
390
F
347
2E9
  0
ENDTAB
  0
TABLE
  2
STYLE
  5
3
330
0
100
AcDbSymbolTable
 70
     1
  0
STYLE
  5
11
330
3
100
AcDbSymbolTableRecord
100
AcDbTextStyleTableRecord
  2
Standard
 70
     0
 40
0.0
 41
1.0
 50
0.0
 71
     0
 42
3.5
  3
txt
  4

  0
ENDTAB
  0
TABLE
  2
VIEW
  5
6
330
0
100
AcDbSymbolTable
 70
     0
  0
ENDTAB
  0
TABLE
  2
UCS
  5
7
330
0
100
AcDbSymbolTable
 70
     0
  0
ENDTAB
  0
TABLE
  2
APPID
  5
9
330
0
100
AcDbSymbolTable
 70
     2
  0
APPID
  5
12
330
9
100
AcDbSymbolTableRecord
100
AcDbRegAppTableRecord
  2
ACAD
 70
     0
  0
APPID
  5
319
330
9
100
AcDbSymbolTableRecord
100
AcDbRegAppTableRecord
  2
ACAD_MLEADERVER
 70
     0
  0
ENDTAB
  0
TABLE
  2
DIMSTYLE
  5
A
330
0
100
AcDbSymbolTable
 70
     1
100
AcDbDimStyleTable
 71
     1
340
27
  0
DIMSTYLE
105
27
330
A
100
AcDbSymbolTableRecord
100
AcDbDimStyleTableRecord
  2
ISO-25
 70
     0
 41
2.5
 42
0.625
 43
3.75
 44
1.25
 73
     0
 74
     0
 77
     1
 78
     8
140
2.5
141
2.5
143
0.03937007874016
147
0.625
171
     3
172
     1
271
     2
272
     2
274
     3
278
    44
283
     0
284
     8
340
11
  0
ENDTAB
  0
TABLE
  2
BLOCK_RECORD
  5
1
330
0
100
AcDbSymbolTable
 70
     2
  0
BLOCK_RECORD
  5
1F
330
1
100
AcDbSymbolTableRecord
100
AcDbBlockTableRecord
  2
*Model_Space
340
22
 70
     0
280
     1
281
     0
  0
BLOCK_RECORD
  5
1B
330
1
100
AcDbSymbolTableRecord
100
AcDbBlockTableRecord
  2
*Paper_Space
340
1E
 70
     0
280
     1
281
     0
  0
BLOCK_RECORD
  5
23
330
1
100
AcDbSymbolTableRecord
100
AcDbBlockTableRecord
  2
*Paper_Space0
340
26
 70
     0
280
     1
281
     0
  0
BLOCK_RECORD
  5
31E
330
1
100
AcDbSymbolTableRecord
100
AcDbBlockTableRecord
  2
*D1
340
0
 70
     0
280
     1
281
     0
  0
ENDTAB
  0
ENDSEC
  0
SECTION
  2
BLOCKS
  0
BLOCK
  5
20
330
1F
100
AcDbEntity
  8
0
100
AcDbBlockBegin
  2
*Model_Space
 70
     0
 10
0.0
 20
0.0
 30
0.0
  3
*Model_Space
  1

  0
ENDBLK
  5
21
330
1F
100
AcDbEntity
  8
0
100
AcDbBlockEnd
  0
BLOCK
  5
1C
330
1B
100
AcDbEntity
 67
     1
  8
0
100
AcDbBlockBegin
  2
*Paper_Space
 70
     0
 10
0.0
 20
0.0
 30
0.0
  3
*Paper_Space
  1

  0
ENDBLK
  5
1D
330
1B
100
AcDbEntity
 67
     1
  8
0
100
AcDbBlockEnd
  0
BLOCK
  5
24
330
23
100
AcDbEntity
 67
     1
  8
0
100
AcDbBlockBegin
  2
*Paper_Space0
 70
     0
 10
0.0
 20
0.0
 30
0.0
  3
*Paper_Space0
  1

  0
ENDBLK
  5
25
330
23
100
AcDbEntity
 67
     1
  8
0
100
AcDbBlockEnd
  0
BLOCK
  5
31F
330
31E
100
AcDbEntity
  8
0
100
AcDbBlockBegin
  2
*D1
 70
     1
 10
0.0
 20
0.0
 30
0.0
  3
*D1
  1

  0
LINE
  5
32C
330
31E
100
AcDbEntity
  8
0
 62
     0
370
    -2
100
AcDbLine
 10
725.9202793683593
 20
203.7505110297027
 30
0.0
 11
620.6114387125069
 21
203.7505110297027
 31
0.0
  0
LINE
  5
32D
330
31E
100
AcDbEntity
  8
0
 62
     0
370
    -2
100
AcDbLine
 10
725.9202793683593
 20
113.7505110297028
 30
0.0
 11
620.6114387125069
 21
113.7505110297028
 31
0.0
  0
LINE
  5
32E
330
31E
100
AcDbEntity
  8
0
 62
     0
370
    -2
100
AcDbLine
 10
621.6114387125069
 20
200.2505110297027
 30
0.0
 11
621.6114387125069
 21
163.7921776963694
 31
0.0
  0
LINE
  5
32F
330
31E
100
AcDbEntity
  8
0
 62
     0
370
    -2
100
AcDbLine
 10
621.6114387125069
 20
117.2505110297028
 30
0.0
 11
621.6114387125069
 21
153.7088443630361
 31
0.0
  0
SOLID
  5
330
330
31E
100
AcDbEntity
  8
0
 62
     0
100
AcDbTrace
 10
621.0281053791735
 20
200.2505110297027
 30
0.0
 11
622.1947720458403
 21
200.2505110297027
 31
0.0
 12
621.6114387125069
 22
203.7505110297027
 32
0.0
 13
621.6114387125069
 23
203.7505110297027
 33
0.0
  0
SOLID
  5
331
330
31E
100
AcDbEntity
  8
0
 62
     0
100
AcDbTrace
 10
621.0281053791735
 20
117.2505110297028
 30
0.0
 11
622.1947720458403
 21
117.2505110297028
 31
0.0
 12
621.6114387125069
 22
113.7505110297028
 32
0.0
 13
621.6114387125069
 23
113.7505110297028
 33
0.0
  0
MTEXT
  5
332
330
31E
100
AcDbEntity
  8
0
 62
     0
100
AcDbMText
 10
621.6114387125069
 20
158.7505110297029
 30
0.0
 40
3.5
 41
0.0
 46
0.0
 71
     5
 72
     1
  1
90,00
 73
     1
 44
1.0
  0
POINT
  5
333
330
31E
100
AcDbEntity
  8
Defpoints
 62
     0
100
AcDbPoint
 10
725.9302793683594
 20
203.7505110297027
 30
0.0
  0
POINT
  5
334
330
31E
100
AcDbEntity
  8
Defpoints
 62
     0
100
AcDbPoint
 10
725.9302793683594
 20
113.7505110297028
 30
0.0
  0
POINT
  5
335
330
31E
100
AcDbEntity
  8
Defpoints
 62
     0
100
AcDbPoint
 10
621.6114387125069
 20
113.7505110297028
 30
0.0
  0
ENDBLK
  5
320
330
31E
100
AcDbEntity
  8
0
100
AcDbBlockEnd
  0
ENDSEC
  0
SECTION
  2
ENTITIES
  0
LINE
  5
44
330
1F
100
AcDbEntity
  8
0
  6
Continuous
 62
     7
370
    15
100
AcDbLine
 10
-713.0137067914263
 20
107.8136890810242
 30
0.0
 11
-703.0137067914263
 21
107.8136890810242
 31
0.0
  0
LINE
  5
45
330
1F
100
AcDbEntity
  8
0
  6
Continuous
 62
     7
370
    15
100
AcDbLine
 10
-703.0137067914263
 20
138.86566744376
 30
0.0
 11
-713.0137067914263
 21
138.86566744376
 31
0.0
  0
LINE
  5
46
330
1F
100
AcDbEntity
  8
0
  6
Continuous
 62
     7
370
    15
100
AcDbLine
 10
-363.0137067914264
 20
107.8136890810242
 30
0.0
 11
-353.0137067914263
 21
107.8136890810242
 31
0.0
  0
LINE
  5
47
330
1F
100
AcDbEntity
  8
0
  6
Continuous
 62
     7
370
    15
100
AcDbLine
 10
-353.0137067914263
 20
138.86566744376
 30
0.0
 11
-363.0137067914264
 21
138.86566744376
 31
0.0
  0
LINE
  5
48
330
1F
100
AcDbEntity
  8
0
  6
Continuous
 62
     7
370
    15
100
AcDbLine
 10
-13.01370679142633
 20
107.8136890810242
 30
0.0
 11
-3.013706791426329
 21
107.8136890810242
 31
0.0
  0
LINE
  5
49
330
1F
100
AcDbEntity
  8
0
  6
Continuous
 62
     7
370
    15
100
AcDbLine
 10
-3.013706791426329
 20
138.86566744376
 30
0.0
 11
-13.01370679142633
 21
138.86566744376
 31
0.0
  0
LINE
  5
4A
330
1F
100
AcDbEntity
  8
0
  6
Continuous
 62
     7
370
    15
100
AcDbLine
 10
286.9862932085739
 20
107.8136890810242
 30
0.0
 11
296.9862932085739
 21
107.8136890810242
 31
0.0
  0
LINE
  5
4B
330
1F
100
AcDbEntity
  8
0
  6
Continuous
 62
     7
370
    15
100
AcDbLine
 10
296.9862932085739
 20
138.86566744376
 30
0.0
 11
286.9862932085739
 21
138.86566744376
 31
0.0
  0
LINE
  5
4C
330
1F
100
AcDbEntity
  8
0
  6
Continuous
 62
     7
370
    15
100
AcDbLine
 10
-703.0137067914263
 20
138.86566744376
 30
0.0
 11
-703.0137067914263
 21
107.8136890810242
 31
0.0
  0
LINE
  5
4D
330
1F
100
AcDbEntity
  8
0
  6
Continuous
 62
     7
370
    15
100
AcDbLine
 10
-713.0137067914263
 20
138.86566744376
 30
0.0
 11
-713.0137067914263
 21
107.8136890810242
 31
0.0
  0
LINE
  5
4E
330
1F
100
AcDbEntity
  8
0
  6
Continuous
 62
     7
370
    15
100
AcDbLine
 10
-703.0137067914263
 20
175.1748497974035
 30
0.0
 11
-713.0137067914263
 21
175.1748497974035
 31
0.0
  0
LINE
  5
4F
330
1F
100
AcDbEntity
  8
0
  6
Continuous
 62
     7
370
    15
100
AcDbLine
 10
-703.0137067914263
 20
175.1748497974035
 30
0.0
 11
-703.0137067914263
 21
138.86566744376
 31
0.0
  0
LINE
  5
50
330
1F
100
AcDbEntity
  8
0
  6
Continuous
 62
     7
370
    15
100
AcDbLine
 10
-713.0137067914263
 20
175.1748497974035
 30
0.0
 11
-713.0137067914263
 21
138.86566744376
 31
0.0
  0
LINE
  5
51
330
1F
100
AcDbEntity
  8
0
  6
Continuous
 62
     7
370
    15
100
AcDbLine
 10
-363.0137067914264
 20
138.86566744376
 30
0.0
 11
-363.0137067914264
 21
107.8136890810242
 31
0.0
  0
LINE
  5
52
330
1F
100
AcDbEntity
  8
0
  6
Continuous
 62
     7
370
    15
100
AcDbLine
 10
-353.0137067914263
 20
138.86566744376
 30
0.0
 11
-353.0137067914263
 21
107.8136890810242
 31
0.0
  0
LINE
  5
53
330
1F
100
AcDbEntity
  8
0
  6
Continuous
 62
     7
370
    15
100
AcDbLine
 10
-353.0137067914263
 20
175.1748497974035
 30
0.0
 11
-363.0137067914264
 21
175.1748497974035
 31
0.0
  0
LINE
  5
54
330
1F
100
AcDbEntity
  8
0
  6
Continuous
 62
     7
370
    15
100
AcDbLine
 10
-363.0137067914264
 20
175.1748497974035
 30
0.0
 11
-363.0137067914264
 21
138.86566744376
 31
0.0
  0
LINE
  5
55
330
1F
100
AcDbEntity
  8
0
  6
Continuous
 62
     7
370
    15
100
AcDbLine
 10
-353.0137067914263
 20
175.1748497974035
 30
0.0
 11
-353.0137067914263
 21
138.86566744376
 31
0.0
  0
LINE
  5
56
330
1F
100
AcDbEntity
  8
0
  6
Continuous
 62
     7
370
    15
100
AcDbLine
 10
-3.013706791426329
 20
138.86566744376
 30
0.0
 11
-3.013706791426329
 21
107.8136890810242
 31
0.0
  0
LINE
  5
57
330
1F
100
AcDbEntity
  8
0
  6
Continuous
 62
     7
370
    15
100
AcDbLine
 10
-13.01370679142633
 20
138.86566744376
 30
0.0
 11
-13.01370679142633
 21
107.8136890810242
 31
0.0
  0
LINE
  5
58
330
1F
100
AcDbEntity
  8
0
  6
Continuous
 62
     7
370
    15
100
AcDbLine
 10
-3.013706791426329
 20
175.1748497974035
 30
0.0
 11
-13.01370679142633
 21
175.1748497974035
 31
0.0
  0
LINE
  5
59
330
1F
100
AcDbEntity
  8
0
  6
Continuous
 62
     7
370
    15
100
AcDbLine
 10
-3.013706791426329
 20
175.1748497974035
 30
0.0
 11
-3.013706791426329
 21
138.86566744376
 31
0.0
  0
LINE
  5
5A
330
1F
100
AcDbEntity
  8
0
  6
Continuous
 62
     7
370
    15
100
AcDbLine
 10
-13.01370679142633
 20
175.1748497974035
 30
0.0
 11
-13.01370679142633
 21
138.86566744376
 31
0.0
  0
LINE
  5
5B
330
1F
100
AcDbEntity
  8
0
  6
Continuous
 62
     7
370
    15
100
AcDbLine
 10
296.9862932085739
 20
138.86566744376
 30
0.0
 11
296.9862932085739
 21
107.8136890810242
 31
0.0
  0
LINE
  5
5C
330
1F
100
AcDbEntity
  8
0
  6
Continuous
 62
     7
370
    15
100
AcDbLine
 10
286.9862932085739
 20
138.86566744376
 30
0.0
 11
286.9862932085739
 21
107.8136890810242
 31
0.0
  0
LINE
  5
5D
330
1F
100
AcDbEntity
  8
0
  6
Continuous
 62
     7
370
    15
100
AcDbLine
 10
-858.0137067914263
 20
113.7505110297028
 30
0.0
 11
-858.0137067914263
 21
133.7505110297027
 31
0.0
  0
LINE
  5
5E
330
1F
100
AcDbEntity
  8
0
  6
Continuous
 62
     7
370
    15
100
AcDbLine
 10
-858.0137067914263
 20
133.7505110297027
 30
0.0
 11
-838.0137067914263
 21
133.7505110297027
 31
0.0
  0
LINE
  5
5F
330
1F
100
AcDbEntity
  8
0
  6
Continuous
 62
     7
370
    15
100
AcDbLine
 10
-838.0137067914263
 20
133.7505110297027
 30
0.0
 11
-838.0137067914263
 21
113.7505110297028
 31
0.0
  0
LINE
  5
60
330
1F
100
AcDbEntity
  8
0
  6
Continuous
 62
     7
370
    15
100
AcDbLine
 10
-838.0137067914263
 20
113.7505110297028
 30
0.0
 11
-858.0137067914263
 21
113.7505110297028
 31
0.0
  0
LINE
  5
61
330
1F
100
AcDbEntity
  8
0
  6
Continuous
 62
     7
370
    15
100
AcDbLine
 10
416.9862932085734
 20
113.7505110297028
 30
0.0
 11
416.9862932085734
 21
133.7505110297027
 31
0.0
  0
LINE
  5
62
330
1F
100
AcDbEntity
  8
0
  6
Continuous
 62
     7
370
    15
100
AcDbLine
 10
436.9862932085734
 20
133.7505110297027
 30
0.0
 11
436.9862932085734
 21
113.7505110297028
 31
0.0
  0
LINE
  5
63
330
1F
100
AcDbEntity
  8
0
  6
Continuous
 62
     7
370
    15
100
AcDbLine
 10
436.9862932085734
 20
113.7505110297028
 30
0.0
 11
416.9862932085734
 21
113.7505110297028
 31
0.0
  0
LINE
  5
64
330
1F
100
AcDbEntity
  8
0
  6
Continuous
 62
     7
370
    15
100
AcDbLine
 10
416.9862932085734
 20
133.7505110297027
 30
0.0
 11
436.9862932085734
 21
133.7505110297027
 31
0.0
  0
LINE
  5
65
330
1F
100
AcDbEntity
  8
0
  6
Continuous
 62
     7
370
    15
100
AcDbLine
 10
416.9862932085734
 20
113.7505110297028
 30
0.0
 11
296.9862932085739
 21
113.7505110297028
 31
0.0
  0
LINE
  5
66
330
1F
100
AcDbEntity
  8
0
  6
Continuous
 62
     7
370
    15
100
AcDbLine
 10
416.9862932085734
 20
133.7505110297027
 30
0.0
 11
296.9862932085739
 21
133.7505110297027
 31
0.0
  0
LINE
  5
67
330
1F
100
AcDbEntity
  8
0
  6
Continuous
 62
     7
370
    15
100
AcDbLine
 10
286.9862932085739
 20
133.7505110297027
 30
0.0
 11
-3.013706791426102
 21
133.7505110297027
 31
0.0
  0
LINE
  5
68
330
1F
100
AcDbEntity
  8
0
  6
Continuous
 62
     7
370
    15
100
AcDbLine
 10
-13.01370679142633
 20
133.7505110297027
 30
0.0
 11
-353.0137067914263
 21
133.7505110297027
 31
0.0
  0
LINE
  5
69
330
1F
100
AcDbEntity
  8
0
  6
Continuous
 62
     7
370
    15
100
AcDbLine
 10
-363.0137067914264
 20
133.7505110297027
 30
0.0
 11
-703.0137067914262
 21
133.7505110297027
 31
0.0
  0
LINE
  5
6A
330
1F
100
AcDbEntity
  8
0
  6
Continuous
 62
     7
370
    15
100
AcDbLine
 10
-713.0137067914263
 20
133.7505110297027
 30
0.0
 11
-838.0137067914263
 21
133.7505110297027
 31
0.0
  0
LINE
  5
6B
330
1F
100
AcDbEntity
  8
0
  6
Continuous
 62
     7
370
    15
100
AcDbLine
 10
286.9862932085739
 20
113.7505110297028
 30
0.0
 11
-3.013706791426102
 21
113.7505110297028
 31
0.0
  0
LINE
  5
6C
330
1F
100
AcDbEntity
  8
0
  6
Continuous
 62
     7
370
    15
100
AcDbLine
 10
-13.01370679142633
 20
113.7505110297028
 30
0.0
 11
-353.0137067914263
 21
113.7505110297028
 31
0.0
  0
LINE
  5
6D
330
1F
100
AcDbEntity
  8
0
  6
Continuous
 62
     7
370
    15
100
AcDbLine
 10
-363.0137067914263
 20
113.7505110297028
 30
0.0
 11
-703.0137067914262
 21
113.7505110297028
 31
0.0
  0
LINE
  5
6E
330
1F
100
AcDbEntity
  8
0
  6
Continuous
 62
     7
370
    15
100
AcDbLine
 10
-713.0137067914263
 20
113.7505110297028
 30
0.0
 11
-838.0137067914263
 21
113.7505110297028
 31
0.0
  0
LINE
  5
6F
330
1F
100
AcDbEntity
  8
0
  6
Continuous
 62
     7
370
    15
100
AcDbLine
 10
296.9862932085739
 20
175.1748497974035
 30
0.0
 11
286.9862932085739
 21
175.1748497974035
 31
0.0
  0
LINE
  5
70
330
1F
100
AcDbEntity
  8
0
  6
Continuous
 62
     7
370
    15
100
AcDbLine
 10
286.9862932085739
 20
175.1748497974035
 30
0.0
 11
286.9862932085739
 21
138.86566744376
 31
0.0
  0
LINE
  5
71
330
1F
100
AcDbEntity
  8
0
  6
Continuous
 62
     7
370
    15
100
AcDbLine
 10
296.9862932085739
 20
175.1748497974035
 30
0.0
 11
296.9862932085739
 21
138.86566744376
 31
0.0
  0
LINE
  5
72
330
1F
100
AcDbEntity
  8
0
  6
Continuous
 62
     7
370
    15
100
AcDbLine
 10
397.2018265045972
 20
188.9268919317532
 30
0.0
 11
-818.2292400874498
 21
188.926891931753
 31
0.0
  0
LINE
  5
73
330
1F
100
AcDbEntity
  8
0
  6
Continuous
 62
     7
370
    15
100
AcDbLine
 10
397.2018265045972
 20
188.9268919317532
 30
0.0
 11
411.9862932085734
 21
133.7505110297027
 31
0.0
  0
LINE
  5
74
330
1F
100
AcDbEntity
  8
0
  6
Continuous
 62
     7
370
    15
100
AcDbLine
 10
-818.2292400874498
 20
188.926891931753
 30
0.0
 11
-833.0137067914263
 21
133.7505110297027
 31
0.0
  0
LINE
  5
75
330
1F
100
AcDbEntity
  8
0
  6
Continuous
 62
     7
370
    15
100
AcDbLine
 10
-814.2572633212477
 20
203.7505110297027
 30
0.0
 11
393.2298497383954
 21
203.7505110297027
 31
0.0
  0
LINE
  5
76
330
1F
100
AcDbEntity
  8
0
  6
Continuous
 62
     7
370
    15
100
AcDbLine
 10
393.2298497383954
 20
203.7505110297027
 30
0.0
 11
397.2018265045976
 21
188.9268919317528
 31
0.0
  0
LINE
  5
77
330
1F
100
AcDbEntity
  8
0
  6
Continuous
 62
     7
370
    15
100
AcDbLine
 10
-818.2292400874498
 20
188.926891931753
 30
0.0
 11
-814.2572633212477
 21
203.7505110297027
 31
0.0
  0
LINE
  5
78
330
1F
100
AcDbEntity
  8
0
  6
Continuous
 62
     7
370
    15
100
AcDbLine
 10
-713.0137067914263
 20
-254.3726709494865
 30
0.0
 11
-703.0137067914263
 21
-254.3726709494865
 31
0.0
  0
LINE
  5
79
330
1F
100
AcDbEntity
  8
0
  6
Continuous
 62
     7
370
    15
100
AcDbLine
 10
-703.0137067914263
 20
-32.45161556404412
 30
0.0
 11
-713.0137067914263
 21
-32.45161556404412
 31
0.0
  0
LINE
  5
7A
330
1F
100
AcDbEntity
  8
0
  6
Continuous
 62
     7
370
    15
100
AcDbLine
 10
-363.0137067914264
 20
-254.3726709494865
 30
0.0
 11
-353.0137067914263
 21
-254.3726709494865
 31
0.0
  0
LINE
  5
7B
330
1F
100
AcDbEntity
  8
0
  6
Continuous
 62
     7
370
    15
100
AcDbLine
 10
-353.0137067914263
 20
-32.45161556404412
 30
0.0
 11
-363.0137067914264
 21
-32.45161556404412
 31
0.0
  0
LINE
  5
7C
330
1F
100
AcDbEntity
  8
0
  6
Continuous
 62
     7
370
    15
100
AcDbLine
 10
-13.01370679142633
 20
-254.3726709494865
 30
0.0
 11
-3.013706791426329
 21
-254.3726709494865
 31
0.0
  0
LINE
  5
7D
330
1F
100
AcDbEntity
  8
0
  6
Continuous
 62
     7
370
    15
100
AcDbLine
 10
-3.013706791426329
 20
-32.45161556404412
 30
0.0
 11
-13.01370679142633
 21
-32.45161556404412
 31
0.0
  0
LINE
  5
7E
330
1F
100
AcDbEntity
  8
0
  6
Continuous
 62
     7
370
    15
100
AcDbLine
 10
286.9862932085739
 20
-254.3726709494865
 30
0.0
 11
296.9862932085739
 21
-254.3726709494865
 31
0.0
  0
LINE
  5
7F
330
1F
100
AcDbEntity
  8
0
  6
Continuous
 62
     7
370
    15
100
AcDbLine
 10
296.9862932085739
 20
-32.45161556404412
 30
0.0
 11
286.9862932085739
 21
-32.45161556404412
 31
0.0
  0
LINE
  5
80
330
1F
100
AcDbEntity
  8
0
  6
Continuous
 62
     7
370
    15
100
AcDbLine
 10
-703.0137067914263
 20
-227.907488384671
 30
0.0
 11
-713.0137067914263
 21
-227.907488384671
 31
0.0
  0
LINE
  5
81
330
1F
100
AcDbEntity
  8
0
  6
Continuous
 62
     7
370
    15
100
AcDbLine
 10
-703.0137067914263
 20
-227.907488384671
 30
0.0
 11
-703.0137067914263
 21
-254.3726709494865
 31
0.0
  0
LINE
  5
82
330
1F
100
AcDbEntity
  8
0
  6
Continuous
 62
     7
370
    15
100
AcDbLine
 10
-713.0137067914263
 20
-227.907488384671
 30
0.0
 11
-713.0137067914263
 21
-254.3726709494865
 31
0.0
  0
LINE
  5
83
330
1F
100
AcDbEntity
  8
0
  6
Continuous
 62
     7
370
    15
100
AcDbLine
 10
-703.0137067914263
 20
-221.8939936168201
 30
0.0
 11
-713.0137067914263
 21
-221.8939936168201
 31
0.0
  0
LINE
  5
84
330
1F
100
AcDbEntity
  8
0
  6
Continuous
 62
     7
370
    15
100
AcDbLine
 10
-713.0137067914263
 20
-221.8939936168201
 30
0.0
 11
-713.0137067914263
 21
-227.907488384671
 31
0.0
  0
LINE
  5
85
330
1F
100
AcDbEntity
  8
0
  6
Continuous
 62
     7
370
    15
100
AcDbLine
 10
-703.0137067914263
 20
-221.8939936168201
 30
0.0
 11
-703.0137067914263
 21
-227.907488384671
 31
0.0
  0
LINE
  5
86
330
1F
100
AcDbEntity
  8
0
  6
Continuous
 62
     7
370
    15
100
AcDbLine
 10
-703.0137067914263
 20
-58.91679812885968
 30
0.0
 11
-713.0137067914263
 21
-58.91679812885968
 31
0.0
  0
LINE
  5
87
330
1F
100
AcDbEntity
  8
0
  6
Continuous
 62
     7
370
    15
100
AcDbLine
 10
-713.0137067914263
 20
-32.45161556404412
 30
0.0
 11
-713.0137067914263
 21
-58.91679812885968
 31
0.0
  0
LINE
  5
88
330
1F
100
AcDbEntity
  8
0
  6
Continuous
 62
     7
370
    15
100
AcDbLine
 10
-703.0137067914263
 20
-32.45161556404412
 30
0.0
 11
-703.0137067914263
 21
-58.91679812885968
 31
0.0
  0
LINE
  5
89
330
1F
100
AcDbEntity
  8
0
  6
Continuous
 62
     7
370
    15
100
AcDbLine
 10
-703.0137067914263
 20
-64.93029289671051
 30
0.0
 11
-713.0137067914263
 21
-64.93029289671051
 31
0.0
  0
LINE
  5
8A
330
1F
100
AcDbEntity
  8
0
  6
Continuous
 62
     7
370
    15
100
AcDbLine
 10
-713.0137067914263
 20
-58.91679812885968
 30
0.0
 11
-713.0137067914263
 21
-64.93029289671051
 31
0.0
  0
LINE
  5
8B
330
1F
100
AcDbEntity
  8
0
  6
Continuous
 62
     7
370
    15
100
AcDbLine
 10
-703.0137067914263
 20
-58.91679812885968
 30
0.0
 11
-703.0137067914263
 21
-64.93029289671051
 31
0.0
  0
LINE
  5
8C
330
1F
100
AcDbEntity
  8
0
  6
Continuous
 62
     7
370
    15
100
AcDbLine
 10
-353.0137067914263
 20
-227.907488384671
 30
0.0
 11
-363.0137067914264
 21
-227.907488384671
 31
0.0
  0
LINE
  5
8D
330
1F
100
AcDbEntity
  8
0
  6
Continuous
 62
     7
370
    15
100
AcDbLine
 10
-353.0137067914263
 20
-227.907488384671
 30
0.0
 11
-353.0137067914263
 21
-254.3726709494865
 31
0.0
  0
LINE
  5
8E
330
1F
100
AcDbEntity
  8
0
  6
Continuous
 62
     7
370
    15
100
AcDbLine
 10
-363.0137067914264
 20
-227.907488384671
 30
0.0
 11
-363.0137067914264
 21
-254.3726709494865
 31
0.0
  0
LINE
  5
8F
330
1F
100
AcDbEntity
  8
0
  6
Continuous
 62
     7
370
    15
100
AcDbLine
 10
-353.0137067914263
 20
-221.8939936168201
 30
0.0
 11
-363.0137067914264
 21
-221.8939936168201
 31
0.0
  0
LINE
  5
90
330
1F
100
AcDbEntity
  8
0
  6
Continuous
 62
     7
370
    15
100
AcDbLine
 10
-353.0137067914263
 20
-221.8939936168201
 30
0.0
 11
-353.0137067914263
 21
-227.907488384671
 31
0.0
  0
LINE
  5
91
330
1F
100
AcDbEntity
  8
0
  6
Continuous
 62
     7
370
    15
100
AcDbLine
 10
-363.0137067914264
 20
-221.8939936168201
 30
0.0
 11
-363.0137067914264
 21
-227.907488384671
 31
0.0
  0
LINE
  5
92
330
1F
100
AcDbEntity
  8
0
  6
Continuous
 62
     7
370
    15
100
AcDbLine
 10
-353.0137067914263
 20
-58.91679812885968
 30
0.0
 11
-363.0137067914264
 21
-58.91679812885968
 31
0.0
  0
LINE
  5
93
330
1F
100
AcDbEntity
  8
0
  6
Continuous
 62
     7
370
    15
100
AcDbLine
 10
-363.0137067914264
 20
-32.45161556404412
 30
0.0
 11
-363.0137067914264
 21
-58.91679812885968
 31
0.0
  0
LINE
  5
94
330
1F
100
AcDbEntity
  8
0
  6
Continuous
 62
     7
370
    15
100
AcDbLine
 10
-353.0137067914263
 20
-32.45161556404412
 30
0.0
 11
-353.0137067914263
 21
-58.91679812885968
 31
0.0
  0
LINE
  5
95
330
1F
100
AcDbEntity
  8
0
  6
Continuous
 62
     7
370
    15
100
AcDbLine
 10
-353.0137067914263
 20
-64.93029289671051
 30
0.0
 11
-363.0137067914264
 21
-64.93029289671051
 31
0.0
  0
LINE
  5
96
330
1F
100
AcDbEntity
  8
0
  6
Continuous
 62
     7
370
    15
100
AcDbLine
 10
-363.0137067914264
 20
-58.91679812885968
 30
0.0
 11
-363.0137067914264
 21
-64.93029289671051
 31
0.0
  0
LINE
  5
97
330
1F
100
AcDbEntity
  8
0
  6
Continuous
 62
     7
370
    15
100
AcDbLine
 10
-353.0137067914263
 20
-58.91679812885968
 30
0.0
 11
-353.0137067914263
 21
-64.93029289671051
 31
0.0
  0
LINE
  5
98
330
1F
100
AcDbEntity
  8
0
  6
Continuous
 62
     7
370
    15
100
AcDbLine
 10
-3.013706791426329
 20
-227.907488384671
 30
0.0
 11
-13.01370679142633
 21
-227.907488384671
 31
0.0
  0
LINE
  5
99
330
1F
100
AcDbEntity
  8
0
  6
Continuous
 62
     7
370
    15
100
AcDbLine
 10
-3.013706791426329
 20
-227.907488384671
 30
0.0
 11
-3.013706791426329
 21
-254.3726709494865
 31
0.0
  0
LINE
  5
9A
330
1F
100
AcDbEntity
  8
0
  6
Continuous
 62
     7
370
    15
100
AcDbLine
 10
-13.01370679142633
 20
-227.907488384671
 30
0.0
 11
-13.01370679142633
 21
-254.3726709494865
 31
0.0
  0
LINE
  5
9B
330
1F
100
AcDbEntity
  8
0
  6
Continuous
 62
     7
370
    15
100
AcDbLine
 10
-3.013706791426329
 20
-221.8939936168201
 30
0.0
 11
-13.01370679142633
 21
-221.8939936168201
 31
0.0
  0
LINE
  5
9C
330
1F
100
AcDbEntity
  8
0
  6
Continuous
 62
     7
370
    15
100
AcDbLine
 10
-3.013706791426329
 20
-221.8939936168201
 30
0.0
 11
-3.013706791426329
 21
-227.907488384671
 31
0.0
  0
LINE
  5
9D
330
1F
100
AcDbEntity
  8
0
  6
Continuous
 62
     7
370
    15
100
AcDbLine
 10
-13.01370679142633
 20
-221.8939936168201
 30
0.0
 11
-13.01370679142633
 21
-227.907488384671
 31
0.0
  0
LINE
  5
9E
330
1F
100
AcDbEntity
  8
0
  6
Continuous
 62
     7
370
    15
100
AcDbLine
 10
-3.013706791426329
 20
-58.91679812885968
 30
0.0
 11
-13.01370679142633
 21
-58.91679812885968
 31
0.0
  0
LINE
  5
9F
330
1F
100
AcDbEntity
  8
0
  6
Continuous
 62
     7
370
    15
100
AcDbLine
 10
-13.01370679142633
 20
-32.45161556404412
 30
0.0
 11
-13.01370679142633
 21
-58.91679812885968
 31
0.0
  0
LINE
  5
A0
330
1F
100
AcDbEntity
  8
0
  6
Continuous
 62
     7
370
    15
100
AcDbLine
 10
-3.013706791426329
 20
-32.45161556404412
 30
0.0
 11
-3.013706791426329
 21
-58.91679812885968
 31
0.0
  0
LINE
  5
A1
330
1F
100
AcDbEntity
  8
0
  6
Continuous
 62
     7
370
    15
100
AcDbLine
 10
-3.013706791426329
 20
-64.93029289671063
 30
0.0
 11
-13.01370679142633
 21
-64.93029289671063
 31
0.0
  0
LINE
  5
A2
330
1F
100
AcDbEntity
  8
0
  6
Continuous
 62
     7
370
    15
100
AcDbLine
 10
-13.01370679142633
 20
-58.91679812885968
 30
0.0
 11
-13.01370679142633
 21
-64.93029289671063
 31
0.0
  0
LINE
  5
A3
330
1F
100
AcDbEntity
  8
0
  6
Continuous
 62
     7
370
    15
100
AcDbLine
 10
-3.013706791426329
 20
-58.91679812885968
 30
0.0
 11
-3.013706791426329
 21
-64.93029289671063
 31
0.0
  0
LINE
  5
A4
330
1F
100
AcDbEntity
  8
0
  6
Continuous
 62
     7
370
    15
100
AcDbLine
 10
296.9862932085739
 20
-227.907488384671
 30
0.0
 11
286.9862932085739
 21
-227.907488384671
 31
0.0
  0
LINE
  5
A5
330
1F
100
AcDbEntity
  8
0
  6
Continuous
 62
     7
370
    15
100
AcDbLine
 10
296.9862932085739
 20
-227.907488384671
 30
0.0
 11
296.9862932085739
 21
-254.3726709494865
 31
0.0
  0
LINE
  5
A6
330
1F
100
AcDbEntity
  8
0
  6
Continuous
 62
     7
370
    15
100
AcDbLine
 10
286.9862932085739
 20
-227.907488384671
 30
0.0
 11
286.9862932085739
 21
-254.3726709494865
 31
0.0
  0
LINE
  5
A7
330
1F
100
AcDbEntity
  8
0
  6
Continuous
 62
     7
370
    15
100
AcDbLine
 10
296.9862932085739
 20
-58.91679812885968
 30
0.0
 11
286.9862932085739
 21
-58.91679812885968
 31
0.0
  0
LINE
  5
A8
330
1F
100
AcDbEntity
  8
0
  6
Continuous
 62
     7
370
    15
100
AcDbLine
 10
296.9862932085739
 20
-32.45161556404412
 30
0.0
 11
296.9862932085739
 21
-58.91679812885968
 31
0.0
  0
LINE
  5
A9
330
1F
100
AcDbEntity
  8
0
  6
Continuous
 62
     7
370
    15
100
AcDbLine
 10
286.9862932085739
 20
-32.45161556404412
 30
0.0
 11
286.9862932085739
 21
-58.91679812885968
 31
0.0
  0
LINE
  5
AA
330
1F
100
AcDbEntity
  8
0
  6
Continuous
 62
     7
370
    15
100
AcDbLine
 10
296.9862932085739
 20
-221.8939936168201
 30
0.0
 11
286.9862932085739
 21
-221.8939936168201
 31
0.0
  0
LINE
  5
AB
330
1F
100
AcDbEntity
  8
0
  6
Continuous
 62
     7
370
    15
100
AcDbLine
 10
296.9862932085739
 20
-221.8939936168201
 30
0.0
 11
296.9862932085739
 21
-227.907488384671
 31
0.0
  0
LINE
  5
AC
330
1F
100
AcDbEntity
  8
0
  6
Continuous
 62
     7
370
    15
100
AcDbLine
 10
286.9862932085739
 20
-221.8939936168201
 30
0.0
 11
286.9862932085739
 21
-227.907488384671
 31
0.0
  0
LINE
  5
AD
330
1F
100
AcDbEntity
  8
0
  6
Continuous
 62
     7
370
    15
100
AcDbLine
 10
296.9862932085739
 20
-64.93029289671051
 30
0.0
 11
286.9862932085739
 21
-64.93029289671051
 31
0.0
  0
LINE
  5
AE
330
1F
100
AcDbEntity
  8
0
  6
Continuous
 62
     7
370
    15
100
AcDbLine
 10
296.9862932085739
 20
-58.91679812885968
 30
0.0
 11
296.9862932085739
 21
-64.93029289671051
 31
0.0
  0
LINE
  5
AF
330
1F
100
AcDbEntity
  8
0
  6
Continuous
 62
     7
370
    15
100
AcDbLine
 10
286.9862932085739
 20
-58.91679812885968
 30
0.0
 11
286.9862932085739
 21
-64.93029289671051
 31
0.0
  0
LINE
  5
B0
330
1F
100
AcDbEntity
  8
0
  6
Continuous
 62
     7
370
    15
100
AcDbLine
 10
296.986293208573
 20
-228.4121432567654
 30
0.0
 11
411.9862932085734
 21
-228.4121432567654
 31
0.0
  0
LINE
  5
B1
330
1F
100
AcDbEntity
  8
0
  6
Continuous
 62
     7
370
    15
100
AcDbLine
 10
411.9862932085734
 20
-228.4121432567654
 30
0.0
 11
411.9862932085734
 21
-58.41214325676538
 31
0.0
  0
LINE
  5
B2
330
1F
100
AcDbEntity
  8
0
  6
Continuous
 62
     7
370
    15
100
AcDbLine
 10
411.9862932085734
 20
-58.41214325676538
 30
0.0
 11
296.9862932085732
 21
-58.41214325676538
 31
0.0
  0
LINE
  5
B3
330
1F
100
AcDbEntity
  8
0
  6
Continuous
 62
     7
370
    15
100
AcDbLine
 10
416.9862932085734
 20
-38.41214325676538
 30
0.0
 11
296.9862932085739
 21
-38.41214325676538
 31
0.0
  0
ARC
  5
B4
330
1F
100
AcDbEntity
  8
0
  6
Continuous
 62
     7
370
    15
100
AcDbCircle
 10
416.9862932085734
 20
-58.41214325676538
 30
0.0
 40
20.0
100
AcDbArc
 50
0.0
 51
90.0
  0
LINE
  5
B5
330
1F
100
AcDbEntity
  8
0
  6
Continuous
 62
     7
370
    15
100
AcDbLine
 10
436.9862932085734
 20
-228.4121432567654
 30
0.0
 11
436.9862932085734
 21
-58.41214325676538
 31
0.0
  0
ARC
  5
B6
330
1F
100
AcDbEntity
  8
0
  6
Continuous
 62
     7
370
    15
100
AcDbCircle
 10
416.9862932085734
 20
-228.4121432567654
 30
0.0
 40
20.0
100
AcDbArc
 50
270.0000000000013
 51
0.0
  0
LINE
  5
B7
330
1F
100
AcDbEntity
  8
0
  6
Continuous
 62
     7
370
    15
100
AcDbLine
 10
296.9862932085739
 20
-248.4121432567654
 30
0.0
 11
416.9862932085734
 21
-248.4121432567654
 31
0.0
  0
LINE
  5
B8
330
1F
100
AcDbEntity
  8
0
  6
Continuous
 62
     7
370
    15
100
AcDbLine
 10
-858.0137067914263
 20
-58.41214325676538
 30
0.0
 11
-858.0137067914263
 21
-228.4121432567654
 31
0.0
  0
ARC
  5
B9
330
1F
100
AcDbEntity
  8
0
  6
Continuous
 62
     7
370
    15
100
AcDbCircle
 10
-838.0137067914263
 20
-58.41214325676538
 30
0.0
 40
20.00000000000002
100
AcDbArc
 50
90.0
 51
180.0
  0
LINE
  5
BA
330
1F
100
AcDbEntity
  8
0
  6
Continuous
 62
     7
370
    15
100
AcDbLine
 10
286.9862932085739
 20
-38.41214325676538
 30
0.0
 11
-3.013706791426329
 21
-38.41214325676538
 31
0.0
  0
LINE
  5
BB
330
1F
100
AcDbEntity
  8
0
  6
Continuous
 62
     7
370
    15
100
AcDbLine
 10
-13.01370679142633
 20
-38.41214325676538
 30
0.0
 11
-353.0137067914263
 21
-38.41214325676538
 31
0.0
  0
LINE
  5
BC
330
1F
100
AcDbEntity
  8
0
  6
Continuous
 62
     7
370
    15
100
AcDbLine
 10
-363.0137067914264
 20
-38.41214325676538
 30
0.0
 11
-703.0137067914263
 21
-38.41214325676538
 31
0.0
  0
LINE
  5
BD
330
1F
100
AcDbEntity
  8
0
  6
Continuous
 62
     7
370
    15
100
AcDbLine
 10
-713.0137067914263
 20
-38.41214325676538
 30
0.0
 11
-838.0137067914263
 21
-38.41214325676538
 31
0.0
  0
LINE
  5
BE
330
1F
100
AcDbEntity
  8
0
  6
Continuous
 62
     7
370
    15
100
AcDbLine
 10
286.9862932085732
 20
-58.41214325676538
 30
0.0
 11
-3.013706791426329
 21
-58.41214325676538
 31
0.0
  0
LINE
  5
BF
330
1F
100
AcDbEntity
  8
0
  6
Continuous
 62
     7
370
    15
100
AcDbLine
 10
-13.01370679142633
 20
-58.41214325676538
 30
0.0
 11
-353.0137067914263
 21
-58.41214325676538
 31
0.0
  0
LINE
  5
C0
330
1F
100
AcDbEntity
  8
0
  6
Continuous
 62
     7
370
    15
100
AcDbLine
 10
-363.0137067914264
 20
-58.41214325676538
 30
0.0
 11
-703.0137067914262
 21
-58.41214325676538
 31
0.0
  0
LINE
  5
C1
330
1F
100
AcDbEntity
  8
0
  6
Continuous
 62
     7
370
    15
100
AcDbLine
 10
-713.0137067914262
 20
-58.41214325676538
 30
0.0
 11
-833.0137067914263
 21
-58.41214325676538
 31
0.0
  0
LINE
  5
C2
330
1F
100
AcDbEntity
  8
0
  6
Continuous
 62
     7
370
    15
100
AcDbLine
 10
-833.0137067914263
 20
-58.41214325676538
 30
0.0
 11
-833.0137067914263
 21
-228.4121432567654
 31
0.0
  0
LINE
  5
C3
330
1F
100
AcDbEntity
  8
0
  6
Continuous
 62
     7
370
    15
100
AcDbLine
 10
-833.0137067914263
 20
-228.4121432567654
 30
0.0
 11
-713.0137067914263
 21
-228.4121432567654
 31
0.0
  0
LINE
  5
C4
330
1F
100
AcDbEntity
  8
0
  6
Continuous
 62
     7
370
    15
100
AcDbLine
 10
-703.0137067914263
 20
-228.4121432567654
 30
0.0
 11
-363.0137067914266
 21
-228.4121432567654
 31
0.0
  0
LINE
  5
C5
330
1F
100
AcDbEntity
  8
0
  6
Continuous
 62
     7
370
    15
100
AcDbLine
 10
-353.0137067914263
 20
-228.4121432567654
 30
0.0
 11
-13.01370679142633
 21
-228.4121432567654
 31
0.0
  0
LINE
  5
C6
330
1F
100
AcDbEntity
  8
0
  6
Continuous
 62
     7
370
    15
100
AcDbLine
 10
-3.013706791426443
 20
-228.4121432567654
 30
0.0
 11
286.9862932085739
 21
-228.4121432567654
 31
0.0
  0
LINE
  5
C7
330
1F
100
AcDbEntity
  8
0
  6
Continuous
 62
     7
370
    15
100
AcDbLine
 10
-838.0137067914263
 20
-248.4121432567654
 30
0.0
 11
-713.0137067914263
 21
-248.4121432567654
 31
0.0
  0
LINE
  5
C8
330
1F
100
AcDbEntity
  8
0
  6
Continuous
 62
     7
370
    15
100
AcDbLine
 10
-703.0137067914263
 20
-248.4121432567654
 30
0.0
 11
-363.0137067914264
 21
-248.4121432567654
 31
0.0
  0
LINE
  5
C9
330
1F
100
AcDbEntity
  8
0
  6
Continuous
 62
     7
370
    15
100
AcDbLine
 10
-353.0137067914263
 20
-248.4121432567654
 30
0.0
 11
-13.01370679142633
 21
-248.4121432567654
 31
0.0
  0
LINE
  5
CA
330
1F
100
AcDbEntity
  8
0
  6
Continuous
 62
     7
370
    15
100
AcDbLine
 10
-3.013706791426329
 20
-248.4121432567654
 30
0.0
 11
286.9862932085739
 21
-248.4121432567654
 31
0.0
  0
ARC
  5
CB
330
1F
100
AcDbEntity
  8
0
  6
Continuous
 62
     7
370
    15
100
AcDbCircle
 10
-838.0137067914263
 20
-228.4121432567654
 30
0.0
 40
20.00000000000002
100
AcDbArc
 50
180.0
 51
270.0000000000013
  0
LINE
  5
CC
330
1F
100
AcDbEntity
  8
0
  6
Continuous
 62
     7
370
    15
100
AcDbLine
 10
302.7700062669517
 20
-195.4275711990518
 30
0.0
 11
292.2358411598773
 21
-195.4275711990518
 31
0.0
  0
LINE
  5
CD
330
1F
100
AcDbEntity
  8
0
  6
Continuous
 62
     7
370
    15
100
AcDbLine
 10
302.7700062669517
 20
-206.759395084023
 30
0.0
 11
302.7700062669517
 21
-195.4275711990518
 31
0.0
  0
LINE
  5
CE
330
1F
100
AcDbEntity
  8
0
  6
Continuous
 62
     7
370
    15
100
AcDbLine
 10
292.2358411598773
 20
-206.759395084023
 30
0.0
 11
302.7700062669517
 21
-206.759395084023
 31
0.0
  0
LINE
  5
CF
330
1F
100
AcDbEntity
  8
0
  6
Continuous
 62
     7
370
    15
100
AcDbLine
 10
292.2358411598773
 20
-195.4275711990518
 30
0.0
 11
292.2358411598773
 21
-206.759395084023
 31
0.0
  0
LINE
  5
D0
330
1F
100
AcDbEntity
  8
0
  6
Continuous
 62
     7
370
    15
100
AcDbLine
 10
-147.2299937330487
 20
-195.4275711990518
 30
0.0
 11
-157.764158840123
 21
-195.4275711990518
 31
0.0
  0
LINE
  5
D1
330
1F
100
AcDbEntity
  8
0
  6
Continuous
 62
     7
370
    15
100
AcDbLine
 10
-147.2299937330487
 20
-206.759395084023
 30
0.0
 11
-147.2299937330487
 21
-195.4275711990518
 31
0.0
  0
LINE
  5
D2
330
1F
100
AcDbEntity
  8
0
  6
Continuous
 62
     7
370
    15
100
AcDbLine
 10
-157.764158840123
 20
-206.759395084023
 30
0.0
 11
-147.2299937330487
 21
-206.759395084023
 31
0.0
  0
LINE
  5
D3
330
1F
100
AcDbEntity
  8
0
  6
Continuous
 62
     7
370
    15
100
AcDbLine
 10
-157.764158840123
 20
-195.4275711990518
 30
0.0
 11
-157.764158840123
 21
-206.759395084023
 31
0.0
  0
LINE
  5
D4
330
1F
100
AcDbEntity
  8
0
  6
Continuous
 62
     7
370
    15
100
AcDbLine
 10
-47.22999373304856
 20
-195.4275711990518
 30
0.0
 11
-57.76415884012306
 21
-195.4275711990518
 31
0.0
  0
LINE
  5
D5
330
1F
100
AcDbEntity
  8
0
  6
Continuous
 62
     7
370
    15
100
AcDbLine
 10
-47.22999373304856
 20
-206.759395084023
 30
0.0
 11
-47.22999373304856
 21
-195.4275711990518
 31
0.0
  0
LINE
  5
D6
330
1F
100
AcDbEntity
  8
0
  6
Continuous
 62
     7
370
    15
100
AcDbLine
 10
-57.76415884012306
 20
-206.759395084023
 30
0.0
 11
-47.22999373304856
 21
-206.759395084023
 31
0.0
  0
LINE
  5
D7
330
1F
100
AcDbEntity
  8
0
  6
Continuous
 62
     7
370
    15
100
AcDbLine
 10
-57.76415884012306
 20
-195.4275711990518
 30
0.0
 11
-57.76415884012306
 21
-206.759395084023
 31
0.0
  0
LINE
  5
D8
330
1F
100
AcDbEntity
  8
0
  6
Continuous
 62
     7
370
    15
100
AcDbLine
 10
-597.2299937330485
 20
-195.4275711990518
 30
0.0
 11
-607.7641588401229
 21
-195.4275711990518
 31
0.0
  0
LINE
  5
D9
330
1F
100
AcDbEntity
  8
0
  6
Continuous
 62
     7
370
    15
100
AcDbLine
 10
-607.7641588401229
 20
-206.759395084023
 30
0.0
 11
-597.2299937330485
 21
-206.759395084023
 31
0.0
  0
LINE
  5
DA
330
1F
100
AcDbEntity
  8
0
  6
Continuous
 62
     7
370
    15
100
AcDbLine
 10
-607.7641588401229
 20
-195.4275711990518
 30
0.0
 11
-607.7641588401229
 21
-206.759395084023
 31
0.0
  0
LINE
  5
DB
330
1F
100
AcDbEntity
  8
0
  6
Continuous
 62
     7
370
    15
100
AcDbLine
 10
-597.2299937330485
 20
-206.759395084023
 30
0.0
 11
-597.2299937330485
 21
-195.4275711990518
 31
0.0
  0
LINE
  5
DC
330
1F
100
AcDbEntity
  8
0
  6
Continuous
 62
     7
370
    15
100
AcDbLine
 10
-747.2299937330485
 20
-195.4275711990518
 30
0.0
 11
-757.7641588401229
 21
-195.4275711990518
 31
0.0
  0
LINE
  5
DD
330
1F
100
AcDbEntity
  8
0
  6
Continuous
 62
     7
370
    15
100
AcDbLine
 10
-747.2299937330485
 20
-206.759395084023
 30
0.0
 11
-747.2299937330485
 21
-195.4275711990518
 31
0.0
  0
LINE
  5
DE
330
1F
100
AcDbEntity
  8
0
  6
Continuous
 62
     7
370
    15
100
AcDbLine
 10
-757.7641588401229
 20
-206.759395084023
 30
0.0
 11
-747.2299937330485
 21
-206.759395084023
 31
0.0
  0
LINE
  5
DF
330
1F
100
AcDbEntity
  8
0
  6
Continuous
 62
     7
370
    15
100
AcDbLine
 10
-757.7641588401229
 20
-195.4275711990518
 30
0.0
 11
-757.7641588401229
 21
-206.759395084023
 31
0.0
  0
LINE
  5
E0
330
1F
100
AcDbEntity
  8
0
  6
Continuous
 62
     7
370
    15
100
AcDbLine
 10
402.7700062669518
 20
-195.4275711990518
 30
0.0
 11
392.2358411598775
 21
-195.4275711990518
 31
0.0
  0
LINE
  5
E1
330
1F
100
AcDbEntity
  8
0
  6
Continuous
 62
     7
370
    15
100
AcDbLine
 10
402.7700062669518
 20
-206.759395084023
 30
0.0
 11
402.7700062669518
 21
-195.4275711990518
 31
0.0
  0
LINE
  5
E2
330
1F
100
AcDbEntity
  8
0
  6
Continuous
 62
     7
370
    15
100
AcDbLine
 10
392.2358411598775
 20
-206.759395084023
 30
0.0
 11
402.7700062669518
 21
-206.759395084023
 31
0.0
  0
LINE
  5
E3
330
1F
100
AcDbEntity
  8
0
  6
Continuous
 62
     7
370
    15
100
AcDbLine
 10
392.2358411598775
 20
-195.4275711990518
 30
0.0
 11
392.2358411598775
 21
-206.759395084023
 31
0.0
  0
LINE
  5
E4
330
1F
100
AcDbEntity
  8
0
  6
Continuous
 62
     7
370
    15
100
AcDbLine
 10
-297.2299937330486
 20
-195.4275711990518
 30
0.0
 11
-307.7641588401229
 21
-195.4275711990518
 31
0.0
  0
LINE
  5
E5
330
1F
100
AcDbEntity
  8
0
  6
Continuous
 62
     7
370
    15
100
AcDbLine
 10
-307.7641588401229
 20
-206.759395084023
 30
0.0
 11
-297.2299937330486
 21
-206.759395084023
 31
0.0
  0
LINE
  5
E6
330
1F
100
AcDbEntity
  8
0
  6
Continuous
 62
     7
370
    15
100
AcDbLine
 10
-297.2299937330486
 20
-206.759395084023
 30
0.0
 11
-297.2299937330486
 21
-195.4275711990518
 31
0.0
  0
LINE
  5
E7
330
1F
100
AcDbEntity
  8
0
  6
Continuous
 62
     7
370
    15
100
AcDbLine
 10
-307.7641588401229
 20
-195.4275711990518
 30
0.0
 11
-307.7641588401229
 21
-206.759395084023
 31
0.0
  0
LINE
  5
E8
330
1F
100
AcDbEntity
  8
0
  6
Continuous
 62
     7
370
    15
100
AcDbLine
 10
-247.2299937330486
 20
-195.4275711990518
 30
0.0
 11
-257.7641588401229
 21
-195.4275711990518
 31
0.0
  0
LINE
  5
E9
330
1F
100
AcDbEntity
  8
0
  6
Continuous
 62
     7
370
    15
100
AcDbLine
 10
-247.2299937330486
 20
-206.759395084023
 30
0.0
 11
-247.2299937330486
 21
-195.4275711990518
 31
0.0
  0
LINE
  5
EA
330
1F
100
AcDbEntity
  8
0
  6
Continuous
 62
     7
370
    15
100
AcDbLine
 10
-257.7641588401229
 20
-206.759395084023
 30
0.0
 11
-247.2299937330486
 21
-206.759395084023
 31
0.0
  0
LINE
  5
EB
330
1F
100
AcDbEntity
  8
0
  6
Continuous
 62
     7
370
    15
100
AcDbLine
 10
-257.7641588401229
 20
-195.4275711990518
 30
0.0
 11
-257.7641588401229
 21
-206.759395084023
 31
0.0
  0
LINE
  5
EC
330
1F
100
AcDbEntity
  8
0
  6
Continuous
 62
     7
370
    15
100
AcDbLine
 10
-797.2299937330486
 20
-195.4275711990518
 30
0.0
 11
-807.7641588401231
 21
-195.4275711990518
 31
0.0
  0
LINE
  5
ED
330
1F
100
AcDbEntity
  8
0
  6
Continuous
 62
     7
370
    15
100
AcDbLine
 10
-797.2299937330486
 20
-206.759395084023
 30
0.0
 11
-797.2299937330486
 21
-195.4275711990518
 31
0.0
  0
LINE
  5
EE
330
1F
100
AcDbEntity
  8
0
  6
Continuous
 62
     7
370
    15
100
AcDbLine
 10
-807.7641588401231
 20
-206.759395084023
 30
0.0
 11
-797.2299937330486
 21
-206.759395084023
 31
0.0
  0
LINE
  5
EF
330
1F
100
AcDbEntity
  8
0
  6
Continuous
 62
     7
370
    15
100
AcDbLine
 10
-807.7641588401231
 20
-195.4275711990518
 30
0.0
 11
-807.7641588401231
 21
-206.759395084023
 31
0.0
  0
LINE
  5
F0
330
1F
100
AcDbEntity
  8
0
  6
Continuous
 62
     7
370
    15
100
AcDbLine
 10
152.7700062669514
 20
-195.4275711990518
 30
0.0
 11
142.235841159877
 21
-195.4275711990518
 31
0.0
  0
LINE
  5
F1
330
1F
100
AcDbEntity
  8
0
  6
Continuous
 62
     7
370
    15
100
AcDbLine
 10
152.7700062669514
 20
-206.759395084023
 30
0.0
 11
152.7700062669514
 21
-195.4275711990518
 31
0.0
  0
LINE
  5
F2
330
1F
100
AcDbEntity
  8
0
  6
Continuous
 62
     7
370
    15
100
AcDbLine
 10
142.235841159877
 20
-206.759395084023
 30
0.0
 11
152.7700062669514
 21
-206.759395084023
 31
0.0
  0
LINE
  5
F3
330
1F
100
AcDbEntity
  8
0
  6
Continuous
 62
     7
370
    15
100
AcDbLine
 10
142.235841159877
 20
-195.4275711990518
 30
0.0
 11
142.235841159877
 21
-206.759395084023
 31
0.0
  0
LINE
  5
F4
330
1F
100
AcDbEntity
  8
0
  6
Continuous
 62
     7
370
    15
100
AcDbLine
 10
352.7700062669514
 20
-195.4275711990518
 30
0.0
 11
342.2358411598773
 21
-195.4275711990518
 31
0.0
  0
LINE
  5
F5
330
1F
100
AcDbEntity
  8
0
  6
Continuous
 62
     7
370
    15
100
AcDbLine
 10
352.7700062669514
 20
-206.759395084023
 30
0.0
 11
352.7700062669514
 21
-195.4275711990518
 31
0.0
  0
LINE
  5
F6
330
1F
100
AcDbEntity
  8
0
  6
Continuous
 62
     7
370
    15
100
AcDbLine
 10
342.2358411598773
 20
-206.759395084023
 30
0.0
 11
352.7700062669514
 21
-206.759395084023
 31
0.0
  0
LINE
  5
F7
330
1F
100
AcDbEntity
  8
0
  6
Continuous
 62
     7
370
    15
100
AcDbLine
 10
342.2358411598773
 20
-195.4275711990518
 30
0.0
 11
342.2358411598773
 21
-206.759395084023
 31
0.0
  0
LINE
  5
F8
330
1F
100
AcDbEntity
  8
0
  6
Continuous
 62
     7
370
    15
100
AcDbLine
 10
-97.22999373304856
 20
-195.4275711990518
 30
0.0
 11
-107.7641588401229
 21
-195.4275711990518
 31
0.0
  0
LINE
  5
F9
330
1F
100
AcDbEntity
  8
0
  6
Continuous
 62
     7
370
    15
100
AcDbLine
 10
-97.22999373304856
 20
-206.759395084023
 30
0.0
 11
-97.22999373304856
 21
-195.4275711990518
 31
0.0
  0
LINE
  5
FA
330
1F
100
AcDbEntity
  8
0
  6
Continuous
 62
     7
370
    15
100
AcDbLine
 10
-107.7641588401229
 20
-206.759395084023
 30
0.0
 11
-97.22999373304856
 21
-206.759395084023
 31
0.0
  0
LINE
  5
FB
330
1F
100
AcDbEntity
  8
0
  6
Continuous
 62
     7
370
    15
100
AcDbLine
 10
-107.7641588401229
 20
-195.4275711990518
 30
0.0
 11
-107.7641588401229
 21
-206.759395084023
 31
0.0
  0
LINE
  5
FC
330
1F
100
AcDbEntity
  8
0
  6
Continuous
 62
     7
370
    15
100
AcDbLine
 10
2.77000626695144
 20
-195.4275711990518
 30
0.0
 11
-7.764158840123059
 21
-195.4275711990518
 31
0.0
  0
LINE
  5
FD
330
1F
100
AcDbEntity
  8
0
  6
Continuous
 62
     7
370
    15
100
AcDbLine
 10
2.77000626695144
 20
-206.759395084023
 30
0.0
 11
2.77000626695144
 21
-195.4275711990518
 31
0.0
  0
LINE
  5
FE
330
1F
100
AcDbEntity
  8
0
  6
Continuous
 62
     7
370
    15
100
AcDbLine
 10
-7.764158840123059
 20
-206.759395084023
 30
0.0
 11
2.77000626695144
 21
-206.759395084023
 31
0.0
  0
LINE
  5
FF
330
1F
100
AcDbEntity
  8
0
  6
Continuous
 62
     7
370
    15
100
AcDbLine
 10
-7.764158840123059
 20
-195.4275711990518
 30
0.0
 11
-7.764158840123059
 21
-206.759395084023
 31
0.0
  0
LINE
  5
100
330
1F
100
AcDbEntity
  8
0
  6
Continuous
 62
     7
370
    15
100
AcDbLine
 10
52.77000626695167
 20
-195.4275711990518
 30
0.0
 11
42.23584115987705
 21
-195.4275711990518
 31
0.0
  0
LINE
  5
101
330
1F
100
AcDbEntity
  8
0
  6
Continuous
 62
     7
370
    15
100
AcDbLine
 10
52.77000626695167
 20
-206.759395084023
 30
0.0
 11
52.77000626695167
 21
-195.4275711990518
 31
0.0
  0
LINE
  5
102
330
1F
100
AcDbEntity
  8
0
  6
Continuous
 62
     7
370
    15
100
AcDbLine
 10
42.23584115987705
 20
-206.759395084023
 30
0.0
 11
52.77000626695167
 21
-206.759395084023
 31
0.0
  0
LINE
  5
103
330
1F
100
AcDbEntity
  8
0
  6
Continuous
 62
     7
370
    15
100
AcDbLine
 10
42.23584115987705
 20
-195.4275711990518
 30
0.0
 11
42.23584115987705
 21
-206.759395084023
 31
0.0
  0
LINE
  5
104
330
1F
100
AcDbEntity
  8
0
  6
Continuous
 62
     7
370
    15
100
AcDbLine
 10
-397.2299937330486
 20
-195.4275711990518
 30
0.0
 11
-407.7641588401229
 21
-195.4275711990518
 31
0.0
  0
LINE
  5
105
330
1F
100
AcDbEntity
  8
0
  6
Continuous
 62
     7
370
    15
100
AcDbLine
 10
-397.2299937330486
 20
-206.759395084023
 30
0.0
 11
-397.2299937330486
 21
-195.4275711990518
 31
0.0
  0
LINE
  5
106
330
1F
100
AcDbEntity
  8
0
  6
Continuous
 62
     7
370
    15
100
AcDbLine
 10
-407.7641588401229
 20
-195.4275711990518
 30
0.0
 11
-407.7641588401229
 21
-206.759395084023
 31
0.0
  0
LINE
  5
107
330
1F
100
AcDbEntity
  8
0
  6
Continuous
 62
     7
370
    15
100
AcDbLine
 10
-407.7641588401229
 20
-206.759395084023
 30
0.0
 11
-397.2299937330486
 21
-206.759395084023
 31
0.0
  0
LINE
  5
108
330
1F
100
AcDbEntity
  8
0
  6
Continuous
 62
     7
370
    15
100
AcDbLine
 10
102.7700062669514
 20
-195.4275711990518
 30
0.0
 11
92.23584115987705
 21
-195.4275711990518
 31
0.0
  0
LINE
  5
109
330
1F
100
AcDbEntity
  8
0
  6
Continuous
 62
     7
370
    15
100
AcDbLine
 10
92.23584115987705
 20
-195.4275711990518
 30
0.0
 11
92.23584115987705
 21
-206.759395084023
 31
0.0
  0
LINE
  5
10A
330
1F
100
AcDbEntity
  8
0
  6
Continuous
 62
     7
370
    15
100
AcDbLine
 10
102.7700062669514
 20
-206.759395084023
 30
0.0
 11
102.7700062669514
 21
-195.4275711990518
 31
0.0
  0
LINE
  5
10B
330
1F
100
AcDbEntity
  8
0
  6
Continuous
 62
     7
370
    15
100
AcDbLine
 10
92.23584115987705
 20
-206.759395084023
 30
0.0
 11
102.7700062669514
 21
-206.759395084023
 31
0.0
  0
LINE
  5
10C
330
1F
100
AcDbEntity
  8
0
  6
Continuous
 62
     7
370
    15
100
AcDbLine
 10
-647.2299937330485
 20
-195.4275711990518
 30
0.0
 11
-657.764158840123
 21
-195.4275711990518
 31
0.0
  0
LINE
  5
10D
330
1F
100
AcDbEntity
  8
0
  6
Continuous
 62
     7
370
    15
100
AcDbLine
 10
-647.2299937330485
 20
-206.759395084023
 30
0.0
 11
-647.2299937330485
 21
-195.4275711990518
 31
0.0
  0
LINE
  5
10E
330
1F
100
AcDbEntity
  8
0
  6
Continuous
 62
     7
370
    15
100
AcDbLine
 10
-657.764158840123
 20
-206.759395084023
 30
0.0
 11
-647.2299937330485
 21
-206.759395084023
 31
0.0
  0
LINE
  5
10F
330
1F
100
AcDbEntity
  8
0
  6
Continuous
 62
     7
370
    15
100
AcDbLine
 10
-657.764158840123
 20
-195.4275711990518
 30
0.0
 11
-657.764158840123
 21
-206.759395084023
 31
0.0
  0
LINE
  5
110
330
1F
100
AcDbEntity
  8
0
  6
Continuous
 62
     7
370
    15
100
AcDbLine
 10
202.7700062669514
 20
-195.4275711990518
 30
0.0
 11
192.235841159877
 21
-195.4275711990518
 31
0.0
  0
LINE
  5
111
330
1F
100
AcDbEntity
  8
0
  6
Continuous
 62
     7
370
    15
100
AcDbLine
 10
192.235841159877
 20
-206.759395084023
 30
0.0
 11
202.7700062669514
 21
-206.759395084023
 31
0.0
  0
LINE
  5
112
330
1F
100
AcDbEntity
  8
0
  6
Continuous
 62
     7
370
    15
100
AcDbLine
 10
202.7700062669514
 20
-206.759395084023
 30
0.0
 11
202.7700062669514
 21
-195.4275711990518
 31
0.0
  0
LINE
  5
113
330
1F
100
AcDbEntity
  8
0
  6
Continuous
 62
     7
370
    15
100
AcDbLine
 10
192.235841159877
 20
-195.4275711990518
 30
0.0
 11
192.235841159877
 21
-206.759395084023
 31
0.0
  0
LINE
  5
114
330
1F
100
AcDbEntity
  8
0
  6
Continuous
 62
     7
370
    15
100
AcDbLine
 10
252.7700062669514
 20
-195.4275711990518
 30
0.0
 11
242.2358411598773
 21
-195.4275711990518
 31
0.0
  0
LINE
  5
115
330
1F
100
AcDbEntity
  8
0
  6
Continuous
 62
     7
370
    15
100
AcDbLine
 10
252.7700062669514
 20
-206.759395084023
 30
0.0
 11
252.7700062669514
 21
-195.4275711990518
 31
0.0
  0
LINE
  5
116
330
1F
100
AcDbEntity
  8
0
  6
Continuous
 62
     7
370
    15
100
AcDbLine
 10
242.2358411598773
 20
-195.4275711990518
 30
0.0
 11
242.2358411598773
 21
-206.759395084023
 31
0.0
  0
LINE
  5
117
330
1F
100
AcDbEntity
  8
0
  6
Continuous
 62
     7
370
    15
100
AcDbLine
 10
242.2358411598773
 20
-206.759395084023
 30
0.0
 11
252.7700062669514
 21
-206.759395084023
 31
0.0
  0
LINE
  5
118
330
1F
100
AcDbEntity
  8
0
  6
Continuous
 62
     7
370
    15
100
AcDbLine
 10
-547.2299937330486
 20
-195.4275711990518
 30
0.0
 11
-557.764158840123
 21
-195.4275711990518
 31
0.0
  0
LINE
  5
119
330
1F
100
AcDbEntity
  8
0
  6
Continuous
 62
     7
370
    15
100
AcDbLine
 10
-547.2299937330486
 20
-206.759395084023
 30
0.0
 11
-547.2299937330486
 21
-195.4275711990518
 31
0.0
  0
LINE
  5
11A
330
1F
100
AcDbEntity
  8
0
  6
Continuous
 62
     7
370
    15
100
AcDbLine
 10
-557.764158840123
 20
-206.759395084023
 30
0.0
 11
-547.2299937330486
 21
-206.759395084023
 31
0.0
  0
LINE
  5
11B
330
1F
100
AcDbEntity
  8
0
  6
Continuous
 62
     7
370
    15
100
AcDbLine
 10
-557.764158840123
 20
-195.4275711990518
 30
0.0
 11
-557.764158840123
 21
-206.759395084023
 31
0.0
  0
LINE
  5
11C
330
1F
100
AcDbEntity
  8
0
  6
Continuous
 62
     7
370
    15
100
AcDbLine
 10
-497.2299937330485
 20
-195.4275711990518
 30
0.0
 11
-507.7641588401229
 21
-195.4275711990518
 31
0.0
  0
LINE
  5
11D
330
1F
100
AcDbEntity
  8
0
  6
Continuous
 62
     7
370
    15
100
AcDbLine
 10
-507.7641588401229
 20
-206.759395084023
 30
0.0
 11
-497.2299937330485
 21
-206.759395084023
 31
0.0
  0
LINE
  5
11E
330
1F
100
AcDbEntity
  8
0
  6
Continuous
 62
     7
370
    15
100
AcDbLine
 10
-507.7641588401229
 20
-195.4275711990518
 30
0.0
 11
-507.7641588401229
 21
-206.759395084023
 31
0.0
  0
LINE
  5
11F
330
1F
100
AcDbEntity
  8
0
  6
Continuous
 62
     7
370
    15
100
AcDbLine
 10
-497.2299937330485
 20
-206.759395084023
 30
0.0
 11
-497.2299937330485
 21
-195.4275711990518
 31
0.0
  0
LINE
  5
120
330
1F
100
AcDbEntity
  8
0
  6
Continuous
 62
     7
370
    15
100
AcDbLine
 10
-197.2299937330485
 20
-195.4275711990518
 30
0.0
 11
-207.7641588401229
 21
-195.4275711990518
 31
0.0
  0
LINE
  5
121
330
1F
100
AcDbEntity
  8
0
  6
Continuous
 62
     7
370
    15
100
AcDbLine
 10
-197.2299937330485
 20
-206.759395084023
 30
0.0
 11
-197.2299937330485
 21
-195.4275711990518
 31
0.0
  0
LINE
  5
122
330
1F
100
AcDbEntity
  8
0
  6
Continuous
 62
     7
370
    15
100
AcDbLine
 10
-207.7641588401229
 20
-206.759395084023
 30
0.0
 11
-197.2299937330485
 21
-206.759395084023
 31
0.0
  0
LINE
  5
123
330
1F
100
AcDbEntity
  8
0
  6
Continuous
 62
     7
370
    15
100
AcDbLine
 10
-207.7641588401229
 20
-195.4275711990518
 30
0.0
 11
-207.7641588401229
 21
-206.759395084023
 31
0.0
  0
LINE
  5
124
330
1F
100
AcDbEntity
  8
0
  6
Continuous
 62
     7
370
    15
100
AcDbLine
 10
-447.2299937330484
 20
-195.4275711990518
 30
0.0
 11
-457.7641588401228
 21
-195.4275711990518
 31
0.0
  0
LINE
  5
125
330
1F
100
AcDbEntity
  8
0
  6
Continuous
 62
     7
370
    15
100
AcDbLine
 10
-447.2299937330484
 20
-206.759395084023
 30
0.0
 11
-447.2299937330484
 21
-195.4275711990518
 31
0.0
  0
LINE
  5
126
330
1F
100
AcDbEntity
  8
0
  6
Continuous
 62
     7
370
    15
100
AcDbLine
 10
-457.7641588401228
 20
-195.4275711990518
 30
0.0
 11
-457.7641588401228
 21
-206.759395084023
 31
0.0
  0
LINE
  5
127
330
1F
100
AcDbEntity
  8
0
  6
Continuous
 62
     7
370
    15
100
AcDbLine
 10
-457.7641588401228
 20
-206.759395084023
 30
0.0
 11
-447.2299937330484
 21
-206.759395084023
 31
0.0
  0
LINE
  5
128
330
1F
100
AcDbEntity
  8
0
  6
Continuous
 62
     7
370
    15
100
AcDbLine
 10
-347.2299937330486
 20
-195.4275711990518
 30
0.0
 11
-357.7641588401229
 21
-195.4275711990518
 31
0.0
  0
LINE
  5
129
330
1F
100
AcDbEntity
  8
0
  6
Continuous
 62
     7
370
    15
100
AcDbLine
 10
-347.2299937330486
 20
-206.759395084023
 30
0.0
 11
-347.2299937330486
 21
-195.4275711990518
 31
0.0
  0
LINE
  5
12A
330
1F
100
AcDbEntity
  8
0
  6
Continuous
 62
     7
370
    15
100
AcDbLine
 10
-357.7641588401229
 20
-195.4275711990518
 30
0.0
 11
-357.7641588401229
 21
-206.759395084023
 31
0.0
  0
LINE
  5
12B
330
1F
100
AcDbEntity
  8
0
  6
Continuous
 62
     7
370
    15
100
AcDbLine
 10
-357.7641588401229
 20
-206.759395084023
 30
0.0
 11
-347.2299937330486
 21
-206.759395084023
 31
0.0
  0
LINE
  5
12C
330
1F
100
AcDbEntity
  8
0
  6
Continuous
 62
     7
370
    15
100
AcDbLine
 10
-697.2299937330485
 20
-195.4275711990518
 30
0.0
 11
-707.7641588401229
 21
-195.4275711990518
 31
0.0
  0
LINE
  5
12D
330
1F
100
AcDbEntity
  8
0
  6
Continuous
 62
     7
370
    15
100
AcDbLine
 10
-697.2299937330485
 20
-206.759395084023
 30
0.0
 11
-697.2299937330485
 21
-195.4275711990518
 31
0.0
  0
LINE
  5
12E
330
1F
100
AcDbEntity
  8
0
  6
Continuous
 62
     7
370
    15
100
AcDbLine
 10
-707.7641588401229
 20
-206.759395084023
 30
0.0
 11
-697.2299937330485
 21
-206.759395084023
 31
0.0
  0
LINE
  5
12F
330
1F
100
AcDbEntity
  8
0
  6
Continuous
 62
     7
370
    15
100
AcDbLine
 10
-707.7641588401229
 20
-195.4275711990518
 30
0.0
 11
-707.7641588401229
 21
-206.759395084023
 31
0.0
  0
LINE
  5
130
330
1F
100
AcDbEntity
  8
0
  6
Continuous
 62
     7
370
    15
100
AcDbLine
 10
-347.2299937330489
 20
-165.4275711990518
 30
0.0
 11
-357.7641588401233
 21
-165.4275711990518
 31
0.0
  0
LINE
  5
131
330
1F
100
AcDbEntity
  8
0
  6
Continuous
 62
     7
370
    15
100
AcDbLine
 10
-347.2299937330489
 20
-176.7593950840229
 30
0.0
 11
-347.2299937330489
 21
-165.4275711990518
 31
0.0
  0
LINE
  5
132
330
1F
100
AcDbEntity
  8
0
  6
Continuous
 62
     7
370
    15
100
AcDbLine
 10
-357.7641588401233
 20
-176.7593950840229
 30
0.0
 11
-347.2299937330489
 21
-176.7593950840229
 31
0.0
  0
LINE
  5
133
330
1F
100
AcDbEntity
  8
0
  6
Continuous
 62
     7
370
    15
100
AcDbLine
 10
-357.7641588401233
 20
-165.4275711990518
 30
0.0
 11
-357.7641588401233
 21
-176.7593950840229
 31
0.0
  0
LINE
  5
134
330
1F
100
AcDbEntity
  8
0
  6
Continuous
 62
     7
370
    15
100
AcDbLine
 10
352.7700062669512
 20
-165.4275711990518
 30
0.0
 11
342.2358411598766
 21
-165.4275711990518
 31
0.0
  0
LINE
  5
135
330
1F
100
AcDbEntity
  8
0
  6
Continuous
 62
     7
370
    15
100
AcDbLine
 10
342.2358411598766
 20
-176.7593950840229
 30
0.0
 11
352.7700062669512
 21
-176.7593950840229
 31
0.0
  0
LINE
  5
136
330
1F
100
AcDbEntity
  8
0
  6
Continuous
 62
     7
370
    15
100
AcDbLine
 10
342.2358411598766
 20
-165.4275711990518
 30
0.0
 11
342.2358411598766
 21
-176.7593950840229
 31
0.0
  0
LINE
  5
137
330
1F
100
AcDbEntity
  8
0
  6
Continuous
 62
     7
370
    15
100
AcDbLine
 10
352.7700062669512
 20
-176.7593950840229
 30
0.0
 11
352.7700062669512
 21
-165.4275711990518
 31
0.0
  0
LINE
  5
138
330
1F
100
AcDbEntity
  8
0
  6
Continuous
 62
     7
370
    15
100
AcDbLine
 10
-247.2299937330489
 20
-165.4275711990518
 30
0.0
 11
-257.7641588401233
 21
-165.4275711990518
 31
0.0
  0
LINE
  5
139
330
1F
100
AcDbEntity
  8
0
  6
Continuous
 62
     7
370
    15
100
AcDbLine
 10
-247.2299937330489
 20
-176.7593950840229
 30
0.0
 11
-247.2299937330489
 21
-165.4275711990518
 31
0.0
  0
LINE
  5
13A
330
1F
100
AcDbEntity
  8
0
  6
Continuous
 62
     7
370
    15
100
AcDbLine
 10
-257.7641588401233
 20
-176.7593950840229
 30
0.0
 11
-247.2299937330489
 21
-176.7593950840229
 31
0.0
  0
LINE
  5
13B
330
1F
100
AcDbEntity
  8
0
  6
Continuous
 62
     7
370
    15
100
AcDbLine
 10
-257.7641588401233
 20
-165.4275711990518
 30
0.0
 11
-257.7641588401233
 21
-176.7593950840229
 31
0.0
  0
LINE
  5
13C
330
1F
100
AcDbEntity
  8
0
  6
Continuous
 62
     7
370
    15
100
AcDbLine
 10
-197.2299937330488
 20
-165.4275711990518
 30
0.0
 11
-207.7641588401232
 21
-165.4275711990518
 31
0.0
  0
LINE
  5
13D
330
1F
100
AcDbEntity
  8
0
  6
Continuous
 62
     7
370
    15
100
AcDbLine
 10
-197.2299937330488
 20
-176.7593950840229
 30
0.0
 11
-197.2299937330488
 21
-165.4275711990518
 31
0.0
  0
LINE
  5
13E
330
1F
100
AcDbEntity
  8
0
  6
Continuous
 62
     7
370
    15
100
AcDbLine
 10
-207.7641588401232
 20
-176.7593950840229
 30
0.0
 11
-197.2299937330488
 21
-176.7593950840229
 31
0.0
  0
LINE
  5
13F
330
1F
100
AcDbEntity
  8
0
  6
Continuous
 62
     7
370
    15
100
AcDbLine
 10
-207.7641588401232
 20
-165.4275711990518
 30
0.0
 11
-207.7641588401232
 21
-176.7593950840229
 31
0.0
  0
LINE
  5
140
330
1F
100
AcDbEntity
  8
0
  6
Continuous
 62
     7
370
    15
100
AcDbLine
 10
-697.2299937330489
 20
-165.4275711990518
 30
0.0
 11
-707.7641588401234
 21
-165.4275711990518
 31
0.0
  0
LINE
  5
141
330
1F
100
AcDbEntity
  8
0
  6
Continuous
 62
     7
370
    15
100
AcDbLine
 10
-697.2299937330489
 20
-176.7593950840229
 30
0.0
 11
-697.2299937330489
 21
-165.4275711990518
 31
0.0
  0
LINE
  5
142
330
1F
100
AcDbEntity
  8
0
  6
Continuous
 62
     7
370
    15
100
AcDbLine
 10
-707.7641588401234
 20
-176.7593950840229
 30
0.0
 11
-697.2299937330489
 21
-176.7593950840229
 31
0.0
  0
LINE
  5
143
330
1F
100
AcDbEntity
  8
0
  6
Continuous
 62
     7
370
    15
100
AcDbLine
 10
-707.7641588401234
 20
-165.4275711990518
 30
0.0
 11
-707.7641588401234
 21
-176.7593950840229
 31
0.0
  0
LINE
  5
144
330
1F
100
AcDbEntity
  8
0
  6
Continuous
 62
     7
370
    15
100
AcDbLine
 10
202.7700062669512
 20
-165.4275711990518
 30
0.0
 11
192.2358411598766
 21
-165.4275711990518
 31
0.0
  0
LINE
  5
145
330
1F
100
AcDbEntity
  8
0
  6
Continuous
 62
     7
370
    15
100
AcDbLine
 10
202.7700062669512
 20
-176.7593950840229
 30
0.0
 11
202.7700062669512
 21
-165.4275711990518
 31
0.0
  0
LINE
  5
146
330
1F
100
AcDbEntity
  8
0
  6
Continuous
 62
     7
370
    15
100
AcDbLine
 10
192.2358411598766
 20
-176.7593950840229
 30
0.0
 11
202.7700062669512
 21
-176.7593950840229
 31
0.0
  0
LINE
  5
147
330
1F
100
AcDbEntity
  8
0
  6
Continuous
 62
     7
370
    15
100
AcDbLine
 10
192.2358411598766
 20
-165.4275711990518
 30
0.0
 11
192.2358411598766
 21
-176.7593950840229
 31
0.0
  0
LINE
  5
148
330
1F
100
AcDbEntity
  8
0
  6
Continuous
 62
     7
370
    15
100
AcDbLine
 10
-597.2299937330489
 20
-165.4275711990518
 30
0.0
 11
-607.7641588401231
 21
-165.4275711990518
 31
0.0
  0
LINE
  5
149
330
1F
100
AcDbEntity
  8
0
  6
Continuous
 62
     7
370
    15
100
AcDbLine
 10
-597.2299937330489
 20
-176.7593950840229
 30
0.0
 11
-597.2299937330489
 21
-165.4275711990518
 31
0.0
  0
LINE
  5
14A
330
1F
100
AcDbEntity
  8
0
  6
Continuous
 62
     7
370
    15
100
AcDbLine
 10
-607.7641588401231
 20
-176.7593950840229
 30
0.0
 11
-597.2299937330489
 21
-176.7593950840229
 31
0.0
  0
LINE
  5
14B
330
1F
100
AcDbEntity
  8
0
  6
Continuous
 62
     7
370
    15
100
AcDbLine
 10
-607.7641588401231
 20
-165.4275711990518
 30
0.0
 11
-607.7641588401231
 21
-176.7593950840229
 31
0.0
  0
LINE
  5
14C
330
1F
100
AcDbEntity
  8
0
  6
Continuous
 62
     7
370
    15
100
AcDbLine
 10
152.770006266951
 20
-165.4275711990518
 30
0.0
 11
142.2358411598768
 21
-165.4275711990518
 31
0.0
  0
LINE
  5
14D
330
1F
100
AcDbEntity
  8
0
  6
Continuous
 62
     7
370
    15
100
AcDbLine
 10
142.2358411598768
 20
-165.4275711990518
 30
0.0
 11
142.2358411598768
 21
-176.7593950840229
 31
0.0
  0
LINE
  5
14E
330
1F
100
AcDbEntity
  8
0
  6
Continuous
 62
     7
370
    15
100
AcDbLine
 10
142.2358411598768
 20
-176.7593950840229
 30
0.0
 11
152.770006266951
 21
-176.7593950840229
 31
0.0
  0
LINE
  5
14F
330
1F
100
AcDbEntity
  8
0
  6
Continuous
 62
     7
370
    15
100
AcDbLine
 10
152.770006266951
 20
-176.7593950840229
 30
0.0
 11
152.770006266951
 21
-165.4275711990518
 31
0.0
  0
LINE
  5
150
330
1F
100
AcDbEntity
  8
0
  6
Continuous
 62
     7
370
    15
100
AcDbLine
 10
402.7700062669514
 20
-165.4275711990518
 30
0.0
 11
392.2358411598768
 21
-165.4275711990518
 31
0.0
  0
LINE
  5
151
330
1F
100
AcDbEntity
  8
0
  6
Continuous
 62
     7
370
    15
100
AcDbLine
 10
402.7700062669514
 20
-176.7593950840229
 30
0.0
 11
402.7700062669514
 21
-165.4275711990518
 31
0.0
  0
LINE
  5
152
330
1F
100
AcDbEntity
  8
0
  6
Continuous
 62
     7
370
    15
100
AcDbLine
 10
392.2358411598768
 20
-176.7593950840229
 30
0.0
 11
402.7700062669514
 21
-176.7593950840229
 31
0.0
  0
LINE
  5
153
330
1F
100
AcDbEntity
  8
0
  6
Continuous
 62
     7
370
    15
100
AcDbLine
 10
392.2358411598768
 20
-165.4275711990518
 30
0.0
 11
392.2358411598768
 21
-176.7593950840229
 31
0.0
  0
LINE
  5
154
330
1F
100
AcDbEntity
  8
0
  6
Continuous
 62
     7
370
    15
100
AcDbLine
 10
-47.22999373304901
 20
-165.4275711990518
 30
0.0
 11
-57.76415884012329
 21
-165.4275711990518
 31
0.0
  0
LINE
  5
155
330
1F
100
AcDbEntity
  8
0
  6
Continuous
 62
     7
370
    15
100
AcDbLine
 10
-47.22999373304901
 20
-176.7593950840229
 30
0.0
 11
-47.22999373304901
 21
-165.4275711990518
 31
0.0
  0
LINE
  5
156
330
1F
100
AcDbEntity
  8
0
  6
Continuous
 62
     7
370
    15
100
AcDbLine
 10
-57.76415884012329
 20
-176.7593950840229
 30
0.0
 11
-47.22999373304901
 21
-176.7593950840229
 31
0.0
  0
LINE
  5
157
330
1F
100
AcDbEntity
  8
0
  6
Continuous
 62
     7
370
    15
100
AcDbLine
 10
-57.76415884012329
 20
-165.4275711990518
 30
0.0
 11
-57.76415884012329
 21
-176.7593950840229
 31
0.0
  0
LINE
  5
158
330
1F
100
AcDbEntity
  8
0
  6
Continuous
 62
     7
370
    15
100
AcDbLine
 10
252.770006266951
 20
-165.4275711990518
 30
0.0
 11
242.2358411598766
 21
-165.4275711990518
 31
0.0
  0
LINE
  5
159
330
1F
100
AcDbEntity
  8
0
  6
Continuous
 62
     7
370
    15
100
AcDbLine
 10
242.2358411598766
 20
-165.4275711990518
 30
0.0
 11
242.2358411598766
 21
-176.7593950840229
 31
0.0
  0
LINE
  5
15A
330
1F
100
AcDbEntity
  8
0
  6
Continuous
 62
     7
370
    15
100
AcDbLine
 10
242.2358411598766
 20
-176.7593950840229
 30
0.0
 11
252.770006266951
 21
-176.7593950840229
 31
0.0
  0
LINE
  5
15B
330
1F
100
AcDbEntity
  8
0
  6
Continuous
 62
     7
370
    15
100
AcDbLine
 10
252.770006266951
 20
-176.7593950840229
 30
0.0
 11
252.770006266951
 21
-165.4275711990518
 31
0.0
  0
LINE
  5
15C
330
1F
100
AcDbEntity
  8
0
  6
Continuous
 62
     7
370
    15
100
AcDbLine
 10
52.77000626695121
 20
-165.4275711990518
 30
0.0
 11
42.23584115987683
 21
-165.4275711990518
 31
0.0
  0
LINE
  5
15D
330
1F
100
AcDbEntity
  8
0
  6
Continuous
 62
     7
370
    15
100
AcDbLine
 10
42.23584115987683
 20
-176.7593950840229
 30
0.0
 11
52.77000626695121
 21
-176.7593950840229
 31
0.0
  0
LINE
  5
15E
330
1F
100
AcDbEntity
  8
0
  6
Continuous
 62
     7
370
    15
100
AcDbLine
 10
52.77000626695121
 20
-176.7593950840229
 30
0.0
 11
52.77000626695121
 21
-165.4275711990518
 31
0.0
  0
LINE
  5
15F
330
1F
100
AcDbEntity
  8
0
  6
Continuous
 62
     7
370
    15
100
AcDbLine
 10
42.23584115987683
 20
-165.4275711990518
 30
0.0
 11
42.23584115987683
 21
-176.7593950840229
 31
0.0
  0
LINE
  5
160
330
1F
100
AcDbEntity
  8
0
  6
Continuous
 62
     7
370
    15
100
AcDbLine
 10
302.7700062669512
 20
-165.4275711990518
 30
0.0
 11
292.2358411598766
 21
-165.4275711990518
 31
0.0
  0
LINE
  5
161
330
1F
100
AcDbEntity
  8
0
  6
Continuous
 62
     7
370
    15
100
AcDbLine
 10
302.7700062669512
 20
-176.7593950840229
 30
0.0
 11
302.7700062669512
 21
-165.4275711990518
 31
0.0
  0
LINE
  5
162
330
1F
100
AcDbEntity
  8
0
  6
Continuous
 62
     7
370
    15
100
AcDbLine
 10
292.2358411598766
 20
-176.7593950840229
 30
0.0
 11
302.7700062669512
 21
-176.7593950840229
 31
0.0
  0
LINE
  5
163
330
1F
100
AcDbEntity
  8
0
  6
Continuous
 62
     7
370
    15
100
AcDbLine
 10
292.2358411598766
 20
-165.4275711990518
 30
0.0
 11
292.2358411598766
 21
-176.7593950840229
 31
0.0
  0
LINE
  5
164
330
1F
100
AcDbEntity
  8
0
  6
Continuous
 62
     7
370
    15
100
AcDbLine
 10
102.770006266951
 20
-165.4275711990518
 30
0.0
 11
92.23584115987671
 21
-165.4275711990518
 31
0.0
  0
LINE
  5
165
330
1F
100
AcDbEntity
  8
0
  6
Continuous
 62
     7
370
    15
100
AcDbLine
 10
102.770006266951
 20
-176.7593950840229
 30
0.0
 11
102.770006266951
 21
-165.4275711990518
 31
0.0
  0
LINE
  5
166
330
1F
100
AcDbEntity
  8
0
  6
Continuous
 62
     7
370
    15
100
AcDbLine
 10
92.23584115987671
 20
-176.7593950840229
 30
0.0
 11
102.770006266951
 21
-176.7593950840229
 31
0.0
  0
LINE
  5
167
330
1F
100
AcDbEntity
  8
0
  6
Continuous
 62
     7
370
    15
100
AcDbLine
 10
92.23584115987671
 20
-165.4275711990518
 30
0.0
 11
92.23584115987671
 21
-176.7593950840229
 31
0.0
  0
LINE
  5
168
330
1F
100
AcDbEntity
  8
0
  6
Continuous
 62
     7
370
    15
100
AcDbLine
 10
-97.2299937330488
 20
-165.4275711990518
 30
0.0
 11
-107.7641588401232
 21
-165.4275711990518
 31
0.0
  0
LINE
  5
169
330
1F
100
AcDbEntity
  8
0
  6
Continuous
 62
     7
370
    15
100
AcDbLine
 10
-107.7641588401232
 20
-176.7593950840229
 30
0.0
 11
-97.2299937330488
 21
-176.7593950840229
 31
0.0
  0
LINE
  5
16A
330
1F
100
AcDbEntity
  8
0
  6
Continuous
 62
     7
370
    15
100
AcDbLine
 10
-107.7641588401232
 20
-165.4275711990518
 30
0.0
 11
-107.7641588401232
 21
-176.7593950840229
 31
0.0
  0
LINE
  5
16B
330
1F
100
AcDbEntity
  8
0
  6
Continuous
 62
     7
370
    15
100
AcDbLine
 10
-97.2299937330488
 20
-176.7593950840229
 30
0.0
 11
-97.2299937330488
 21
-165.4275711990518
 31
0.0
  0
LINE
  5
16C
330
1F
100
AcDbEntity
  8
0
  6
Continuous
 62
     7
370
    15
100
AcDbLine
 10
-147.229993733049
 20
-165.4275711990518
 30
0.0
 11
-157.7641588401233
 21
-165.4275711990518
 31
0.0
  0
LINE
  5
16D
330
1F
100
AcDbEntity
  8
0
  6
Continuous
 62
     7
370
    15
100
AcDbLine
 10
-147.229993733049
 20
-176.7593950840229
 30
0.0
 11
-147.229993733049
 21
-165.4275711990518
 31
0.0
  0
LINE
  5
16E
330
1F
100
AcDbEntity
  8
0
  6
Continuous
 62
     7
370
    15
100
AcDbLine
 10
-157.7641588401233
 20
-176.7593950840229
 30
0.0
 11
-147.229993733049
 21
-176.7593950840229
 31
0.0
  0
LINE
  5
16F
330
1F
100
AcDbEntity
  8
0
  6
Continuous
 62
     7
370
    15
100
AcDbLine
 10
-157.7641588401233
 20
-165.4275711990518
 30
0.0
 11
-157.7641588401233
 21
-176.7593950840229
 31
0.0
  0
LINE
  5
170
330
1F
100
AcDbEntity
  8
0
  6
Continuous
 62
     7
370
    15
100
AcDbLine
 10
-497.2299937330488
 20
-165.4275711990518
 30
0.0
 11
-507.7641588401233
 21
-165.4275711990518
 31
0.0
  0
LINE
  5
171
330
1F
100
AcDbEntity
  8
0
  6
Continuous
 62
     7
370
    15
100
AcDbLine
 10
-497.2299937330488
 20
-176.7593950840229
 30
0.0
 11
-497.2299937330488
 21
-165.4275711990518
 31
0.0
  0
LINE
  5
172
330
1F
100
AcDbEntity
  8
0
  6
Continuous
 62
     7
370
    15
100
AcDbLine
 10
-507.7641588401233
 20
-176.7593950840229
 30
0.0
 11
-497.2299937330488
 21
-176.7593950840229
 31
0.0
  0
LINE
  5
173
330
1F
100
AcDbEntity
  8
0
  6
Continuous
 62
     7
370
    15
100
AcDbLine
 10
-507.7641588401233
 20
-165.4275711990518
 30
0.0
 11
-507.7641588401233
 21
-176.7593950840229
 31
0.0
  0
LINE
  5
174
330
1F
100
AcDbEntity
  8
0
  6
Continuous
 62
     7
370
    15
100
AcDbLine
 10
2.770006266950986
 20
-165.4275711990518
 30
0.0
 11
-7.764158840123286
 21
-165.4275711990518
 31
0.0
  0
LINE
  5
175
330
1F
100
AcDbEntity
  8
0
  6
Continuous
 62
     7
370
    15
100
AcDbLine
 10
2.770006266950986
 20
-176.7593950840229
 30
0.0
 11
2.770006266950986
 21
-165.4275711990518
 31
0.0
  0
LINE
  5
176
330
1F
100
AcDbEntity
  8
0
  6
Continuous
 62
     7
370
    15
100
AcDbLine
 10
-7.764158840123286
 20
-165.4275711990518
 30
0.0
 11
-7.764158840123286
 21
-176.7593950840229
 31
0.0
  0
LINE
  5
177
330
1F
100
AcDbEntity
  8
0
  6
Continuous
 62
     7
370
    15
100
AcDbLine
 10
-7.764158840123286
 20
-176.7593950840229
 30
0.0
 11
2.770006266950986
 21
-176.7593950840229
 31
0.0
  0
LINE
  5
178
330
1F
100
AcDbEntity
  8
0
  6
Continuous
 62
     7
370
    15
100
AcDbLine
 10
-797.2299937330489
 20
-165.4275711990518
 30
0.0
 11
-807.7641588401233
 21
-165.4275711990518
 31
0.0
  0
LINE
  5
179
330
1F
100
AcDbEntity
  8
0
  6
Continuous
 62
     7
370
    15
100
AcDbLine
 10
-807.7641588401233
 20
-165.4275711990518
 30
0.0
 11
-807.7641588401233
 21
-176.7593950840229
 31
0.0
  0
LINE
  5
17A
330
1F
100
AcDbEntity
  8
0
  6
Continuous
 62
     7
370
    15
100
AcDbLine
 10
-807.7641588401233
 20
-176.7593950840229
 30
0.0
 11
-797.2299937330489
 21
-176.7593950840229
 31
0.0
  0
LINE
  5
17B
330
1F
100
AcDbEntity
  8
0
  6
Continuous
 62
     7
370
    15
100
AcDbLine
 10
-797.2299937330489
 20
-176.7593950840229
 30
0.0
 11
-797.2299937330489
 21
-165.4275711990518
 31
0.0
  0
LINE
  5
17C
330
1F
100
AcDbEntity
  8
0
  6
Continuous
 62
     7
370
    15
100
AcDbLine
 10
-397.2299937330489
 20
-165.4275711990518
 30
0.0
 11
-407.7641588401232
 21
-165.4275711990518
 31
0.0
  0
LINE
  5
17D
330
1F
100
AcDbEntity
  8
0
  6
Continuous
 62
     7
370
    15
100
AcDbLine
 10
-407.7641588401232
 20
-165.4275711990518
 30
0.0
 11
-407.7641588401232
 21
-176.7593950840229
 31
0.0
  0
LINE
  5
17E
330
1F
100
AcDbEntity
  8
0
  6
Continuous
 62
     7
370
    15
100
AcDbLine
 10
-397.2299937330489
 20
-176.7593950840229
 30
0.0
 11
-397.2299937330489
 21
-165.4275711990518
 31
0.0
  0
LINE
  5
17F
330
1F
100
AcDbEntity
  8
0
  6
Continuous
 62
     7
370
    15
100
AcDbLine
 10
-407.7641588401232
 20
-176.7593950840229
 30
0.0
 11
-397.2299937330489
 21
-176.7593950840229
 31
0.0
  0
LINE
  5
180
330
1F
100
AcDbEntity
  8
0
  6
Continuous
 62
     7
370
    15
100
AcDbLine
 10
-747.2299937330489
 20
-165.4275711990518
 30
0.0
 11
-757.7641588401233
 21
-165.4275711990518
 31
0.0
  0
LINE
  5
181
330
1F
100
AcDbEntity
  8
0
  6
Continuous
 62
     7
370
    15
100
AcDbLine
 10
-747.2299937330489
 20
-176.7593950840229
 30
0.0
 11
-747.2299937330489
 21
-165.4275711990518
 31
0.0
  0
LINE
  5
182
330
1F
100
AcDbEntity
  8
0
  6
Continuous
 62
     7
370
    15
100
AcDbLine
 10
-757.7641588401233
 20
-176.7593950840229
 30
0.0
 11
-747.2299937330489
 21
-176.7593950840229
 31
0.0
  0
LINE
  5
183
330
1F
100
AcDbEntity
  8
0
  6
Continuous
 62
     7
370
    15
100
AcDbLine
 10
-757.7641588401233
 20
-165.4275711990518
 30
0.0
 11
-757.7641588401233
 21
-176.7593950840229
 31
0.0
  0
LINE
  5
184
330
1F
100
AcDbEntity
  8
0
  6
Continuous
 62
     7
370
    15
100
AcDbLine
 10
-297.2299937330489
 20
-165.4275711990518
 30
0.0
 11
-307.7641588401233
 21
-165.4275711990518
 31
0.0
  0
LINE
  5
185
330
1F
100
AcDbEntity
  8
0
  6
Continuous
 62
     7
370
    15
100
AcDbLine
 10
-297.2299937330489
 20
-176.7593950840229
 30
0.0
 11
-297.2299937330489
 21
-165.4275711990518
 31
0.0
  0
LINE
  5
186
330
1F
100
AcDbEntity
  8
0
  6
Continuous
 62
     7
370
    15
100
AcDbLine
 10
-307.7641588401233
 20
-176.7593950840229
 30
0.0
 11
-297.2299937330489
 21
-176.7593950840229
 31
0.0
  0
LINE
  5
187
330
1F
100
AcDbEntity
  8
0
  6
Continuous
 62
     7
370
    15
100
AcDbLine
 10
-307.7641588401233
 20
-165.4275711990518
 30
0.0
 11
-307.7641588401233
 21
-176.7593950840229
 31
0.0
  0
LINE
  5
188
330
1F
100
AcDbEntity
  8
0
  6
Continuous
 62
     7
370
    15
100
AcDbLine
 10
-547.2299937330489
 20
-165.4275711990518
 30
0.0
 11
-557.7641588401234
 21
-165.4275711990518
 31
0.0
  0
LINE
  5
189
330
1F
100
AcDbEntity
  8
0
  6
Continuous
 62
     7
370
    15
100
AcDbLine
 10
-547.2299937330489
 20
-176.7593950840229
 30
0.0
 11
-547.2299937330489
 21
-165.4275711990518
 31
0.0
  0
LINE
  5
18A
330
1F
100
AcDbEntity
  8
0
  6
Continuous
 62
     7
370
    15
100
AcDbLine
 10
-557.7641588401234
 20
-176.7593950840229
 30
0.0
 11
-547.2299937330489
 21
-176.7593950840229
 31
0.0
  0
LINE
  5
18B
330
1F
100
AcDbEntity
  8
0
  6
Continuous
 62
     7
370
    15
100
AcDbLine
 10
-557.7641588401234
 20
-165.4275711990518
 30
0.0
 11
-557.7641588401234
 21
-176.7593950840229
 31
0.0
  0
LINE
  5
18C
330
1F
100
AcDbEntity
  8
0
  6
Continuous
 62
     7
370
    15
100
AcDbLine
 10
-447.2299937330489
 20
-165.4275711990518
 30
0.0
 11
-457.7641588401232
 21
-165.4275711990518
 31
0.0
  0
LINE
  5
18D
330
1F
100
AcDbEntity
  8
0
  6
Continuous
 62
     7
370
    15
100
AcDbLine
 10
-447.2299937330489
 20
-176.7593950840229
 30
0.0
 11
-447.2299937330489
 21
-165.4275711990518
 31
0.0
  0
LINE
  5
18E
330
1F
100
AcDbEntity
  8
0
  6
Continuous
 62
     7
370
    15
100
AcDbLine
 10
-457.7641588401232
 20
-176.7593950840229
 30
0.0
 11
-447.2299937330489
 21
-176.7593950840229
 31
0.0
  0
LINE
  5
18F
330
1F
100
AcDbEntity
  8
0
  6
Continuous
 62
     7
370
    15
100
AcDbLine
 10
-457.7641588401232
 20
-165.4275711990518
 30
0.0
 11
-457.7641588401232
 21
-176.7593950840229
 31
0.0
  0
LINE
  5
190
330
1F
100
AcDbEntity
  8
0
  6
Continuous
 62
     7
370
    15
100
AcDbLine
 10
-647.229993733049
 20
-165.4275711990518
 30
0.0
 11
-657.7641588401233
 21
-165.4275711990518
 31
0.0
  0
LINE
  5
191
330
1F
100
AcDbEntity
  8
0
  6
Continuous
 62
     7
370
    15
100
AcDbLine
 10
-647.229993733049
 20
-176.7593950840229
 30
0.0
 11
-647.229993733049
 21
-165.4275711990518
 31
0.0
  0
LINE
  5
192
330
1F
100
AcDbEntity
  8
0
  6
Continuous
 62
     7
370
    15
100
AcDbLine
 10
-657.7641588401233
 20
-176.7593950840229
 30
0.0
 11
-647.229993733049
 21
-176.7593950840229
 31
0.0
  0
LINE
  5
193
330
1F
100
AcDbEntity
  8
0
  6
Continuous
 62
     7
370
    15
100
AcDbLine
 10
-657.7641588401233
 20
-165.4275711990518
 30
0.0
 11
-657.7641588401233
 21
-176.7593950840229
 31
0.0
  0
LINE
  5
194
330
1F
100
AcDbEntity
  8
0
  6
Continuous
 62
     7
370
    15
100
AcDbLine
 10
402.7700062669509
 20
-135.4275711990518
 30
0.0
 11
392.2358411598766
 21
-135.4275711990518
 31
0.0
  0
LINE
  5
195
330
1F
100
AcDbEntity
  8
0
  6
Continuous
 62
     7
370
    15
100
AcDbLine
 10
402.7700062669509
 20
-146.759395084023
 30
0.0
 11
402.7700062669509
 21
-135.4275711990518
 31
0.0
  0
LINE
  5
196
330
1F
100
AcDbEntity
  8
0
  6
Continuous
 62
     7
370
    15
100
AcDbLine
 10
392.2358411598766
 20
-146.759395084023
 30
0.0
 11
402.7700062669509
 21
-146.759395084023
 31
0.0
  0
LINE
  5
197
330
1F
100
AcDbEntity
  8
0
  6
Continuous
 62
     7
370
    15
100
AcDbLine
 10
392.2358411598766
 20
-135.4275711990518
 30
0.0
 11
392.2358411598766
 21
-146.759395084023
 31
0.0
  0
LINE
  5
198
330
1F
100
AcDbEntity
  8
0
  6
Continuous
 62
     7
370
    15
100
AcDbLine
 10
252.770006266951
 20
-135.4275711990518
 30
0.0
 11
242.2358411598766
 21
-135.4275711990518
 31
0.0
  0
LINE
  5
199
330
1F
100
AcDbEntity
  8
0
  6
Continuous
 62
     7
370
    15
100
AcDbLine
 10
252.770006266951
 20
-146.759395084023
 30
0.0
 11
252.770006266951
 21
-135.4275711990518
 31
0.0
  0
LINE
  5
19A
330
1F
100
AcDbEntity
  8
0
  6
Continuous
 62
     7
370
    15
100
AcDbLine
 10
242.2358411598766
 20
-146.759395084023
 30
0.0
 11
252.770006266951
 21
-146.759395084023
 31
0.0
  0
LINE
  5
19B
330
1F
100
AcDbEntity
  8
0
  6
Continuous
 62
     7
370
    15
100
AcDbLine
 10
242.2358411598766
 20
-135.4275711990518
 30
0.0
 11
242.2358411598766
 21
-146.759395084023
 31
0.0
  0
LINE
  5
19C
330
1F
100
AcDbEntity
  8
0
  6
Continuous
 62
     7
370
    15
100
AcDbLine
 10
-197.2299937330491
 20
-135.4275711990518
 30
0.0
 11
-207.7641588401234
 21
-135.4275711990518
 31
0.0
  0
LINE
  5
19D
330
1F
100
AcDbEntity
  8
0
  6
Continuous
 62
     7
370
    15
100
AcDbLine
 10
-207.7641588401234
 20
-146.759395084023
 30
0.0
 11
-197.2299937330491
 21
-146.759395084023
 31
0.0
  0
LINE
  5
19E
330
1F
100
AcDbEntity
  8
0
  6
Continuous
 62
     7
370
    15
100
AcDbLine
 10
-207.7641588401234
 20
-135.4275711990518
 30
0.0
 11
-207.7641588401234
 21
-146.759395084023
 31
0.0
  0
LINE
  5
19F
330
1F
100
AcDbEntity
  8
0
  6
Continuous
 62
     7
370
    15
100
AcDbLine
 10
-197.2299937330491
 20
-146.759395084023
 30
0.0
 11
-197.2299937330491
 21
-135.4275711990518
 31
0.0
  0
LINE
  5
1A0
330
1F
100
AcDbEntity
  8
0
  6
Continuous
 62
     7
370
    15
100
AcDbLine
 10
302.770006266951
 20
-135.4275711990518
 30
0.0
 11
292.2358411598766
 21
-135.4275711990518
 31
0.0
  0
LINE
  5
1A1
330
1F
100
AcDbEntity
  8
0
  6
Continuous
 62
     7
370
    15
100
AcDbLine
 10
302.770006266951
 20
-146.759395084023
 30
0.0
 11
302.770006266951
 21
-135.4275711990518
 31
0.0
  0
LINE
  5
1A2
330
1F
100
AcDbEntity
  8
0
  6
Continuous
 62
     7
370
    15
100
AcDbLine
 10
292.2358411598766
 20
-146.759395084023
 30
0.0
 11
302.770006266951
 21
-146.759395084023
 31
0.0
  0
LINE
  5
1A3
330
1F
100
AcDbEntity
  8
0
  6
Continuous
 62
     7
370
    15
100
AcDbLine
 10
292.2358411598766
 20
-135.4275711990518
 30
0.0
 11
292.2358411598766
 21
-146.759395084023
 31
0.0
  0
LINE
  5
1A4
330
1F
100
AcDbEntity
  8
0
  6
Continuous
 62
     7
370
    15
100
AcDbLine
 10
-47.22999373304912
 20
-135.4275711990518
 30
0.0
 11
-57.76415884012362
 21
-135.4275711990518
 31
0.0
  0
LINE
  5
1A5
330
1F
100
AcDbEntity
  8
0
  6
Continuous
 62
     7
370
    15
100
AcDbLine
 10
-57.76415884012362
 20
-146.759395084023
 30
0.0
 11
-47.22999373304912
 21
-146.759395084023
 31
0.0
  0
LINE
  5
1A6
330
1F
100
AcDbEntity
  8
0
  6
Continuous
 62
     7
370
    15
100
AcDbLine
 10
-57.76415884012362
 20
-135.4275711990518
 30
0.0
 11
-57.76415884012362
 21
-146.759395084023
 31
0.0
  0
LINE
  5
1A7
330
1F
100
AcDbEntity
  8
0
  6
Continuous
 62
     7
370
    15
100
AcDbLine
 10
-47.22999373304912
 20
-146.759395084023
 30
0.0
 11
-47.22999373304912
 21
-135.4275711990518
 31
0.0
  0
LINE
  5
1A8
330
1F
100
AcDbEntity
  8
0
  6
Continuous
 62
     7
370
    15
100
AcDbLine
 10
-447.2299937330491
 20
-135.4275711990518
 30
0.0
 11
-457.7641588401235
 21
-135.4275711990518
 31
0.0
  0
LINE
  5
1A9
330
1F
100
AcDbEntity
  8
0
  6
Continuous
 62
     7
370
    15
100
AcDbLine
 10
-447.2299937330491
 20
-146.759395084023
 30
0.0
 11
-447.2299937330491
 21
-135.4275711990518
 31
0.0
  0
LINE
  5
1AA
330
1F
100
AcDbEntity
  8
0
  6
Continuous
 62
     7
370
    15
100
AcDbLine
 10
-457.7641588401235
 20
-146.759395084023
 30
0.0
 11
-447.2299937330491
 21
-146.759395084023
 31
0.0
  0
LINE
  5
1AB
330
1F
100
AcDbEntity
  8
0
  6
Continuous
 62
     7
370
    15
100
AcDbLine
 10
-457.7641588401235
 20
-135.4275711990518
 30
0.0
 11
-457.7641588401235
 21
-146.759395084023
 31
0.0
  0
LINE
  5
1AC
330
1F
100
AcDbEntity
  8
0
  6
Continuous
 62
     7
370
    15
100
AcDbLine
 10
-647.2299937330492
 20
-135.4275711990518
 30
0.0
 11
-657.7641588401236
 21
-135.4275711990518
 31
0.0
  0
LINE
  5
1AD
330
1F
100
AcDbEntity
  8
0
  6
Continuous
 62
     7
370
    15
100
AcDbLine
 10
-657.7641588401236
 20
-135.4275711990518
 30
0.0
 11
-657.7641588401236
 21
-146.759395084023
 31
0.0
  0
LINE
  5
1AE
330
1F
100
AcDbEntity
  8
0
  6
Continuous
 62
     7
370
    15
100
AcDbLine
 10
-657.7641588401236
 20
-146.759395084023
 30
0.0
 11
-647.2299937330492
 21
-146.759395084023
 31
0.0
  0
LINE
  5
1AF
330
1F
100
AcDbEntity
  8
0
  6
Continuous
 62
     7
370
    15
100
AcDbLine
 10
-647.2299937330492
 20
-146.759395084023
 30
0.0
 11
-647.2299937330492
 21
-135.4275711990518
 31
0.0
  0
LINE
  5
1B0
330
1F
100
AcDbEntity
  8
0
  6
Continuous
 62
     7
370
    15
100
AcDbLine
 10
52.77000626695098
 20
-135.4275711990518
 30
0.0
 11
42.2358411598766
 21
-135.4275711990518
 31
0.0
  0
LINE
  5
1B1
330
1F
100
AcDbEntity
  8
0
  6
Continuous
 62
     7
370
    15
100
AcDbLine
 10
42.2358411598766
 20
-146.759395084023
 30
0.0
 11
52.77000626695098
 21
-146.759395084023
 31
0.0
  0
LINE
  5
1B2
330
1F
100
AcDbEntity
  8
0
  6
Continuous
 62
     7
370
    15
100
AcDbLine
 10
42.2358411598766
 20
-135.4275711990518
 30
0.0
 11
42.2358411598766
 21
-146.759395084023
 31
0.0
  0
LINE
  5
1B3
330
1F
100
AcDbEntity
  8
0
  6
Continuous
 62
     7
370
    15
100
AcDbLine
 10
52.77000626695098
 20
-146.759395084023
 30
0.0
 11
52.77000626695098
 21
-135.4275711990518
 31
0.0
  0
LINE
  5
1B4
330
1F
100
AcDbEntity
  8
0
  6
Continuous
 62
     7
370
    15
100
AcDbLine
 10
-797.2299937330492
 20
-135.4275711990518
 30
0.0
 11
-807.7641588401236
 21
-135.4275711990518
 31
0.0
  0
LINE
  5
1B5
330
1F
100
AcDbEntity
  8
0
  6
Continuous
 62
     7
370
    15
100
AcDbLine
 10
-807.7641588401236
 20
-135.4275711990518
 30
0.0
 11
-807.7641588401236
 21
-146.759395084023
 31
0.0
  0
LINE
  5
1B6
330
1F
100
AcDbEntity
  8
0
  6
Continuous
 62
     7
370
    15
100
AcDbLine
 10
-797.2299937330492
 20
-146.759395084023
 30
0.0
 11
-797.2299937330492
 21
-135.4275711990518
 31
0.0
  0
LINE
  5
1B7
330
1F
100
AcDbEntity
  8
0
  6
Continuous
 62
     7
370
    15
100
AcDbLine
 10
-807.7641588401236
 20
-146.759395084023
 30
0.0
 11
-797.2299937330492
 21
-146.759395084023
 31
0.0
  0
LINE
  5
1B8
330
1F
100
AcDbEntity
  8
0
  6
Continuous
 62
     7
370
    15
100
AcDbLine
 10
-547.2299937330492
 20
-135.4275711990518
 30
0.0
 11
-557.7641588401236
 21
-135.4275711990518
 31
0.0
  0
LINE
  5
1B9
330
1F
100
AcDbEntity
  8
0
  6
Continuous
 62
     7
370
    15
100
AcDbLine
 10
-547.2299937330492
 20
-146.759395084023
 30
0.0
 11
-547.2299937330492
 21
-135.4275711990518
 31
0.0
  0
LINE
  5
1BA
330
1F
100
AcDbEntity
  8
0
  6
Continuous
 62
     7
370
    15
100
AcDbLine
 10
-557.7641588401236
 20
-146.759395084023
 30
0.0
 11
-547.2299937330492
 21
-146.759395084023
 31
0.0
  0
LINE
  5
1BB
330
1F
100
AcDbEntity
  8
0
  6
Continuous
 62
     7
370
    15
100
AcDbLine
 10
-557.7641588401236
 20
-135.4275711990518
 30
0.0
 11
-557.7641588401236
 21
-146.759395084023
 31
0.0
  0
LINE
  5
1BC
330
1F
100
AcDbEntity
  8
0
  6
Continuous
 62
     7
370
    15
100
AcDbLine
 10
-297.2299937330491
 20
-135.4275711990518
 30
0.0
 11
-307.7641588401235
 21
-135.4275711990518
 31
0.0
  0
LINE
  5
1BD
330
1F
100
AcDbEntity
  8
0
  6
Continuous
 62
     7
370
    15
100
AcDbLine
 10
-307.7641588401235
 20
-146.759395084023
 30
0.0
 11
-297.2299937330491
 21
-146.759395084023
 31
0.0
  0
LINE
  5
1BE
330
1F
100
AcDbEntity
  8
0
  6
Continuous
 62
     7
370
    15
100
AcDbLine
 10
-307.7641588401235
 20
-135.4275711990518
 30
0.0
 11
-307.7641588401235
 21
-146.759395084023
 31
0.0
  0
LINE
  5
1BF
330
1F
100
AcDbEntity
  8
0
  6
Continuous
 62
     7
370
    15
100
AcDbLine
 10
-297.2299937330491
 20
-146.759395084023
 30
0.0
 11
-297.2299937330491
 21
-135.4275711990518
 31
0.0
  0
LINE
  5
1C0
330
1F
100
AcDbEntity
  8
0
  6
Continuous
 62
     7
370
    15
100
AcDbLine
 10
-697.2299937330492
 20
-135.4275711990518
 30
0.0
 11
-707.7641588401236
 21
-135.4275711990518
 31
0.0
  0
LINE
  5
1C1
330
1F
100
AcDbEntity
  8
0
  6
Continuous
 62
     7
370
    15
100
AcDbLine
 10
-697.2299937330492
 20
-146.759395084023
 30
0.0
 11
-697.2299937330492
 21
-135.4275711990518
 31
0.0
  0
LINE
  5
1C2
330
1F
100
AcDbEntity
  8
0
  6
Continuous
 62
     7
370
    15
100
AcDbLine
 10
-707.7641588401236
 20
-146.759395084023
 30
0.0
 11
-697.2299937330492
 21
-146.759395084023
 31
0.0
  0
LINE
  5
1C3
330
1F
100
AcDbEntity
  8
0
  6
Continuous
 62
     7
370
    15
100
AcDbLine
 10
-707.7641588401236
 20
-135.4275711990518
 30
0.0
 11
-707.7641588401236
 21
-146.759395084023
 31
0.0
  0
LINE
  5
1C4
330
1F
100
AcDbEntity
  8
0
  6
Continuous
 62
     7
370
    15
100
AcDbLine
 10
-147.2299937330492
 20
-135.4275711990518
 30
0.0
 11
-157.7641588401236
 21
-135.4275711990518
 31
0.0
  0
LINE
  5
1C5
330
1F
100
AcDbEntity
  8
0
  6
Continuous
 62
     7
370
    15
100
AcDbLine
 10
-147.2299937330492
 20
-146.759395084023
 30
0.0
 11
-147.2299937330492
 21
-135.4275711990518
 31
0.0
  0
LINE
  5
1C6
330
1F
100
AcDbEntity
  8
0
  6
Continuous
 62
     7
370
    15
100
AcDbLine
 10
-157.7641588401236
 20
-146.759395084023
 30
0.0
 11
-147.2299937330492
 21
-146.759395084023
 31
0.0
  0
LINE
  5
1C7
330
1F
100
AcDbEntity
  8
0
  6
Continuous
 62
     7
370
    15
100
AcDbLine
 10
-157.7641588401236
 20
-135.4275711990518
 30
0.0
 11
-157.7641588401236
 21
-146.759395084023
 31
0.0
  0
LINE
  5
1C8
330
1F
100
AcDbEntity
  8
0
  6
Continuous
 62
     7
370
    15
100
AcDbLine
 10
-597.2299937330492
 20
-135.4275711990518
 30
0.0
 11
-607.7641588401236
 21
-135.4275711990518
 31
0.0
  0
LINE
  5
1C9
330
1F
100
AcDbEntity
  8
0
  6
Continuous
 62
     7
370
    15
100
AcDbLine
 10
-597.2299937330492
 20
-146.759395084023
 30
0.0
 11
-597.2299937330492
 21
-135.4275711990518
 31
0.0
  0
LINE
  5
1CA
330
1F
100
AcDbEntity
  8
0
  6
Continuous
 62
     7
370
    15
100
AcDbLine
 10
-607.7641588401236
 20
-146.759395084023
 30
0.0
 11
-597.2299937330492
 21
-146.759395084023
 31
0.0
  0
LINE
  5
1CB
330
1F
100
AcDbEntity
  8
0
  6
Continuous
 62
     7
370
    15
100
AcDbLine
 10
-607.7641588401236
 20
-135.4275711990518
 30
0.0
 11
-607.7641588401236
 21
-146.759395084023
 31
0.0
  0
LINE
  5
1CC
330
1F
100
AcDbEntity
  8
0
  6
Continuous
 62
     7
370
    15
100
AcDbLine
 10
152.770006266951
 20
-135.4275711990518
 30
0.0
 11
142.2358411598766
 21
-135.4275711990518
 31
0.0
  0
LINE
  5
1CD
330
1F
100
AcDbEntity
  8
0
  6
Continuous
 62
     7
370
    15
100
AcDbLine
 10
152.770006266951
 20
-146.759395084023
 30
0.0
 11
152.770006266951
 21
-135.4275711990518
 31
0.0
  0
LINE
  5
1CE
330
1F
100
AcDbEntity
  8
0
  6
Continuous
 62
     7
370
    15
100
AcDbLine
 10
142.2358411598766
 20
-146.759395084023
 30
0.0
 11
152.770006266951
 21
-146.759395084023
 31
0.0
  0
LINE
  5
1CF
330
1F
100
AcDbEntity
  8
0
  6
Continuous
 62
     7
370
    15
100
AcDbLine
 10
142.2358411598766
 20
-135.4275711990518
 30
0.0
 11
142.2358411598766
 21
-146.759395084023
 31
0.0
  0
LINE
  5
1D0
330
1F
100
AcDbEntity
  8
0
  6
Continuous
 62
     7
370
    15
100
AcDbLine
 10
-497.2299937330492
 20
-135.4275711990518
 30
0.0
 11
-507.7641588401236
 21
-135.4275711990518
 31
0.0
  0
LINE
  5
1D1
330
1F
100
AcDbEntity
  8
0
  6
Continuous
 62
     7
370
    15
100
AcDbLine
 10
-507.7641588401236
 20
-135.4275711990518
 30
0.0
 11
-507.7641588401236
 21
-146.759395084023
 31
0.0
  0
LINE
  5
1D2
330
1F
100
AcDbEntity
  8
0
  6
Continuous
 62
     7
370
    15
100
AcDbLine
 10
-507.7641588401236
 20
-146.759395084023
 30
0.0
 11
-497.2299937330492
 21
-146.759395084023
 31
0.0
  0
LINE
  5
1D3
330
1F
100
AcDbEntity
  8
0
  6
Continuous
 62
     7
370
    15
100
AcDbLine
 10
-497.2299937330492
 20
-146.759395084023
 30
0.0
 11
-497.2299937330492
 21
-135.4275711990518
 31
0.0
  0
LINE
  5
1D4
330
1F
100
AcDbEntity
  8
0
  6
Continuous
 62
     7
370
    15
100
AcDbLine
 10
2.770006266950872
 20
-135.4275711990518
 30
0.0
 11
-7.764158840123627
 21
-135.4275711990518
 31
0.0
  0
LINE
  5
1D5
330
1F
100
AcDbEntity
  8
0
  6
Continuous
 62
     7
370
    15
100
AcDbLine
 10
2.770006266950872
 20
-146.759395084023
 30
0.0
 11
2.770006266950872
 21
-135.4275711990518
 31
0.0
  0
LINE
  5
1D6
330
1F
100
AcDbEntity
  8
0
  6
Continuous
 62
     7
370
    15
100
AcDbLine
 10
-7.764158840123627
 20
-146.759395084023
 30
0.0
 11
2.770006266950872
 21
-146.759395084023
 31
0.0
  0
LINE
  5
1D7
330
1F
100
AcDbEntity
  8
0
  6
Continuous
 62
     7
370
    15
100
AcDbLine
 10
-7.764158840123627
 20
-135.4275711990518
 30
0.0
 11
-7.764158840123627
 21
-146.759395084023
 31
0.0
  0
LINE
  5
1D8
330
1F
100
AcDbEntity
  8
0
  6
Continuous
 62
     7
370
    15
100
AcDbLine
 10
352.7700062669512
 20
-135.4275711990518
 30
0.0
 11
342.2358411598766
 21
-135.4275711990518
 31
0.0
  0
LINE
  5
1D9
330
1F
100
AcDbEntity
  8
0
  6
Continuous
 62
     7
370
    15
100
AcDbLine
 10
352.7700062669512
 20
-146.759395084023
 30
0.0
 11
352.7700062669512
 21
-135.4275711990518
 31
0.0
  0
LINE
  5
1DA
330
1F
100
AcDbEntity
  8
0
  6
Continuous
 62
     7
370
    15
100
AcDbLine
 10
342.2358411598766
 20
-146.759395084023
 30
0.0
 11
352.7700062669512
 21
-146.759395084023
 31
0.0
  0
LINE
  5
1DB
330
1F
100
AcDbEntity
  8
0
  6
Continuous
 62
     7
370
    15
100
AcDbLine
 10
342.2358411598766
 20
-135.4275711990518
 30
0.0
 11
342.2358411598766
 21
-146.759395084023
 31
0.0
  0
LINE
  5
1DC
330
1F
100
AcDbEntity
  8
0
  6
Continuous
 62
     7
370
    15
100
AcDbLine
 10
-397.2299937330492
 20
-135.4275711990518
 30
0.0
 11
-407.7641588401236
 21
-135.4275711990518
 31
0.0
  0
LINE
  5
1DD
330
1F
100
AcDbEntity
  8
0
  6
Continuous
 62
     7
370
    15
100
AcDbLine
 10
-407.7641588401236
 20
-135.4275711990518
 30
0.0
 11
-407.7641588401236
 21
-146.759395084023
 31
0.0
  0
LINE
  5
1DE
330
1F
100
AcDbEntity
  8
0
  6
Continuous
 62
     7
370
    15
100
AcDbLine
 10
-407.7641588401236
 20
-146.759395084023
 30
0.0
 11
-397.2299937330492
 21
-146.759395084023
 31
0.0
  0
LINE
  5
1DF
330
1F
100
AcDbEntity
  8
0
  6
Continuous
 62
     7
370
    15
100
AcDbLine
 10
-397.2299937330492
 20
-146.759395084023
 30
0.0
 11
-397.2299937330492
 21
-135.4275711990518
 31
0.0
  0
LINE
  5
1E0
330
1F
100
AcDbEntity
  8
0
  6
Continuous
 62
     7
370
    15
100
AcDbLine
 10
-747.2299937330492
 20
-135.4275711990518
 30
0.0
 11
-757.7641588401236
 21
-135.4275711990518
 31
0.0
  0
LINE
  5
1E1
330
1F
100
AcDbEntity
  8
0
  6
Continuous
 62
     7
370
    15
100
AcDbLine
 10
-757.7641588401236
 20
-146.759395084023
 30
0.0
 11
-747.2299937330492
 21
-146.759395084023
 31
0.0
  0
LINE
  5
1E2
330
1F
100
AcDbEntity
  8
0
  6
Continuous
 62
     7
370
    15
100
AcDbLine
 10
-757.7641588401236
 20
-135.4275711990518
 30
0.0
 11
-757.7641588401236
 21
-146.759395084023
 31
0.0
  0
LINE
  5
1E3
330
1F
100
AcDbEntity
  8
0
  6
Continuous
 62
     7
370
    15
100
AcDbLine
 10
-747.2299937330492
 20
-146.759395084023
 30
0.0
 11
-747.2299937330492
 21
-135.4275711990518
 31
0.0
  0
LINE
  5
1E4
330
1F
100
AcDbEntity
  8
0
  6
Continuous
 62
     7
370
    15
100
AcDbLine
 10
102.7700062669508
 20
-135.4275711990518
 30
0.0
 11
92.23584115987661
 21
-135.4275711990518
 31
0.0
  0
LINE
  5
1E5
330
1F
100
AcDbEntity
  8
0
  6
Continuous
 62
     7
370
    15
100
AcDbLine
 10
102.7700062669508
 20
-146.759395084023
 30
0.0
 11
102.7700062669508
 21
-135.4275711990518
 31
0.0
  0
LINE
  5
1E6
330
1F
100
AcDbEntity
  8
0
  6
Continuous
 62
     7
370
    15
100
AcDbLine
 10
92.23584115987661
 20
-135.4275711990518
 30
0.0
 11
92.23584115987661
 21
-146.759395084023
 31
0.0
  0
LINE
  5
1E7
330
1F
100
AcDbEntity
  8
0
  6
Continuous
 62
     7
370
    15
100
AcDbLine
 10
92.23584115987661
 20
-146.759395084023
 30
0.0
 11
102.7700062669508
 21
-146.759395084023
 31
0.0
  0
LINE
  5
1E8
330
1F
100
AcDbEntity
  8
0
  6
Continuous
 62
     7
370
    15
100
AcDbLine
 10
-347.2299937330492
 20
-135.4275711990518
 30
0.0
 11
-357.7641588401236
 21
-135.4275711990518
 31
0.0
  0
LINE
  5
1E9
330
1F
100
AcDbEntity
  8
0
  6
Continuous
 62
     7
370
    15
100
AcDbLine
 10
-347.2299937330492
 20
-146.759395084023
 30
0.0
 11
-347.2299937330492
 21
-135.4275711990518
 31
0.0
  0
LINE
  5
1EA
330
1F
100
AcDbEntity
  8
0
  6
Continuous
 62
     7
370
    15
100
AcDbLine
 10
-357.7641588401236
 20
-146.759395084023
 30
0.0
 11
-347.2299937330492
 21
-146.759395084023
 31
0.0
  0
LINE
  5
1EB
330
1F
100
AcDbEntity
  8
0
  6
Continuous
 62
     7
370
    15
100
AcDbLine
 10
-357.7641588401236
 20
-135.4275711990518
 30
0.0
 11
-357.7641588401236
 21
-146.759395084023
 31
0.0
  0
LINE
  5
1EC
330
1F
100
AcDbEntity
  8
0
  6
Continuous
 62
     7
370
    15
100
AcDbLine
 10
-97.22999373304913
 20
-135.4275711990518
 30
0.0
 11
-107.7641588401234
 21
-135.4275711990518
 31
0.0
  0
LINE
  5
1ED
330
1F
100
AcDbEntity
  8
0
  6
Continuous
 62
     7
370
    15
100
AcDbLine
 10
-97.22999373304913
 20
-146.759395084023
 30
0.0
 11
-97.22999373304913
 21
-135.4275711990518
 31
0.0
  0
LINE
  5
1EE
330
1F
100
AcDbEntity
  8
0
  6
Continuous
 62
     7
370
    15
100
AcDbLine
 10
-107.7641588401234
 20
-146.759395084023
 30
0.0
 11
-97.22999373304913
 21
-146.759395084023
 31
0.0
  0
LINE
  5
1EF
330
1F
100
AcDbEntity
  8
0
  6
Continuous
 62
     7
370
    15
100
AcDbLine
 10
-107.7641588401234
 20
-135.4275711990518
 30
0.0
 11
-107.7641588401234
 21
-146.759395084023
 31
0.0
  0
LINE
  5
1F0
330
1F
100
AcDbEntity
  8
0
  6
Continuous
 62
     7
370
    15
100
AcDbLine
 10
-247.2299937330491
 20
-135.4275711990518
 30
0.0
 11
-257.7641588401235
 21
-135.4275711990518
 31
0.0
  0
LINE
  5
1F1
330
1F
100
AcDbEntity
  8
0
  6
Continuous
 62
     7
370
    15
100
AcDbLine
 10
-247.2299937330491
 20
-146.759395084023
 30
0.0
 11
-247.2299937330491
 21
-135.4275711990518
 31
0.0
  0
LINE
  5
1F2
330
1F
100
AcDbEntity
  8
0
  6
Continuous
 62
     7
370
    15
100
AcDbLine
 10
-257.7641588401235
 20
-146.759395084023
 30
0.0
 11
-247.2299937330491
 21
-146.759395084023
 31
0.0
  0
LINE
  5
1F3
330
1F
100
AcDbEntity
  8
0
  6
Continuous
 62
     7
370
    15
100
AcDbLine
 10
-257.7641588401235
 20
-135.4275711990518
 30
0.0
 11
-257.7641588401235
 21
-146.759395084023
 31
0.0
  0
LINE
  5
1F4
330
1F
100
AcDbEntity
  8
0
  6
Continuous
 62
     7
370
    15
100
AcDbLine
 10
202.770006266951
 20
-135.4275711990518
 30
0.0
 11
192.2358411598766
 21
-135.4275711990518
 31
0.0
  0
LINE
  5
1F5
330
1F
100
AcDbEntity
  8
0
  6
Continuous
 62
     7
370
    15
100
AcDbLine
 10
202.770006266951
 20
-146.759395084023
 30
0.0
 11
202.770006266951
 21
-135.4275711990518
 31
0.0
  0
LINE
  5
1F6
330
1F
100
AcDbEntity
  8
0
  6
Continuous
 62
     7
370
    15
100
AcDbLine
 10
192.2358411598766
 20
-146.759395084023
 30
0.0
 11
202.770006266951
 21
-146.759395084023
 31
0.0
  0
LINE
  5
1F7
330
1F
100
AcDbEntity
  8
0
  6
Continuous
 62
     7
370
    15
100
AcDbLine
 10
192.2358411598766
 20
-135.4275711990518
 30
0.0
 11
192.2358411598766
 21
-146.759395084023
 31
0.0
  0
LINE
  5
1F8
330
1F
100
AcDbEntity
  8
0
  6
Continuous
 62
     7
370
    15
100
AcDbLine
 10
-247.2299937330494
 20
-105.4275711990518
 30
0.0
 11
-257.7641588401239
 21
-105.4275711990518
 31
0.0
  0
LINE
  5
1F9
330
1F
100
AcDbEntity
  8
0
  6
Continuous
 62
     7
370
    15
100
AcDbLine
 10
-247.2299937330494
 20
-116.759395084023
 30
0.0
 11
-247.2299937330494
 21
-105.4275711990518
 31
0.0
  0
LINE
  5
1FA
330
1F
100
AcDbEntity
  8
0
  6
Continuous
 62
     7
370
    15
100
AcDbLine
 10
-257.7641588401239
 20
-116.759395084023
 30
0.0
 11
-247.2299937330494
 21
-116.759395084023
 31
0.0
  0
LINE
  5
1FB
330
1F
100
AcDbEntity
  8
0
  6
Continuous
 62
     7
370
    15
100
AcDbLine
 10
-257.7641588401239
 20
-105.4275711990518
 30
0.0
 11
-257.7641588401239
 21
-116.759395084023
 31
0.0
  0
LINE
  5
1FC
330
1F
100
AcDbEntity
  8
0
  6
Continuous
 62
     7
370
    15
100
AcDbLine
 10
352.7700062669508
 20
-105.4275711990518
 30
0.0
 11
342.2358411598761
 21
-105.4275711990518
 31
0.0
  0
LINE
  5
1FD
330
1F
100
AcDbEntity
  8
0
  6
Continuous
 62
     7
370
    15
100
AcDbLine
 10
342.2358411598761
 20
-116.759395084023
 30
0.0
 11
352.7700062669508
 21
-116.759395084023
 31
0.0
  0
LINE
  5
1FE
330
1F
100
AcDbEntity
  8
0
  6
Continuous
 62
     7
370
    15
100
AcDbLine
 10
342.2358411598761
 20
-105.4275711990518
 30
0.0
 11
342.2358411598761
 21
-116.759395084023
 31
0.0
  0
LINE
  5
1FF
330
1F
100
AcDbEntity
  8
0
  6
Continuous
 62
     7
370
    15
100
AcDbLine
 10
352.7700062669508
 20
-116.759395084023
 30
0.0
 11
352.7700062669508
 21
-105.4275711990518
 31
0.0
  0
LINE
  5
200
330
1F
100
AcDbEntity
  8
0
  6
Continuous
 62
     7
370
    15
100
AcDbLine
 10
-697.2299937330494
 20
-105.4275711990518
 30
0.0
 11
-707.7641588401238
 21
-105.4275711990518
 31
0.0
  0
LINE
  5
201
330
1F
100
AcDbEntity
  8
0
  6
Continuous
 62
     7
370
    15
100
AcDbLine
 10
-707.7641588401238
 20
-116.759395084023
 30
0.0
 11
-697.2299937330494
 21
-116.759395084023
 31
0.0
  0
LINE
  5
202
330
1F
100
AcDbEntity
  8
0
  6
Continuous
 62
     7
370
    15
100
AcDbLine
 10
-707.7641588401238
 20
-105.4275711990518
 30
0.0
 11
-707.7641588401238
 21
-116.759395084023
 31
0.0
  0
LINE
  5
203
330
1F
100
AcDbEntity
  8
0
  6
Continuous
 62
     7
370
    15
100
AcDbLine
 10
-697.2299937330494
 20
-116.759395084023
 30
0.0
 11
-697.2299937330494
 21
-105.4275711990518
 31
0.0
  0
LINE
  5
204
330
1F
100
AcDbEntity
  8
0
  6
Continuous
 62
     7
370
    15
100
AcDbLine
 10
-147.2299937330495
 20
-105.4275711990518
 30
0.0
 11
-157.7641588401238
 21
-105.4275711990518
 31
0.0
  0
LINE
  5
205
330
1F
100
AcDbEntity
  8
0
  6
Continuous
 62
     7
370
    15
100
AcDbLine
 10
-147.2299937330495
 20
-116.759395084023
 30
0.0
 11
-147.2299937330495
 21
-105.4275711990518
 31
0.0
  0
LINE
  5
206
330
1F
100
AcDbEntity
  8
0
  6
Continuous
 62
     7
370
    15
100
AcDbLine
 10
-157.7641588401238
 20
-116.759395084023
 30
0.0
 11
-147.2299937330495
 21
-116.759395084023
 31
0.0
  0
LINE
  5
207
330
1F
100
AcDbEntity
  8
0
  6
Continuous
 62
     7
370
    15
100
AcDbLine
 10
-157.7641588401238
 20
-105.4275711990518
 30
0.0
 11
-157.7641588401238
 21
-116.759395084023
 31
0.0
  0
LINE
  5
208
330
1F
100
AcDbEntity
  8
0
  6
Continuous
 62
     7
370
    15
100
AcDbLine
 10
202.7700062669505
 20
-105.4275711990518
 30
0.0
 11
192.2358411598761
 21
-105.4275711990518
 31
0.0
  0
LINE
  5
209
330
1F
100
AcDbEntity
  8
0
  6
Continuous
 62
     7
370
    15
100
AcDbLine
 10
202.7700062669505
 20
-116.759395084023
 30
0.0
 11
202.7700062669505
 21
-105.4275711990518
 31
0.0
  0
LINE
  5
20A
330
1F
100
AcDbEntity
  8
0
  6
Continuous
 62
     7
370
    15
100
AcDbLine
 10
192.2358411598761
 20
-116.759395084023
 30
0.0
 11
202.7700062669505
 21
-116.759395084023
 31
0.0
  0
LINE
  5
20B
330
1F
100
AcDbEntity
  8
0
  6
Continuous
 62
     7
370
    15
100
AcDbLine
 10
192.2358411598761
 20
-105.4275711990518
 30
0.0
 11
192.2358411598761
 21
-116.759395084023
 31
0.0
  0
LINE
  5
20C
330
1F
100
AcDbEntity
  8
0
  6
Continuous
 62
     7
370
    15
100
AcDbLine
 10
302.7700062669503
 20
-105.4275711990518
 30
0.0
 11
292.2358411598761
 21
-105.4275711990518
 31
0.0
  0
LINE
  5
20D
330
1F
100
AcDbEntity
  8
0
  6
Continuous
 62
     7
370
    15
100
AcDbLine
 10
302.7700062669503
 20
-116.759395084023
 30
0.0
 11
302.7700062669503
 21
-105.4275711990518
 31
0.0
  0
LINE
  5
20E
330
1F
100
AcDbEntity
  8
0
  6
Continuous
 62
     7
370
    15
100
AcDbLine
 10
292.2358411598761
 20
-116.759395084023
 30
0.0
 11
302.7700062669503
 21
-116.759395084023
 31
0.0
  0
LINE
  5
20F
330
1F
100
AcDbEntity
  8
0
  6
Continuous
 62
     7
370
    15
100
AcDbLine
 10
292.2358411598761
 20
-105.4275711990518
 30
0.0
 11
292.2358411598761
 21
-116.759395084023
 31
0.0
  0
LINE
  5
210
330
1F
100
AcDbEntity
  8
0
  6
Continuous
 62
     7
370
    15
100
AcDbLine
 10
-347.2299937330495
 20
-105.4275711990518
 30
0.0
 11
-357.7641588401239
 21
-105.4275711990518
 31
0.0
  0
LINE
  5
211
330
1F
100
AcDbEntity
  8
0
  6
Continuous
 62
     7
370
    15
100
AcDbLine
 10
-347.2299937330495
 20
-116.759395084023
 30
0.0
 11
-347.2299937330495
 21
-105.4275711990518
 31
0.0
  0
LINE
  5
212
330
1F
100
AcDbEntity
  8
0
  6
Continuous
 62
     7
370
    15
100
AcDbLine
 10
-357.7641588401239
 20
-105.4275711990518
 30
0.0
 11
-357.7641588401239
 21
-116.759395084023
 31
0.0
  0
LINE
  5
213
330
1F
100
AcDbEntity
  8
0
  6
Continuous
 62
     7
370
    15
100
AcDbLine
 10
-357.7641588401239
 20
-116.759395084023
 30
0.0
 11
-347.2299937330495
 21
-116.759395084023
 31
0.0
  0
LINE
  5
214
330
1F
100
AcDbEntity
  8
0
  6
Continuous
 62
     7
370
    15
100
AcDbLine
 10
52.77000626695064
 20
-105.4275711990518
 30
0.0
 11
42.23584115987626
 21
-105.4275711990518
 31
0.0
  0
LINE
  5
215
330
1F
100
AcDbEntity
  8
0
  6
Continuous
 62
     7
370
    15
100
AcDbLine
 10
52.77000626695064
 20
-116.759395084023
 30
0.0
 11
52.77000626695064
 21
-105.4275711990518
 31
0.0
  0
LINE
  5
216
330
1F
100
AcDbEntity
  8
0
  6
Continuous
 62
     7
370
    15
100
AcDbLine
 10
42.23584115987626
 20
-116.759395084023
 30
0.0
 11
52.77000626695064
 21
-116.759395084023
 31
0.0
  0
LINE
  5
217
330
1F
100
AcDbEntity
  8
0
  6
Continuous
 62
     7
370
    15
100
AcDbLine
 10
42.23584115987626
 20
-105.4275711990518
 30
0.0
 11
42.23584115987626
 21
-116.759395084023
 31
0.0
  0
LINE
  5
218
330
1F
100
AcDbEntity
  8
0
  6
Continuous
 62
     7
370
    15
100
AcDbLine
 10
-397.2299937330495
 20
-105.4275711990518
 30
0.0
 11
-407.7641588401238
 21
-105.4275711990518
 31
0.0
  0
LINE
  5
219
330
1F
100
AcDbEntity
  8
0
  6
Continuous
 62
     7
370
    15
100
AcDbLine
 10
-407.7641588401238
 20
-116.759395084023
 30
0.0
 11
-397.2299937330495
 21
-116.759395084023
 31
0.0
  0
LINE
  5
21A
330
1F
100
AcDbEntity
  8
0
  6
Continuous
 62
     7
370
    15
100
AcDbLine
 10
-407.7641588401238
 20
-105.4275711990518
 30
0.0
 11
-407.7641588401238
 21
-116.759395084023
 31
0.0
  0
LINE
  5
21B
330
1F
100
AcDbEntity
  8
0
  6
Continuous
 62
     7
370
    15
100
AcDbLine
 10
-397.2299937330495
 20
-116.759395084023
 30
0.0
 11
-397.2299937330495
 21
-105.4275711990518
 31
0.0
  0
LINE
  5
21C
330
1F
100
AcDbEntity
  8
0
  6
Continuous
 62
     7
370
    15
100
AcDbLine
 10
252.7700062669505
 20
-105.4275711990518
 30
0.0
 11
242.2358411598761
 21
-105.4275711990518
 31
0.0
  0
LINE
  5
21D
330
1F
100
AcDbEntity
  8
0
  6
Continuous
 62
     7
370
    15
100
AcDbLine
 10
252.7700062669505
 20
-116.759395084023
 30
0.0
 11
252.7700062669505
 21
-105.4275711990518
 31
0.0
  0
LINE
  5
21E
330
1F
100
AcDbEntity
  8
0
  6
Continuous
 62
     7
370
    15
100
AcDbLine
 10
242.2358411598761
 20
-116.759395084023
 30
0.0
 11
252.7700062669505
 21
-116.759395084023
 31
0.0
  0
LINE
  5
21F
330
1F
100
AcDbEntity
  8
0
  6
Continuous
 62
     7
370
    15
100
AcDbLine
 10
242.2358411598761
 20
-105.4275711990518
 30
0.0
 11
242.2358411598761
 21
-116.759395084023
 31
0.0
  0
LINE
  5
220
330
1F
100
AcDbEntity
  8
0
  6
Continuous
 62
     7
370
    15
100
AcDbLine
 10
-197.2299937330493
 20
-105.4275711990518
 30
0.0
 11
-207.7641588401237
 21
-105.4275711990518
 31
0.0
  0
LINE
  5
221
330
1F
100
AcDbEntity
  8
0
  6
Continuous
 62
     7
370
    15
100
AcDbLine
 10
-197.2299937330493
 20
-116.759395084023
 30
0.0
 11
-197.2299937330493
 21
-105.4275711990518
 31
0.0
  0
LINE
  5
222
330
1F
100
AcDbEntity
  8
0
  6
Continuous
 62
     7
370
    15
100
AcDbLine
 10
-207.7641588401237
 20
-116.759395084023
 30
0.0
 11
-197.2299937330493
 21
-116.759395084023
 31
0.0
  0
LINE
  5
223
330
1F
100
AcDbEntity
  8
0
  6
Continuous
 62
     7
370
    15
100
AcDbLine
 10
-207.7641588401237
 20
-105.4275711990518
 30
0.0
 11
-207.7641588401237
 21
-116.759395084023
 31
0.0
  0
LINE
  5
224
330
1F
100
AcDbEntity
  8
0
  6
Continuous
 62
     7
370
    15
100
AcDbLine
 10
402.7700062669505
 20
-105.4275711990518
 30
0.0
 11
392.2358411598762
 21
-105.4275711990518
 31
0.0
  0
LINE
  5
225
330
1F
100
AcDbEntity
  8
0
  6
Continuous
 62
     7
370
    15
100
AcDbLine
 10
402.7700062669505
 20
-116.759395084023
 30
0.0
 11
402.7700062669505
 21
-105.4275711990518
 31
0.0
  0
LINE
  5
226
330
1F
100
AcDbEntity
  8
0
  6
Continuous
 62
     7
370
    15
100
AcDbLine
 10
392.2358411598762
 20
-116.759395084023
 30
0.0
 11
402.7700062669505
 21
-116.759395084023
 31
0.0
  0
LINE
  5
227
330
1F
100
AcDbEntity
  8
0
  6
Continuous
 62
     7
370
    15
100
AcDbLine
 10
392.2358411598762
 20
-105.4275711990518
 30
0.0
 11
392.2358411598762
 21
-116.759395084023
 31
0.0
  0
LINE
  5
228
330
1F
100
AcDbEntity
  8
0
  6
Continuous
 62
     7
370
    15
100
AcDbLine
 10
-797.2299937330494
 20
-105.4275711990518
 30
0.0
 11
-807.7641588401238
 21
-105.4275711990518
 31
0.0
  0
LINE
  5
229
330
1F
100
AcDbEntity
  8
0
  6
Continuous
 62
     7
370
    15
100
AcDbLine
 10
-807.7641588401238
 20
-116.759395084023
 30
0.0
 11
-797.2299937330494
 21
-116.759395084023
 31
0.0
  0
LINE
  5
22A
330
1F
100
AcDbEntity
  8
0
  6
Continuous
 62
     7
370
    15
100
AcDbLine
 10
-807.7641588401238
 20
-105.4275711990518
 30
0.0
 11
-807.7641588401238
 21
-116.759395084023
 31
0.0
  0
LINE
  5
22B
330
1F
100
AcDbEntity
  8
0
  6
Continuous
 62
     7
370
    15
100
AcDbLine
 10
-797.2299937330494
 20
-116.759395084023
 30
0.0
 11
-797.2299937330494
 21
-105.4275711990518
 31
0.0
  0
LINE
  5
22C
330
1F
100
AcDbEntity
  8
0
  6
Continuous
 62
     7
370
    15
100
AcDbLine
 10
-97.22999373304936
 20
-105.4275711990518
 30
0.0
 11
-107.7641588401237
 21
-105.4275711990518
 31
0.0
  0
LINE
  5
22D
330
1F
100
AcDbEntity
  8
0
  6
Continuous
 62
     7
370
    15
100
AcDbLine
 10
-97.22999373304936
 20
-116.759395084023
 30
0.0
 11
-97.22999373304936
 21
-105.4275711990518
 31
0.0
  0
LINE
  5
22E
330
1F
100
AcDbEntity
  8
0
  6
Continuous
 62
     7
370
    15
100
AcDbLine
 10
-107.7641588401237
 20
-116.759395084023
 30
0.0
 11
-97.22999373304936
 21
-116.759395084023
 31
0.0
  0
LINE
  5
22F
330
1F
100
AcDbEntity
  8
0
  6
Continuous
 62
     7
370
    15
100
AcDbLine
 10
-107.7641588401237
 20
-105.4275711990518
 30
0.0
 11
-107.7641588401237
 21
-116.759395084023
 31
0.0
  0
LINE
  5
230
330
1F
100
AcDbEntity
  8
0
  6
Continuous
 62
     7
370
    15
100
AcDbLine
 10
-647.2299937330496
 20
-105.4275711990518
 30
0.0
 11
-657.7641588401238
 21
-105.4275711990518
 31
0.0
  0
LINE
  5
231
330
1F
100
AcDbEntity
  8
0
  6
Continuous
 62
     7
370
    15
100
AcDbLine
 10
-647.2299937330496
 20
-116.759395084023
 30
0.0
 11
-647.2299937330496
 21
-105.4275711990518
 31
0.0
  0
LINE
  5
232
330
1F
100
AcDbEntity
  8
0
  6
Continuous
 62
     7
370
    15
100
AcDbLine
 10
-657.7641588401238
 20
-116.759395084023
 30
0.0
 11
-647.2299937330496
 21
-116.759395084023
 31
0.0
  0
LINE
  5
233
330
1F
100
AcDbEntity
  8
0
  6
Continuous
 62
     7
370
    15
100
AcDbLine
 10
-657.7641588401238
 20
-105.4275711990518
 30
0.0
 11
-657.7641588401238
 21
-116.759395084023
 31
0.0
  0
LINE
  5
234
330
1F
100
AcDbEntity
  8
0
  6
Continuous
 62
     7
370
    15
100
AcDbLine
 10
102.7700062669505
 20
-105.4275711990518
 30
0.0
 11
92.23584115987614
 21
-105.4275711990518
 31
0.0
  0
LINE
  5
235
330
1F
100
AcDbEntity
  8
0
  6
Continuous
 62
     7
370
    15
100
AcDbLine
 10
102.7700062669505
 20
-116.759395084023
 30
0.0
 11
102.7700062669505
 21
-105.4275711990518
 31
0.0
  0
LINE
  5
236
330
1F
100
AcDbEntity
  8
0
  6
Continuous
 62
     7
370
    15
100
AcDbLine
 10
92.23584115987614
 20
-105.4275711990518
 30
0.0
 11
92.23584115987614
 21
-116.759395084023
 31
0.0
  0
LINE
  5
237
330
1F
100
AcDbEntity
  8
0
  6
Continuous
 62
     7
370
    15
100
AcDbLine
 10
92.23584115987614
 20
-116.759395084023
 30
0.0
 11
102.7700062669505
 21
-116.759395084023
 31
0.0
  0
LINE
  5
238
330
1F
100
AcDbEntity
  8
0
  6
Continuous
 62
     7
370
    15
100
AcDbLine
 10
152.7700062669505
 20
-105.4275711990518
 30
0.0
 11
142.2358411598761
 21
-105.4275711990518
 31
0.0
  0
LINE
  5
239
330
1F
100
AcDbEntity
  8
0
  6
Continuous
 62
     7
370
    15
100
AcDbLine
 10
152.7700062669505
 20
-116.759395084023
 30
0.0
 11
152.7700062669505
 21
-105.4275711990518
 31
0.0
  0
LINE
  5
23A
330
1F
100
AcDbEntity
  8
0
  6
Continuous
 62
     7
370
    15
100
AcDbLine
 10
142.2358411598761
 20
-116.759395084023
 30
0.0
 11
152.7700062669505
 21
-116.759395084023
 31
0.0
  0
LINE
  5
23B
330
1F
100
AcDbEntity
  8
0
  6
Continuous
 62
     7
370
    15
100
AcDbLine
 10
142.2358411598761
 20
-105.4275711990518
 30
0.0
 11
142.2358411598761
 21
-116.759395084023
 31
0.0
  0
LINE
  5
23C
330
1F
100
AcDbEntity
  8
0
  6
Continuous
 62
     7
370
    15
100
AcDbLine
 10
-497.2299937330495
 20
-105.4275711990518
 30
0.0
 11
-507.7641588401238
 21
-105.4275711990518
 31
0.0
  0
LINE
  5
23D
330
1F
100
AcDbEntity
  8
0
  6
Continuous
 62
     7
370
    15
100
AcDbLine
 10
-497.2299937330495
 20
-116.759395084023
 30
0.0
 11
-497.2299937330495
 21
-105.4275711990518
 31
0.0
  0
LINE
  5
23E
330
1F
100
AcDbEntity
  8
0
  6
Continuous
 62
     7
370
    15
100
AcDbLine
 10
-507.7641588401238
 20
-116.759395084023
 30
0.0
 11
-497.2299937330495
 21
-116.759395084023
 31
0.0
  0
LINE
  5
23F
330
1F
100
AcDbEntity
  8
0
  6
Continuous
 62
     7
370
    15
100
AcDbLine
 10
-507.7641588401238
 20
-105.4275711990518
 30
0.0
 11
-507.7641588401238
 21
-116.759395084023
 31
0.0
  0
LINE
  5
240
330
1F
100
AcDbEntity
  8
0
  6
Continuous
 62
     7
370
    15
100
AcDbLine
 10
-47.22999373304946
 20
-105.4275711990518
 30
0.0
 11
-57.76415884012386
 21
-105.4275711990518
 31
0.0
  0
LINE
  5
241
330
1F
100
AcDbEntity
  8
0
  6
Continuous
 62
     7
370
    15
100
AcDbLine
 10
-47.22999373304946
 20
-116.759395084023
 30
0.0
 11
-47.22999373304946
 21
-105.4275711990518
 31
0.0
  0
LINE
  5
242
330
1F
100
AcDbEntity
  8
0
  6
Continuous
 62
     7
370
    15
100
AcDbLine
 10
-57.76415884012386
 20
-116.759395084023
 30
0.0
 11
-47.22999373304946
 21
-116.759395084023
 31
0.0
  0
LINE
  5
243
330
1F
100
AcDbEntity
  8
0
  6
Continuous
 62
     7
370
    15
100
AcDbLine
 10
-57.76415884012386
 20
-105.4275711990518
 30
0.0
 11
-57.76415884012386
 21
-116.759395084023
 31
0.0
  0
LINE
  5
244
330
1F
100
AcDbEntity
  8
0
  6
Continuous
 62
     7
370
    15
100
AcDbLine
 10
-747.2299937330496
 20
-105.4275711990518
 30
0.0
 11
-757.7641588401239
 21
-105.4275711990518
 31
0.0
  0
LINE
  5
245
330
1F
100
AcDbEntity
  8
0
  6
Continuous
 62
     7
370
    15
100
AcDbLine
 10
-757.7641588401239
 20
-116.759395084023
 30
0.0
 11
-747.2299937330496
 21
-116.759395084023
 31
0.0
  0
LINE
  5
246
330
1F
100
AcDbEntity
  8
0
  6
Continuous
 62
     7
370
    15
100
AcDbLine
 10
-747.2299937330496
 20
-116.759395084023
 30
0.0
 11
-747.2299937330496
 21
-105.4275711990518
 31
0.0
  0
LINE
  5
247
330
1F
100
AcDbEntity
  8
0
  6
Continuous
 62
     7
370
    15
100
AcDbLine
 10
-757.7641588401239
 20
-105.4275711990518
 30
0.0
 11
-757.7641588401239
 21
-116.759395084023
 31
0.0
  0
LINE
  5
248
330
1F
100
AcDbEntity
  8
0
  6
Continuous
 62
     7
370
    15
100
AcDbLine
 10
-597.2299937330496
 20
-105.4275711990518
 30
0.0
 11
-607.7641588401239
 21
-105.4275711990518
 31
0.0
  0
LINE
  5
249
330
1F
100
AcDbEntity
  8
0
  6
Continuous
 62
     7
370
    15
100
AcDbLine
 10
-607.7641588401239
 20
-116.759395084023
 30
0.0
 11
-597.2299937330496
 21
-116.759395084023
 31
0.0
  0
LINE
  5
24A
330
1F
100
AcDbEntity
  8
0
  6
Continuous
 62
     7
370
    15
100
AcDbLine
 10
-607.7641588401239
 20
-105.4275711990518
 30
0.0
 11
-607.7641588401239
 21
-116.759395084023
 31
0.0
  0
LINE
  5
24B
330
1F
100
AcDbEntity
  8
0
  6
Continuous
 62
     7
370
    15
100
AcDbLine
 10
-597.2299937330496
 20
-116.759395084023
 30
0.0
 11
-597.2299937330496
 21
-105.4275711990518
 31
0.0
  0
LINE
  5
24C
330
1F
100
AcDbEntity
  8
0
  6
Continuous
 62
     7
370
    15
100
AcDbLine
 10
2.770006266950531
 20
-105.4275711990518
 30
0.0
 11
-7.764158840123855
 21
-105.4275711990518
 31
0.0
  0
LINE
  5
24D
330
1F
100
AcDbEntity
  8
0
  6
Continuous
 62
     7
370
    15
100
AcDbLine
 10
-7.764158840123855
 20
-116.759395084023
 30
0.0
 11
2.770006266950531
 21
-116.759395084023
 31
0.0
  0
LINE
  5
24E
330
1F
100
AcDbEntity
  8
0
  6
Continuous
 62
     7
370
    15
100
AcDbLine
 10
-7.764158840123855
 20
-105.4275711990518
 30
0.0
 11
-7.764158840123855
 21
-116.759395084023
 31
0.0
  0
LINE
  5
24F
330
1F
100
AcDbEntity
  8
0
  6
Continuous
 62
     7
370
    15
100
AcDbLine
 10
2.770006266950531
 20
-116.759395084023
 30
0.0
 11
2.770006266950531
 21
-105.4275711990518
 31
0.0
  0
LINE
  5
250
330
1F
100
AcDbEntity
  8
0
  6
Continuous
 62
     7
370
    15
100
AcDbLine
 10
-447.2299937330494
 20
-105.4275711990518
 30
0.0
 11
-457.7641588401237
 21
-105.4275711990518
 31
0.0
  0
LINE
  5
251
330
1F
100
AcDbEntity
  8
0
  6
Continuous
 62
     7
370
    15
100
AcDbLine
 10
-447.2299937330494
 20
-116.759395084023
 30
0.0
 11
-447.2299937330494
 21
-105.4275711990518
 31
0.0
  0
LINE
  5
252
330
1F
100
AcDbEntity
  8
0
  6
Continuous
 62
     7
370
    15
100
AcDbLine
 10
-457.7641588401237
 20
-116.759395084023
 30
0.0
 11
-447.2299937330494
 21
-116.759395084023
 31
0.0
  0
LINE
  5
253
330
1F
100
AcDbEntity
  8
0
  6
Continuous
 62
     7
370
    15
100
AcDbLine
 10
-457.7641588401237
 20
-105.4275711990518
 30
0.0
 11
-457.7641588401237
 21
-116.759395084023
 31
0.0
  0
LINE
  5
254
330
1F
100
AcDbEntity
  8
0
  6
Continuous
 62
     7
370
    15
100
AcDbLine
 10
-547.2299937330494
 20
-105.4275711990518
 30
0.0
 11
-557.7641588401238
 21
-105.4275711990518
 31
0.0
  0
LINE
  5
255
330
1F
100
AcDbEntity
  8
0
  6
Continuous
 62
     7
370
    15
100
AcDbLine
 10
-547.2299937330494
 20
-116.759395084023
 30
0.0
 11
-547.2299937330494
 21
-105.4275711990518
 31
0.0
  0
LINE
  5
256
330
1F
100
AcDbEntity
  8
0
  6
Continuous
 62
     7
370
    15
100
AcDbLine
 10
-557.7641588401238
 20
-105.4275711990518
 30
0.0
 11
-557.7641588401238
 21
-116.759395084023
 31
0.0
  0
LINE
  5
257
330
1F
100
AcDbEntity
  8
0
  6
Continuous
 62
     7
370
    15
100
AcDbLine
 10
-557.7641588401238
 20
-116.759395084023
 30
0.0
 11
-547.2299937330494
 21
-116.759395084023
 31
0.0
  0
LINE
  5
258
330
1F
100
AcDbEntity
  8
0
  6
Continuous
 62
     7
370
    15
100
AcDbLine
 10
-297.2299937330495
 20
-105.4275711990518
 30
0.0
 11
-307.7641588401239
 21
-105.4275711990518
 31
0.0
  0
LINE
  5
259
330
1F
100
AcDbEntity
  8
0
  6
Continuous
 62
     7
370
    15
100
AcDbLine
 10
-297.2299937330495
 20
-116.759395084023
 30
0.0
 11
-297.2299937330495
 21
-105.4275711990518
 31
0.0
  0
LINE
  5
25A
330
1F
100
AcDbEntity
  8
0
  6
Continuous
 62
     7
370
    15
100
AcDbLine
 10
-307.7641588401239
 20
-116.759395084023
 30
0.0
 11
-297.2299937330495
 21
-116.759395084023
 31
0.0
  0
LINE
  5
25B
330
1F
100
AcDbEntity
  8
0
  6
Continuous
 62
     7
370
    15
100
AcDbLine
 10
-307.7641588401239
 20
-105.4275711990518
 30
0.0
 11
-307.7641588401239
 21
-116.759395084023
 31
0.0
  0
LINE
  5
25C
330
1F
100
AcDbEntity
  8
0
  6
Continuous
 62
     7
370
    15
100
AcDbLine
 10
-447.2299937330498
 20
-75.42757119905184
 30
0.0
 11
-457.7641588401242
 21
-75.42757119905184
 31
0.0
  0
LINE
  5
25D
330
1F
100
AcDbEntity
  8
0
  6
Continuous
 62
     7
370
    15
100
AcDbLine
 10
-447.2299937330498
 20
-86.75939508402302
 30
0.0
 11
-447.2299937330498
 21
-75.42757119905184
 31
0.0
  0
LINE
  5
25E
330
1F
100
AcDbEntity
  8
0
  6
Continuous
 62
     7
370
    15
100
AcDbLine
 10
-457.7641588401242
 20
-86.75939508402302
 30
0.0
 11
-447.2299937330498
 21
-86.75939508402302
 31
0.0
  0
LINE
  5
25F
330
1F
100
AcDbEntity
  8
0
  6
Continuous
 62
     7
370
    15
100
AcDbLine
 10
-457.7641588401242
 20
-75.42757119905184
 30
0.0
 11
-457.7641588401242
 21
-86.75939508402302
 31
0.0
  0
LINE
  5
260
330
1F
100
AcDbEntity
  8
0
  6
Continuous
 62
     7
370
    15
100
AcDbLine
 10
352.7700062669501
 20
-75.42757119905184
 30
0.0
 11
342.2358411598759
 21
-75.42757119905184
 31
0.0
  0
LINE
  5
261
330
1F
100
AcDbEntity
  8
0
  6
Continuous
 62
     7
370
    15
100
AcDbLine
 10
342.2358411598759
 20
-86.75939508402302
 30
0.0
 11
352.7700062669501
 21
-86.75939508402302
 31
0.0
  0
LINE
  5
262
330
1F
100
AcDbEntity
  8
0
  6
Continuous
 62
     7
370
    15
100
AcDbLine
 10
342.2358411598759
 20
-75.42757119905184
 30
0.0
 11
342.2358411598759
 21
-86.75939508402302
 31
0.0
  0
LINE
  5
263
330
1F
100
AcDbEntity
  8
0
  6
Continuous
 62
     7
370
    15
100
AcDbLine
 10
352.7700062669501
 20
-86.75939508402302
 30
0.0
 11
352.7700062669501
 21
-75.42757119905184
 31
0.0
  0
LINE
  5
264
330
1F
100
AcDbEntity
  8
0
  6
Continuous
 62
     7
370
    15
100
AcDbLine
 10
-347.2299937330498
 20
-75.42757119905184
 30
0.0
 11
-357.7641588401242
 21
-75.42757119905184
 31
0.0
  0
LINE
  5
265
330
1F
100
AcDbEntity
  8
0
  6
Continuous
 62
     7
370
    15
100
AcDbLine
 10
-347.2299937330498
 20
-86.75939508402302
 30
0.0
 11
-347.2299937330498
 21
-75.42757119905184
 31
0.0
  0
LINE
  5
266
330
1F
100
AcDbEntity
  8
0
  6
Continuous
 62
     7
370
    15
100
AcDbLine
 10
-357.7641588401242
 20
-86.75939508402302
 30
0.0
 11
-347.2299937330498
 21
-86.75939508402302
 31
0.0
  0
LINE
  5
267
330
1F
100
AcDbEntity
  8
0
  6
Continuous
 62
     7
370
    15
100
AcDbLine
 10
-357.7641588401242
 20
-75.42757119905184
 30
0.0
 11
-357.7641588401242
 21
-86.75939508402302
 31
0.0
  0
LINE
  5
268
330
1F
100
AcDbEntity
  8
0
  6
Continuous
 62
     7
370
    15
100
AcDbLine
 10
-147.2299937330498
 20
-75.42757119905184
 30
0.0
 11
-157.7641588401243
 21
-75.42757119905184
 31
0.0
  0
LINE
  5
269
330
1F
100
AcDbEntity
  8
0
  6
Continuous
 62
     7
370
    15
100
AcDbLine
 10
-147.2299937330498
 20
-86.75939508402302
 30
0.0
 11
-147.2299937330498
 21
-75.42757119905184
 31
0.0
  0
LINE
  5
26A
330
1F
100
AcDbEntity
  8
0
  6
Continuous
 62
     7
370
    15
100
AcDbLine
 10
-157.7641588401243
 20
-86.75939508402302
 30
0.0
 11
-147.2299937330498
 21
-86.75939508402302
 31
0.0
  0
LINE
  5
26B
330
1F
100
AcDbEntity
  8
0
  6
Continuous
 62
     7
370
    15
100
AcDbLine
 10
-157.7641588401243
 20
-75.42757119905184
 30
0.0
 11
-157.7641588401243
 21
-86.75939508402302
 31
0.0
  0
LINE
  5
26C
330
1F
100
AcDbEntity
  8
0
  6
Continuous
 62
     7
370
    15
100
AcDbLine
 10
402.7700062669505
 20
-75.42757119905184
 30
0.0
 11
392.2358411598759
 21
-75.42757119905184
 31
0.0
  0
LINE
  5
26D
330
1F
100
AcDbEntity
  8
0
  6
Continuous
 62
     7
370
    15
100
AcDbLine
 10
402.7700062669505
 20
-86.75939508402302
 30
0.0
 11
402.7700062669505
 21
-75.42757119905184
 31
0.0
  0
LINE
  5
26E
330
1F
100
AcDbEntity
  8
0
  6
Continuous
 62
     7
370
    15
100
AcDbLine
 10
392.2358411598759
 20
-86.75939508402302
 30
0.0
 11
402.7700062669505
 21
-86.75939508402302
 31
0.0
  0
LINE
  5
26F
330
1F
100
AcDbEntity
  8
0
  6
Continuous
 62
     7
370
    15
100
AcDbLine
 10
392.2358411598759
 20
-75.42757119905184
 30
0.0
 11
392.2358411598759
 21
-86.75939508402302
 31
0.0
  0
LINE
  5
270
330
1F
100
AcDbEntity
  8
0
  6
Continuous
 62
     7
370
    15
100
AcDbLine
 10
252.7700062669501
 20
-75.42757119905184
 30
0.0
 11
242.2358411598759
 21
-75.42757119905184
 31
0.0
  0
LINE
  5
271
330
1F
100
AcDbEntity
  8
0
  6
Continuous
 62
     7
370
    15
100
AcDbLine
 10
242.2358411598759
 20
-86.75939508402302
 30
0.0
 11
252.7700062669501
 21
-86.75939508402302
 31
0.0
  0
LINE
  5
272
330
1F
100
AcDbEntity
  8
0
  6
Continuous
 62
     7
370
    15
100
AcDbLine
 10
242.2358411598759
 20
-75.42757119905184
 30
0.0
 11
242.2358411598759
 21
-86.75939508402302
 31
0.0
  0
LINE
  5
273
330
1F
100
AcDbEntity
  8
0
  6
Continuous
 62
     7
370
    15
100
AcDbLine
 10
252.7700062669501
 20
-86.75939508402302
 30
0.0
 11
252.7700062669501
 21
-75.42757119905184
 31
0.0
  0
LINE
  5
274
330
1F
100
AcDbEntity
  8
0
  6
Continuous
 62
     7
370
    15
100
AcDbLine
 10
52.77000626695031
 20
-75.42757119905184
 30
0.0
 11
42.23584115987591
 21
-75.42757119905184
 31
0.0
  0
LINE
  5
275
330
1F
100
AcDbEntity
  8
0
  6
Continuous
 62
     7
370
    15
100
AcDbLine
 10
42.23584115987591
 20
-75.42757119905184
 30
0.0
 11
42.23584115987591
 21
-86.75939508402302
 31
0.0
  0
LINE
  5
276
330
1F
100
AcDbEntity
  8
0
  6
Continuous
 62
     7
370
    15
100
AcDbLine
 10
42.23584115987591
 20
-86.75939508402302
 30
0.0
 11
52.77000626695031
 21
-86.75939508402302
 31
0.0
  0
LINE
  5
277
330
1F
100
AcDbEntity
  8
0
  6
Continuous
 62
     7
370
    15
100
AcDbLine
 10
52.77000626695031
 20
-86.75939508402302
 30
0.0
 11
52.77000626695031
 21
-75.42757119905184
 31
0.0
  0
LINE
  5
278
330
1F
100
AcDbEntity
  8
0
  6
Continuous
 62
     7
370
    15
100
AcDbLine
 10
302.7700062669503
 20
-75.42757119905184
 30
0.0
 11
292.2358411598759
 21
-75.42757119905184
 31
0.0
  0
LINE
  5
279
330
1F
100
AcDbEntity
  8
0
  6
Continuous
 62
     7
370
    15
100
AcDbLine
 10
302.7700062669503
 20
-86.75939508402302
 30
0.0
 11
302.7700062669503
 21
-75.42757119905184
 31
0.0
  0
LINE
  5
27A
330
1F
100
AcDbEntity
  8
0
  6
Continuous
 62
     7
370
    15
100
AcDbLine
 10
292.2358411598759
 20
-86.75939508402302
 30
0.0
 11
302.7700062669503
 21
-86.75939508402302
 31
0.0
  0
LINE
  5
27B
330
1F
100
AcDbEntity
  8
0
  6
Continuous
 62
     7
370
    15
100
AcDbLine
 10
292.2358411598759
 20
-75.42757119905184
 30
0.0
 11
292.2358411598759
 21
-86.75939508402302
 31
0.0
  0
LINE
  5
27C
330
1F
100
AcDbEntity
  8
0
  6
Continuous
 62
     7
370
    15
100
AcDbLine
 10
102.7700062669502
 20
-75.42757119905184
 30
0.0
 11
92.23584115987581
 21
-75.42757119905184
 31
0.0
  0
LINE
  5
27D
330
1F
100
AcDbEntity
  8
0
  6
Continuous
 62
     7
370
    15
100
AcDbLine
 10
102.7700062669502
 20
-86.75939508402302
 30
0.0
 11
102.7700062669502
 21
-75.42757119905184
 31
0.0
  0
LINE
  5
27E
330
1F
100
AcDbEntity
  8
0
  6
Continuous
 62
     7
370
    15
100
AcDbLine
 10
92.23584115987581
 20
-86.75939508402302
 30
0.0
 11
102.7700062669502
 21
-86.75939508402302
 31
0.0
  0
LINE
  5
27F
330
1F
100
AcDbEntity
  8
0
  6
Continuous
 62
     7
370
    15
100
AcDbLine
 10
92.23584115987581
 20
-75.42757119905184
 30
0.0
 11
92.23584115987581
 21
-86.75939508402302
 31
0.0
  0
LINE
  5
280
330
1F
100
AcDbEntity
  8
0
  6
Continuous
 62
     7
370
    15
100
AcDbLine
 10
-47.22999373304981
 20
-75.42757119905184
 30
0.0
 11
-57.76415884012419
 21
-75.42757119905184
 31
0.0
  0
LINE
  5
281
330
1F
100
AcDbEntity
  8
0
  6
Continuous
 62
     7
370
    15
100
AcDbLine
 10
-57.76415884012419
 20
-86.75939508402302
 30
0.0
 11
-47.22999373304981
 21
-86.75939508402302
 31
0.0
  0
LINE
  5
282
330
1F
100
AcDbEntity
  8
0
  6
Continuous
 62
     7
370
    15
100
AcDbLine
 10
-57.76415884012419
 20
-75.42757119905184
 30
0.0
 11
-57.76415884012419
 21
-86.75939508402302
 31
0.0
  0
LINE
  5
283
330
1F
100
AcDbEntity
  8
0
  6
Continuous
 62
     7
370
    15
100
AcDbLine
 10
-47.22999373304981
 20
-86.75939508402302
 30
0.0
 11
-47.22999373304981
 21
-75.42757119905184
 31
0.0
  0
LINE
  5
284
330
1F
100
AcDbEntity
  8
0
  6
Continuous
 62
     7
370
    15
100
AcDbLine
 10
-597.2299937330499
 20
-75.42757119905184
 30
0.0
 11
-607.7641588401243
 21
-75.42757119905184
 31
0.0
  0
LINE
  5
285
330
1F
100
AcDbEntity
  8
0
  6
Continuous
 62
     7
370
    15
100
AcDbLine
 10
-597.2299937330499
 20
-86.75939508402302
 30
0.0
 11
-597.2299937330499
 21
-75.42757119905184
 31
0.0
  0
LINE
  5
286
330
1F
100
AcDbEntity
  8
0
  6
Continuous
 62
     7
370
    15
100
AcDbLine
 10
-607.7641588401243
 20
-86.75939508402302
 30
0.0
 11
-597.2299937330499
 21
-86.75939508402302
 31
0.0
  0
LINE
  5
287
330
1F
100
AcDbEntity
  8
0
  6
Continuous
 62
     7
370
    15
100
AcDbLine
 10
-607.7641588401243
 20
-75.42757119905184
 30
0.0
 11
-607.7641588401243
 21
-86.75939508402302
 31
0.0
  0
LINE
  5
288
330
1F
100
AcDbEntity
  8
0
  6
Continuous
 62
     7
370
    15
100
AcDbLine
 10
2.77000626695019
 20
-75.42757119905184
 30
0.0
 11
-7.764158840124196
 21
-75.42757119905184
 31
0.0
  0
LINE
  5
289
330
1F
100
AcDbEntity
  8
0
  6
Continuous
 62
     7
370
    15
100
AcDbLine
 10
2.77000626695019
 20
-86.75939508402302
 30
0.0
 11
2.77000626695019
 21
-75.42757119905184
 31
0.0
  0
LINE
  5
28A
330
1F
100
AcDbEntity
  8
0
  6
Continuous
 62
     7
370
    15
100
AcDbLine
 10
-7.764158840124196
 20
-86.75939508402302
 30
0.0
 11
2.77000626695019
 21
-86.75939508402302
 31
0.0
  0
LINE
  5
28B
330
1F
100
AcDbEntity
  8
0
  6
Continuous
 62
     7
370
    15
100
AcDbLine
 10
-7.764158840124196
 20
-75.42757119905184
 30
0.0
 11
-7.764158840124196
 21
-86.75939508402302
 31
0.0
  0
LINE
  5
28C
330
1F
100
AcDbEntity
  8
0
  6
Continuous
 62
     7
370
    15
100
AcDbLine
 10
-197.2299937330498
 20
-75.42757119905184
 30
0.0
 11
-207.7641588401242
 21
-75.42757119905184
 31
0.0
  0
LINE
  5
28D
330
1F
100
AcDbEntity
  8
0
  6
Continuous
 62
     7
370
    15
100
AcDbLine
 10
-197.2299937330498
 20
-86.75939508402302
 30
0.0
 11
-197.2299937330498
 21
-75.42757119905184
 31
0.0
  0
LINE
  5
28E
330
1F
100
AcDbEntity
  8
0
  6
Continuous
 62
     7
370
    15
100
AcDbLine
 10
-207.7641588401242
 20
-86.75939508402302
 30
0.0
 11
-197.2299937330498
 21
-86.75939508402302
 31
0.0
  0
LINE
  5
28F
330
1F
100
AcDbEntity
  8
0
  6
Continuous
 62
     7
370
    15
100
AcDbLine
 10
-207.7641588401242
 20
-75.42757119905184
 30
0.0
 11
-207.7641588401242
 21
-86.75939508402302
 31
0.0
  0
LINE
  5
290
330
1F
100
AcDbEntity
  8
0
  6
Continuous
 62
     7
370
    15
100
AcDbLine
 10
-697.2299937330499
 20
-75.42757119905184
 30
0.0
 11
-707.7641588401243
 21
-75.42757119905184
 31
0.0
  0
LINE
  5
291
330
1F
100
AcDbEntity
  8
0
  6
Continuous
 62
     7
370
    15
100
AcDbLine
 10
-697.2299937330499
 20
-86.75939508402302
 30
0.0
 11
-697.2299937330499
 21
-75.42757119905184
 31
0.0
  0
LINE
  5
292
330
1F
100
AcDbEntity
  8
0
  6
Continuous
 62
     7
370
    15
100
AcDbLine
 10
-707.7641588401243
 20
-86.75939508402302
 30
0.0
 11
-697.2299937330499
 21
-86.75939508402302
 31
0.0
  0
LINE
  5
293
330
1F
100
AcDbEntity
  8
0
  6
Continuous
 62
     7
370
    15
100
AcDbLine
 10
-707.7641588401243
 20
-75.42757119905184
 30
0.0
 11
-707.7641588401243
 21
-86.75939508402302
 31
0.0
  0
LINE
  5
294
330
1F
100
AcDbEntity
  8
0
  6
Continuous
 62
     7
370
    15
100
AcDbLine
 10
-797.2299937330498
 20
-75.42757119905184
 30
0.0
 11
-807.7641588401244
 21
-75.42757119905184
 31
0.0
  0
LINE
  5
295
330
1F
100
AcDbEntity
  8
0
  6
Continuous
 62
     7
370
    15
100
AcDbLine
 10
-807.7641588401244
 20
-86.75939508402302
 30
0.0
 11
-797.2299937330498
 21
-86.75939508402302
 31
0.0
  0
LINE
  5
296
330
1F
100
AcDbEntity
  8
0
  6
Continuous
 62
     7
370
    15
100
AcDbLine
 10
-807.7641588401244
 20
-75.42757119905184
 30
0.0
 11
-807.7641588401244
 21
-86.75939508402302
 31
0.0
  0
LINE
  5
297
330
1F
100
AcDbEntity
  8
0
  6
Continuous
 62
     7
370
    15
100
AcDbLine
 10
-797.2299937330498
 20
-86.75939508402302
 30
0.0
 11
-797.2299937330498
 21
-75.42757119905184
 31
0.0
  0
LINE
  5
298
330
1F
100
AcDbEntity
  8
0
  6
Continuous
 62
     7
370
    15
100
AcDbLine
 10
152.77000626695
 20
-75.42757119905184
 30
0.0
 11
142.2358411598759
 21
-75.42757119905184
 31
0.0
  0
LINE
  5
299
330
1F
100
AcDbEntity
  8
0
  6
Continuous
 62
     7
370
    15
100
AcDbLine
 10
142.2358411598759
 20
-86.75939508402302
 30
0.0
 11
152.77000626695
 21
-86.75939508402302
 31
0.0
  0
LINE
  5
29A
330
1F
100
AcDbEntity
  8
0
  6
Continuous
 62
     7
370
    15
100
AcDbLine
 10
142.2358411598759
 20
-75.42757119905184
 30
0.0
 11
142.2358411598759
 21
-86.75939508402302
 31
0.0
  0
LINE
  5
29B
330
1F
100
AcDbEntity
  8
0
  6
Continuous
 62
     7
370
    15
100
AcDbLine
 10
152.77000626695
 20
-86.75939508402302
 30
0.0
 11
152.77000626695
 21
-75.42757119905184
 31
0.0
  0
LINE
  5
29C
330
1F
100
AcDbEntity
  8
0
  6
Continuous
 62
     7
370
    15
100
AcDbLine
 10
202.7700062669503
 20
-75.42757119905184
 30
0.0
 11
192.2358411598759
 21
-75.42757119905184
 31
0.0
  0
LINE
  5
29D
330
1F
100
AcDbEntity
  8
0
  6
Continuous
 62
     7
370
    15
100
AcDbLine
 10
202.7700062669503
 20
-86.75939508402302
 30
0.0
 11
202.7700062669503
 21
-75.42757119905184
 31
0.0
  0
LINE
  5
29E
330
1F
100
AcDbEntity
  8
0
  6
Continuous
 62
     7
370
    15
100
AcDbLine
 10
192.2358411598759
 20
-86.75939508402302
 30
0.0
 11
202.7700062669503
 21
-86.75939508402302
 31
0.0
  0
LINE
  5
29F
330
1F
100
AcDbEntity
  8
0
  6
Continuous
 62
     7
370
    15
100
AcDbLine
 10
192.2358411598759
 20
-75.42757119905184
 30
0.0
 11
192.2358411598759
 21
-86.75939508402302
 31
0.0
  0
LINE
  5
2A0
330
1F
100
AcDbEntity
  8
0
  6
Continuous
 62
     7
370
    15
100
AcDbLine
 10
-97.2299937330497
 20
-75.42757119905184
 30
0.0
 11
-107.7641588401242
 21
-75.42757119905184
 31
0.0
  0
LINE
  5
2A1
330
1F
100
AcDbEntity
  8
0
  6
Continuous
 62
     7
370
    15
100
AcDbLine
 10
-107.7641588401242
 20
-86.75939508402302
 30
0.0
 11
-97.2299937330497
 21
-86.75939508402302
 31
0.0
  0
LINE
  5
2A2
330
1F
100
AcDbEntity
  8
0
  6
Continuous
 62
     7
370
    15
100
AcDbLine
 10
-97.2299937330497
 20
-86.75939508402302
 30
0.0
 11
-97.2299937330497
 21
-75.42757119905184
 31
0.0
  0
LINE
  5
2A3
330
1F
100
AcDbEntity
  8
0
  6
Continuous
 62
     7
370
    15
100
AcDbLine
 10
-107.7641588401242
 20
-75.42757119905184
 30
0.0
 11
-107.7641588401242
 21
-86.75939508402302
 31
0.0
  0
LINE
  5
2A4
330
1F
100
AcDbEntity
  8
0
  6
Continuous
 62
     7
370
    15
100
AcDbLine
 10
-297.2299937330498
 20
-75.42757119905184
 30
0.0
 11
-307.7641588401242
 21
-75.42757119905184
 31
0.0
  0
LINE
  5
2A5
330
1F
100
AcDbEntity
  8
0
  6
Continuous
 62
     7
370
    15
100
AcDbLine
 10
-297.2299937330498
 20
-86.75939508402302
 30
0.0
 11
-297.2299937330498
 21
-75.42757119905184
 31
0.0
  0
LINE
  5
2A6
330
1F
100
AcDbEntity
  8
0
  6
Continuous
 62
     7
370
    15
100
AcDbLine
 10
-307.7641588401242
 20
-75.42757119905184
 30
0.0
 11
-307.7641588401242
 21
-86.75939508402302
 31
0.0
  0
LINE
  5
2A7
330
1F
100
AcDbEntity
  8
0
  6
Continuous
 62
     7
370
    15
100
AcDbLine
 10
-307.7641588401242
 20
-86.75939508402302
 30
0.0
 11
-297.2299937330498
 21
-86.75939508402302
 31
0.0
  0
LINE
  5
2A8
330
1F
100
AcDbEntity
  8
0
  6
Continuous
 62
     7
370
    15
100
AcDbLine
 10
-397.2299937330498
 20
-75.42757119905184
 30
0.0
 11
-407.7641588401242
 21
-75.42757119905184
 31
0.0
  0
LINE
  5
2A9
330
1F
100
AcDbEntity
  8
0
  6
Continuous
 62
     7
370
    15
100
AcDbLine
 10
-397.2299937330498
 20
-86.75939508402302
 30
0.0
 11
-397.2299937330498
 21
-75.42757119905184
 31
0.0
  0
LINE
  5
2AA
330
1F
100
AcDbEntity
  8
0
  6
Continuous
 62
     7
370
    15
100
AcDbLine
 10
-407.7641588401242
 20
-86.75939508402302
 30
0.0
 11
-397.2299937330498
 21
-86.75939508402302
 31
0.0
  0
LINE
  5
2AB
330
1F
100
AcDbEntity
  8
0
  6
Continuous
 62
     7
370
    15
100
AcDbLine
 10
-407.7641588401242
 20
-75.42757119905184
 30
0.0
 11
-407.7641588401242
 21
-86.75939508402302
 31
0.0
  0
LINE
  5
2AC
330
1F
100
AcDbEntity
  8
0
  6
Continuous
 62
     7
370
    15
100
AcDbLine
 10
-497.2299937330498
 20
-75.42757119905184
 30
0.0
 11
-507.7641588401242
 21
-75.42757119905184
 31
0.0
  0
LINE
  5
2AD
330
1F
100
AcDbEntity
  8
0
  6
Continuous
 62
     7
370
    15
100
AcDbLine
 10
-497.2299937330498
 20
-86.75939508402302
 30
0.0
 11
-497.2299937330498
 21
-75.42757119905184
 31
0.0
  0
LINE
  5
2AE
330
1F
100
AcDbEntity
  8
0
  6
Continuous
 62
     7
370
    15
100
AcDbLine
 10
-507.7641588401242
 20
-86.75939508402302
 30
0.0
 11
-497.2299937330498
 21
-86.75939508402302
 31
0.0
  0
LINE
  5
2AF
330
1F
100
AcDbEntity
  8
0
  6
Continuous
 62
     7
370
    15
100
AcDbLine
 10
-507.7641588401242
 20
-75.42757119905184
 30
0.0
 11
-507.7641588401242
 21
-86.75939508402302
 31
0.0
  0
LINE
  5
2B0
330
1F
100
AcDbEntity
  8
0
  6
Continuous
 62
     7
370
    15
100
AcDbLine
 10
-247.2299937330498
 20
-75.42757119905184
 30
0.0
 11
-257.7641588401242
 21
-75.42757119905184
 31
0.0
  0
LINE
  5
2B1
330
1F
100
AcDbEntity
  8
0
  6
Continuous
 62
     7
370
    15
100
AcDbLine
 10
-247.2299937330498
 20
-86.75939508402302
 30
0.0
 11
-247.2299937330498
 21
-75.42757119905184
 31
0.0
  0
LINE
  5
2B2
330
1F
100
AcDbEntity
  8
0
  6
Continuous
 62
     7
370
    15
100
AcDbLine
 10
-257.7641588401242
 20
-86.75939508402302
 30
0.0
 11
-247.2299937330498
 21
-86.75939508402302
 31
0.0
  0
LINE
  5
2B3
330
1F
100
AcDbEntity
  8
0
  6
Continuous
 62
     7
370
    15
100
AcDbLine
 10
-257.7641588401242
 20
-75.42757119905184
 30
0.0
 11
-257.7641588401242
 21
-86.75939508402302
 31
0.0
  0
LINE
  5
2B4
330
1F
100
AcDbEntity
  8
0
  6
Continuous
 62
     7
370
    15
100
AcDbLine
 10
-647.2299937330498
 20
-75.42757119905184
 30
0.0
 11
-657.7641588401242
 21
-75.42757119905184
 31
0.0
  0
LINE
  5
2B5
330
1F
100
AcDbEntity
  8
0
  6
Continuous
 62
     7
370
    15
100
AcDbLine
 10
-647.2299937330498
 20
-86.75939508402302
 30
0.0
 11
-647.2299937330498
 21
-75.42757119905184
 31
0.0
  0
LINE
  5
2B6
330
1F
100
AcDbEntity
  8
0
  6
Continuous
 62
     7
370
    15
100
AcDbLine
 10
-657.7641588401242
 20
-86.75939508402302
 30
0.0
 11
-647.2299937330498
 21
-86.75939508402302
 31
0.0
  0
LINE
  5
2B7
330
1F
100
AcDbEntity
  8
0
  6
Continuous
 62
     7
370
    15
100
AcDbLine
 10
-657.7641588401242
 20
-75.42757119905184
 30
0.0
 11
-657.7641588401242
 21
-86.75939508402302
 31
0.0
  0
LINE
  5
2B8
330
1F
100
AcDbEntity
  8
0
  6
Continuous
 62
     7
370
    15
100
AcDbLine
 10
-747.2299937330499
 20
-75.42757119905184
 30
0.0
 11
-757.7641588401243
 21
-75.42757119905184
 31
0.0
  0
LINE
  5
2B9
330
1F
100
AcDbEntity
  8
0
  6
Continuous
 62
     7
370
    15
100
AcDbLine
 10
-757.7641588401243
 20
-86.75939508402302
 30
0.0
 11
-747.2299937330499
 21
-86.75939508402302
 31
0.0
  0
LINE
  5
2BA
330
1F
100
AcDbEntity
  8
0
  6
Continuous
 62
     7
370
    15
100
AcDbLine
 10
-747.2299937330499
 20
-86.75939508402302
 30
0.0
 11
-747.2299937330499
 21
-75.42757119905184
 31
0.0
  0
LINE
  5
2BB
330
1F
100
AcDbEntity
  8
0
  6
Continuous
 62
     7
370
    15
100
AcDbLine
 10
-757.7641588401243
 20
-75.42757119905184
 30
0.0
 11
-757.7641588401243
 21
-86.75939508402302
 31
0.0
  0
LINE
  5
2BC
330
1F
100
AcDbEntity
  8
0
  6
Continuous
 62
     7
370
    15
100
AcDbLine
 10
-547.2299937330498
 20
-75.42757119905184
 30
0.0
 11
-557.7641588401243
 21
-75.42757119905184
 31
0.0
  0
LINE
  5
2BD
330
1F
100
AcDbEntity
  8
0
  6
Continuous
 62
     7
370
    15
100
AcDbLine
 10
-547.2299937330498
 20
-86.75939508402302
 30
0.0
 11
-547.2299937330498
 21
-75.42757119905184
 31
0.0
  0
LINE
  5
2BE
330
1F
100
AcDbEntity
  8
0
  6
Continuous
 62
     7
370
    15
100
AcDbLine
 10
-557.7641588401243
 20
-86.75939508402302
 30
0.0
 11
-547.2299937330498
 21
-86.75939508402302
 31
0.0
  0
LINE
  5
2BF
330
1F
100
AcDbEntity
  8
0
  6
Continuous
 62
     7
370
    15
100
AcDbLine
 10
-557.7641588401243
 20
-75.42757119905184
 30
0.0
 11
-557.7641588401243
 21
-86.75939508402302
 31
0.0
  0
LINE
  5
2C0
330
1F
100
AcDbEntity
  8
0
  6
Continuous
 62
     7
370
    15
100
AcDbLine
 10
691.4369120753349
 20
135.1790744244828
 30
0.0
 11
701.4481586851082
 21
175.1748497974035
 31
0.0
  0
LINE
  5
2C1
330
1F
100
AcDbEntity
  8
0
  6
Continuous
 62
     7
370
    15
100
AcDbLine
 10
701.4481586851082
 20
175.1748497974035
 30
0.0
 11
702.8339683899116
 21
174.8279710938495
 31
0.0
  0
LINE
  5
2C2
330
1F
100
AcDbEntity
  8
0
  6
Continuous
 62
     7
370
    15
100
AcDbLine
 10
694.1015929300983
 20
113.7505110297028
 30
0.0
 11
692.3319510106962
 21
112.3219476349223
 31
0.0
  0
ARC
  5
2C3
330
1F
100
AcDbEntity
  8
0
  6
Continuous
 62
     7
370
    15
100
AcDbCircle
 10
681.3927576272483
 20
123.3396782623922
 30
0.0
 40
15.52598918136805
100
AcDbArc
 50
49.68982188100985
 51
314.7950608462054
  0
LINE
  5
2C4
330
1F
100
AcDbEntity
  8
0
  6
Continuous
 62
     7
370
    15
100
AcDbLine
 10
850.8206238872919
 20
174.8279710938495
 30
0.0
 11
852.2064335920948
 21
175.1748497974035
 31
0.0
  0
ARC
  5
2C5
330
1F
100
AcDbEntity
  8
0
  6
Continuous
 62
     7
370
    15
100
AcDbCircle
 10
872.2618346499551
 20
123.3396782623922
 30
0.0
 40
15.52598918136805
100
AcDbArc
 50
225.2049391537965
 51
130.310178118992
  0
LINE
  5
2C6
330
1F
100
AcDbEntity
  8
0
  6
Continuous
 62
     7
370
    15
100
AcDbLine
 10
861.3226412665071
 20
112.3219476349223
 30
0.0
 11
859.5529993471052
 21
113.7505110297028
 31
0.0
  0
LINE
  5
2C7
330
1F
100
AcDbEntity
  8
0
  6
Continuous
 62
     7
370
    15
100
AcDbLine
 10
852.2064335920948
 20
175.1748497974035
 30
0.0
 11
862.217680201868
 21
135.1790744244828
 31
0.0
  0
LINE
  5
2C8
330
1F
100
AcDbEntity
  8
0
  6
Continuous
 62
     7
370
    15
100
AcDbLine
 10
671.8272961386015
 20
113.7505110297028
 30
0.0
 11
671.8272961386015
 21
133.7505110297027
 31
0.0
  0
LINE
  5
2C9
330
1F
100
AcDbEntity
  8
0
  6
Continuous
 62
     7
370
    15
100
AcDbLine
 10
691.8272961386015
 20
133.7505110297027
 30
0.0
 11
691.8272961386015
 21
113.7505110297028
 31
0.0
  0
LINE
  5
2CA
330
1F
100
AcDbEntity
  8
0
  6
Continuous
 62
     7
370
    15
100
AcDbLine
 10
671.8272961386015
 20
133.7505110297027
 30
0.0
 11
691.8272961386015
 21
133.7505110297027
 31
0.0
  0
LINE
  5
2CB
330
1F
100
AcDbEntity
  8
0
  6
Continuous
 62
     7
370
    15
100
AcDbLine
 10
691.8272961386015
 20
113.7505110297028
 30
0.0
 11
671.8272961386015
 21
113.7505110297028
 31
0.0
  0
LINE
  5
2CC
330
1F
100
AcDbEntity
  8
0
  6
Continuous
 62
     7
370
    15
100
AcDbLine
 10
861.8272961386015
 20
113.7505110297028
 30
0.0
 11
861.8272961386015
 21
133.7505110297027
 31
0.0
  0
LINE
  5
2CD
330
1F
100
AcDbEntity
  8
0
  6
Continuous
 62
     7
370
    15
100
AcDbLine
 10
861.8272961386015
 20
133.7505110297027
 30
0.0
 11
691.8272961386015
 21
133.7505110297027
 31
0.0
  0
LINE
  5
2CE
330
1F
100
AcDbEntity
  8
0
  6
Continuous
 62
     7
370
    15
100
AcDbLine
 10
861.8272961386015
 20
113.7505110297028
 30
0.0
 11
691.8272961386015
 21
113.7505110297028
 31
0.0
  0
LINE
  5
2CF
330
1F
100
AcDbEntity
  8
0
  6
Continuous
 62
     7
370
    15
100
AcDbLine
 10
881.8272961386014
 20
133.7505110297027
 30
0.0
 11
881.8272961386014
 21
113.7505110297028
 31
0.0
  0
LINE
  5
2D0
330
1F
100
AcDbEntity
  8
0
  6
Continuous
 62
     7
370
    15
100
AcDbLine
 10
861.8272961386015
 20
133.7505110297027
 30
0.0
 11
881.8272961386014
 21
133.7505110297027
 31
0.0
  0
LINE
  5
2D1
330
1F
100
AcDbEntity
  8
0
  6
Continuous
 62
     7
370
    15
100
AcDbLine
 10
881.8272961386014
 20
113.7505110297028
 30
0.0
 11
861.8272961386015
 21
113.7505110297028
 31
0.0
  0
ARC
  5
2D2
330
1F
100
AcDbEntity
  8
0
  6
Continuous
 62
     7
370
    15
100
AcDbCircle
 10
827.7243129088438
 20
183.7505110297027
 30
0.0
 40
20.0
100
AcDbArc
 50
14.99999999999982
 51
90.0
  0
LINE
  5
2D3
330
1F
100
AcDbEntity
  8
0
  6
Continuous
 62
     7
370
    15
100
AcDbLine
 10
847.0428294346252
 20
188.926891931753
 30
0.0
 11
861.8272961386015
 21
133.7505110297027
 31
0.0
  0
ARC
  5
2D4
330
1F
100
AcDbEntity
  8
0
  6
Continuous
 62
     7
370
    15
100
AcDbCircle
 10
725.9302793683594
 20
183.7505110297027
 30
0.0
 40
20.0
100
AcDbArc
 50
90.0
 51
165.0000000000001
  0
LINE
  5
2D5
330
1F
100
AcDbEntity
  8
0
  6
Continuous
 62
     7
370
    15
100
AcDbLine
 10
725.9302793683594
 20
203.7505110297027
 30
0.0
 11
827.7243129088438
 21
203.7505110297027
 31
0.0
  0
LINE
  5
2D6
330
1F
100
AcDbEntity
  8
0
  6
Continuous
 62
     7
370
    15
100
AcDbLine
 10
706.6117628425781
 20
188.926891931753
 30
0.0
 11
691.8272961386015
 21
133.7505110297027
 31
0.0
  0
ENDSEC
  0
SECTION
  2
OBJECTS
  0
DICTIONARY
  5
C
330
0
100
AcDbDictionary
281
     1
  3
ACAD_COLOR
350
302
  3
ACAD_GROUP
350
D
  3
ACAD_LAYOUT
350
1A
  3
ACAD_MATERIAL
350
2D8
  3
ACAD_MLEADERSTYLE
350
317
  3
ACAD_MLINESTYLE
350
17
  3
ACAD_PLOTSETTINGS
350
19
  3
ACAD_PLOTSTYLENAME
350
E
  3
ACAD_SCALELIST
350
305
  3
ACAD_TABLESTYLE
350
303
  3
ACAD_VISUALSTYLE
350
2F1
  3
ACDB_RECOMPOSE_DATA
350
342
  3
AcDbVariableDictionary
350
338
  0
DICTIONARY
  5
336
330
10
100
AcDbDictionary
280
     1
281
     1
  3
ADSK_XREC_LAYER_RECONCILED
360
337
  0
DICTIONARY
  5
302
102
{ACAD_REACTORS
330
C
102
}
330
C
100
AcDbDictionary
281
     1
  0
DICTIONARY
  5
D
102
{ACAD_REACTORS
330
C
102
}
330
C
100
AcDbDictionary
281
     1
  0
DICTIONARY
  5
1A
102
{ACAD_REACTORS
330
C
102
}
330
C
100
AcDbDictionary
281
     1
  3
Layout1
350
1E
  3
Layout2
350
26
  3
Model
350
22
  0
DICTIONARY
  5
2D8
102
{ACAD_REACTORS
330
C
102
}
330
C
100
AcDbDictionary
281
     1
  3
ByBlock
350
2E1
  3
ByLayer
350
2D9
  3
Global
350
2E9
  0
DICTIONARY
  5
317
102
{ACAD_REACTORS
330
C
102
}
330
C
100
AcDbDictionary
281
     1
  3
Standard
350
318
  0
DICTIONARY
  5
17
102
{ACAD_REACTORS
330
C
102
}
330
C
100
AcDbDictionary
281
     1
  3
Standard
350
18
  0
DICTIONARY
  5
19
102
{ACAD_REACTORS
330
C
102
}
330
C
100
AcDbDictionary
281
     1
  0
ACDBDICTIONARYWDFLT
  5
E
102
{ACAD_REACTORS
330
C
102
}
330
C
100
AcDbDictionary
281
     1
  3
Normal
350
F
100
AcDbDictionaryWithDefault
340
F
  0
DICTIONARY
  5
305
102
{ACAD_REACTORS
330
C
102
}
330
C
100
AcDbDictionary
281
     1
  3
A0
350
306
  3
A1
350
307
  3
A2
350
308
  3
A3
350
309
  3
A4
350
30A
  3
A5
350
30B
  3
A6
350
30C
  3
A7
350
30D
  3
A8
350
30E
  3
A9
350
30F
  3
B0
350
310
  3
B1
350
311
  3
B2
350
312
  3
B3
350
313
  3
B4
350
314
  3
B5
350
315
  3
B6
350
316
  0
DICTIONARY
  5
303
102
{ACAD_REACTORS
330
C
102
}
330
C
100
AcDbDictionary
281
     1
  3
Standard
350
304
  0
DICTIONARY
  5
2F1
102
{ACAD_REACTORS
330
C
102
}
330
C
100
AcDbDictionary
281
     1
  3
2dWireframe
350
2F7
  3
3D Hidden
350
2F9
  3
3dWireframe
350
2F8
  3
Basic
350
2F6
  3
Brighten
350
2FD
  3
ColorChange
350
301
  3
Conceptual
350
2FA
  3
Dim
350
2FC
  3
Facepattern
350
300
  3
Flat
350
2F2
  3
FlatWithEdges
350
2F3
  3
Gouraud
350
2F4
  3
GouraudWithEdges
350
2F5
  3
Linepattern
350
2FF
  3
Realistic
350
2FB
  3
Thicken
350
2FE
  0
XRECORD
  5
342
102
{ACAD_REACTORS
330
C
102
}
330
C
100
AcDbXrecord
280
     1
 90
        1
330
304
  0
DICTIONARY
  5
338
102
{ACAD_REACTORS
330
C
102
}
330
C
100
AcDbDictionary
281
     1
  3
CANNOSCALE
350
33C
  3
CMLEADERSTYLE
350
33A
  3
CTABLESTYLE
350
339
  3
LAYEREVAL
350
33E
  3
LAYERNOTIFY
350
33F
  3
LIGHTINGUNITS
350
33D
  3
MSLTSCALE
350
33B
  0
XRECORD
  5
337
102
{ACAD_REACTORS
330
336
102
}
330
336
100
AcDbXrecord
280
     1
290
     1
  0
LAYOUT
  5
1E
102
{ACAD_REACTORS
330
1A
102
}
330
1A
100
AcDbPlotSettings
  1

  2
none_device
  4

  6

 40
0.0
 41
0.0
 42
0.0
 43
0.0
 44
0.0
 45
0.0
 46
0.0
 47
0.0
 48
0.0
 49
0.0
140
0.0
141
0.0
142
1.0
143
1.0
 70
   688
 72
     0
 73
     0
 74
     5
  7

 75
    16
147
1.0
 76
     0
 77
     2
 78
   300
148
0.0
149
0.0
100
AcDbLayout
  1
Layout1
 70
     1
 71
     1
 10
0.0
 20
0.0
 11
420.0
 21
297.0
 12
0.0
 22
0.0
 32
0.0
 14
1.000000000000000E+20
 24
1.000000000000000E+20
 34
1.000000000000000E+20
 15
-1.000000000000000E+20
 25
-1.000000000000000E+20
 35
-1.000000000000000E+20
146
0.0
 13
0.0
 23
0.0
 33
0.0
 16
1.0
 26
0.0
 36
0.0
 17
0.0
 27
1.0
 37
0.0
 76
     0
330
1B
  0
LAYOUT
  5
26
102
{ACAD_REACTORS
330
1A
102
}
330
1A
100
AcDbPlotSettings
  1

  2
none_device
  4

  6

 40
0.0
 41
0.0
 42
0.0
 43
0.0
 44
0.0
 45
0.0
 46
0.0
 47
0.0
 48
0.0
 49
0.0
140
0.0
141
0.0
142
1.0
143
1.0
 70
   688
 72
     0
 73
     0
 74
     5
  7

 75
    16
147
1.0
 76
     0
 77
     2
 78
   300
148
0.0
149
0.0
100
AcDbLayout
  1
Layout2
 70
     1
 71
     2
 10
0.0
 20
0.0
 11
0.0
 21
0.0
 12
0.0
 22
0.0
 32
0.0
 14
0.0
 24
0.0
 34
0.0
 15
0.0
 25
0.0
 35
0.0
146
0.0
 13
0.0
 23
0.0
 33
0.0
 16
1.0
 26
0.0
 36
0.0
 17
0.0
 27
1.0
 37
0.0
 76
     0
330
23
  0
LAYOUT
  5
22
102
{ACAD_REACTORS
330
1A
102
}
330
1A
100
AcDbPlotSettings
  1

  2
none_device
  4

  6

 40
0.0
 41
0.0
 42
0.0
 43
0.0
 44
0.0
 45
0.0
 46
0.0
 47
0.0
 48
0.0
 49
0.0
140
0.0
141
0.0
142
1.0
143
1.0
 70
  1712
 72
     0
 73
     0
 74
     0
  7

 75
     0
147
1.0
 76
     0
 77
     2
 78
   300
148
0.0
149
0.0
100
AcDbLayout
  1
Model
 70
     1
 71
     0
 10
0.0
 20
0.0
 11
279.4
 21
215.9
 12
0.0
 22
0.0
 32
0.0
 14
0.0
 24
0.0
 34
0.0
 15
279.4
 25
215.9
 35
0.0
146
0.0
 13
0.0
 23
0.0
 33
0.0
 16
1.0
 26
0.0
 36
0.0
 17
0.0
 27
1.0
 37
0.0
 76
     0
330
1F
331
29
  0
MATERIAL
  5
2E1
102
{ACAD_XDICTIONARY
360
2E2
102
}
102
{ACAD_REACTORS
330
2D8
102
}
330
2D8
100
AcDbMaterial
  1
ByBlock
 72
     0
 43
0.0008202099737533
 43
0.0
 43
0.0
 43
0.0
 43
0.0
 43
0.0008202099737533
 43
0.0
 43
0.0
 43
0.0
 43
0.0
 43
1.0
 43
0.0
 43
0.0
 43
0.0
 43
0.0
 43
1.0
 77
     0
 47
0.0008202099737533
 47
0.0
 47
0.0
 47
0.0
 47
0.0
 47
0.0008202099737533
 47
0.0
 47
0.0
 47
0.0
 47
0.0
 47
1.0
 47
0.0
 47
0.0
 47
0.0
 47
0.0
 47
1.0
171
     0
 49
0.0008202099737533
 49
0.0
 49
0.0
 49
0.0
 49
0.0
 49
0.0008202099737533
 49
0.0
 49
0.0
 49
0.0
 49
0.0
 49
1.0
 49
0.0
 49
0.0
 49
0.0
 49
0.0
 49
1.0
175
     0
142
0.0008202099737533
142
0.0
142
0.0
142
0.0
142
0.0
142
0.0008202099737533
142
0.0
142
0.0
142
0.0
142
0.0
142
1.0
142
0.0
142
0.0
142
0.0
142
0.0
142
1.0
179
     0
144
0.0008202099737533
144
0.0
144
0.0
144
0.0
144
0.0
144
0.0008202099737533
144
0.0
144
0.0
144
0.0
144
0.0
144
1.0
144
0.0
144
0.0
144
0.0
144
0.0
144
1.0
147
0.0008202099737533
147
0.0
147
0.0
147
0.0
147
0.0
147
0.0008202099737533
147
0.0
147
0.0
147
0.0
147
0.0
147
1.0
147
0.0
147
0.0
147
0.0
147
0.0
147
1.0
  0
MATERIAL
  5
2D9
102
{ACAD_XDICTIONARY
360
2DA
102
}
102
{ACAD_REACTORS
330
2D8
102
}
330
2D8
100
AcDbMaterial
  1
ByLayer
 72
     0
 43
0.0008202099737533
 43
0.0
 43
0.0
 43
0.0
 43
0.0
 43
0.0008202099737533
 43
0.0
 43
0.0
 43
0.0
 43
0.0
 43
1.0
 43
0.0
 43
0.0
 43
0.0
 43
0.0
 43
1.0
 77
     0
 47
0.0008202099737533
 47
0.0
 47
0.0
 47
0.0
 47
0.0
 47
0.0008202099737533
 47
0.0
 47
0.0
 47
0.0
 47
0.0
 47
1.0
 47
0.0
 47
0.0
 47
0.0
 47
0.0
 47
1.0
171
     0
 49
0.0008202099737533
 49
0.0
 49
0.0
 49
0.0
 49
0.0
 49
0.0008202099737533
 49
0.0
 49
0.0
 49
0.0
 49
0.0
 49
1.0
 49
0.0
 49
0.0
 49
0.0
 49
0.0
 49
1.0
175
     0
142
0.0008202099737533
142
0.0
142
0.0
142
0.0
142
0.0
142
0.0008202099737533
142
0.0
142
0.0
142
0.0
142
0.0
142
1.0
142
0.0
142
0.0
142
0.0
142
0.0
142
1.0
179
     0
144
0.0008202099737533
144
0.0
144
0.0
144
0.0
144
0.0
144
0.0008202099737533
144
0.0
144
0.0
144
0.0
144
0.0
144
1.0
144
0.0
144
0.0
144
0.0
144
0.0
144
1.0
147
0.0008202099737533
147
0.0
147
0.0
147
0.0
147
0.0
147
0.0008202099737533
147
0.0
147
0.0
147
0.0
147
0.0
147
1.0
147
0.0
147
0.0
147
0.0
147
0.0
147
1.0
  0
MATERIAL
  5
2E9
102
{ACAD_XDICTIONARY
360
2EA
102
}
102
{ACAD_REACTORS
330
2D8
102
}
330
2D8
100
AcDbMaterial
  1
Global
 72
     0
 43
0.0008202099737533
 43
0.0
 43
0.0
 43
0.0
 43
0.0
 43
0.0008202099737533
 43
0.0
 43
0.0
 43
0.0
 43
0.0
 43
1.0
 43
0.0
 43
0.0
 43
0.0
 43
0.0
 43
1.0
 77
     0
 47
0.0008202099737533
 47
0.0
 47
0.0
 47
0.0
 47
0.0
 47
0.0008202099737533
 47
0.0
 47
0.0
 47
0.0
 47
0.0
 47
1.0
 47
0.0
 47
0.0
 47
0.0
 47
0.0
 47
1.0
171
     0
 49
0.0008202099737533
 49
0.0
 49
0.0
 49
0.0
 49
0.0
 49
0.0008202099737533
 49
0.0
 49
0.0
 49
0.0
 49
0.0
 49
1.0
 49
0.0
 49
0.0
 49
0.0
 49
0.0
 49
1.0
175
     0
142
0.0008202099737533
142
0.0
142
0.0
142
0.0
142
0.0
142
0.0008202099737533
142
0.0
142
0.0
142
0.0
142
0.0
142
1.0
142
0.0
142
0.0
142
0.0
142
0.0
142
1.0
179
     0
144
0.0008202099737533
144
0.0
144
0.0
144
0.0
144
0.0
144
0.0008202099737533
144
0.0
144
0.0
144
0.0
144
0.0
144
1.0
144
0.0
144
0.0
144
0.0
144
0.0
144
1.0
147
0.0008202099737533
147
0.0
147
0.0
147
0.0
147
0.0
147
0.0008202099737533
147
0.0
147
0.0
147
0.0
147
0.0
147
1.0
147
0.0
147
0.0
147
0.0
147
0.0
147
1.0
  0
MLEADERSTYLE
  5
318
102
{ACAD_REACTORS
330
317
102
}
330
317
100
AcDbMLeaderStyle
170
     2
171
     1
172
     0
 90
        2
 40
0.0
 41
0.0
173
     1
 91
-1056964608
340
14
 92
       -2
290
     1
 42
2.0
291
     1
 43
0.36
  3
Standard
 44
4.0
300

342
11
174
     1
178
     6
175
     1
176
     0
 93
-1056964608
 45
4.0
292
     0
297
     0
 46
4.0
 94
-1056964608
 47
1.0
 49
1.0
140
1.0
293
     1
141
0.0
294
     1
177
     0
142
1.0
295
     1
296
     0
143
0.125
1001
ACAD_MLEADERVER
1070
     2
  0
MLINESTYLE
  5
18
102
{ACAD_REACTORS
330
17
102
}
330
17
100
AcDbMlineStyle
  2
STANDARD
 70
     0
  3

 62
   256
 51
90.0
 52
90.0
 71
     2
 49
0.5
 62
   256
  6
BYLAYER
 49
-0.5
 62
   256
  6
BYLAYER
  0
ACDBPLACEHOLDER
  5
F
102
{ACAD_REACTORS
330
E
102
}
330
E
  0
SCALE
  5
306
102
{ACAD_REACTORS
330
305
102
}
330
305
100
AcDbScale
 70
     0
300
1:1
140
1.0
141
1.0
290
     1
  0
SCALE
  5
307
102
{ACAD_REACTORS
330
305
102
}
330
305
100
AcDbScale
 70
     0
300
1:2
140
1.0
141
2.0
290
     0
  0
SCALE
  5
308
102
{ACAD_REACTORS
330
305
102
}
330
305
100
AcDbScale
 70
     0
300
1:4
140
1.0
141
4.0
290
     0
  0
SCALE
  5
309
102
{ACAD_REACTORS
330
305
102
}
330
305
100
AcDbScale
 70
     0
300
1:5
140
1.0
141
5.0
290
     0
  0
SCALE
  5
30A
102
{ACAD_REACTORS
330
305
102
}
330
305
100
AcDbScale
 70
     0
300
1:8
140
1.0
141
8.0
290
     0
  0
SCALE
  5
30B
102
{ACAD_REACTORS
330
305
102
}
330
305
100
AcDbScale
 70
     0
300
1:10
140
1.0
141
10.0
290
     0
  0
SCALE
  5
30C
102
{ACAD_REACTORS
330
305
102
}
330
305
100
AcDbScale
 70
     0
300
1:16
140
1.0
141
16.0
290
     0
  0
SCALE
  5
30D
102
{ACAD_REACTORS
330
305
102
}
330
305
100
AcDbScale
 70
     0
300
1:20
140
1.0
141
20.0
290
     0
  0
SCALE
  5
30E
102
{ACAD_REACTORS
330
305
102
}
330
305
100
AcDbScale
 70
     0
300
1:30
140
1.0
141
30.0
290
     0
  0
SCALE
  5
30F
102
{ACAD_REACTORS
330
305
102
}
330
305
100
AcDbScale
 70
     0
300
1:40
140
1.0
141
40.0
290
     0
  0
SCALE
  5
310
102
{ACAD_REACTORS
330
305
102
}
330
305
100
AcDbScale
 70
     0
300
1:50
140
1.0
141
50.0
290
     0
  0
SCALE
  5
311
102
{ACAD_REACTORS
330
305
102
}
330
305
100
AcDbScale
 70
     0
300
1:100
140
1.0
141
100.0
290
     0
  0
SCALE
  5
312
102
{ACAD_REACTORS
330
305
102
}
330
305
100
AcDbScale
 70
     0
300
2:1
140
2.0
141
1.0
290
     0
  0
SCALE
  5
313
102
{ACAD_REACTORS
330
305
102
}
330
305
100
AcDbScale
 70
     0
300
4:1
140
4.0
141
1.0
290
     0
  0
SCALE
  5
314
102
{ACAD_REACTORS
330
305
102
}
330
305
100
AcDbScale
 70
     0
300
8:1
140
8.0
141
1.0
290
     0
  0
SCALE
  5
315
102
{ACAD_REACTORS
330
305
102
}
330
305
100
AcDbScale
 70
     0
300
10:1
140
10.0
141
1.0
290
     0
  0
SCALE
  5
316
102
{ACAD_REACTORS
330
305
102
}
330
305
100
AcDbScale
 70
     0
300
100:1
140
100.0
141
1.0
290
     0
  0
TABLESTYLE
  5
304
102
{ACAD_XDICTIONARY
360
340
102
}
102
{ACAD_REACTORS
330
303
102
}
330
303
100
AcDbTableStyle
  3
Standard
 70
     0
 71
     0
 40
1.5
 41
1.5
280
     0
281
     0
  7
Standard
140
4.5
170
     2
 62
     0
 63
     7
283
     0
 90
      512
 91
        0
  1

274
    -2
284
     1
 64
     0
275
    -2
285
     1
 65
     0
276
    -2
286
     1
 66
     0
277
    -2
287
     1
 67
     0
278
    -2
288
     1
 68
     0
279
    -2
289
     1
 69
     0
  7
Standard
140
6.0
170
     5
 62
     0
 63
     7
283
     0
 90
      512
 91
        0
  1

274
    -2
284
     1
 64
     0
275
    -2
285
     1
 65
     0
276
    -2
286
     1
 66
     0
277
    -2
287
     1
 67
     0
278
    -2
288
     1
 68
     0
279
    -2
289
     1
 69
     0
  7
Standard
140
4.5
170
     5
 62
     0
 63
     7
283
     0
 90
      512
 91
        0
  1

274
    -2
284
     1
 64
     0
275
    -2
285
     1
 65
     0
276
    -2
286
     1
 66
     0
277
    -2
287
     1
 67
     0
278
    -2
288
     1
 68
     0
279
    -2
289
     1
 69
     0
  0
VISUALSTYLE
  5
2F7
102
{ACAD_REACTORS
330
2F1
102
}
330
2F1
100
AcDbVisualStyle
  2
2dWireframe
 70
     4
 71
     0
 72
     2
 73
     0
 90
        0
 40
-0.6
 41
-30.0
 62
     5
 63
     7
421
 16777215
 74
     1
 91
        4
 64
     7
 65
   257
 75
     1
175
     1
 42
1.0
 92
        0
 66
   257
 43
1.0
 76
     1
 77
     6
 78
     2
 67
     7
 79
     5
170
     0
171
     0
290
     0
174
     0
 93
        1
 44
0.0
173
     0
291
     0
 45
0.0
  0
VISUALSTYLE
  5
2F9
102
{ACAD_REACTORS
330
2F1
102
}
330
2F1
100
AcDbVisualStyle
  2
3D Hidden
 70
     6
 71
     1
 72
     2
 73
     2
 90
        0
 40
-0.6
 41
-30.0
 62
     5
 63
     7
421
 16777215
 74
     2
 91
        2
 64
     7
 65
   257
 75
     2
175
     1
 42
40.0
 92
        0
 66
   257
 43
1.0
 76
     1
 77
     6
 78
     2
 67
     7
 79
     3
170
     0
171
     0
290
     0
174
     0
 93
        1
 44
0.0
173
     0
291
     0
 45
0.0
  0
VISUALSTYLE
  5
2F8
102
{ACAD_REACTORS
330
2F1
102
}
330
2F1
100
AcDbVisualStyle
  2
3dWireframe
 70
     5
 71
     0
 72
     2
 73
     0
 90
        0
 40
-0.6
 41
-30.0
 62
     5
 63
     7
421
 16777215
 74
     1
 91
        4
 64
     7
 65
   257
 75
     1
175
     1
 42
1.0
 92
        0
 66
   257
 43
1.0
 76
     1
 77
     6
 78
     2
 67
     7
 79
     5
170
     0
171
     0
290
     0
174
     0
 93
        1
 44
0.0
173
     0
291
     0
 45
0.0
  0
VISUALSTYLE
  5
2F6
102
{ACAD_REACTORS
330
2F1
102
}
330
2F1
100
AcDbVisualStyle
  2
Basic
 70
     7
 71
     1
 72
     0
 73
     1
 90
        0
 40
-0.6
 41
-30.0
 62
     5
 63
     7
421
 16777215
 74
     0
 91
        4
 64
     7
 65
   257
 75
     1
175
     1
 42
1.0
 92
        8
 66
     7
 43
1.0
 76
     1
 77
     6
 78
     2
 67
     7
 79
     5
170
     0
171
     0
290
     0
174
     0
 93
        1
 44
0.0
173
     0
291
     1
 45
0.0
  0
VISUALSTYLE
  5
2FD
102
{ACAD_REACTORS
330
2F1
102
}
330
2F1
100
AcDbVisualStyle
  2
Brighten
 70
    12
 71
     2
 72
     2
 73
     0
 90
        0
 40
-0.6
 41
-30.0
 62
     5
 63
     7
421
 16777215
 74
     1
 91
        4
 64
     7
 65
   257
 75
     1
175
     1
 42
1.0
 92
        8
 66
     7
 43
1.0
 76
     1
 77
     6
 78
     2
 67
     7
 79
     5
170
     0
171
     0
290
     0
174
     0
 93
        1
 44
50.0
173
     0
291
     1
 45
0.0
  0
VISUALSTYLE
  5
301
102
{ACAD_REACTORS
330
2F1
102
}
330
2F1
100
AcDbVisualStyle
  2
ColorChange
 70
    16
 71
     2
 72
     2
 73
     3
 90
        0
 40
-0.6
 41
-30.0
 62
     5
 63
     8
421
  8421504
 74
     1
 91
        4
 64
     7
 65
   257
 75
     1
175
     1
 42
1.0
 92
        8
 66
     8
424
  8421504
 43
1.0
 76
     1
 77
     6
 78
     2
 67
     7
 79
     5
170
     0
171
     0
290
     0
174
     0
 93
        1
 44
0.0
173
     0
291
     1
 45
0.0
  0
VISUALSTYLE
  5
2FA
102
{ACAD_REACTORS
330
2F1
102
}
330
2F1
100
AcDbVisualStyle
  2
Conceptual
 70
     9
 71
     3
 72
     2
 73
     0
 90
        0
 40
-0.6
 41
-30.0
 62
     5
 63
     7
421
 16777215
 74
     2
 91
        2
 64
     7
 65
   257
 75
     1
175
     1
 42
40.0
 92
        8
 66
     7
 43
1.0
 76
     1
 77
     6
 78
     2
 67
     7
 79
     3
170
     0
171
     0
290
     0
174
     0
 93
        1
 44
0.0
173
     0
291
     0
 45
0.0
  0
VISUALSTYLE
  5
2FC
102
{ACAD_REACTORS
330
2F1
102
}
330
2F1
100
AcDbVisualStyle
  2
Dim
 70
    11
 71
     2
 72
     2
 73
     0
 90
        0
 40
-0.6
 41
-30.0
 62
     5
 63
     7
421
 16777215
 74
     1
 91
        4
 64
     7
 65
   257
 75
     1
175
     1
 42
1.0
 92
        8
 66
     7
 43
1.0
 76
     1
 77
     6
 78
     2
 67
     7
 79
     5
170
     0
171
     0
290
     0
174
     0
 93
        1
 44
-50.0
173
     0
291
     1
 45
0.0
  0
VISUALSTYLE
  5
300
102
{ACAD_REACTORS
330
2F1
102
}
330
2F1
100
AcDbVisualStyle
  2
Facepattern
 70
    15
 71
     2
 72
     2
 73
     0
 90
        0
 40
-0.6
 41
-30.0
 62
     5
 63
     7
421
 16777215
 74
     1
 91
        4
 64
     7
 65
   257
 75
     1
175
     1
 42
1.0
 92
        8
 66
     7
 43
1.0
 76
     1
 77
     6
 78
     2
 67
     7
 79
     5
170
     0
171
     0
290
     0
174
     0
 93
        1
 44
0.0
173
     0
291
     1
 45
0.0
  0
VISUALSTYLE
  5
2F2
102
{ACAD_REACTORS
330
2F1
102
}
330
2F1
100
AcDbVisualStyle
  2
Flat
 70
     0
 71
     2
 72
     1
 73
     1
 90
        2
 40
-0.6
 41
30.0
 62
     5
 63
     7
421
 16777215
 74
     0
 91
        4
 64
     7
 65
   257
 75
     1
175
     1
 42
1.0
 92
        8
 66
     7
 43
1.0
 76
     1
 77
     6
 78
     2
 67
     7
 79
     5
170
     0
171
     0
290
     0
174
     0
 93
       13
 44
0.0
173
     0
291
     1
 45
0.0
  0
VISUALSTYLE
  5
2F3
102
{ACAD_REACTORS
330
2F1
102
}
330
2F1
100
AcDbVisualStyle
  2
FlatWithEdges
 70
     1
 71
     2
 72
     1
 73
     1
 90
        2
 40
-0.6
 41
30.0
 62
     5
 63
     7
421
 16777215
 74
     1
 91
        4
 64
     7
 65
   257
 75
     1
175
     1
 42
1.0
 92
        0
 66
   257
 43
1.0
 76
     1
 77
     6
 78
     2
 67
     7
 79
     5
170
     0
171
     0
290
     0
174
     0
 93
       13
 44
0.0
173
     0
291
     1
 45
0.0
  0
VISUALSTYLE
  5
2F4
102
{ACAD_REACTORS
330
2F1
102
}
330
2F1
100
AcDbVisualStyle
  2
Gouraud
 70
     2
 71
     2
 72
     2
 73
     1
 90
        2
 40
-0.6
 41
30.0
 62
     5
 63
     7
421
 16777215
 74
     0
 91
        4
 64
     7
 65
   257
 75
     1
175
     1
 42
1.0
 92
        0
 66
     7
 43
1.0
 76
     1
 77
     6
 78
     2
 67
     7
 79
     5
170
     0
171
     0
290
     0
174
     0
 93
       13
 44
0.0
173
     0
291
     1
 45
0.0
  0
VISUALSTYLE
  5
2F5
102
{ACAD_REACTORS
330
2F1
102
}
330
2F1
100
AcDbVisualStyle
  2
GouraudWithEdges
 70
     3
 71
     2
 72
     2
 73
     1
 90
        2
 40
-0.6
 41
30.0
 62
     5
 63
     7
421
 16777215
 74
     1
 91
        4
 64
     7
 65
   257
 75
     1
175
     1
 42
1.0
 92
        0
 66
   257
 43
1.0
 76
     1
 77
     6
 78
     2
 67
     7
 79
     5
170
     0
171
     0
290
     0
174
     0
 93
       13
 44
0.0
173
     0
291
     1
 45
0.0
  0
VISUALSTYLE
  5
2FF
102
{ACAD_REACTORS
330
2F1
102
}
330
2F1
100
AcDbVisualStyle
  2
Linepattern
 70
    14
 71
     2
 72
     2
 73
     0
 90
        0
 40
-0.6
 41
-30.0
 62
     5
 63
     7
421
 16777215
 74
     1
 91
        4
 64
     7
 65
   257
 75
     7
175
     7
 42
1.0
 92
        8
 66
     7
 43
1.0
 76
     1
 77
     6
 78
     2
 67
     7
 79
     5
170
     0
171
     0
290
     0
174
     0
 93
        1
 44
0.0
173
     0
291
     1
 45
0.0
  0
VISUALSTYLE
  5
2FB
102
{ACAD_REACTORS
330
2F1
102
}
330
2F1
100
AcDbVisualStyle
  2
Realistic
 70
     8
 71
     2
 72
     2
 73
     0
 90
        0
 40
-0.6
 41
-30.0
 62
     5
 63
     7
421
 16777215
 74
     1
 91
        0
 64
     7
 65
   257
 75
     1
175
     1
 42
1.0
 92
        8
 66
     8
424
  7895160
 43
1.0
 76
     1
 77
     6
 78
     2
 67
     7
 79
     5
170
     0
171
     0
290
     0
174
     0
 93
       13
 44
0.0
173
     0
291
     0
 45
0.0
  0
VISUALSTYLE
  5
2FE
102
{ACAD_REACTORS
330
2F1
102
}
330
2F1
100
AcDbVisualStyle
  2
Thicken
 70
    13
 71
     2
 72
     2
 73
     0
 90
        0
 40
-0.6
 41
-30.0
 62
     5
 63
     7
421
 16777215
 74
     1
 91
        4
 64
     7
 65
   257
 75
     1
175
     1
 42
1.0
 92
       12
 66
     7
 43
1.0
 76
     1
 77
     6
 78
     2
 67
     7
 79
     5
170
     0
171
     0
290
     0
174
     0
 93
        1
 44
0.0
173
     0
291
     1
 45
0.0
  0
DICTIONARYVAR
  5
33C
102
{ACAD_REACTORS
330
338
102
}
330
338
100
DictionaryVariables
280
     0
  1
1:1
  0
DICTIONARYVAR
  5
33A
102
{ACAD_REACTORS
330
338
102
}
330
338
100
DictionaryVariables
280
     0
  1
STANDARD
  0
DICTIONARYVAR
  5
339
102
{ACAD_REACTORS
330
338
102
}
330
338
100
DictionaryVariables
280
     0
  1
STANDARD
  0
DICTIONARYVAR
  5
33E
102
{ACAD_REACTORS
330
338
102
}
330
338
100
DictionaryVariables
280
     0
  1
1
  0
DICTIONARYVAR
  5
33F
102
{ACAD_REACTORS
330
338
102
}
330
338
100
DictionaryVariables
280
     0
  1
15
  0
DICTIONARYVAR
  5
33D
102
{ACAD_REACTORS
330
338
102
}
330
338
100
DictionaryVariables
280
     0
  1
0
  0
DICTIONARYVAR
  5
33B
102
{ACAD_REACTORS
330
338
102
}
330
338
100
DictionaryVariables
280
     0
  1
0
  0
DICTIONARY
  5
2E2
330
2E1
100
AcDbDictionary
280
     1
281
     1
  3
BUMPTILE
360
2E4
  3
DIFFUSETILE
360
2E3
  3
OPACITYTILE
360
2E7
  3
REFLECTIONTILE
360
2E6
  3
REFRACTIONTILE
360
2E8
  3
SPECULARTILE
360
2E5
  0
DICTIONARY
  5
2DA
330
2D9
100
AcDbDictionary
280
     1
281
     1
  3
BUMPTILE
360
2DC
  3
DIFFUSETILE
360
2DB
  3
OPACITYTILE
360
2DF
  3
REFLECTIONTILE
360
2DE
  3
REFRACTIONTILE
360
2E0
  3
SPECULARTILE
360
2DD
  0
DICTIONARY
  5
2EA
330
2E9
100
AcDbDictionary
280
     1
281
     1
  3
BUMPTILE
360
2EC
  3
DIFFUSETILE
360
2EB
  3
OPACITYTILE
360
2EF
  3
REFLECTIONTILE
360
2EE
  3
REFRACTIONTILE
360
2F0
  3
SPECULARTILE
360
2ED
  0
DICTIONARY
  5
340
330
304
100
AcDbDictionary
280
     1
281
     1
  3
ACAD_ROUNDTRIP_2008_TABLESTYLE_CELLSTYLEMAP
360
341
  0
XRECORD
  5
2E4
102
{ACAD_REACTORS
330
2E2
102
}
330
2E2
100
AcDbXrecord
280
     1
270
     1
271
     1
  0
XRECORD
  5
2E3
102
{ACAD_REACTORS
330
2E2
102
}
330
2E2
100
AcDbXrecord
280
     1
270
     1
271
     1
  0
XRECORD
  5
2E7
102
{ACAD_REACTORS
330
2E2
102
}
330
2E2
100
AcDbXrecord
280
     1
270
     1
271
     1
  0
XRECORD
  5
2E6
102
{ACAD_REACTORS
330
2E2
102
}
330
2E2
100
AcDbXrecord
280
     1
270
     1
271
     1
  0
XRECORD
  5
2E8
102
{ACAD_REACTORS
330
2E2
102
}
330
2E2
100
AcDbXrecord
280
     1
270
     1
271
     1
  0
XRECORD
  5
2E5
102
{ACAD_REACTORS
330
2E2
102
}
330
2E2
100
AcDbXrecord
280
     1
270
     1
271
     1
  0
XRECORD
  5
2DC
102
{ACAD_REACTORS
330
2DA
102
}
330
2DA
100
AcDbXrecord
280
     1
270
     1
271
     1
  0
XRECORD
  5
2DB
102
{ACAD_REACTORS
330
2DA
102
}
330
2DA
100
AcDbXrecord
280
     1
270
     1
271
     1
  0
XRECORD
  5
2DF
102
{ACAD_REACTORS
330
2DA
102
}
330
2DA
100
AcDbXrecord
280
     1
270
     1
271
     1
  0
XRECORD
  5
2DE
102
{ACAD_REACTORS
330
2DA
102
}
330
2DA
100
AcDbXrecord
280
     1
270
     1
271
     1
  0
XRECORD
  5
2E0
102
{ACAD_REACTORS
330
2DA
102
}
330
2DA
100
AcDbXrecord
280
     1
270
     1
271
     1
  0
XRECORD
  5
2DD
102
{ACAD_REACTORS
330
2DA
102
}
330
2DA
100
AcDbXrecord
280
     1
270
     1
271
     1
  0
XRECORD
  5
2EC
102
{ACAD_REACTORS
330
2EA
102
}
330
2EA
100
AcDbXrecord
280
     1
270
     1
271
     1
  0
XRECORD
  5
2EB
102
{ACAD_REACTORS
330
2EA
102
}
330
2EA
100
AcDbXrecord
280
     1
270
     1
271
     1
  0
XRECORD
  5
2EF
102
{ACAD_REACTORS
330
2EA
102
}
330
2EA
100
AcDbXrecord
280
     1
270
     1
271
     1
  0
XRECORD
  5
2EE
102
{ACAD_REACTORS
330
2EA
102
}
330
2EA
100
AcDbXrecord
280
     1
270
     1
271
     1
  0
XRECORD
  5
2F0
102
{ACAD_REACTORS
330
2EA
102
}
330
2EA
100
AcDbXrecord
280
     1
270
     1
271
     1
  0
XRECORD
  5
2ED
102
{ACAD_REACTORS
330
2EA
102
}
330
2EA
100
AcDbXrecord
280
     1
270
     1
271
     1
  0
CELLSTYLEMAP
  5
341
102
{ACAD_REACTORS
330
340
102
}
330
340
100
AcDbCellStyleMap
 90
        3
300
CELLSTYLE
  1
TABLEFORMAT_BEGIN
 90
        5
170
     1
 91
        0
 92
    32768
 62
   257
 93
        1
300
CONTENTFORMAT
  1
CONTENTFORMAT_BEGIN
 90
        0
 91
        0
 92
      512
 93
        0
300

 40
0.0
140
1.0
 94
        5
 62
     0
340
11
144
6.0
309
CONTENTFORMAT_END
171
     1
301
MARGIN
  1
CELLMARGIN_BEGIN
 40
1.5
 40
1.5
 40
1.5
 40
1.5
 40
4.5
 40
4.5
309
CELLMARGIN_END
 94
        6
 95
        1
302
GRIDFORMAT
  1
GRIDFORMAT_BEGIN
 90
        0
 91
        1
 62
     0
 92
       -2
340
0
 93
        0
 40
1.125
309
GRIDFORMAT_END
 95
        2
302
GRIDFORMAT
  1
GRIDFORMAT_BEGIN
 90
        0
 91
        1
 62
     0
 92
       -2
340
0
 93
        0
 40
1.125
309
GRIDFORMAT_END
 95
        4
302
GRIDFORMAT
  1
GRIDFORMAT_BEGIN
 90
        0
 91
        1
 62
     0
 92
       -2
340
0
 93
        0
 40
1.125
309
GRIDFORMAT_END
 95
        8
302
GRIDFORMAT
  1
GRIDFORMAT_BEGIN
 90
        0
 91
        1
 62
     0
 92
       -2
340
0
 93
        0
 40
1.125
309
GRIDFORMAT_END
 95
       16
302
GRIDFORMAT
  1
GRIDFORMAT_BEGIN
 90
        0
 91
        1
 62
     0
 92
       -2
340
0
 93
        0
 40
1.125
309
GRIDFORMAT_END
 95
       32
302
GRIDFORMAT
  1
GRIDFORMAT_BEGIN
 90
        0
 91
        1
 62
     0
 92
       -2
340
0
 93
        0
 40
1.125
309
GRIDFORMAT_END
309
TABLEFORMAT_END
  1
CELLSTYLE_BEGIN
 90
        1
 91
        1
300
_TITLE
309
CELLSTYLE_END
300
CELLSTYLE
  1
TABLEFORMAT_BEGIN
 90
        5
170
     1
 91
        0
 92
        0
 62
   257
 93
        1
300
CONTENTFORMAT
  1
CONTENTFORMAT_BEGIN
 90
        0
 91
        0
 92
      512
 93
        0
300

 40
0.0
140
1.0
 94
        5
 62
     0
340
11
144
4.5
309
CONTENTFORMAT_END
171
     1
301
MARGIN
  1
CELLMARGIN_BEGIN
 40
1.5
 40
1.5
 40
1.5
 40
1.5
 40
4.5
 40
4.5
309
CELLMARGIN_END
 94
        6
 95
        1
302
GRIDFORMAT
  1
GRIDFORMAT_BEGIN
 90
        0
 91
        1
 62
     0
 92
       -2
340
0
 93
        0
 40
1.125
309
GRIDFORMAT_END
 95
        2
302
GRIDFORMAT
  1
GRIDFORMAT_BEGIN
 90
        0
 91
        1
 62
     0
 92
       -2
340
0
 93
        0
 40
1.125
309
GRIDFORMAT_END
 95
        4
302
GRIDFORMAT
  1
GRIDFORMAT_BEGIN
 90
        0
 91
        1
 62
     0
 92
       -2
340
0
 93
        0
 40
1.125
309
GRIDFORMAT_END
 95
        8
302
GRIDFORMAT
  1
GRIDFORMAT_BEGIN
 90
        0
 91
        1
 62
     0
 92
       -2
340
0
 93
        0
 40
1.125
309
GRIDFORMAT_END
 95
       16
302
GRIDFORMAT
  1
GRIDFORMAT_BEGIN
 90
        0
 91
        1
 62
     0
 92
       -2
340
0
 93
        0
 40
1.125
309
GRIDFORMAT_END
 95
       32
302
GRIDFORMAT
  1
GRIDFORMAT_BEGIN
 90
        0
 91
        1
 62
     0
 92
       -2
340
0
 93
        0
 40
1.125
309
GRIDFORMAT_END
309
TABLEFORMAT_END
  1
CELLSTYLE_BEGIN
 90
        2
 91
        1
300
_HEADER
309
CELLSTYLE_END
300
CELLSTYLE
  1
TABLEFORMAT_BEGIN
 90
        5
170
     1
 91
        0
 92
        0
 62
   257
 93
        1
300
CONTENTFORMAT
  1
CONTENTFORMAT_BEGIN
 90
        0
 91
        0
 92
      512
 93
        0
300

 40
0.0
140
1.0
 94
        2
 62
     0
340
11
144
4.5
309
CONTENTFORMAT_END
171
     1
301
MARGIN
  1
CELLMARGIN_BEGIN
 40
1.5
 40
1.5
 40
1.5
 40
1.5
 40
4.5
 40
4.5
309
CELLMARGIN_END
 94
        6
 95
        1
302
GRIDFORMAT
  1
GRIDFORMAT_BEGIN
 90
        0
 91
        1
 62
     0
 92
       -2
340
0
 93
        0
 40
1.125
309
GRIDFORMAT_END
 95
        2
302
GRIDFORMAT
  1
GRIDFORMAT_BEGIN
 90
        0
 91
        1
 62
     0
 92
       -2
340
0
 93
        0
 40
1.125
309
GRIDFORMAT_END
 95
        4
302
GRIDFORMAT
  1
GRIDFORMAT_BEGIN
 90
        0
 91
        1
 62
     0
 92
       -2
340
0
 93
        0
 40
1.125
309
GRIDFORMAT_END
 95
        8
302
GRIDFORMAT
  1
GRIDFORMAT_BEGIN
 90
        0
 91
        1
 62
     0
 92
       -2
340
0
 93
        0
 40
1.125
309
GRIDFORMAT_END
 95
       16
302
GRIDFORMAT
  1
GRIDFORMAT_BEGIN
 90
        0
 91
        1
 62
     0
 92
       -2
340
0
 93
        0
 40
1.125
309
GRIDFORMAT_END
 95
       32
302
GRIDFORMAT
  1
GRIDFORMAT_BEGIN
 90
        0
 91
        1
 62
     0
 92
       -2
340
0
 93
        0
 40
1.125
309
GRIDFORMAT_END
309
TABLEFORMAT_END
  1
CELLSTYLE_BEGIN
 90
        3
 91
        2
300
_DATA
309
CELLSTYLE_END
  0
ENDSEC
  0
EOF
