ISO-10303-21;
HEADER;
FILE_DESCRIPTION (( 'STEP AP214' ),
    '1' );
FILE_NAME ('OKKO P 18 BL 3000K.STEP',
    '2018-07-24T07:35:34',
    ( '' ),
    ( '' ),
    'SwSTEP 2.0',
    'SolidWorks 2013',
    '' );
FILE_SCHEMA (( 'AUTOMOTIVE_DESIGN' ));
ENDSEC;

DATA;
#1 = VERTEX_POINT ( 'NONE', #297 ) ;
#2 = PRODUCT_DEFINITION ( 'UNKNOWN', '', #229, #125 ) ;
#3 = VERTEX_POINT ( 'NONE', #108 ) ;
#4 = LINE ( 'NONE', #157, #361 ) ;
#5 = VERTEX_POINT ( 'NONE', #233 ) ;
#6 = CARTESIAN_POINT ( 'NONE',  ( 5.273372939307464700E-015, 0.0000000000000000000, 43.06035783524680500 ) ) ;
#7 = ORIENTED_EDGE ( 'NONE', *, *, #322, .F. ) ;
#8 = COLOUR_RGB ( '',0.7921568627450980000, 0.8196078431372548800, 0.9333333333333333500 ) ;
#9 = AXIS2_PLACEMENT_3D ( 'NONE', #73, #21, #12 ) ;
#10 = APPLICATION_PROTOCOL_DEFINITION ( 'draft international standard', 'automotive_design', 1998, #198 ) ;
#11 = PRODUCT_CONTEXT ( 'NONE', #42, 'mechanical' ) ;
#12 = DIRECTION ( 'NONE',  ( 1.000000000000000000, 0.0000000000000000000, 0.0000000000000000000 ) ) ;
#13 = ORIENTED_EDGE ( 'NONE', *, *, #144, .T. ) ;
#14 = CARTESIAN_POINT ( 'NONE',  ( 3.061616997868383000E-015, 276.0000000000000000, 25.00000000000000000 ) ) ;
#15 = CIRCLE ( 'NONE', #126, 25.00000000000000000 ) ;
#16 = EDGE_LOOP ( 'NONE', ( #69, #323 ) ) ;
#17 = ORIENTED_EDGE ( 'NONE', *, *, #322, .T. ) ;
#18 = EDGE_CURVE ( 'NONE', #81, #3, #39, .T. ) ;
#19 = FACE_OUTER_BOUND ( 'NONE', #301, .T. ) ;
#20 = ADVANCED_FACE ( 'NONE', ( #145 ), #118, .T. ) ;
#21 = DIRECTION ( 'NONE',  ( 0.0000000000000000000, 0.0000000000000000000, 1.000000000000000000 ) ) ;
#22 = DIRECTION ( 'NONE',  ( -0.0000000000000000000, -1.000000000000000000, -0.0000000000000000000 ) ) ;
#23 =( NAMED_UNIT ( * ) SI_UNIT ( $, .STERADIAN. ) SOLID_ANGLE_UNIT ( ) );
#24 =( NAMED_UNIT ( * ) PLANE_ANGLE_UNIT ( ) SI_UNIT ( $, .RADIAN. ) );
#25 = ORIENTED_EDGE ( 'NONE', *, *, #344, .F. ) ;
#26 =( GEOMETRIC_REPRESENTATION_CONTEXT ( 3 ) GLOBAL_UNCERTAINTY_ASSIGNED_CONTEXT ( ( #54 ) ) GLOBAL_UNIT_ASSIGNED_CONTEXT ( ( #30, #24, #23 ) ) REPRESENTATION_CONTEXT ( 'NONE', 'WORKASPACE' ) );
#27 = CYLINDRICAL_SURFACE ( 'NONE', #122, 75.00000000000001400 ) ;
#28 = DIRECTION ( 'NONE',  ( 0.0000000000000000000, -0.0000000000000000000, 1.000000000000000000 ) ) ;
#29 = ADVANCED_BREP_SHAPE_REPRESENTATION ( 'OKKO P 18 BL 3000K', ( #151, #9 ), #52 ) ;
#30 =( LENGTH_UNIT ( ) NAMED_UNIT ( * ) SI_UNIT ( .MILLI., .METRE. ) );
#31 = FACE_OUTER_BOUND ( 'NONE', #162, .T. ) ;
#32 = SURFACE_STYLE_USAGE ( .BOTH. , #33 ) ;
#33 = SURFACE_SIDE_STYLE ('',( #196 ) ) ;
#34 = MECHANICAL_DESIGN_GEOMETRIC_PRESENTATION_REPRESENTATION (  '', ( #40 ), #26 ) ;
#35 = CIRCLE ( 'NONE', #133, 3.000000000000000400 ) ;
#36 = PRESENTATION_LAYER_ASSIGNMENT (  '', '', ( #40 ) ) ;
#37 = FILL_AREA_STYLE ('',( #91 ) ) ;
#38 = DIRECTION ( 'NONE',  ( 0.0000000000000000000, -0.0000000000000000000, -1.000000000000000000 ) ) ;
#39 = CIRCLE ( 'NONE', #292, 3.000000000000000400 ) ;
#40 = STYLED_ITEM ( 'NONE', ( #129 ), #29 ) ;
#41 = ORIENTED_EDGE ( 'NONE', *, *, #203, .T. ) ;
#42 = APPLICATION_CONTEXT ( 'automotive_design' ) ;
#43 = ADVANCED_FACE ( 'NONE', ( #260 ), #184, .F. ) ;
#44 = EDGE_CURVE ( 'NONE', #5, #99, #254, .T. ) ;
#45 = APPLICATION_PROTOCOL_DEFINITION ( 'draft international standard', 'automotive_design', 1998, #42 ) ;
#46 = ADVANCED_FACE ( 'NONE', ( #128 ), #107, .T. ) ;
#47 =( NAMED_UNIT ( * ) SI_UNIT ( $, .STERADIAN. ) SOLID_ANGLE_UNIT ( ) );
#48 =( NAMED_UNIT ( * ) PLANE_ANGLE_UNIT ( ) SI_UNIT ( $, .RADIAN. ) );
#49 = ORIENTED_EDGE ( 'NONE', *, *, #327, .F. ) ;
#50 = ORIENTED_EDGE ( 'NONE', *, *, #369, .T. ) ;
#51 = DIRECTION ( 'NONE',  ( 0.0000000000000000000, 0.0000000000000000000, -1.000000000000000000 ) ) ;
#52 =( GEOMETRIC_REPRESENTATION_CONTEXT ( 3 ) GLOBAL_UNCERTAINTY_ASSIGNED_CONTEXT ( ( #53 ) ) GLOBAL_UNIT_ASSIGNED_CONTEXT ( ( #89, #48, #47 ) ) REPRESENTATION_CONTEXT ( 'NONE', 'WORKASPACE' ) );
#53 = UNCERTAINTY_MEASURE_WITH_UNIT (LENGTH_MEASURE( 1.000000000000000100E-005 ), #89, 'distance_accuracy_value', 'NONE');
#54 = UNCERTAINTY_MEASURE_WITH_UNIT (LENGTH_MEASURE( 1.000000000000000100E-005 ), #30, 'distance_accuracy_value', 'NONE');
#55 = CYLINDRICAL_SURFACE ( 'NONE', #169, 25.00000000000000000 ) ;
#56 = AXIS2_PLACEMENT_3D ( 'NONE', #66, #60, #57 ) ;
#57 = DIRECTION ( 'NONE',  ( 0.0000000000000000000, 0.0000000000000000000, 1.000000000000000000 ) ) ;
#58 = ADVANCED_FACE ( 'NONE', ( #31 ), #320, .T. ) ;
#59 = EDGE_LOOP ( 'NONE', ( #130, #240, #265, #350 ) ) ;
#60 = DIRECTION ( 'NONE',  ( 0.0000000000000000000, 1.000000000000000000, 0.0000000000000000000 ) ) ;
#61 = VERTEX_POINT ( 'NONE', #82 ) ;
#62 = EDGE_CURVE ( 'NONE', #160, #374, #189, .T. ) ;
#63 = CIRCLE ( 'NONE', #56, 75.00000000000001400 ) ;
#64 = PRODUCT_DEFINITION_SHAPE ( 'NONE', 'NONE',  #2 ) ;
#65 = EDGE_LOOP ( 'NONE', ( #215, #273 ) ) ;
#66 = CARTESIAN_POINT ( 'NONE',  ( 0.0000000000000000000, 0.0000000000000000000, 0.0000000000000000000 ) ) ;
#67 = AXIS2_PLACEMENT_3D ( 'NONE', #88, #87, #85 ) ;
#68 = CARTESIAN_POINT ( 'NONE',  ( 0.0000000000000000000, 0.0000000000000000000, 0.0000000000000000000 ) ) ;
#69 = ORIENTED_EDGE ( 'NONE', *, *, #377, .F. ) ;
#70 = CIRCLE ( 'NONE', #77, 17.22335121706161900 ) ;
#71 = EDGE_LOOP ( 'NONE', ( #41, #356 ) ) ;
#72 = DIRECTION ( 'NONE',  ( 0.0000000000000000000, 0.0000000000000000000, -1.000000000000000000 ) ) ;
#73 = CARTESIAN_POINT ( 'NONE',  ( 0.0000000000000000000, 0.0000000000000000000, 0.0000000000000000000 ) ) ;
#74 = ORIENTED_EDGE ( 'NONE', *, *, #318, .F. ) ;
#75 = AXIS2_PLACEMENT_3D ( 'NONE', #100, #98, #93 ) ;
#76 = CARTESIAN_POINT ( 'NONE',  ( 0.0000000000000000000, 276.0000000000000000, 0.0000000000000000000 ) ) ;
#77 = AXIS2_PLACEMENT_3D ( 'NONE', #120, #119, #112 ) ;
#78 = PLANE ( 'NONE',  #221 ) ;
#79 = ORIENTED_EDGE ( 'NONE', *, *, #299, .F. ) ;
#80 = LINE ( 'NONE', #204, #375 ) ;
#81 = VERTEX_POINT ( 'NONE', #117 ) ;
#82 = CARTESIAN_POINT ( 'NONE',  ( 0.0000000000000000000, 0.0000000000000000000, -75.00000000000001400 ) ) ;
#83 = ORIENTED_EDGE ( 'NONE', *, *, #327, .T. ) ;
#84 = EDGE_LOOP ( 'NONE', ( #342, #152 ) ) ;
#85 = DIRECTION ( 'NONE',  ( 0.0000000000000000000, 0.0000000000000000000, 1.000000000000000000 ) ) ;
#86 = CONICAL_SURFACE ( 'NONE', #223, 43.06035783524680500, 0.5410520681182435800 ) ;
#87 = DIRECTION ( 'NONE',  ( 0.0000000000000000000, 1.000000000000000000, 0.0000000000000000000 ) ) ;
#88 = CARTESIAN_POINT ( 'NONE',  ( 0.0000000000000000000, 201.0000000000000000, 0.0000000000000000000 ) ) ;
#89 =( LENGTH_UNIT ( ) NAMED_UNIT ( * ) SI_UNIT ( .MILLI., .METRE. ) );
#90 = AXIS2_PLACEMENT_3D ( 'NONE', #140, #138, #137 ) ;
#91 = FILL_AREA_STYLE_COLOUR ( '', #135 ) ;
#92 = ADVANCED_FACE ( 'NONE', ( #329 ), #146, .T. ) ;
#93 = DIRECTION ( 'NONE',  ( 0.0000000000000000000, 0.0000000000000000000, 1.000000000000000000 ) ) ;
#94 = AXIS2_PLACEMENT_3D ( 'NONE', #170, #168, #167 ) ;
#95 = CLOSED_SHELL ( 'NONE', ( #166, #58, #131, #289, #185, #269, #109, #43, #92, #46, #248, #20, #179 ) ) ;
#96 = LINE ( 'NONE', #230, #235 ) ;
#97 = ORIENTED_EDGE ( 'NONE', *, *, #339, .T. ) ;
#98 = DIRECTION ( 'NONE',  ( 0.0000000000000000000, 1.000000000000000000, 0.0000000000000000000 ) ) ;
#99 = VERTEX_POINT ( 'NONE', #14 ) ;
#100 = CARTESIAN_POINT ( 'NONE',  ( 0.0000000000000000000, 201.0000000000000000, 0.0000000000000000000 ) ) ;
#101 = AXIS2_PLACEMENT_3D ( 'NONE', #182, #180, #177 ) ;
#102 = ORIENTED_EDGE ( 'NONE', *, *, #363, .F. ) ;
#103 = LINE ( 'NONE', #255, #315 ) ;
#104 = ORIENTED_EDGE ( 'NONE', *, *, #313, .T. ) ;
#105 = AXIS2_PLACEMENT_3D ( 'NONE', #201, #200, #195 ) ;
#106 = DIRECTION ( 'NONE',  ( 0.0000000000000000000, 1.000000000000000000, 0.0000000000000000000 ) ) ;
#107 = CYLINDRICAL_SURFACE ( 'NONE', #258, 3.000000000000000400 ) ;
#108 = CARTESIAN_POINT ( 'NONE',  ( 3.673940397442060400E-016, 276.0000000000000000, 3.000000000000000400 ) ) ;
#109 = ADVANCED_FACE ( 'NONE', ( #175, #244 ), #78, .F. ) ;
#110 = AXIS2_PLACEMENT_3D ( 'NONE', #209, #208, #207 ) ;
#111 = CARTESIAN_POINT ( 'NONE',  ( 0.0000000000000000000, 201.0000000000000000, -3.000000000000000400 ) ) ;
#112 = DIRECTION ( 'NONE',  ( 0.0000000000000000000, 0.0000000000000000000, -1.000000000000000000 ) ) ;
#113 = FACE_OUTER_BOUND ( 'NONE', #326, .T. ) ;
#114 = AXIS2_PLACEMENT_3D ( 'NONE', #274, #280, #277 ) ;
#115 = DIRECTION ( 'NONE',  ( 0.0000000000000000000, -1.000000000000000000, 0.0000000000000000000 ) ) ;
#116 = ORIENTED_EDGE ( 'NONE', *, *, #369, .F. ) ;
#117 = CARTESIAN_POINT ( 'NONE',  ( 0.0000000000000000000, 276.0000000000000000, -3.000000000000000400 ) ) ;
#118 = CYLINDRICAL_SURFACE ( 'NONE', #278, 25.00000000000000000 ) ;
#119 = DIRECTION ( 'NONE',  ( 0.0000000000000000000, -1.000000000000000000, 0.0000000000000000000 ) ) ;
#120 = CARTESIAN_POINT ( 'NONE',  ( 0.0000000000000000000, 43.00000000000000000, 0.0000000000000000000 ) ) ;
#121 = CARTESIAN_POINT ( 'NONE',  ( 0.0000000000000000000, 43.00000000000000000, -17.22335121706161900 ) ) ;
#122 = AXIS2_PLACEMENT_3D ( 'NONE', #279, #285, #296 ) ;
#123 = CARTESIAN_POINT ( 'NONE',  ( 0.0000000000000000000, 0.0000000000000000000, 0.0000000000000000000 ) ) ;
#124 = FACE_BOUND ( 'NONE', #84, .T. ) ;
#125 = PRODUCT_DEFINITION_CONTEXT ( 'detailed design', #198, 'design' ) ;
#126 = AXIS2_PLACEMENT_3D ( 'NONE', #246, #245, #238 ) ;
#127 = CARTESIAN_POINT ( 'NONE',  ( 0.0000000000000000000, 43.00000000000000000, 0.0000000000000000000 ) ) ;
#128 = FACE_OUTER_BOUND ( 'NONE', #319, .T. ) ;
#129 = PRESENTATION_STYLE_ASSIGNMENT (( #32 ) ) ;
#130 = ORIENTED_EDGE ( 'NONE', *, *, #349, .F. ) ;
#131 = ADVANCED_FACE ( 'NONE', ( #19 ), #86, .F. ) ;
#132 = AXIS2_PLACEMENT_3D ( 'NONE', #317, #295, #287 ) ;
#133 = AXIS2_PLACEMENT_3D ( 'NONE', #262, #261, #259 ) ;
#134 = EDGE_LOOP ( 'NONE', ( #251, #102, #291, #13 ) ) ;
#135 = COLOUR_RGB ( '',0.7921568627450980000, 0.8196078431372548800, 0.9333333333333333500 ) ;
#136 = ORIENTED_EDGE ( 'NONE', *, *, #347, .F. ) ;
#137 = DIRECTION ( 'NONE',  ( 0.0000000000000000000, 0.0000000000000000000, 1.000000000000000000 ) ) ;
#138 = DIRECTION ( 'NONE',  ( 0.0000000000000000000, 1.000000000000000000, 0.0000000000000000000 ) ) ;
#139 = FACE_OUTER_BOUND ( 'NONE', #362, .T. ) ;
#140 = CARTESIAN_POINT ( 'NONE',  ( 0.0000000000000000000, 0.0000000000000000000, 0.0000000000000000000 ) ) ;
#141 = CARTESIAN_POINT ( 'NONE',  ( 0.0000000000000000000, 201.0000000000000000, -75.00000000000001400 ) ) ;
#142 = ORIENTED_EDGE ( 'NONE', *, *, #358, .F. ) ;
#143 = CARTESIAN_POINT ( 'NONE',  ( 0.0000000000000000000, 43.00000000000000000, 0.0000000000000000000 ) ) ;
#144 = EDGE_CURVE ( 'NONE', #158, #164, #237, .T. ) ;
#145 = FACE_OUTER_BOUND ( 'NONE', #370, .T. ) ;
#146 = PLANE ( 'NONE',  #232 ) ;
#147 = VECTOR ( 'NONE', #150, 1000.000000000000000 ) ;
#148 = CARTESIAN_POINT ( 'NONE',  ( 0.0000000000000000000, 276.0000000000000000, 0.0000000000000000000 ) ) ;
#149 = DIRECTION ( 'NONE',  ( -0.0000000000000000000, -1.000000000000000000, -0.0000000000000000000 ) ) ;
#150 = DIRECTION ( 'NONE',  ( -0.0000000000000000000, -1.000000000000000000, -0.0000000000000000000 ) ) ;
#151 = MANIFOLD_SOLID_BREP ( 'Áîáûøêà-Âûòÿíóòü3', #95 ) ;
#152 = ORIENTED_EDGE ( 'NONE', *, *, #299, .T. ) ;
#153 = EDGE_LOOP ( 'NONE', ( #227, #224 ) ) ;
#154 = AXIS2_PLACEMENT_3D ( 'NONE', #333, #352, #330 ) ;
#155 = DIRECTION ( 'NONE',  ( -0.0000000000000000000, -1.000000000000000000, -0.0000000000000000000 ) ) ;
#156 = AXIS2_PLACEMENT_3D ( 'NONE', #307, #302, #300 ) ;
#157 = CARTESIAN_POINT ( 'NONE',  ( 9.184850993605150300E-015, 201.0000000000000000, 75.00000000000001400 ) ) ;
#158 = VERTEX_POINT ( 'NONE', #380 ) ;
#159 = VECTOR ( 'NONE', #173, 1000.000000000000000 ) ;
#160 = VERTEX_POINT ( 'NONE', #191 ) ;
#161 = AXIS2_PLACEMENT_3D ( 'NONE', #348, #357, #338 ) ;
#162 = EDGE_LOOP ( 'NONE', ( #79, #345, #83, #267 ) ) ;
#163 = CIRCLE ( 'NONE', #101, 43.06035783524680500 ) ;
#164 = VERTEX_POINT ( 'NONE', #6 ) ;
#165 = SURFACE_STYLE_FILL_AREA ( #372 ) ;
#166 = ADVANCED_FACE ( 'NONE', ( #210 ), #55, .T. ) ;
#167 = DIRECTION ( 'NONE',  ( 0.0000000000000000000, 0.0000000000000000000, 1.000000000000000000 ) ) ;
#168 = DIRECTION ( 'NONE',  ( 0.0000000000000000000, 1.000000000000000000, 0.0000000000000000000 ) ) ;
#169 = AXIS2_PLACEMENT_3D ( 'NONE', #328, #359, #354 ) ;
#170 = CARTESIAN_POINT ( 'NONE',  ( 0.0000000000000000000, 276.0000000000000000, 0.0000000000000000000 ) ) ;
#171 = ORIENTED_EDGE ( 'NONE', *, *, #309, .F. ) ;
#172 = VECTOR ( 'NONE', #247, 1000.000000000000000 ) ;
#173 = DIRECTION ( 'NONE',  ( 0.0000000000000000000, -0.8571673007021115600, -0.5150380749100553800 ) ) ;
#174 = ORIENTED_EDGE ( 'NONE', *, *, #44, .F. ) ;
#175 = FACE_BOUND ( 'NONE', #65, .T. ) ;
#176 = CARTESIAN_POINT ( 'NONE',  ( 0.0000000000000000000, 0.0000000000000000000, -43.06035783524680500 ) ) ;
#177 = DIRECTION ( 'NONE',  ( 0.0000000000000000000, 0.0000000000000000000, -1.000000000000000000 ) ) ;
#178 = DIRECTION ( 'NONE',  ( 0.0000000000000000000, 0.0000000000000000000, 1.000000000000000000 ) ) ;
#179 = ADVANCED_FACE ( 'NONE', ( #353 ), #340, .T. ) ;
#180 = DIRECTION ( 'NONE',  ( 0.0000000000000000000, -1.000000000000000000, 0.0000000000000000000 ) ) ;
#181 = VECTOR ( 'NONE', #270, 1000.000000000000000 ) ;
#182 = CARTESIAN_POINT ( 'NONE',  ( 0.0000000000000000000, 0.0000000000000000000, 0.0000000000000000000 ) ) ;
#183 = ORIENTED_EDGE ( 'NONE', *, *, #349, .T. ) ;
#184 = CONICAL_SURFACE ( 'NONE', #281, 43.06035783524680500, 0.5410520681182435800 ) ;
#185 = ADVANCED_FACE ( 'NONE', ( #139, #308 ), #331, .T. ) ;
#186 =( GEOMETRIC_REPRESENTATION_CONTEXT ( 3 ) GLOBAL_UNCERTAINTY_ASSIGNED_CONTEXT ( ( #288 ) ) GLOBAL_UNIT_ASSIGNED_CONTEXT ( ( #367, #365, #364 ) ) REPRESENTATION_CONTEXT ( 'NONE', 'WORKASPACE' ) );
#187 = FACE_OUTER_BOUND ( 'NONE', #59, .T. ) ;
#188 = DIRECTION ( 'NONE',  ( 6.307397298776140700E-017, -0.8571673007021115600, 0.5150380749100553800 ) ) ;
#189 = CIRCLE ( 'NONE', #271, 17.22335121706161900 ) ;
#190 = MECHANICAL_DESIGN_GEOMETRIC_PRESENTATION_REPRESENTATION (  '', ( #211 ), #186 ) ;
#191 = CARTESIAN_POINT ( 'NONE',  ( 3.691312566581991100E-015, 43.00000000000000000, 17.22335121706161900 ) ) ;
#192 = CARTESIAN_POINT ( 'NONE',  ( 0.0000000000000000000, 0.0000000000000000000, 0.0000000000000000000 ) ) ;
#193 = FACE_OUTER_BOUND ( 'NONE', #314, .T. ) ;
#194 = CARTESIAN_POINT ( 'NONE',  ( 3.673940397442060400E-016, 201.0000000000000000, 3.000000000000000400 ) ) ;
#195 = DIRECTION ( 'NONE',  ( 0.0000000000000000000, 0.0000000000000000000, 1.000000000000000000 ) ) ;
#196 = SURFACE_STYLE_FILL_AREA ( #37 ) ;
#197 = DIRECTION ( 'NONE',  ( 0.0000000000000000000, 0.0000000000000000000, -1.000000000000000000 ) ) ;
#198 = APPLICATION_CONTEXT ( 'automotive_design' ) ;
#199 = VERTEX_POINT ( 'NONE', #343 ) ;
#200 = DIRECTION ( 'NONE',  ( 0.0000000000000000000, 1.000000000000000000, 0.0000000000000000000 ) ) ;
#201 = CARTESIAN_POINT ( 'NONE',  ( 0.0000000000000000000, 201.0000000000000000, 0.0000000000000000000 ) ) ;
#202 = DIRECTION ( 'NONE',  ( 0.0000000000000000000, 0.0000000000000000000, -1.000000000000000000 ) ) ;
#203 = EDGE_CURVE ( 'NONE', #1, #282, #275, .T. ) ;
#204 = CARTESIAN_POINT ( 'NONE',  ( 5.273372939307464700E-015, 0.0000000000000000000, 43.06035783524680500 ) ) ;
#205 = PRESENTATION_LAYER_ASSIGNMENT (  '', '', ( #211 ) ) ;
#206 = VERTEX_POINT ( 'NONE', #312 ) ;
#207 = DIRECTION ( 'NONE',  ( 0.0000000000000000000, 0.0000000000000000000, 1.000000000000000000 ) ) ;
#208 = DIRECTION ( 'NONE',  ( 0.0000000000000000000, 1.000000000000000000, 0.0000000000000000000 ) ) ;
#209 = CARTESIAN_POINT ( 'NONE',  ( 0.0000000000000000000, 201.0000000000000000, 0.0000000000000000000 ) ) ;
#210 = FACE_OUTER_BOUND ( 'NONE', #217, .T. ) ;
#211 = STYLED_ITEM ( 'NONE', ( #335 ), #151 ) ;
#212 = AXIS2_PLACEMENT_3D ( 'NONE', #379, #376, #373 ) ;
#213 = ORIENTED_EDGE ( 'NONE', *, *, #366, .T. ) ;
#214 = DIRECTION ( 'NONE',  ( 0.0000000000000000000, 0.0000000000000000000, 1.000000000000000000 ) ) ;
#215 = ORIENTED_EDGE ( 'NONE', *, *, #144, .F. ) ;
#216 = CIRCLE ( 'NONE', #75, 75.00000000000001400 ) ;
#217 = EDGE_LOOP ( 'NONE', ( #171, #104, #226, #346 ) ) ;
#218 = DIRECTION ( 'NONE',  ( 0.0000000000000000000, 1.000000000000000000, 0.0000000000000000000 ) ) ;
#219 = ORIENTED_EDGE ( 'NONE', *, *, #62, .F. ) ;
#220 = DIRECTION ( 'NONE',  ( 0.0000000000000000000, -1.000000000000000000, 0.0000000000000000000 ) ) ;
#221 = AXIS2_PLACEMENT_3D ( 'NONE', #68, #106, #28 ) ;
#222 = DIRECTION ( 'NONE',  ( 0.0000000000000000000, 0.0000000000000000000, -1.000000000000000000 ) ) ;
#223 = AXIS2_PLACEMENT_3D ( 'NONE', #192, #22, #51 ) ;
#224 = ORIENTED_EDGE ( 'NONE', *, *, #62, .T. ) ;
#225 = CIRCLE ( 'NONE', #90, 75.00000000000001400 ) ;
#226 = ORIENTED_EDGE ( 'NONE', *, *, #344, .T. ) ;
#227 = ORIENTED_EDGE ( 'NONE', *, *, #363, .T. ) ;
#228 = DIRECTION ( 'NONE',  ( -0.0000000000000000000, -1.000000000000000000, -0.0000000000000000000 ) ) ;
#229 = PRODUCT_DEFINITION_FORMATION_WITH_SPECIFIED_SOURCE ( 'ANY', '', #231, .NOT_KNOWN. ) ;
#230 = CARTESIAN_POINT ( 'NONE',  ( 0.0000000000000000000, 276.0000000000000000, -3.000000000000000400 ) ) ;
#231 = PRODUCT ( 'OKKO P 18 BL 3000K', 'OKKO P 18 BL 3000K', '', ( #11 ) ) ;
#232 = AXIS2_PLACEMENT_3D ( 'NONE', #127, #115, #38 ) ;
#233 = CARTESIAN_POINT ( 'NONE',  ( 0.0000000000000000000, 276.0000000000000000, -25.00000000000000000 ) ) ;
#234 = ORIENTED_EDGE ( 'NONE', *, *, #313, .F. ) ;
#235 = VECTOR ( 'NONE', #228, 1000.000000000000000 ) ;
#236 = ORIENTED_EDGE ( 'NONE', *, *, #18, .F. ) ;
#237 = CIRCLE ( 'NONE', #212, 43.06035783524680500 ) ;
#238 = DIRECTION ( 'NONE',  ( 0.0000000000000000000, 0.0000000000000000000, 1.000000000000000000 ) ) ;
#239 = CARTESIAN_POINT ( 'NONE',  ( 0.0000000000000000000, 276.0000000000000000, 0.0000000000000000000 ) ) ;
#240 = ORIENTED_EDGE ( 'NONE', *, *, #366, .F. ) ;
#241 = DIRECTION ( 'NONE',  ( 0.0000000000000000000, 1.000000000000000000, 0.0000000000000000000 ) ) ;
#242 = CIRCLE ( 'NONE', #110, 75.00000000000001400 ) ;
#243 = ORIENTED_EDGE ( 'NONE', *, *, #44, .T. ) ;
#244 = FACE_OUTER_BOUND ( 'NONE', #16, .T. ) ;
#245 = DIRECTION ( 'NONE',  ( 0.0000000000000000000, 1.000000000000000000, 0.0000000000000000000 ) ) ;
#246 = CARTESIAN_POINT ( 'NONE',  ( 0.0000000000000000000, 301.0000000000000600, 0.0000000000000000000 ) ) ;
#247 = DIRECTION ( 'NONE',  ( -0.0000000000000000000, -1.000000000000000000, -0.0000000000000000000 ) ) ;
#248 = ADVANCED_FACE ( 'NONE', ( #193, #124 ), #325, .F. ) ;
#249 = AXIS2_PLACEMENT_3D ( 'NONE', #148, #149, #202 ) ;
#250 = DIRECTION ( 'NONE',  ( -0.0000000000000000000, -1.000000000000000000, -0.0000000000000000000 ) ) ;
#251 = ORIENTED_EDGE ( 'NONE', *, *, #339, .F. ) ;
#252 = CYLINDRICAL_SURFACE ( 'NONE', #114, 75.00000000000001400 ) ;
#253 = CARTESIAN_POINT ( 'NONE',  ( 3.673940397442060400E-016, 276.0000000000000000, 3.000000000000000400 ) ) ;
#254 = CIRCLE ( 'NONE', #286, 25.00000000000000000 ) ;
#255 = CARTESIAN_POINT ( 'NONE',  ( 3.061616997868383000E-015, 301.0000000000000600, 25.00000000000000000 ) ) ;
#256 = LINE ( 'NONE', #253, #172 ) ;
#257 = CARTESIAN_POINT ( 'NONE',  ( 0.0000000000000000000, 276.0000000000000000, 0.0000000000000000000 ) ) ;
#258 = AXIS2_PLACEMENT_3D ( 'NONE', #239, #298, #222 ) ;
#259 = DIRECTION ( 'NONE',  ( 0.0000000000000000000, 0.0000000000000000000, 1.000000000000000000 ) ) ;
#260 = FACE_OUTER_BOUND ( 'NONE', #134, .T. ) ;
#261 = DIRECTION ( 'NONE',  ( 0.0000000000000000000, 1.000000000000000000, 0.0000000000000000000 ) ) ;
#262 = CARTESIAN_POINT ( 'NONE',  ( 0.0000000000000000000, 276.0000000000000000, 0.0000000000000000000 ) ) ;
#263 = EDGE_LOOP ( 'NONE', ( #116, #49 ) ) ;
#264 = PRODUCT_RELATED_PRODUCT_CATEGORY ( 'part', '', ( #231 ) ) ;
#265 = ORIENTED_EDGE ( 'NONE', *, *, #358, .T. ) ;
#266 = DIRECTION ( 'NONE',  ( -0.0000000000000000000, -1.000000000000000000, -0.0000000000000000000 ) ) ;
#267 = ORIENTED_EDGE ( 'NONE', *, *, #334, .F. ) ;
#268 = CARTESIAN_POINT ( 'NONE',  ( 0.0000000000000000000, 301.0000000000000600, -25.00000000000000000 ) ) ;
#269 = ADVANCED_FACE ( 'NONE', ( #187 ), #27, .T. ) ;
#270 = DIRECTION ( 'NONE',  ( -0.0000000000000000000, -1.000000000000000000, -0.0000000000000000000 ) ) ;
#271 = AXIS2_PLACEMENT_3D ( 'NONE', #143, #220, #72 ) ;
#272 = DIRECTION ( 'NONE',  ( -0.0000000000000000000, -1.000000000000000000, -0.0000000000000000000 ) ) ;
#273 = ORIENTED_EDGE ( 'NONE', *, *, #341, .F. ) ;
#274 = CARTESIAN_POINT ( 'NONE',  ( 0.0000000000000000000, 201.0000000000000000, 0.0000000000000000000 ) ) ;
#275 = CIRCLE ( 'NONE', #156, 25.00000000000000000 ) ;
#276 = CARTESIAN_POINT ( 'NONE',  ( 3.061616997868383000E-015, 301.0000000000000600, 25.00000000000000000 ) ) ;
#277 = DIRECTION ( 'NONE',  ( 0.0000000000000000000, 0.0000000000000000000, -1.000000000000000000 ) ) ;
#278 = AXIS2_PLACEMENT_3D ( 'NONE', #305, #272, #310 ) ;
#279 = CARTESIAN_POINT ( 'NONE',  ( 0.0000000000000000000, 201.0000000000000000, 0.0000000000000000000 ) ) ;
#280 = DIRECTION ( 'NONE',  ( -0.0000000000000000000, -1.000000000000000000, -0.0000000000000000000 ) ) ;
#281 = AXIS2_PLACEMENT_3D ( 'NONE', #123, #250, #197 ) ;
#282 = VERTEX_POINT ( 'NONE', #276 ) ;
#283 = LINE ( 'NONE', #141, #147 ) ;
#284 = ORIENTED_EDGE ( 'NONE', *, *, #341, .T. ) ;
#285 = DIRECTION ( 'NONE',  ( -0.0000000000000000000, -1.000000000000000000, -0.0000000000000000000 ) ) ;
#286 = AXIS2_PLACEMENT_3D ( 'NONE', #76, #218, #178 ) ;
#287 = DIRECTION ( 'NONE',  ( 0.0000000000000000000, -0.0000000000000000000, 1.000000000000000000 ) ) ;
#288 = UNCERTAINTY_MEASURE_WITH_UNIT (LENGTH_MEASURE( 1.000000000000000100E-005 ), #367, 'distance_accuracy_value', 'NONE');
#289 = ADVANCED_FACE ( 'NONE', ( #113 ), #252, .T. ) ;
#290 = ORIENTED_EDGE ( 'NONE', *, *, #304, .T. ) ;
#291 = ORIENTED_EDGE ( 'NONE', *, *, #347, .T. ) ;
#292 = AXIS2_PLACEMENT_3D ( 'NONE', #257, #241, #214 ) ;
#293 = LINE ( 'NONE', #176, #159 ) ;
#294 = ORIENTED_EDGE ( 'NONE', *, *, #355, .T. ) ;
#295 = DIRECTION ( 'NONE',  ( 0.0000000000000000000, 1.000000000000000000, 0.0000000000000000000 ) ) ;
#296 = DIRECTION ( 'NONE',  ( 0.0000000000000000000, 0.0000000000000000000, -1.000000000000000000 ) ) ;
#297 = CARTESIAN_POINT ( 'NONE',  ( 0.0000000000000000000, 301.0000000000000600, -25.00000000000000000 ) ) ;
#298 = DIRECTION ( 'NONE',  ( -0.0000000000000000000, -1.000000000000000000, -0.0000000000000000000 ) ) ;
#299 = EDGE_CURVE ( 'NONE', #3, #81, #35, .T. ) ;
#300 = DIRECTION ( 'NONE',  ( 0.0000000000000000000, 0.0000000000000000000, 1.000000000000000000 ) ) ;
#301 = EDGE_LOOP ( 'NONE', ( #219, #97, #284, #136 ) ) ;
#302 = DIRECTION ( 'NONE',  ( 0.0000000000000000000, 1.000000000000000000, 0.0000000000000000000 ) ) ;
#303 = CIRCLE ( 'NONE', #94, 25.00000000000000000 ) ;
#304 = EDGE_CURVE ( 'NONE', #1, #5, #324, .T. ) ;
#305 = CARTESIAN_POINT ( 'NONE',  ( 0.0000000000000000000, 301.0000000000000600, 0.0000000000000000000 ) ) ;
#306 = VERTEX_POINT ( 'NONE', #311 ) ;
#307 = CARTESIAN_POINT ( 'NONE',  ( 0.0000000000000000000, 301.0000000000000600, 0.0000000000000000000 ) ) ;
#308 = FACE_BOUND ( 'NONE', #263, .T. ) ;
#309 = EDGE_CURVE ( 'NONE', #282, #1, #15, .T. ) ;
#310 = DIRECTION ( 'NONE',  ( 0.0000000000000000000, 0.0000000000000000000, -1.000000000000000000 ) ) ;
#311 = CARTESIAN_POINT ( 'NONE',  ( 9.184850993605150300E-015, 201.0000000000000000, 75.00000000000001400 ) ) ;
#312 = CARTESIAN_POINT ( 'NONE',  ( 0.0000000000000000000, 201.0000000000000000, -75.00000000000001400 ) ) ;
#313 = EDGE_CURVE ( 'NONE', #282, #99, #103, .T. ) ;
#314 = EDGE_LOOP ( 'NONE', ( #174, #25 ) ) ;
#315 = VECTOR ( 'NONE', #266, 1000.000000000000000 ) ;
#316 = ORIENTED_EDGE ( 'NONE', *, *, #334, .T. ) ;
#317 = CARTESIAN_POINT ( 'NONE',  ( 0.0000000000000000000, 276.0000000000000000, 0.0000000000000000000 ) ) ;
#318 = EDGE_CURVE ( 'NONE', #3, #336, #256, .T. ) ;
#319 = EDGE_LOOP ( 'NONE', ( #74, #236, #316, #50 ) ) ;
#320 = CYLINDRICAL_SURFACE ( 'NONE', #249, 3.000000000000000400 ) ;
#321 = SHAPE_DEFINITION_REPRESENTATION ( #64, #29 ) ;
#322 = EDGE_CURVE ( 'NONE', #306, #206, #242, .T. ) ;
#323 = ORIENTED_EDGE ( 'NONE', *, *, #355, .F. ) ;
#324 = LINE ( 'NONE', #268, #181 ) ;
#325 = PLANE ( 'NONE',  #132 ) ;
#326 = EDGE_LOOP ( 'NONE', ( #7, #183, #294, #142 ) ) ;
#327 = EDGE_CURVE ( 'NONE', #336, #378, #332, .T. ) ;
#328 = CARTESIAN_POINT ( 'NONE',  ( 0.0000000000000000000, 301.0000000000000600, 0.0000000000000000000 ) ) ;
#329 = FACE_OUTER_BOUND ( 'NONE', #153, .T. ) ;
#330 = DIRECTION ( 'NONE',  ( 0.0000000000000000000, -0.0000000000000000000, 1.000000000000000000 ) ) ;
#331 = PLANE ( 'NONE',  #154 ) ;
#332 = CIRCLE ( 'NONE', #105, 3.000000000000000400 ) ;
#333 = CARTESIAN_POINT ( 'NONE',  ( 0.0000000000000000000, 201.0000000000000000, 0.0000000000000000000 ) ) ;
#334 = EDGE_CURVE ( 'NONE', #81, #378, #96, .T. ) ;
#335 = PRESENTATION_STYLE_ASSIGNMENT (( #368 ) ) ;
#336 = VERTEX_POINT ( 'NONE', #194 ) ;
#337 = FILL_AREA_STYLE_COLOUR ( '', #8 ) ;
#338 = DIRECTION ( 'NONE',  ( 0.0000000000000000000, -0.0000000000000000000, 1.000000000000000000 ) ) ;
#339 = EDGE_CURVE ( 'NONE', #160, #164, #80, .T. ) ;
#340 = PLANE ( 'NONE',  #161 ) ;
#341 = EDGE_CURVE ( 'NONE', #164, #158, #163, .T. ) ;
#342 = ORIENTED_EDGE ( 'NONE', *, *, #18, .T. ) ;
#343 = CARTESIAN_POINT ( 'NONE',  ( 9.184850993605150300E-015, 0.0000000000000000000, 75.00000000000001400 ) ) ;
#344 = EDGE_CURVE ( 'NONE', #99, #5, #303, .T. ) ;
#345 = ORIENTED_EDGE ( 'NONE', *, *, #318, .T. ) ;
#346 = ORIENTED_EDGE ( 'NONE', *, *, #304, .F. ) ;
#347 = EDGE_CURVE ( 'NONE', #374, #158, #293, .T. ) ;
#348 = CARTESIAN_POINT ( 'NONE',  ( 0.0000000000000000000, 301.0000000000000600, 0.0000000000000000000 ) ) ;
#349 = EDGE_CURVE ( 'NONE', #306, #199, #4, .T. ) ;
#350 = ORIENTED_EDGE ( 'NONE', *, *, #377, .T. ) ;
#351 = CIRCLE ( 'NONE', #67, 3.000000000000000400 ) ;
#352 = DIRECTION ( 'NONE',  ( 0.0000000000000000000, 1.000000000000000000, 0.0000000000000000000 ) ) ;
#353 = FACE_OUTER_BOUND ( 'NONE', #71, .T. ) ;
#354 = DIRECTION ( 'NONE',  ( 0.0000000000000000000, 0.0000000000000000000, -1.000000000000000000 ) ) ;
#355 = EDGE_CURVE ( 'NONE', #199, #61, #225, .T. ) ;
#356 = ORIENTED_EDGE ( 'NONE', *, *, #309, .T. ) ;
#357 = DIRECTION ( 'NONE',  ( 0.0000000000000000000, 1.000000000000000000, 0.0000000000000000000 ) ) ;
#358 = EDGE_CURVE ( 'NONE', #206, #61, #283, .T. ) ;
#359 = DIRECTION ( 'NONE',  ( -0.0000000000000000000, -1.000000000000000000, -0.0000000000000000000 ) ) ;
#360 = ORIENTED_EDGE ( 'NONE', *, *, #203, .F. ) ;
#361 = VECTOR ( 'NONE', #155, 1000.000000000000000 ) ;
#362 = EDGE_LOOP ( 'NONE', ( #213, #17 ) ) ;
#363 = EDGE_CURVE ( 'NONE', #374, #160, #70, .T. ) ;
#364 =( NAMED_UNIT ( * ) SI_UNIT ( $, .STERADIAN. ) SOLID_ANGLE_UNIT ( ) );
#365 =( NAMED_UNIT ( * ) PLANE_ANGLE_UNIT ( ) SI_UNIT ( $, .RADIAN. ) );
#366 = EDGE_CURVE ( 'NONE', #206, #306, #216, .T. ) ;
#367 =( LENGTH_UNIT ( ) NAMED_UNIT ( * ) SI_UNIT ( .MILLI., .METRE. ) );
#368 = SURFACE_STYLE_USAGE ( .BOTH. , #371 ) ;
#369 = EDGE_CURVE ( 'NONE', #378, #336, #351, .T. ) ;
#370 = EDGE_LOOP ( 'NONE', ( #234, #360, #290, #243 ) ) ;
#371 = SURFACE_SIDE_STYLE ('',( #165 ) ) ;
#372 = FILL_AREA_STYLE ('',( #337 ) ) ;
#373 = DIRECTION ( 'NONE',  ( 0.0000000000000000000, 0.0000000000000000000, -1.000000000000000000 ) ) ;
#374 = VERTEX_POINT ( 'NONE', #121 ) ;
#375 = VECTOR ( 'NONE', #188, 1000.000000000000000 ) ;
#376 = DIRECTION ( 'NONE',  ( 0.0000000000000000000, -1.000000000000000000, 0.0000000000000000000 ) ) ;
#377 = EDGE_CURVE ( 'NONE', #61, #199, #63, .T. ) ;
#378 = VERTEX_POINT ( 'NONE', #111 ) ;
#379 = CARTESIAN_POINT ( 'NONE',  ( 0.0000000000000000000, 0.0000000000000000000, 0.0000000000000000000 ) ) ;
#380 = CARTESIAN_POINT ( 'NONE',  ( 0.0000000000000000000, 0.0000000000000000000, -43.06035783524680500 ) ) ;
ENDSEC;
END-ISO-10303-21;
