  0
SECTION
  2
HEADER
  9
$ACADVER
  1
AC1015
  9
$ACADMAINTVER
 70
     6
  9
$DWGCODEPAGE
  3
ANSI_1251
  9
$INSBASE
 10
0.0
 20
0.0
 30
0.0
  9
$EXTMIN
 10
0.0
 20
0.0
 30
0.0
  9
$EXTMAX
 10
5588.0
 20
4318.0
 30
0.0
  9
$LIMMIN
 10
0.0
 20
0.0
  9
$LIMMAX
 10
5588.0
 20
4318.0
  9
$ORTHOMODE
 70
     0
  9
$REGENMODE
 70
     1
  9
$FILLMODE
 70
     1
  9
$QTEXTMODE
 70
     0
  9
$MIRRTEXT
 70
     1
  9
$LTSCALE
 40
20.0
  9
$ATTMODE
 70
     1
  9
$TEXTSIZE
 40
70.0
  9
$TRACEWID
 40
1.0
  9
$TEXTSTYLE
  7
Standard
  9
$CLAYER
  8
0
  9
$CELTYPE
  6
ByLayer
  9
$CECOLOR
 62
   256
  9
$CELTSCALE
 40
1.0
  9
$DISPSILH
 70
     0
  9
$DIMSCALE
 40
1.0
  9
$DIMASZ
 40
70.0
  9
$DIMEXO
 40
0.2
  9
$DIMDLI
 40
3.75
  9
$DIMRND
 40
0.0
  9
$DIMDLE
 40
0.0
  9
$DIMEXE
 40
20.0
  9
$DIMTP
 40
0.0
  9
$DIMTM
 40
0.0
  9
$DIMTXT
 40
70.0
  9
$DIMCEN
 40
2.5
  9
$DIMTSZ
 40
0.0
  9
$DIMTOL
 70
     0
  9
$DIMLIM
 70
     0
  9
$DIMTIH
 70
     1
  9
$DIMTOH
 70
     1
  9
$DIMSE1
 70
     0
  9
$DIMSE2
 70
     0
  9
$DIMTAD
 70
     1
  9
$DIMZIN
 70
     0
  9
$DIMBLK
  1

  9
$DIMASO
 70
     1
  9
$DIMSHO
 70
     1
  9
$DIMPOST
  1

  9
$DIMAPOST
  1

  9
$DIMALT
 70
     0
  9
$DIMALTD
 70
     3
  9
$DIMALTF
 40
0.0393700787
  9
$DIMLFAC
 40
1.0
  9
$DIMTOFL
 70
     1
  9
$DIMTVP
 40
0.0
  9
$DIMTIX
 70
     0
  9
$DIMSOXD
 70
     0
  9
$DIMSAH
 70
     0
  9
$DIMBLK1
  1

  9
$DIMBLK2
  1

  9
$DIMSTYLE
  2
ISO-25
  9
$DIMCLRD
 70
     0
  9
$DIMCLRE
 70
     0
  9
$DIMCLRT
 70
     0
  9
$DIMTFAC
 40
1.0
  9
$DIMGAP
 40
60.0
  9
$DIMJUST
 70
     0
  9
$DIMSD1
 70
     0
  9
$DIMSD2
 70
     0
  9
$DIMTOLJ
 70
     0
  9
$DIMTZIN
 70
     0
  9
$DIMALTZ
 70
     0
  9
$DIMALTTZ
 70
     0
  9
$DIMUPT
 70
     0
  9
$DIMDEC
 70
     2
  9
$DIMTDEC
 70
     3
  9
$DIMALTU
 70
     2
  9
$DIMALTTD
 70
     3
  9
$DIMTXSTY
  7
Standard
  9
$DIMAUNIT
 70
     0
  9
$DIMADEC
 70
     2
  9
$DIMALTRND
 40
0.0
  9
$DIMAZIN
 70
     0
  9
$DIMDSEP
 70
    44
  9
$DIMATFIT
 70
     3
  9
$DIMFRAC
 70
     0
  9
$DIMLDRBLK
  1

  9
$DIMLUNIT
 70
     2
  9
$DIMLWD
 70
    -2
  9
$DIMLWE
 70
    -2
  9
$DIMTMOVE
 70
     0
  9
$LUNITS
 70
     2
  9
$LUPREC
 70
     2
  9
$SKETCHINC
 40
1.0
  9
$FILLETRAD
 40
10.0
  9
$AUNITS
 70
     0
  9
$AUPREC
 70
     2
  9
$MENU
  1
.
  9
$ELEVATION
 40
0.0
  9
$PELEVATION
 40
0.0
  9
$THICKNESS
 40
0.0
  9
$LIMCHECK
 70
     0
  9
$CHAMFERA
 40
10.0
  9
$CHAMFERB
 40
10.0
  9
$CHAMFERC
 40
20.0
  9
$CHAMFERD
 40
0.0
  9
$SKPOLY
 70
     0
  9
$TDCREATE
 40
2458170.033547905
  9
$TDUCREATE
 40
2458169.950214572
  9
$TDUPDATE
 40
2458170.03354838
  9
$TDUUPDATE
 40
2458169.950215046
  9
$TDINDWG
 40
0.0000000116
  9
$TDUSRTIMER
 40
0.0000000116
  9
$USRTIMER
 70
     1
  9
$ANGBASE
 50
0.0
  9
$ANGDIR
 70
     0
  9
$PDMODE
 70
     0
  9
$PDSIZE
 40
-1.0
  9
$PLINEWID
 40
0.0
  9
$SPLFRAME
 70
     0
  9
$SPLINETYPE
 70
     6
  9
$SPLINESEGS
 70
     8
  9
$HANDSEED
  5
6E
  9
$SURFTAB1
 70
     6
  9
$SURFTAB2
 70
     6
  9
$SURFTYPE
 70
     6
  9
$SURFU
 70
     6
  9
$SURFV
 70
     6
  9
$UCSBASE
  2

  9
$UCSNAME
  2

  9
$UCSORG
 10
0.0
 20
0.0
 30
0.0
  9
$UCSXDIR
 10
1.0
 20
0.0
 30
0.0
  9
$UCSYDIR
 10
0.0
 20
1.0
 30
0.0
  9
$UCSORTHOREF
  2

  9
$UCSORTHOVIEW
 70
     0
  9
$UCSORGTOP
 10
0.0
 20
0.0
 30
0.0
  9
$UCSORGBOTTOM
 10
0.0
 20
0.0
 30
0.0
  9
$UCSORGLEFT
 10
0.0
 20
0.0
 30
0.0
  9
$UCSORGRIGHT
 10
0.0
 20
0.0
 30
0.0
  9
$UCSORGFRONT
 10
0.0
 20
0.0
 30
0.0
  9
$UCSORGBACK
 10
0.0
 20
0.0
 30
0.0
  9
$PUCSBASE
  2

  9
$PUCSNAME
  2

  9
$PUCSORG
 10
0.0
 20
0.0
 30
0.0
  9
$PUCSXDIR
 10
1.0
 20
0.0
 30
0.0
  9
$PUCSYDIR
 10
0.0
 20
1.0
 30
0.0
  9
$PUCSORTHOREF
  2

  9
$PUCSORTHOVIEW
 70
     0
  9
$PUCSORGTOP
 10
0.0
 20
0.0
 30
0.0
  9
$PUCSORGBOTTOM
 10
0.0
 20
0.0
 30
0.0
  9
$PUCSORGLEFT
 10
0.0
 20
0.0
 30
0.0
  9
$PUCSORGRIGHT
 10
0.0
 20
0.0
 30
0.0
  9
$PUCSORGFRONT
 10
0.0
 20
0.0
 30
0.0
  9
$PUCSORGBACK
 10
0.0
 20
0.0
 30
0.0
  9
$USERI1
 70
     0
  9
$USERI2
 70
     0
  9
$USERI3
 70
     0
  9
$USERI4
 70
     0
  9
$USERI5
 70
     0
  9
$USERR1
 40
0.0
  9
$USERR2
 40
0.0
  9
$USERR3
 40
0.0
  9
$USERR4
 40
0.0
  9
$USERR5
 40
0.0
  9
$WORLDVIEW
 70
     1
  9
$SHADEDGE
 70
     3
  9
$SHADEDIF
 70
    70
  9
$TILEMODE
 70
     1
  9
$MAXACTVP
 70
    64
  9
$PINSBASE
 10
0.0
 20
0.0
 30
0.0
  9
$PLIMCHECK
 70
     0
  9
$PEXTMIN
 10
1.0000000000E+20
 20
1.0000000000E+20
 30
1.0000000000E+20
  9
$PEXTMAX
 10
-1.0000000000E+20
 20
-1.0000000000E+20
 30
-1.0000000000E+20
  9
$PLIMMIN
 10
0.0
 20
0.0
  9
$PLIMMAX
 10
420.0
 20
297.0
  9
$UNITMODE
 70
     0
  9
$VISRETAIN
 70
     1
  9
$PLINEGEN
 70
     0
  9
$PSLTSCALE
 70
     1
  9
$TREEDEPTH
 70
  3020
  9
$CMLSTYLE
  2
Standard
  9
$CMLJUST
 70
     0
  9
$CMLSCALE
 40
20.0
  9
$PROXYGRAPHICS
 70
     1
  9
$MEASUREMENT
 70
     1
  9
$CELWEIGHT
370
    -1
  9
$ENDCAPS
280
     0
  9
$JOINSTYLE
280
     0
  9
$LWDISPLAY
290
     1
  9
$INSUNITS
 70
     4
  9
$HYPERLINKBASE
  1

  9
$STYLESHEET
  1

  9
$XEDIT
290
     1
  9
$CEPSNTYPE
380
     0
  9
$PSTYLEMODE
290
     1
  9
$FINGERPRINTGUID
  2
{713CCBEC-3CCA-4069-B14B-E56A7B8292D7}
  9
$VERSIONGUID
  2
{FAEB1C32-E019-11D5-929B-00C0DF256EC4}
  9
$EXTNAMES
290
     1
  9
$PSVPSCALE
 40
0.0
  9
$OLESTARTUP
290
     0
  0
ENDSEC
  0
SECTION
  2
CLASSES
  0
CLASS
  1
ACDBDICTIONARYWDFLT
  2
AcDbDictionaryWithDefault
  3
ObjectDBX Classes
 90
        0
280
     0
281
     0
  0
CLASS
  1
VISUALSTYLE
  2
AcDbVisualStyle
  3
ObjectDBX Classes
 90
     4095
280
     0
281
     0
  0
CLASS
  1
MATERIAL
  2
AcDbMaterial
  3
ObjectDBX Classes
 90
     1153
280
     0
281
     0
  0
CLASS
  1
ACDBPLACEHOLDER
  2
AcDbPlaceHolder
  3
ObjectDBX Classes
 90
        0
280
     0
281
     0
  0
CLASS
  1
LAYOUT
  2
AcDbLayout
  3
ObjectDBX Classes
 90
        0
280
     0
281
     0
  0
ENDSEC
  0
SECTION
  2
TABLES
  0
TABLE
  2
VPORT
  5
8
330
0
100
AcDbSymbolTable
 70
     1
  0
VPORT
  5
29
330
8
100
AcDbSymbolTableRecord
100
AcDbViewportTableRecord
  2
*Active
 70
     0
 10
0.0
 20
0.0
 11
1.0
 21
1.0
 12
2794.0
 22
2159.0
 13
0.0
 23
0.0
 14
10.0
 24
10.0
 15
10.0
 25
10.0
 16
0.0
 26
0.0
 36
1.0
 17
0.0
 27
0.0
 37
0.0
 40
4318.0
 41
1.2941176471
 42
50.0
 43
0.0
 44
0.0
 50
0.0
 51
0.0
 71
     0
 72
  2000
 73
     1
 74
     3
 75
     0
 76
     0
 77
     0
 78
     0
281
     0
 65
     1
110
0.0
120
0.0
130
0.0
111
1.0
121
0.0
131
0.0
112
0.0
122
1.0
132
0.0
 79
     0
146
0.0
  0
ENDTAB
  0
TABLE
  2
LTYPE
  5
5
330
0
100
AcDbSymbolTable
 70
     6
  0
LTYPE
  5
14
330
5
100
AcDbSymbolTableRecord
100
AcDbLinetypeTableRecord
  2
ByBlock
 70
     0
  3

 72
    65
 73
     0
 40
0.0
  0
LTYPE
  5
15
330
5
100
AcDbSymbolTableRecord
100
AcDbLinetypeTableRecord
  2
ByLayer
 70
     0
  3

 72
    65
 73
     0
 40
0.0
  0
LTYPE
  5
16
330
5
100
AcDbSymbolTableRecord
100
AcDbLinetypeTableRecord
  2
Continuous
 70
     0
  3
Solid line
 72
    65
 73
     0
 40
0.0
  0
LTYPE
  5
3F
330
5
100
AcDbSymbolTableRecord
100
AcDbLinetypeTableRecord
  2
HIDDEN
 70
     0
  3
Hidden __ __ __ __ __ __ __ __ __ __ __ __ __ __
 72
    65
 73
     2
 40
1.905
 49
1.27
 74
     0
 49
-0.635
 74
     0
  0
LTYPE
  5
40
330
5
100
AcDbSymbolTableRecord
100
AcDbLinetypeTableRecord
  2
PHANTOM
 70
     0
  3
Phantom ______  __  __  ______  __  __  ______
 72
    65
 73
     6
 40
12.7
 49
6.35
 74
     0
 49
-1.27
 74
     0
 49
1.27
 74
     0
 49
-1.27
 74
     0
 49
1.27
 74
     0
 49
-1.27
 74
     0
  0
LTYPE
  5
41
330
5
100
AcDbSymbolTableRecord
100
AcDbLinetypeTableRecord
  2
CENTER
 70
     0
  3
Center ____ _ ____ _ ____ _ ____ _ ____ _ ____
 72
    65
 73
     4
 40
10.16
 49
6.35
 74
     0
 49
-1.27
 74
     0
 49
1.27
 74
     0
 49
-1.27
 74
     0
  0
LTYPE
  5
42
330
5
100
AcDbSymbolTableRecord
100
AcDbLinetypeTableRecord
  2
CENTERX2
 70
     0
  3
Center (2x) ________  __  ________  __  _____
 72
    65
 73
     4
 40
20.32
 49
12.7
 74
     0
 49
-2.54
 74
     0
 49
2.54
 74
     0
 49
-2.54
 74
     0
  0
LTYPE
  5
43
330
5
100
AcDbSymbolTableRecord
100
AcDbLinetypeTableRecord
  2
DOT2
 70
     0
  3
Dot (.5x) ........................................
 72
    65
 73
     2
 40
0.635
 49
0.0
 74
     0
 49
-0.635
 74
     0
  0
ENDTAB
  0
TABLE
  2
LAYER
  5
2
330
0
100
AcDbSymbolTable
 70
     1
  0
LAYER
  5
10
330
2
100
AcDbSymbolTableRecord
100
AcDbLayerTableRecord
  2
0
 70
     0
 62
     7
  6
Continuous
370
    -3
390
F
  0
ENDTAB
  0
TABLE
  2
STYLE
  5
3
330
0
100
AcDbSymbolTable
 70
     1
  0
STYLE
  5
11
330
3
100
AcDbSymbolTableRecord
100
AcDbTextStyleTableRecord
  2
Standard
 70
     0
 40
0.0
 41
1.0
 50
0.0
 71
     0
 42
70.0
  3
txt
  4

  0
ENDTAB
  0
TABLE
  2
VIEW
  5
6
330
0
100
AcDbSymbolTable
 70
     0
  0
ENDTAB
  0
TABLE
  2
UCS
  5
7
330
0
100
AcDbSymbolTable
 70
     0
  0
ENDTAB
  0
TABLE
  2
APPID
  5
9
330
0
100
AcDbSymbolTable
 70
     1
  0
APPID
  5
12
330
9
100
AcDbSymbolTableRecord
100
AcDbRegAppTableRecord
  2
ACAD
 70
     0
  0
ENDTAB
  0
TABLE
  2
DIMSTYLE
  5
A
330
0
100
AcDbSymbolTable
 70
     1
100
AcDbDimStyleTable
  0
DIMSTYLE
105
27
330
A
100
AcDbSymbolTableRecord
100
AcDbDimStyleTableRecord
  2
ISO-25
 70
     0
 41
2.5
 42
0.625
 43
3.75
 44
1.25
 73
     0
 74
     0
 77
     1
 78
     8
140
2.5
141
2.5
143
0.0393700787
147
0.625
171
     3
172
     1
178
     0
271
     2
272
     2
274
     3
278
    44
283
     0
284
     8
340
11
  0
ENDTAB
  0
TABLE
  2
BLOCK_RECORD
  5
1
330
0
100
AcDbSymbolTable
 70
     1
  0
BLOCK_RECORD
  5
1F
330
1
100
AcDbSymbolTableRecord
100
AcDbBlockTableRecord
  2
*Model_Space
340
22
  0
BLOCK_RECORD
  5
1B
330
1
100
AcDbSymbolTableRecord
100
AcDbBlockTableRecord
  2
*Paper_Space
340
1E
  0
BLOCK_RECORD
  5
23
330
1
100
AcDbSymbolTableRecord
100
AcDbBlockTableRecord
  2
*Paper_Space0
340
26
  0
ENDTAB
  0
ENDSEC
  0
SECTION
  2
BLOCKS
  0
BLOCK
  5
20
330
1F
100
AcDbEntity
  8
0
100
AcDbBlockBegin
  2
*Model_Space
 70
     0
 10
0.0
 20
0.0
 30
0.0
  3
*Model_Space
  1

  0
ENDBLK
  5
21
330
1F
100
AcDbEntity
  8
0
100
AcDbBlockEnd
  0
BLOCK
  5
1C
330
1B
100
AcDbEntity
 67
     1
  8
0
100
AcDbBlockBegin
  2
*Paper_Space
 70
     0
 10
0.0
 20
0.0
 30
0.0
  3
*Paper_Space
  1

  0
ENDBLK
  5
1D
330
1B
100
AcDbEntity
 67
     1
  8
0
100
AcDbBlockEnd
  0
BLOCK
  5
24
330
23
100
AcDbEntity
  8
0
100
AcDbBlockBegin
  2
*Paper_Space0
 70
     0
 10
0.0
 20
0.0
 30
0.0
  3
*Paper_Space0
  1

  0
ENDBLK
  5
25
330
23
100
AcDbEntity
  8
0
100
AcDbBlockEnd
  0
ENDSEC
  0
SECTION
  2
ENTITIES
  0
SPLINE
  5
44
330
1F
100
AcDbEntity
  8
0
  6
Continuous
 62
     7
370
    15
100
AcDbSpline
210
0.0
220
0.0
230
1.0
 70
     8
 71
     3
 72
    38
 73
    34
 74
     0
 42
0.00000001
 43
0.00000001
 12
1.0
 22
0.0
 32
0.0
 13
1.0
 23
0.0
 33
0.0
 40
0.0
 40
0.0
 40
0.0
 40
0.0
 40
0.1249999999999843
 40
0.1249999999999843
 40
0.1874999999999764
 40
0.1874999999999764
 40
0.2187499999999726
 40
0.2187499999999726
 40
0.2499999999999688
 40
0.2499999999999688
 40
0.3749999999999589
 40
0.3749999999999589
 40
0.4062499999999573
 40
0.4062499999999573
 40
0.4374999999999556
 40
0.4374999999999556
 40
0.4999999999999568
 40
0.4999999999999568
 40
0.6249999999999589
 40
0.6249999999999589
 40
0.6562499999999624
 40
0.6562499999999624
 40
0.6874999999999658
 40
0.6874999999999658
 40
0.7499999999999726
 40
0.7499999999999726
 40
0.8124999999999795
 40
0.8124999999999795
 40
0.8437499999999829
 40
0.8437499999999829
 40
0.8749999999999862
 40
0.8749999999999862
 40
1.0
 40
1.0
 40
1.0
 40
1.0
 10
734.1892179700509
 20
2990.838375161666
 30
0.0
 10
734.1892179700504
 20
2987.087997138554
 30
0.0
 10
734.543016340404
 20
2983.349374001756
 30
0.0
 10
735.6182865059677
 20
2977.766343020994
 30
0.0
 10
736.0680032201443
 20
2975.909552766287
 30
0.0
 10
736.8865664474341
 20
2973.132354883759
 30
0.0
 10
737.1843418112095
 20
2972.205496400887
 30
0.0
 10
737.8252268834312
 20
2970.367308787593
 30
0.0
 10
738.1675329984283
 20
2969.457835384239
 30
0.0
 10
739.9872065135928
 20
2964.958514067806
 30
0.0
 10
741.786235278904
 20
2961.511444673075
 30
0.0
 10
744.4731792684456
 20
2957.405641599674
 30
0.0
 10
745.0326513143425
 20
2956.594719606678
 30
0.0
 10
746.1967258587302
 20
2954.994037969119
 30
0.0
 10
746.8030273350558
 20
2954.202309983024
 30
0.0
 10
748.6712926532681
 20
2951.884491966414
 30
0.0
 10
749.9860541043374
 20
2950.409844812916
 30
0.0
 10
754.1329262829116
 20
2946.1939967435
 30
0.0
 10
757.16568506597
 20
2943.658878807341
 30
0.0
 10
761.3036344067767
 20
2940.851939080529
 30
0.0
 10
762.1452577500811
 20
2940.311289918212
 30
0.0
 10
763.8460521810509
 20
2939.277373199116
 30
0.0
 10
764.7067632505644
 20
2938.783052478871
 30
0.0
 10
767.3193794460426
 20
2937.367081230886
 30
0.0
 10
769.1016942600997
 20
2936.512262455776
 30
0.0
 10
772.7468454860892
 20
2934.979989474147
 30
0.0
 10
774.6096786719826
 20
2934.302527587984
 30
0.0
 10
777.4656495529923
 20
2933.422540489865
 30
0.0
 10
778.4299960137632
 20
2933.151448242684
 30
0.0
 10
780.3697716910955
 20
2932.658290504302
 30
0.0
 10
781.3429174165113
 20
2932.436681730184
 30
0.0
 10
786.2247050204271
 20
2931.451755932226
 30
0.0
 10
790.1810460645912
 20
2931.054159084003
 30
0.0
 10
794.1892179700512
 20
2931.054159084003
 30
0.0
  0
LINE
  5
45
330
1F
100
AcDbEntity
  8
0
  6
Continuous
 62
     7
370
    15
100
AcDbLine
 10
734.1892179701
 20
2990.8383751617
 30
0.0
 11
734.1892179701
 21
3010.054159084
 31
0.0
  0
LINE
  5
46
330
1F
100
AcDbEntity
  8
0
  6
Continuous
 62
     7
370
    15
100
AcDbLine
 10
734.1892179701
 20
3010.054159084
 30
0.0
 11
2318.1892179701
 21
3010.054159084
 31
0.0
  0
LINE
  5
47
330
1F
100
AcDbEntity
  8
0
  6
Continuous
 62
     7
370
    15
100
AcDbLine
 10
2318.1892179701
 20
2990.8383751617
 30
0.0
 11
2318.1892179701
 21
3010.054159084
 31
0.0
  0
SPLINE
  5
48
330
1F
100
AcDbEntity
  8
0
  6
Continuous
 62
     7
370
    15
100
AcDbSpline
210
0.0
220
0.0
230
1.0
 70
     8
 71
     3
 72
    36
 73
    32
 74
     0
 42
0.00000001
 43
0.00000001
 12
1.0
 22
0.0
 32
0.0
 13
1.0
 23
0.0
 33
0.0
 40
0.0
 40
0.0
 40
0.0
 40
0.0
 40
0.1249999999999982
 40
0.1249999999999982
 40
0.1874999999999975
 40
0.1874999999999975
 40
0.2187499999999973
 40
0.2187499999999973
 40
0.2499999999999972
 40
0.2499999999999972
 40
0.3749999999999979
 40
0.3749999999999979
 40
0.4062499999999982
 40
0.4062499999999982
 40
0.4374999999999984
 40
0.4374999999999984
 40
0.4999999999999986
 40
0.4999999999999986
 40
0.6249999999999984
 40
0.6249999999999984
 40
0.6562499999999984
 40
0.6562499999999984
 40
0.6874999999999984
 40
0.6874999999999984
 40
0.7499999999999988
 40
0.7499999999999988
 40
0.8124999999999991
 40
0.8124999999999991
 40
0.8749999999999993
 40
0.8749999999999993
 40
1.0
 40
1.0
 40
1.0
 40
1.0
 10
2258.189217970051
 20
2931.054159084003
 30
0.0
 10
2262.197606805541
 20
2931.054159084003
 30
0.0
 10
2266.138346159235
 20
2931.451752854884
 30
0.0
 10
2271.952085609163
 20
2932.620080264075
 30
0.0
 10
2273.873647037678
 20
2933.10556454153
 30
0.0
 10
2276.730868408093
 20
2933.981235076234
 30
0.0
 10
2277.681387674989
 20
2934.298599029054
 30
0.0
 10
2279.56249894209
 20
2934.979524066937
 30
0.0
 10
2280.490765118014
 20
2935.342093167726
 30
0.0
 10
2285.07183658625
 20
2937.263198645455
 30
0.0
 10
2288.545609712439
 20
2939.143427205041
 30
0.0
 10
2292.649843533604
 20
2941.918667493467
 30
0.0
 10
2293.45868250369
 20
2942.495155156156
 30
0.0
 10
2295.051921552568
 20
2943.691688113423
 30
0.0
 10
2295.838382883756
 20
2944.313545796033
 30
0.0
 10
2298.137289556934
 20
2946.226353455554
 30
0.0
 10
2299.593851437636
 20
2947.567023754134
 30
0.0
 10
2303.742178732061
 20
2951.77765831847
 30
0.0
 10
2306.214573124157
 20
2954.834579120197
 30
0.0
 10
2308.930067028906
 20
2958.968706875254
 30
0.0
 10
2309.454188981749
 20
2959.811576506188
 30
0.0
 10
2310.452395384978
 20
2961.508708624504
 30
0.0
 10
2310.928146820552
 20
2962.365416518523
 30
0.0
 10
2312.286904114997
 20
2964.959055257937
 30
0.0
 10
2313.101556447908
 20
2966.719444477801
 30
0.0
 10
2314.55308391516
 20
2970.299456655718
 30
0.0
 10
2315.189950462828
 20
2972.119085626056
 30
0.0
 10
2316.285961891566
 20
2975.815985215403
 30
0.0
 10
2316.745682516027
 20
2977.700038105995
 30
0.0
 10
2317.835292652408
 20
2983.33144267207
 30
0.0
 10
2318.189217970051
 20
2987.086735883757
 30
0.0
 10
2318.189217970051
 20
2990.838375161666
 30
0.0
  0
LINE
  5
49
330
1F
100
AcDbEntity
  8
0
  6
Continuous
 62
     7
370
    15
100
AcDbLine
 10
2258.1892179701
 20
2931.054159084
 30
0.0
 11
794.1892179701
 21
2931.054159084
 31
0.0
  0
LINE
  5
4A
330
1F
100
AcDbEntity
  8
0
  6
Continuous
 62
     7
370
    15
100
AcDbLine
 10
2258.1892179701
 20
2930.9946530021
 30
0.0
 11
2258.1892179701
 21
2931.054159084
 31
0.0
  0
LINE
  5
4B
330
1F
100
AcDbEntity
  8
0
  6
Continuous
 62
     7
370
    15
100
AcDbLine
 10
2318.1892179701
 20
2990.8383751617
 30
0.0
 11
2318.1892179701
 21
2990.7752004092
 31
0.0
  0
SPLINE
  5
4C
330
1F
100
AcDbEntity
  8
0
  6
Continuous
 62
     7
370
    15
100
AcDbSpline
210
0.0
220
0.0
230
1.0
 70
     8
 71
     3
 72
    38
 73
    34
 74
     0
 42
0.00000001
 43
0.00000001
 12
1.0
 22
0.0
 32
0.0
 13
1.0
 23
0.0
 33
0.0
 40
0.0
 40
0.0
 40
0.0
 40
0.0
 40
0.1250000000000009
 40
0.1250000000000009
 40
0.1875000000000013
 40
0.1875000000000013
 40
0.2187500000000014
 40
0.2187500000000014
 40
0.2500000000000015
 40
0.2500000000000015
 40
0.3750000000000021
 40
0.3750000000000021
 40
0.4062500000000021
 40
0.4062500000000021
 40
0.4375000000000021
 40
0.4375000000000021
 40
0.5000000000000021
 40
0.5000000000000021
 40
0.6250000000000019
 40
0.6250000000000019
 40
0.6562500000000019
 40
0.6562500000000019
 40
0.6875000000000019
 40
0.6875000000000019
 40
0.7500000000000016
 40
0.7500000000000016
 40
0.8125000000000012
 40
0.8125000000000012
 40
0.8437500000000011
 40
0.8437500000000011
 40
0.875000000000001
 40
0.875000000000001
 40
1.0
 40
1.0
 40
1.0
 40
1.0
 10
2318.189217970051
 20
2990.77520040924
 30
0.0
 10
2318.189217970051
 20
2987.031796871564
 30
0.0
 10
2317.836623070322
 20
2983.298327571916
 30
0.0
 10
2316.763693758463
 20
2977.720631283485
 30
0.0
 10
2316.314851360246
 20
2975.865218389108
 30
0.0
 10
2315.497606252573
 20
2973.089517179958
 30
0.0
 10
2315.200263961135
 20
2972.163041071888
 30
0.0
 10
2314.560286190902
 20
2970.325611427884
 30
0.0
 10
2314.218427932076
 20
2969.416434505228
 30
0.0
 10
2312.400927077531
 20
2964.918221948071
 30
0.0
 10
2310.603415029253
 20
2961.470853795397
 30
0.0
 10
2307.917606620543
 20
2957.363691848177
 30
0.0
 10
2307.358324066019
 20
2956.552448277885
 30
0.0
 10
2306.194541982193
 20
2954.951034681083
 30
0.0
 10
2305.588366902376
 20
2954.158928959904
 30
0.0
 10
2303.720537740266
 20
2951.840100648586
 30
0.0
 10
2302.405934364989
 20
2950.364674896399
 30
0.0
 10
2298.259099111976
 20
2946.146291650808
 30
0.0
 10
2295.225787030911
 20
2943.609217867179
 30
0.0
 10
2291.0862559284
 20
2940.799829253176
 30
0.0
 10
2290.244659328425
 20
2940.258941996211
 30
0.0
 10
2288.543565612344
 20
2939.224346194319
 30
0.0
 10
2287.682670727192
 20
2938.729682719698
 30
0.0
 10
2285.069398112029
 20
2937.312685131207
 30
0.0
 10
2283.2865060353
 20
2936.457184607865
 30
0.0
 10
2279.639901351533
 20
2934.923613832132
 30
0.0
 10
2277.776192115785
 20
2934.245535587015
 30
0.0
 10
2274.918659589705
 20
2933.364723106571
 30
0.0
 10
2273.953617469951
 20
2933.093342321591
 30
0.0
 10
2272.013366435197
 20
2932.599890077916
 30
0.0
 10
2271.039964913158
 20
2932.378143202724
 30
0.0
 10
2266.156807694887
 20
2931.392582923034
 30
0.0
 10
2262.19908413185
 20
2930.99465300214
 30
0.0
 10
2258.189217970051
 20
2930.99465300214
 30
0.0
  0
LINE
  5
4D
330
1F
100
AcDbEntity
  8
0
  6
Continuous
 62
     7
370
    15
100
AcDbLine
 10
734.1892179701
 20
2990.7752004092
 30
0.0
 11
734.1892179701
 21
2990.8383751617
 31
0.0
  0
LINE
  5
4E
330
1F
100
AcDbEntity
  8
0
  6
Continuous
 62
     7
370
    15
100
AcDbLine
 10
794.1892179701
 20
2931.054159084
 30
0.0
 11
794.1892179701
 21
2930.9946530021
 31
0.0
  0
SPLINE
  5
4F
330
1F
100
AcDbEntity
  8
0
  6
Continuous
 62
     7
370
    15
100
AcDbSpline
210
0.0
220
0.0
230
1.0
 70
     8
 71
     3
 72
    38
 73
    34
 74
     0
 42
0.00000001
 43
0.00000001
 12
1.0
 22
0.0
 32
0.0
 13
1.0
 23
0.0
 33
0.0
 40
0.0
 40
0.0
 40
0.0
 40
0.0
 40
0.1249999999999916
 40
0.1249999999999916
 40
0.1874999999999908
 40
0.1874999999999908
 40
0.2187499999999938
 40
0.2187499999999938
 40
0.2499999999999967
 40
0.2499999999999967
 40
0.375000000000002
 40
0.375000000000002
 40
0.4062500000000004
 40
0.4062500000000004
 40
0.4374999999999989
 40
0.4374999999999989
 40
0.4999999999999957
 40
0.4999999999999957
 40
0.6249999999999941
 40
0.6249999999999941
 40
0.6562499999999957
 40
0.6562499999999957
 40
0.6874999999999972
 40
0.6874999999999972
 40
0.7499999999999971
 40
0.7499999999999971
 40
0.8124999999999971
 40
0.8124999999999971
 40
0.8437499999999971
 40
0.8437499999999971
 40
0.8749999999999971
 40
0.8749999999999971
 40
1.0
 40
1.0
 40
1.0
 40
1.0
 10
794.1892179700509
 20
2930.99465300214
 30
0.0
 10
790.1791337401592
 20
2930.99465300214
 30
0.0
 10
786.2367532516176
 20
2931.39258037907
 30
0.0
 10
780.4206318642315
 20
2932.561890196762
 30
0.0
 10
778.4982899574641
 20
2933.047783360356
 30
0.0
 10
775.6399198803281
 20
2933.924197275268
 30
0.0
 10
774.6890011121823
 20
2934.241839123093
 30
0.0
 10
772.8072449924914
 20
2934.92330843361
 30
0.0
 10
771.878666449
 20
2935.286165960819
 30
0.0
 10
767.2960846533587
 20
2937.208793231143
 30
0.0
 10
763.8212653947407
 20
2939.090491218706
 30
0.0
 10
759.7159726705644
 20
2941.867884839448
 30
0.0
 10
758.906934533058
 20
2942.444819180106
 30
0.0
 10
757.3133242983532
 20
2943.642278338571
 30
0.0
 10
756.5267108026934
 20
2944.264603160469
 30
0.0
 10
754.227602349233
 20
2946.178658179476
 30
0.0
 10
752.7709904878371
 20
2947.520162303506
 30
0.0
 10
748.6227724842532
 20
2951.733251983598
 30
0.0
 10
746.1507978627702
 20
2954.791752469995
 30
0.0
 10
743.4362704055625
 20
2958.92755798716
 30
0.0
 10
742.9124600452146
 20
2959.770596771752
 30
0.0
 10
741.9149187821861
 20
2961.467965109471
 30
0.0
 10
741.4395191898391
 20
2962.324749968481
 30
0.0
 10
740.0818648198823
 20
2964.918482952351
 30
0.0
 10
739.2680114730937
 20
2966.678753099515
 30
0.0
 10
737.8181432962717
 20
2970.258087234684
 30
0.0
 10
737.1821373206841
 20
2972.077157430998
 30
0.0
 10
736.3614017212574
 20
2974.848598320642
 30
0.0
 10
736.1099307744101
 20
2975.780135854395
 30
0.0
 10
735.6524559970461
 20
2977.655093035991
 30
0.0
 10
735.4478428989539
 20
2978.592680234616
 30
0.0
 10
734.5419411704281
 20
2983.280582469502
 30
0.0
 10
734.1892179700505
 20
2987.030509731831
 30
0.0
 10
734.1892179700509
 20
2990.77520040924
 30
0.0
  0
LINE
  5
50
330
1F
100
AcDbEntity
  8
0
  6
Continuous
 62
     7
370
    15
100
AcDbLine
 10
2258.1892179701
 20
2930.9946530021
 30
0.0
 11
794.1892179701
 21
2930.9946530021
 31
0.0
  0
LINE
  5
51
330
1F
100
AcDbEntity
  8
0
  6
Continuous
 62
     7
370
    15
100
AcDbLine
 10
2657.0459383708
 20
2990.8383751617
 30
0.0
 11
2660.230267843
 21
2990.7752004092
 31
0.0
  0
LINE
  5
52
330
1F
100
AcDbEntity
  8
0
  6
Continuous
 62
     7
370
    15
100
AcDbLine
 10
2648.5736194302
 20
2930.9946530021
 30
0.0
 11
2645.5742096506
 21
2931.054159084
 31
0.0
  0
SPLINE
  5
53
330
1F
100
AcDbEntity
  8
0
  6
Continuous
 62
     7
370
    15
100
AcDbSpline
210
0.0
220
0.0
230
1.0
 70
     8
 71
     3
 72
    36
 73
    32
 74
     0
 42
0.00000001
 43
0.00000001
 12
1.0
 22
0.0
 32
0.0
 13
1.0
 23
0.0
 33
0.0
 40
0.0
 40
0.0
 40
0.0
 40
0.0
 40
0.1250000000000197
 40
0.1250000000000197
 40
0.1875000000000295
 40
0.1875000000000295
 40
0.2187500000000311
 40
0.2187500000000311
 40
0.2500000000000327
 40
0.2500000000000327
 40
0.375000000000039
 40
0.375000000000039
 40
0.4062500000000406
 40
0.4062500000000406
 40
0.4375000000000422
 40
0.4375000000000422
 40
0.5000000000000453
 40
0.5000000000000453
 40
0.6250000000000466
 40
0.6250000000000466
 40
0.6562500000000442
 40
0.6562500000000442
 40
0.6875000000000416
 40
0.6875000000000416
 40
0.7500000000000333
 40
0.7500000000000333
 40
0.8125000000000251
 40
0.8125000000000251
 40
0.8750000000000169
 40
0.8750000000000169
 40
1.0
 40
1.0
 40
1.0
 40
1.0
 10
2645.574209650581
 20
2931.054159084003
 30
0.0
 10
2645.574209650581
 20
2931.054159084003
 30
0.0
 10
2645.580851492346
 20
2931.451752854884
 30
0.0
 10
2645.611665065308
 20
2932.620080264075
 30
0.0
 10
2645.625648743755
 20
2933.10556454153
 30
0.0
 10
2645.655843052642
 20
2933.981235076234
 30
0.0
 10
2645.667495816286
 20
2934.298599029054
 30
0.0
 10
2645.694571634434
 20
2934.979524066937
 30
0.0
 10
2645.709952703198
 20
2935.342093167726
 30
0.0
 10
2645.797966699432
 20
2937.263198645455
 30
0.0
 10
2645.902855528233
 20
2939.143427205041
 30
0.0
 10
2646.117335965475
 20
2941.918667493467
 30
0.0
 10
2646.164471479492
 20
2942.495155156156
 30
0.0
 10
2646.268547746822
 20
2943.691688113423
 30
0.0
 10
2646.325674724083
 20
2944.313545796033
 30
0.0
 10
2646.512028047481
 20
2946.226353455554
 30
0.0
 10
2646.656349745571
 20
2947.567023754134
 30
0.0
 10
2647.162175749683
 20
2951.77765831847
 30
0.0
 10
2647.595692115737
 20
2954.834579120197
 30
0.0
 10
2648.309629362588
 20
2958.968706875254
 30
0.0
 10
2648.461183546387
 20
2959.811576506188
 30
0.0
 10
2648.77915037978
 20
2961.508708624504
 30
0.0
 10
2648.945972282095
 20
2962.365416518523
 30
0.0
 10
2649.471025319884
 20
2964.959055257937
 30
0.0
 10
2649.853824533066
 20
2966.719444477801
 30
0.0
 10
2650.691044774108
 20
2970.299456655718
 30
0.0
 10
2651.145455571187
 20
2972.119085626056
 30
0.0
 10
2652.132712741768
 20
2975.815985215403
 30
0.0
 10
2652.667860432897
 20
2977.700038105995
 30
0.0
 10
2654.368791826519
 20
2983.33144267207
 30
0.0
 10
2655.636697946613
 20
2987.086735883757
 30
0.0
 10
2657.045938370816
 20
2990.838375161666
 30
0.0
  0
SPLINE
  5
54
330
1F
100
AcDbEntity
  8
0
  6
Continuous
 62
     7
370
    15
100
AcDbSpline
210
0.0
220
0.0
230
1.0
 70
     8
 71
     3
 72
    38
 73
    34
 74
     0
 42
0.00000001
 43
0.00000001
 12
1.0
 22
0.0
 32
0.0
 13
1.0
 23
0.0
 33
0.0
 40
0.0
 40
0.0
 40
0.0
 40
0.0
 40
0.1250000000000102
 40
0.1250000000000102
 40
0.1875000000000154
 40
0.1875000000000154
 40
0.218750000000017
 40
0.218750000000017
 40
0.2500000000000186
 40
0.2500000000000186
 40
0.3750000000000276
 40
0.3750000000000276
 40
0.4062500000000299
 40
0.4062500000000299
 40
0.4375000000000322
 40
0.4375000000000322
 40
0.5000000000000324
 40
0.5000000000000324
 40
0.6250000000000329
 40
0.6250000000000329
 40
0.6562500000000301
 40
0.6562500000000301
 40
0.6875000000000273
 40
0.6875000000000273
 40
0.7500000000000216
 40
0.7500000000000216
 40
0.8125000000000161
 40
0.8125000000000161
 40
0.84375000000001
 40
0.84375000000001
 40
0.8750000000000039
 40
0.8750000000000039
 40
1.0
 40
1.0
 40
1.0
 40
1.0
 10
2660.23026784301
 20
2990.77520040924
 30
0.0
 10
2658.798492572908
 20
2987.031796871564
 30
0.0
 10
2657.515953635981
 20
2983.298327571916
 30
0.0
 10
2655.799946529064
 20
2977.720631283485
 30
0.0
 10
2655.262634426791
 20
2975.865218389108
 30
0.0
 10
2654.507089374691
 20
2973.089517179958
 30
0.0
 10
2654.263021502638
 20
2972.163041071888
 30
0.0
 10
2653.794650199004
 20
2970.325611427884
 30
0.0
 10
2653.57074671348
 20
2969.416434505228
 30
0.0
 10
2652.499781797786
 20
2964.918221948071
 30
0.0
 10
2651.797786099605
 20
2961.470853795397
 30
0.0
 10
2651.075079142178
 20
2957.363691848177
 30
0.0
 10
2650.938310335837
 20
2956.552448277885
 30
0.0
 10
2650.679462682883
 20
2954.951034681083
 30
0.0
 10
2650.5571176906
 20
2954.158928959904
 30
0.0
 10
2650.214390440198
 20
2951.840100648586
 30
0.0
 10
2650.017152542976
 20
2950.364674896399
 30
0.0
 10
2649.501980789504
 20
2946.146291650808
 30
0.0
 10
2649.260017732118
 20
2943.609217867179
 30
0.0
 10
2649.039229964872
 20
2940.799829253176
 30
0.0
 10
2648.99942328041
 20
2940.258941996211
 30
0.0
 10
2648.927653104981
 20
2939.224346194319
 30
0.0
 10
2648.895614669732
 20
2938.729682719698
 30
0.0
 10
2648.809263785589
 20
2937.312685131207
 30
0.0
 10
2648.764655807562
 20
2936.457184607865
 30
0.0
 10
2648.69351608812
 20
2934.923613832132
 30
0.0
 10
2648.66699448207
 20
2934.245535587015
 30
0.0
 10
2648.636262469824
 20
2933.364723106571
 30
0.0
 10
2648.627524181751
 20
2933.093342321591
 30
0.0
 10
2648.612571659714
 20
2932.599890077916
 30
0.0
 10
2648.606362699773
 20
2932.378143202724
 30
0.0
 10
2648.580205241777
 20
2931.392582923034
 30
0.0
 10
2648.573619430224
 20
2930.99465300214
 30
0.0
 10
2648.573619430224
 20
2930.99465300214
 30
0.0
  0
LINE
  5
55
330
1F
100
AcDbEntity
  8
0
  6
Continuous
 62
     7
370
    15
100
AcDbLine
 10
2707.9181514582
 20
2990.7752004092
 30
0.0
 11
2711.1024809303
 21
2990.8383751617
 31
0.0
  0
LINE
  5
56
330
1F
100
AcDbEntity
  8
0
  6
Continuous
 62
     7
370
    15
100
AcDbLine
 10
2722.5742096506
 20
2931.054159084
 30
0.0
 11
2719.5747998709
 21
2930.9946530021
 31
0.0
  0
SPLINE
  5
57
330
1F
100
AcDbEntity
  8
0
  6
Continuous
 62
     7
370
    15
100
AcDbSpline
210
0.0
220
0.0
230
1.0
 70
     8
 71
     3
 72
    38
 73
    34
 74
     0
 42
0.00000001
 43
0.00000001
 12
1.0
 22
0.0
 32
0.0
 13
1.0
 23
0.0
 33
0.0
 40
0.0
 40
0.0
 40
0.0
 40
0.0
 40
0.1249999999999916
 40
0.1249999999999916
 40
0.1874999999999908
 40
0.1874999999999908
 40
0.2187499999999938
 40
0.2187499999999938
 40
0.2499999999999967
 40
0.2499999999999967
 40
0.375000000000002
 40
0.375000000000002
 40
0.4062500000000004
 40
0.4062500000000004
 40
0.4374999999999989
 40
0.4374999999999989
 40
0.4999999999999957
 40
0.4999999999999957
 40
0.6249999999999941
 40
0.6249999999999941
 40
0.6562499999999957
 40
0.6562499999999957
 40
0.6874999999999972
 40
0.6874999999999972
 40
0.7499999999999971
 40
0.7499999999999971
 40
0.8124999999999971
 40
0.8124999999999971
 40
0.8437499999999971
 40
0.8437499999999971
 40
0.8749999999999971
 40
0.8749999999999971
 40
1.0
 40
1.0
 40
1.0
 40
1.0
 10
2719.574799870938
 20
2930.99465300214
 30
0.0
 10
2719.574799870938
 20
2930.99465300214
 30
0.0
 10
2719.568174655339
 20
2931.39258037907
 30
0.0
 10
2719.537199227171
 20
2932.561890196762
 30
0.0
 10
2719.523126294386
 20
2933.047783360356
 30
0.0
 10
2719.492677922184
 20
2933.924197275268
 30
0.0
 10
2719.480919464033
 20
2934.241839123093
 30
0.0
 10
2719.453580235757
 20
2934.92330843361
 30
0.0
 10
2719.43804103229
 20
2935.286165960819
 30
0.0
 10
2719.349068195902
 20
2937.208793231143
 30
0.0
 10
2719.242894041741
 20
2939.090491218706
 30
0.0
 10
2719.025400712387
 20
2941.867884839448
 30
0.0
 10
2718.977590974083
 20
2942.444819180106
 30
0.0
 10
2718.871997873796
 20
2943.642278338571
 30
0.0
 10
2718.814026484325
 20
2944.264603160469
 30
0.0
 10
2718.624895424785
 20
2946.178658179476
 30
0.0
 10
2718.478374953232
 20
2947.520162303506
 30
0.0
 10
2717.964676813797
 20
2951.733251983598
 30
0.0
 10
2717.524228078769
 20
2954.791752469995
 30
0.0
 10
2716.798550991994
 20
2958.92755798716
 30
0.0
 10
2716.644519171043
 20
2959.770596771752
 30
0.0
 10
2716.321342404456
 20
2961.467965109471
 30
0.0
 10
2716.151779211124
 20
2962.324749968481
 30
0.0
 10
2715.618075510859
 20
2964.918482952351
 30
0.0
 10
2715.228940470622
 20
2966.678753099515
 30
0.0
 10
2714.37780971147
 20
2970.258087234684
 30
0.0
 10
2713.915824397898
 20
2972.077157430998
 30
0.0
 10
2713.16300520086
 20
2974.848598320642
 30
0.0
 10
2712.901919507711
 20
2975.780135854395
 30
0.0
 10
2712.359505867636
 20
2977.655093035991
 30
0.0
 10
2712.079873870528
 20
2978.592680234616
 30
0.0
 10
2710.639119408968
 20
2983.280582469502
 30
0.0
 10
2709.350419032869
 20
2987.030509731831
 30
0.0
 10
2707.918151458151
 20
2990.77520040924
 30
0.0
  0
SPLINE
  5
58
330
1F
100
AcDbEntity
  8
0
  6
Continuous
 62
     7
370
    15
100
AcDbSpline
210
0.0
220
0.0
230
1.0
 70
     8
 71
     3
 72
    38
 73
    34
 74
     0
 42
0.00000001
 43
0.00000001
 12
1.0
 22
0.0
 32
0.0
 13
1.0
 23
0.0
 33
0.0
 40
0.0
 40
0.0
 40
0.0
 40
0.0
 40
0.1249999999999843
 40
0.1249999999999843
 40
0.1874999999999764
 40
0.1874999999999764
 40
0.2187499999999726
 40
0.2187499999999726
 40
0.2499999999999688
 40
0.2499999999999688
 40
0.3749999999999589
 40
0.3749999999999589
 40
0.4062499999999573
 40
0.4062499999999573
 40
0.4374999999999556
 40
0.4374999999999556
 40
0.4999999999999568
 40
0.4999999999999568
 40
0.6249999999999589
 40
0.6249999999999589
 40
0.6562499999999624
 40
0.6562499999999624
 40
0.6874999999999658
 40
0.6874999999999658
 40
0.7499999999999726
 40
0.7499999999999726
 40
0.8124999999999795
 40
0.8124999999999795
 40
0.8437499999999829
 40
0.8437499999999829
 40
0.8749999999999862
 40
0.8749999999999862
 40
1.0
 40
1.0
 40
1.0
 40
1.0
 10
2711.102480930346
 20
2990.838375161666
 30
0.0
 10
2712.511247585321
 20
2987.087997138554
 30
0.0
 10
2713.773021657552
 20
2983.349374001756
 30
0.0
 10
2715.461114808081
 20
2977.766343020994
 30
0.0
 10
2715.98966210386
 20
2975.909552766287
 30
0.0
 10
2716.732860903941
 20
2973.132354883759
 30
0.0
 10
2716.972931325417
 20
2972.205496400887
 30
0.0
 10
2717.433670874205
 20
2970.367308787593
 30
0.0
 10
2717.653926168235
 20
2969.457835384239
 30
0.0
 10
2718.707448192245
 20
2964.958514067806
 30
0.0
 10
2719.398036494071
 20
2961.511444673075
 30
0.0
 10
2720.10910485267
 20
2957.405641599674
 30
0.0
 10
2720.243677350399
 20
2956.594719606678
 30
0.0
 10
2720.498382335677
 20
2954.994037969119
 30
0.0
 10
2720.61878234823
 20
2954.202309983024
 30
0.0
 10
2720.956115136436
 20
2951.884491966414
 30
0.0
 10
2721.150285615317
 20
2950.409844812916
 30
0.0
 10
2721.657550620122
 20
2946.1939967435
 30
0.0
 10
2721.895961614483
 20
2943.658878807341
 30
0.0
 10
2722.113673253198
 20
2940.851939080529
 30
0.0
 10
2722.152954910613
 20
2940.311289918212
 30
0.0
 10
2722.223782625824
 20
2939.277373199116
 30
0.0
 10
2722.255410464043
 20
2938.783052478871
 30
0.0
 10
2722.3406812732
 20
2937.367081230886
 30
0.0
 10
2722.384770575483
 20
2936.512262455776
 30
0.0
 10
2722.455139520354
 20
2934.979989474147
 30
0.0
 10
2722.481409171588
 20
2934.302527587984
 30
0.0
 10
2722.511882099993
 20
2933.422540489865
 30
0.0
 10
2722.520553124878
 20
2933.151448242684
 30
0.0
 10
2722.535407342853
 20
2932.658290504302
 30
0.0
 10
2722.541581063262
 20
2932.436681730184
 30
0.0
 10
2722.567607156418
 20
2931.451755932226
 30
0.0
 10
2722.574209650581
 20
2931.054159084003
 30
0.0
 10
2722.574209650581
 20
2931.054159084003
 30
0.0
  0
LINE
  5
59
330
1F
100
AcDbEntity
  8
0
  6
Continuous
 62
     7
370
    15
100
AcDbLine
 10
2667.4132117154
 20
3007.054159084
 30
0.0
 11
2700.7352075858
 21
3007.054159084
 31
0.0
  0
LINE
  5
5A
330
1F
100
AcDbEntity
  8
0
  6
Continuous
 62
     7
370
    15
100
AcDbLine
 10
2702.5742096506
 20
3010.054159084
 30
0.0
 11
2665.5742096506
 21
3010.054159084
 31
0.0
  0
ARC
  5
5B
330
1F
100
AcDbEntity
  8
0
  6
Continuous
 62
     7
370
    15
100
AcDbCircle
 10
2825.7160408255
 20
2927.4802777739
 30
0.0
 40
180.1772792742508
100
AcDbArc
 50
152.7230247496
 51
159.4121524531
  0
ARC
  5
5C
330
1F
100
AcDbEntity
  8
0
  6
Continuous
 62
     7
370
    15
100
AcDbCircle
 10
2542.4323784757
 20
2927.4802777739
 30
0.0
 40
177.1772792742514
100
AcDbArc
 50
20.9308299757
 51
26.6872459041
  0
ARC
  5
5D
330
1F
100
AcDbEntity
  8
0
  6
Continuous
 62
     7
370
    15
100
AcDbCircle
 10
2542.4323784757
 20
2927.4802777739
 30
0.0
 40
180.1772792742512
100
AcDbArc
 50
20.5878475469
 51
27.2769752504
  0
ARC
  5
5E
330
1F
100
AcDbEntity
  8
0
  6
Continuous
 62
     7
370
    15
100
AcDbCircle
 10
2825.7160408255
 20
2927.4802777739
 30
0.0
 40
177.177279274251
100
AcDbArc
 50
153.3127540959
 51
159.0691700243
  0
LINE
  5
5F
330
1F
100
AcDbEntity
  8
0
  6
Continuous
 62
     7
370
    15
100
AcDbLine
 10
2648.9854950791
 20
2940.054159084
 30
0.0
 11
2719.1629242221
 21
2940.054159084
 31
0.0
  0
LINE
  5
60
330
1F
100
AcDbEntity
  8
0
  6
Continuous
 62
     7
370
    15
100
AcDbLine
 10
2318.1892179701
 20
2598.8821963394
 30
0.0
 11
734.1892179701
 21
2598.8821963394
 31
0.0
  0
LINE
  5
61
330
1F
100
AcDbEntity
  8
0
  6
Continuous
 62
     7
370
    15
100
AcDbLine
 10
734.1892179701
 20
2598.8821963394
 30
0.0
 11
734.1892179701
 21
2607.4104676192
 31
0.0
  0
SPLINE
  5
62
330
1F
100
AcDbEntity
  8
0
  6
Continuous
 62
     7
370
    15
100
AcDbSpline
210
0.0
220
0.0
230
1.0
 70
     8
 71
     3
 72
    36
 73
    32
 74
     0
 42
0.00000001
 43
0.00000001
 12
1.0
 22
0.0
 32
0.0
 13
1.0
 23
0.0
 33
0.0
 40
0.0
 40
0.0
 40
0.0
 40
0.0
 40
0.1250000000000197
 40
0.1250000000000197
 40
0.1875000000000295
 40
0.1875000000000295
 40
0.2187500000000311
 40
0.2187500000000311
 40
0.2500000000000327
 40
0.2500000000000327
 40
0.375000000000039
 40
0.375000000000039
 40
0.4062500000000406
 40
0.4062500000000406
 40
0.4375000000000422
 40
0.4375000000000422
 40
0.5000000000000453
 40
0.5000000000000453
 40
0.6250000000000466
 40
0.6250000000000466
 40
0.6562500000000442
 40
0.6562500000000442
 40
0.6875000000000416
 40
0.6875000000000416
 40
0.7500000000000333
 40
0.7500000000000333
 40
0.8125000000000251
 40
0.8125000000000251
 40
0.8750000000000169
 40
0.8750000000000169
 40
1.0
 40
1.0
 40
1.0
 40
1.0
 10
794.1892179700509
 20
2618.882196339435
 30
0.0
 10
790.1808291345603
 20
2618.882196339435
 30
0.0
 10
786.2400897808664
 20
2618.87555449767
 30
0.0
 10
780.4263503309396
 20
2618.844740924707
 30
0.0
 10
778.5047889024239
 20
2618.83075724626
 30
0.0
 10
775.647567532009
 20
2618.800562937373
 30
0.0
 10
774.6970482651128
 20
2618.78891017373
 30
0.0
 10
772.815936998012
 20
2618.761834355581
 30
0.0
 10
771.887670822088
 20
2618.746453286818
 30
0.0
 10
767.3065993538514
 20
2618.658439290584
 30
0.0
 10
763.8328262276632
 20
2618.553550461782
 30
0.0
 10
759.7285924064976
 20
2618.33907002454
 30
0.0
 10
758.9197534364123
 20
2618.291934510524
 30
0.0
 10
757.3265143875337
 20
2618.187858243193
 30
0.0
 10
756.540053056346
 20
2618.130731265932
 30
0.0
 10
754.2411463831672
 20
2617.944377942534
 30
0.0
 10
752.7845845024663
 20
2617.800056244444
 30
0.0
 10
748.6362572080409
 20
2617.294230240333
 30
0.0
 10
746.1638628159455
 20
2616.860713874279
 30
0.0
 10
743.4483689111954
 20
2616.146776627428
 30
0.0
 10
742.924246958353
 20
2615.995222443628
 30
0.0
 10
741.9260405551237
 20
2615.677255610236
 30
0.0
 10
741.4502891195501
 20
2615.510433707921
 30
0.0
 10
740.0915318251045
 20
2614.985380670132
 30
0.0
 10
739.2768794921939
 20
2614.602581456949
 30
0.0
 10
737.8253520249416
 20
2613.765361215908
 30
0.0
 10
737.1884854772734
 20
2613.310950418828
 30
0.0
 10
736.0924740485357
 20
2612.323693248247
 30
0.0
 10
735.6327534240753
 20
2611.788545557119
 30
0.0
 10
734.5431432876948
 20
2610.087614163497
 30
0.0
 10
734.1892179700512
 20
2608.819708043403
 30
0.0
 10
734.1892179700509
 20
2607.4104676192
 30
0.0
  0
LINE
  5
63
330
1F
100
AcDbEntity
  8
0
  6
Continuous
 62
     7
370
    15
100
AcDbLine
 10
2258.1892179701
 20
2618.8821963394
 30
0.0
 11
794.1892179701
 21
2618.8821963394
 31
0.0
  0
SPLINE
  5
64
330
1F
100
AcDbEntity
  8
0
  6
Continuous
 62
     7
370
    15
100
AcDbSpline
210
0.0
220
0.0
230
1.0
 70
     8
 71
     3
 72
    38
 73
    34
 74
     0
 42
0.00000001
 43
0.00000001
 12
1.0
 22
0.0
 32
0.0
 13
1.0
 23
0.0
 33
0.0
 40
0.0
 40
0.0
 40
0.0
 40
0.0
 40
0.1250000000000001
 40
0.1250000000000001
 40
0.1875000000000002
 40
0.1875000000000002
 40
0.2187500000000001
 40
0.2187500000000001
 40
0.2499999999999999
 40
0.2499999999999999
 40
0.3749999999999991
 40
0.3749999999999991
 40
0.4062499999999991
 40
0.4062499999999991
 40
0.437499999999999
 40
0.437499999999999
 40
0.4999999999999989
 40
0.4999999999999989
 40
0.624999999999999
 40
0.624999999999999
 40
0.656249999999999
 40
0.656249999999999
 40
0.687499999999999
 40
0.687499999999999
 40
0.749999999999999
 40
0.749999999999999
 40
0.8124999999999991
 40
0.8124999999999991
 40
0.8437499999999991
 40
0.8437499999999991
 40
0.8749999999999991
 40
0.8749999999999991
 40
1.0
 40
1.0
 40
1.0
 40
1.0
 10
2318.189217970051
 20
2607.4104676192
 30
0.0
 10
2318.189217970051
 20
2608.819234274175
 30
0.0
 10
2317.835419599698
 20
2610.081008346405
 30
0.0
 10
2316.760149434135
 20
2611.769101496935
 30
0.0
 10
2316.310432719958
 20
2612.297648792714
 30
0.0
 10
2315.491869492667
 20
2613.040847592795
 30
0.0
 10
2315.194094128892
 20
2613.280918014271
 30
0.0
 10
2314.553209056671
 20
2613.741657563059
 30
0.0
 10
2314.210902941674
 20
2613.961912857089
 30
0.0
 10
2312.391229426509
 20
2615.015434881099
 30
0.0
 10
2310.592200661198
 20
2615.706023182925
 30
0.0
 10
2307.905256671656
 20
2616.417091541523
 30
0.0
 10
2307.345784625759
 20
2616.551664039252
 30
0.0
 10
2306.181710081371
 20
2616.806369024531
 30
0.0
 10
2305.575408605046
 20
2616.926769037084
 30
0.0
 10
2303.707143286834
 20
2617.26410182529
 30
0.0
 10
2302.392381835764
 20
2617.45827230417
 30
0.0
 10
2298.24550965719
 20
2617.965537308977
 30
0.0
 10
2295.212750874132
 20
2618.203948303336
 30
0.0
 10
2291.074801533326
 20
2618.421659942052
 30
0.0
 10
2290.233178190021
 20
2618.460941599466
 30
0.0
 10
2288.532383759051
 20
2618.531769314678
 30
0.0
 10
2287.671672689538
 20
2618.563397152896
 30
0.0
 10
2285.059056494059
 20
2618.648667962053
 30
0.0
 10
2283.276741680002
 20
2618.692757264337
 30
0.0
 10
2279.631590454013
 20
2618.763126209209
 30
0.0
 10
2277.768757268119
 20
2618.789395860442
 30
0.0
 10
2274.91278638711
 20
2618.819868788847
 30
0.0
 10
2273.948439926339
 20
2618.828539813731
 30
0.0
 10
2272.008664249007
 20
2618.843394031707
 30
0.0
 10
2271.03551852359
 20
2618.849567752116
 30
0.0
 10
2266.153730919675
 20
2618.875593845271
 30
0.0
 10
2262.197389875511
 20
2618.882196339435
 30
0.0
 10
2258.189217970051
 20
2618.882196339435
 30
0.0
  0
LINE
  5
65
330
1F
100
AcDbEntity
  8
0
  6
Continuous
 62
     7
370
    15
100
AcDbLine
 10
2318.1892179701
 20
2598.8821963394
 30
0.0
 11
2318.1892179701
 21
2607.4104676192
 31
0.0
  0
LINE
  5
66
330
1F
100
AcDbEntity
  8
0
  6
Continuous
 62
     7
370
    15
100
AcDbLine
 10
734.1892179701
 20
2561.8821963394
 30
0.0
 11
2318.1892179701
 21
2561.8821963394
 31
0.0
  0
LINE
  5
67
330
1F
100
AcDbEntity
  8
0
  6
Continuous
 62
     7
370
    15
100
AcDbLine
 10
2318.1892179701
 20
2561.8821963394
 30
0.0
 11
2318.1892179701
 21
2598.8821963394
 31
0.0
  0
LINE
  5
68
330
1F
100
AcDbEntity
  8
0
  6
Continuous
 62
     7
370
    15
100
AcDbLine
 10
734.1892179701
 20
2561.8821963394
 30
0.0
 11
734.1892179701
 21
2598.8821963394
 31
0.0
  0
SPLINE
  5
69
330
1F
100
AcDbEntity
  8
0
  6
Continuous
 62
     7
370
    15
100
AcDbSpline
210
0.0
220
0.0
230
1.0
 70
     8
 71
     3
 72
    38
 73
    34
 74
     0
 42
0.00000001
 43
0.00000001
 12
1.0
 22
0.0
 32
0.0
 13
1.0
 23
0.0
 33
0.0
 40
0.0
 40
0.0
 40
0.0
 40
0.0
 40
0.1249999999999843
 40
0.1249999999999843
 40
0.1874999999999764
 40
0.1874999999999764
 40
0.2187499999999726
 40
0.2187499999999726
 40
0.2499999999999688
 40
0.2499999999999688
 40
0.3749999999999589
 40
0.3749999999999589
 40
0.4062499999999573
 40
0.4062499999999573
 40
0.4374999999999556
 40
0.4374999999999556
 40
0.4999999999999568
 40
0.4999999999999568
 40
0.6249999999999589
 40
0.6249999999999589
 40
0.6562499999999624
 40
0.6562499999999624
 40
0.6874999999999658
 40
0.6874999999999658
 40
0.7499999999999726
 40
0.7499999999999726
 40
0.8124999999999795
 40
0.8124999999999795
 40
0.8437499999999829
 40
0.8437499999999829
 40
0.8749999999999862
 40
0.8749999999999862
 40
1.0
 40
1.0
 40
1.0
 40
1.0
 10
734.1892179700509
 20
2553.353925059669
 30
0.0
 10
734.1892179700504
 20
2551.945158404695
 30
0.0
 10
734.543016340404
 20
2550.683384332464
 30
0.0
 10
735.6182865059677
 20
2548.995291181935
 30
0.0
 10
736.0680032201443
 20
2548.466743886156
 30
0.0
 10
736.8865664474341
 20
2547.723545086075
 30
0.0
 10
737.1843418112095
 20
2547.483474664599
 30
0.0
 10
737.8252268834312
 20
2547.022735115811
 30
0.0
 10
738.1675329984283
 20
2546.802479821781
 30
0.0
 10
739.9872065135928
 20
2545.74895779777
 30
0.0
 10
741.786235278904
 20
2545.058369495945
 30
0.0
 10
744.4731792684456
 20
2544.347301137346
 30
0.0
 10
745.0326513143425
 20
2544.212728639617
 30
0.0
 10
746.1967258587302
 20
2543.958023654338
 30
0.0
 10
746.8030273350558
 20
2543.837623641785
 30
0.0
 10
748.6712926532681
 20
2543.500290853579
 30
0.0
 10
749.9860541043374
 20
2543.306120374699
 30
0.0
 10
754.1329262829116
 20
2542.798855369893
 30
0.0
 10
757.16568506597
 20
2542.560444375533
 30
0.0
 10
761.3036344067767
 20
2542.342732736818
 30
0.0
 10
762.1452577500811
 20
2542.303451079403
 30
0.0
 10
763.8460521810509
 20
2542.232623364192
 30
0.0
 10
764.7067632505644
 20
2542.200995525973
 30
0.0
 10
767.3193794460426
 20
2542.115724716816
 30
0.0
 10
769.1016942600997
 20
2542.071635414533
 30
0.0
 10
772.7468454860892
 20
2542.001266469661
 30
0.0
 10
774.6096786719826
 20
2541.974996818428
 30
0.0
 10
777.4656495529923
 20
2541.944523890023
 30
0.0
 10
778.4299960137632
 20
2541.935852865138
 30
0.0
 10
780.3697716910955
 20
2541.920998647163
 30
0.0
 10
781.3429174165113
 20
2541.914824926754
 30
0.0
 10
786.2247050204271
 20
2541.888798833598
 30
0.0
 10
790.1810460645912
 20
2541.882196339435
 30
0.0
 10
794.1892179700512
 20
2541.882196339435
 30
0.0
  0
SPLINE
  5
6A
330
1F
100
AcDbEntity
  8
0
  6
Continuous
 62
     7
370
    15
100
AcDbSpline
210
0.0
220
0.0
230
1.0
 70
     8
 71
     3
 72
    36
 73
    32
 74
     0
 42
0.00000001
 43
0.00000001
 12
1.0
 22
0.0
 32
0.0
 13
1.0
 23
0.0
 33
0.0
 40
0.0
 40
0.0
 40
0.0
 40
0.0
 40
0.1249999999999982
 40
0.1249999999999982
 40
0.1874999999999975
 40
0.1874999999999975
 40
0.2187499999999973
 40
0.2187499999999973
 40
0.2499999999999972
 40
0.2499999999999972
 40
0.3749999999999979
 40
0.3749999999999979
 40
0.4062499999999982
 40
0.4062499999999982
 40
0.4374999999999984
 40
0.4374999999999984
 40
0.4999999999999986
 40
0.4999999999999986
 40
0.6249999999999984
 40
0.6249999999999984
 40
0.6562499999999984
 40
0.6562499999999984
 40
0.6874999999999984
 40
0.6874999999999984
 40
0.7499999999999988
 40
0.7499999999999988
 40
0.8124999999999991
 40
0.8124999999999991
 40
0.8749999999999993
 40
0.8749999999999993
 40
1.0
 40
1.0
 40
1.0
 40
1.0
 10
2258.189217970051
 20
2541.882196339435
 30
0.0
 10
2262.197606805541
 20
2541.882196339435
 30
0.0
 10
2266.138346159235
 20
2541.8888381812
 30
0.0
 10
2271.952085609163
 20
2541.919651754162
 30
0.0
 10
2273.873647037678
 20
2541.933635432609
 30
0.0
 10
2276.730868408093
 20
2541.963829741496
 30
0.0
 10
2277.681387674989
 20
2541.97548250514
 30
0.0
 10
2279.56249894209
 20
2542.002558323288
 30
0.0
 10
2280.490765118014
 20
2542.017939392052
 30
0.0
 10
2285.07183658625
 20
2542.105953388286
 30
0.0
 10
2288.545609712439
 20
2542.210842217088
 30
0.0
 10
2292.649843533604
 20
2542.425322654329
 30
0.0
 10
2293.45868250369
 20
2542.472458168346
 30
0.0
 10
2295.051921552568
 20
2542.576534435676
 30
0.0
 10
2295.838382883756
 20
2542.633661412937
 30
0.0
 10
2298.137289556934
 20
2542.820014736335
 30
0.0
 10
2299.593851437636
 20
2542.964336434425
 30
0.0
 10
2303.742178732061
 20
2543.470162438537
 30
0.0
 10
2306.214573124157
 20
2543.903678804591
 30
0.0
 10
2308.930067028906
 20
2544.617616051441
 30
0.0
 10
2309.454188981749
 20
2544.769170235241
 30
0.0
 10
2310.452395384978
 20
2545.087137068634
 30
0.0
 10
2310.928146820552
 20
2545.253958970948
 30
0.0
 10
2312.286904114997
 20
2545.779012008737
 30
0.0
 10
2313.101556447908
 20
2546.161811221921
 30
0.0
 10
2314.55308391516
 20
2546.999031462961
 30
0.0
 10
2315.189950462828
 20
2547.453442260041
 30
0.0
 10
2316.285961891566
 20
2548.440699430622
 30
0.0
 10
2316.745682516027
 20
2548.975847121751
 30
0.0
 10
2317.835292652408
 20
2550.676778515373
 30
0.0
 10
2318.189217970051
 20
2551.944684635467
 30
0.0
 10
2318.189217970051
 20
2553.353925059669
 30
0.0
  0
LINE
  5
6B
330
1F
100
AcDbEntity
  8
0
  6
Continuous
 62
     7
370
    15
100
AcDbLine
 10
2258.1892179701
 20
2541.8821963394
 30
0.0
 11
794.1892179701
 21
2541.8821963394
 31
0.0
  0
LINE
  5
6C
330
1F
100
AcDbEntity
  8
0
  6
Continuous
 62
     7
370
    15
100
AcDbLine
 10
2318.1892179701
 20
2553.3539250597
 30
0.0
 11
2318.1892179701
 21
2561.8821963394
 31
0.0
  0
LINE
  5
6D
330
1F
100
AcDbEntity
  8
0
  6
Continuous
 62
     7
370
    15
100
AcDbLine
 10
734.1892179701
 20
2553.3539250597
 30
0.0
 11
734.1892179701
 21
2561.8821963394
 31
0.0
  0
ENDSEC
  0
SECTION
  2
OBJECTS
  0
DICTIONARY
  5
C
330
0
100
AcDbDictionary
281
     1
  3
ACAD_GROUP
350
D
  3
ACAD_LAYOUT
350
1A
  3
ACAD_MLINESTYLE
350
17
  3
ACAD_PLOTSETTINGS
350
19
  3
ACAD_PLOTSTYLENAME
350
E
  0
DICTIONARY
  5
D
102
{ACAD_REACTORS
330
C
102
}
330
C
100
AcDbDictionary
281
     1
  0
DICTIONARY
  5
1A
102
{ACAD_REACTORS
330
C
102
}
330
C
100
AcDbDictionary
281
     1
  3
Layout1
350
1E
  3
Layout2
350
26
  3
Model
350
22
  0
DICTIONARY
  5
17
102
{ACAD_REACTORS
330
C
102
}
330
C
100
AcDbDictionary
281
     1
  3
Standard
350
18
  0
DICTIONARY
  5
19
102
{ACAD_REACTORS
330
C
102
}
330
C
100
AcDbDictionary
281
     1
  0
ACDBDICTIONARYWDFLT
  5
E
102
{ACAD_REACTORS
330
C
102
}
330
C
100
AcDbDictionary
281
     1
  3
Normal
350
F
100
AcDbDictionaryWithDefault
340
F
  0
LAYOUT
  5
1E
102
{ACAD_REACTORS
330
1A
102
}
330
1A
100
AcDbPlotSettings
  1

  2
none_device
  4

  6

 40
0.0
 41
0.0
 42
0.0
 43
0.0
 44
0.0
 45
0.0
 46
0.0
 47
0.0
 48
0.0
 49
0.0
140
0.0
141
0.0
142
1.0
143
1.0
 70
   688
 72
     0
 73
     0
 74
     5
  7

 75
    16
147
1.0
148
0.0
149
0.0
100
AcDbLayout
  1
Layout1
 70
     1
 71
     1
 10
0.0
 20
0.0
 11
420.0
 21
297.0
 12
0.0
 22
0.0
 32
0.0
 14
1.0000000000E+20
 24
1.0000000000E+20
 34
1.0000000000E+20
 15
-1.0000000000E+20
 25
-1.0000000000E+20
 35
-1.0000000000E+20
146
0.0
 13
0.0
 23
0.0
 33
0.0
 16
1.0
 26
0.0
 36
0.0
 17
0.0
 27
1.0
 37
0.0
 76
     0
330
1B
  0
LAYOUT
  5
26
102
{ACAD_REACTORS
330
1A
102
}
330
1A
100
AcDbPlotSettings
  1

  2
none_device
  4

  6

 40
0.0
 41
0.0
 42
0.0
 43
0.0
 44
0.0
 45
0.0
 46
0.0
 47
0.0
 48
0.0
 49
0.0
140
0.0
141
0.0
142
1.0
143
1.0
 70
   688
 72
     0
 73
     0
 74
     5
  7

 75
    16
147
1.0
148
0.0
149
0.0
100
AcDbLayout
  1
Layout2
 70
     1
 71
     2
 10
0.0
 20
0.0
 11
0.0
 21
0.0
 12
0.0
 22
0.0
 32
0.0
 14
0.0
 24
0.0
 34
0.0
 15
0.0
 25
0.0
 35
0.0
146
0.0
 13
0.0
 23
0.0
 33
0.0
 16
1.0
 26
0.0
 36
0.0
 17
0.0
 27
1.0
 37
0.0
 76
     0
330
23
  0
LAYOUT
  5
22
102
{ACAD_REACTORS
330
1A
102
}
330
1A
100
AcDbPlotSettings
  1

  2
none_device
  4

  6

 40
0.0
 41
0.0
 42
0.0
 43
0.0
 44
0.0
 45
0.0
 46
0.0
 47
0.0
 48
0.0
 49
0.0
140
0.0
141
0.0
142
1.0
143
1.0
 70
  1712
 72
     0
 73
     0
 74
     0
  7

 75
     0
147
1.0
148
0.0
149
0.0
100
AcDbLayout
  1
Model
 70
     1
 71
     0
 10
0.0
 20
0.0
 11
5588.0
 21
4318.0
 12
0.0
 22
0.0
 32
0.0
 14
0.0
 24
0.0
 34
0.0
 15
5588.0
 25
4318.0
 35
0.0
146
0.0
 13
0.0
 23
0.0
 33
0.0
 16
1.0
 26
0.0
 36
0.0
 17
0.0
 27
1.0
 37
0.0
 76
     0
330
1F
331
29
  0
MLINESTYLE
  5
18
102
{ACAD_REACTORS
330
17
102
}
330
17
100
AcDbMlineStyle
  2
Standard
 70
     0
  3

 62
   256
 51
90.0
 52
90.0
 71
     2
 49
0.5
 62
   256
  6
BYLAYER
 49
-0.5
 62
   256
  6
BYLAYER
  0
ACDBPLACEHOLDER
  5
F
102
{ACAD_REACTORS
330
E
102
}
330
E
  0
ENDSEC
  0
EOF
