  0
SECTION
  2
HEADER
  9
$ACADVER
  1
AC1021
  9
$ACADMAINTVER
 70
    50
  9
$DWGCODEPAGE
  3
ANSI_1251
  9
$LASTSAVEDBY
  1
Игорь
  9
$INSBASE
 10
0.0
 20
0.0
 30
0.0
  9
$EXTMIN
 10
-311.3512340616414
 20
-437.422678504511
 30
0.0
  9
$EXTMAX
 10
647.7987756300331
 20
249.7578400801454
 30
0.0
  9
$LIMMIN
 10
0.0
 20
0.0
  9
$LIMMAX
 10
279.4
 20
215.9
  9
$ORTHOMODE
 70
     0
  9
$REGENMODE
 70
     1
  9
$FILLMODE
 70
     1
  9
$QTEXTMODE
 70
     0
  9
$MIRRTEXT
 70
     1
  9
$LTSCALE
 40
1.0
  9
$ATTMODE
 70
     1
  9
$TEXTSIZE
 40
3.5
  9
$TRACEWID
 40
1.0
  9
$TEXTSTYLE
  7
Standard
  9
$CLAYER
  8
0
  9
$CELTYPE
  6
ByLayer
  9
$CECOLOR
 62
   256
  9
$CELTSCALE
 40
1.0
  9
$DISPSILH
 70
     0
  9
$DIMSCALE
 40
1.0
  9
$DIMASZ
 40
3.5
  9
$DIMEXO
 40
0.01
  9
$DIMDLI
 40
3.75
  9
$DIMRND
 40
0.0
  9
$DIMDLE
 40
0.0
  9
$DIMEXE
 40
1.0
  9
$DIMTP
 40
0.0
  9
$DIMTM
 40
0.0
  9
$DIMTXT
 40
3.5
  9
$DIMCEN
 40
2.5
  9
$DIMTSZ
 40
0.0
  9
$DIMTOL
 70
     0
  9
$DIMLIM
 70
     0
  9
$DIMTIH
 70
     1
  9
$DIMTOH
 70
     1
  9
$DIMSE1
 70
     0
  9
$DIMSE2
 70
     0
  9
$DIMTAD
 70
     1
  9
$DIMZIN
 70
     0
  9
$DIMBLK
  1

  9
$DIMASO
 70
     1
  9
$DIMSHO
 70
     1
  9
$DIMPOST
  1

  9
$DIMAPOST
  1

  9
$DIMALT
 70
     0
  9
$DIMALTD
 70
     3
  9
$DIMALTF
 40
0.0393700787401575
  9
$DIMLFAC
 40
1.0
  9
$DIMTOFL
 70
     1
  9
$DIMTVP
 40
0.0
  9
$DIMTIX
 70
     0
  9
$DIMSOXD
 70
     0
  9
$DIMSAH
 70
     0
  9
$DIMBLK1
  1

  9
$DIMBLK2
  1

  9
$DIMSTYLE
  2
ISO-25
  9
$DIMCLRD
 70
     0
  9
$DIMCLRE
 70
     0
  9
$DIMCLRT
 70
     0
  9
$DIMTFAC
 40
1.0
  9
$DIMGAP
 40
3.0
  9
$DIMJUST
 70
     0
  9
$DIMSD1
 70
     0
  9
$DIMSD2
 70
     0
  9
$DIMTOLJ
 70
     0
  9
$DIMTZIN
 70
     0
  9
$DIMALTZ
 70
     0
  9
$DIMALTTZ
 70
     0
  9
$DIMUPT
 70
     0
  9
$DIMDEC
 70
     2
  9
$DIMTDEC
 70
     3
  9
$DIMALTU
 70
     2
  9
$DIMALTTD
 70
     3
  9
$DIMTXSTY
  7
Standard
  9
$DIMAUNIT
 70
     0
  9
$DIMADEC
 70
     2
  9
$DIMALTRND
 40
0.0
  9
$DIMAZIN
 70
     0
  9
$DIMDSEP
 70
    44
  9
$DIMATFIT
 70
     3
  9
$DIMFRAC
 70
     0
  9
$DIMLDRBLK
  1

  9
$DIMLUNIT
 70
     2
  9
$DIMLWD
 70
    -2
  9
$DIMLWE
 70
    -2
  9
$DIMTMOVE
 70
     0
  9
$DIMFXL
 40
1.0
  9
$DIMFXLON
 70
     0
  9
$DIMJOGANG
 40
0.7853981633974483
  9
$DIMTFILL
 70
     0
  9
$DIMTFILLCLR
 70
     0
  9
$DIMARCSYM
 70
     0
  9
$DIMLTYPE
  6

  9
$DIMLTEX1
  6

  9
$DIMLTEX2
  6

  9
$LUNITS
 70
     2
  9
$LUPREC
 70
     2
  9
$SKETCHINC
 40
1.0
  9
$FILLETRAD
 40
10.0
  9
$AUNITS
 70
     0
  9
$AUPREC
 70
     2
  9
$MENU
  1
.
  9
$ELEVATION
 40
0.0
  9
$PELEVATION
 40
0.0
  9
$THICKNESS
 40
0.0
  9
$LIMCHECK
 70
     0
  9
$CHAMFERA
 40
10.0
  9
$CHAMFERB
 40
10.0
  9
$CHAMFERC
 40
20.0
  9
$CHAMFERD
 40
0.0
  9
$SKPOLY
 70
     0
  9
$TDCREATE
 40
2458077.650392430
  9
$TDUCREATE
 40
2458077.567059098
  9
$TDUPDATE
 40
2458077.650993044
  9
$TDUUPDATE
 40
2458077.567659711
  9
$TDINDWG
 40
0.0005188657
  9
$TDUSRTIMER
 40
0.0005188657
  9
$USRTIMER
 70
     1
  9
$ANGBASE
 50
0.0
  9
$ANGDIR
 70
     0
  9
$PDMODE
 70
     0
  9
$PDSIZE
 40
-1.0
  9
$PLINEWID
 40
0.0
  9
$SPLFRAME
 70
     0
  9
$SPLINETYPE
 70
     6
  9
$SPLINESEGS
 70
     8
  9
$HANDSEED
  5
5DE
  9
$SURFTAB1
 70
     6
  9
$SURFTAB2
 70
     6
  9
$SURFTYPE
 70
     6
  9
$SURFU
 70
     6
  9
$SURFV
 70
     6
  9
$UCSBASE
  2

  9
$UCSNAME
  2

  9
$UCSORG
 10
0.0
 20
0.0
 30
0.0
  9
$UCSXDIR
 10
1.0
 20
0.0
 30
0.0
  9
$UCSYDIR
 10
0.0
 20
1.0
 30
0.0
  9
$UCSORTHOREF
  2

  9
$UCSORTHOVIEW
 70
     0
  9
$UCSORGTOP
 10
0.0
 20
0.0
 30
0.0
  9
$UCSORGBOTTOM
 10
0.0
 20
0.0
 30
0.0
  9
$UCSORGLEFT
 10
0.0
 20
0.0
 30
0.0
  9
$UCSORGRIGHT
 10
0.0
 20
0.0
 30
0.0
  9
$UCSORGFRONT
 10
0.0
 20
0.0
 30
0.0
  9
$UCSORGBACK
 10
0.0
 20
0.0
 30
0.0
  9
$PUCSBASE
  2

  9
$PUCSNAME
  2

  9
$PUCSORG
 10
0.0
 20
0.0
 30
0.0
  9
$PUCSXDIR
 10
1.0
 20
0.0
 30
0.0
  9
$PUCSYDIR
 10
0.0
 20
1.0
 30
0.0
  9
$PUCSORTHOREF
  2

  9
$PUCSORTHOVIEW
 70
     0
  9
$PUCSORGTOP
 10
0.0
 20
0.0
 30
0.0
  9
$PUCSORGBOTTOM
 10
0.0
 20
0.0
 30
0.0
  9
$PUCSORGLEFT
 10
0.0
 20
0.0
 30
0.0
  9
$PUCSORGRIGHT
 10
0.0
 20
0.0
 30
0.0
  9
$PUCSORGFRONT
 10
0.0
 20
0.0
 30
0.0
  9
$PUCSORGBACK
 10
0.0
 20
0.0
 30
0.0
  9
$USERI1
 70
     0
  9
$USERI2
 70
     0
  9
$USERI3
 70
     0
  9
$USERI4
 70
     0
  9
$USERI5
 70
     0
  9
$USERR1
 40
0.0
  9
$USERR2
 40
0.0
  9
$USERR3
 40
0.0
  9
$USERR4
 40
0.0
  9
$USERR5
 40
0.0
  9
$WORLDVIEW
 70
     1
  9
$SHADEDGE
 70
     3
  9
$SHADEDIF
 70
    70
  9
$TILEMODE
 70
     1
  9
$MAXACTVP
 70
    64
  9
$PINSBASE
 10
0.0
 20
0.0
 30
0.0
  9
$PLIMCHECK
 70
     0
  9
$PEXTMIN
 10
1.000000000000000E+20
 20
1.000000000000000E+20
 30
1.000000000000000E+20
  9
$PEXTMAX
 10
-1.000000000000000E+20
 20
-1.000000000000000E+20
 30
-1.000000000000000E+20
  9
$PLIMMIN
 10
0.0
 20
0.0
  9
$PLIMMAX
 10
420.0
 20
297.0
  9
$UNITMODE
 70
     0
  9
$VISRETAIN
 70
     1
  9
$PLINEGEN
 70
     0
  9
$PSLTSCALE
 70
     1
  9
$TREEDEPTH
 70
  3020
  9
$CMLSTYLE
  2
Standard
  9
$CMLJUST
 70
     0
  9
$CMLSCALE
 40
20.0
  9
$PROXYGRAPHICS
 70
     1
  9
$MEASUREMENT
 70
     1
  9
$CELWEIGHT
370
    -1
  9
$ENDCAPS
280
     0
  9
$JOINSTYLE
280
     0
  9
$LWDISPLAY
290
     1
  9
$INSUNITS
 70
     4
  9
$HYPERLINKBASE
  1

  9
$STYLESHEET
  1

  9
$XEDIT
290
     1
  9
$CEPSNTYPE
380
     0
  9
$PSTYLEMODE
290
     1
  9
$FINGERPRINTGUID
  2
{53943AB4-0388-4992-A51F-393EE6FAF2C7}
  9
$VERSIONGUID
  2
{3F7D6B69-BCC4-4707-90FB-6C26593CC8A1}
  9
$EXTNAMES
290
     1
  9
$PSVPSCALE
 40
0.0
  9
$OLESTARTUP
290
     0
  9
$SORTENTS
280
   127
  9
$INDEXCTL
280
     0
  9
$HIDETEXT
280
     0
  9
$XCLIPFRAME
290
     0
  9
$HALOGAP
280
     0
  9
$OBSCOLOR
 70
   257
  9
$OBSLTYPE
280
     0
  9
$INTERSECTIONDISPLAY
280
     0
  9
$INTERSECTIONCOLOR
 70
   257
  9
$DIMASSOC
280
     1
  9
$PROJECTNAME
  1

  9
$CAMERADISPLAY
290
     0
  9
$LENSLENGTH
 40
50.0
  9
$CAMERAHEIGHT
 40
0.0
  9
$STEPSPERSEC
 40
2.0
  9
$STEPSIZE
 40
6.0
  9
$3DDWFPREC
 40
2.0
  9
$PSOLWIDTH
 40
0.25
  9
$PSOLHEIGHT
 40
4.0
  9
$LOFTANG1
 40
1.570796326794896
  9
$LOFTANG2
 40
1.570796326794896
  9
$LOFTMAG1
 40
0.0
  9
$LOFTMAG2
 40
0.0
  9
$LOFTPARAM
 70
     7
  9
$LOFTNORMALS
280
     1
  9
$LATITUDE
 40
37.795
  9
$LONGITUDE
 40
-122.394
  9
$NORTHDIRECTION
 40
0.0
  9
$TIMEZONE
 70
 -8000
  9
$LIGHTGLYPHDISPLAY
280
     1
  9
$TILEMODELIGHTSYNCH
280
     1
  9
$CMATERIAL
347
574
  9
$SOLIDHIST
280
     1
  9
$SHOWHIST
280
     1
  9
$DWFFRAME
280
     2
  9
$DGNFRAME
280
     0
  9
$REALWORLDSCALE
290
     1
  9
$INTERFERECOLOR
 62
     1
  9
$INTERFEREOBJVS
345
596
  9
$INTERFEREVPVS
346
593
  9
$CSHADOW
280
     0
  9
$SHADOWPLANELOCATION
 40
0.0
  0
ENDSEC
  0
SECTION
  2
CLASSES
  0
CLASS
  1
ACDBDICTIONARYWDFLT
  2
AcDbDictionaryWithDefault
  3
ObjectDBX Classes
 90
        0
 91
        1
280
     0
281
     0
  0
CLASS
  1
VISUALSTYLE
  2
AcDbVisualStyle
  3
ObjectDBX Classes
 90
     4095
 91
       16
280
     0
281
     0
  0
CLASS
  1
MATERIAL
  2
AcDbMaterial
  3
ObjectDBX Classes
 90
     1153
 91
        3
280
     0
281
     0
  0
CLASS
  1
TABLESTYLE
  2
AcDbTableStyle
  3
ObjectDBX Classes
 90
     4095
 91
        1
280
     0
281
     0
  0
CLASS
  1
SCALE
  2
AcDbScale
  3
ObjectDBX Classes
 90
     1153
 91
       17
280
     0
281
     0
  0
CLASS
  1
MLEADERSTYLE
  2
AcDbMLeaderStyle
  3
ACDB_MLEADERSTYLE_CLASS
 90
     4095
 91
        1
280
     0
281
     0
  0
CLASS
  1
DICTIONARYVAR
  2
AcDbDictionaryVar
  3
ObjectDBX Classes
 90
        0
 91
        7
280
     0
281
     0
  0
CLASS
  1
CELLSTYLEMAP
  2
AcDbCellStyleMap
  3
ObjectDBX Classes
 90
     1152
 91
        2
280
     0
281
     0
  0
ENDSEC
  0
SECTION
  2
TABLES
  0
TABLE
  2
VPORT
  5
8
330
0
100
AcDbSymbolTable
 70
     1
  0
VPORT
  5
29
330
8
100
AcDbSymbolTableRecord
100
AcDbViewportTableRecord
  2
*Active
 70
     0
 10
0.0
 20
0.0
 11
1.0
 21
1.0
 12
168.2237707841958
 22
-93.83241921218285
 13
0.0
 23
0.0
 14
10.0
 24
10.0
 15
10.0
 25
10.0
 16
0.0
 26
0.0
 36
1.0
 17
0.0
 27
0.0
 37
0.0
 40
695.6642286906397
 41
2.604123711340206
 42
50.0
 43
0.0
 44
0.0
 50
0.0
 51
0.0
 71
     0
 72
  2000
 73
     1
 74
     3
 75
     0
 76
     0
 77
     0
 78
     0
281
     0
 65
     1
110
0.0
120
0.0
130
0.0
111
1.0
121
0.0
131
0.0
112
0.0
122
1.0
132
0.0
 79
     0
146
0.0
348
592
 60
     3
 61
     5
292
     1
282
     1
141
0.0
142
0.0
 63
   250
421
  3355443
  0
ENDTAB
  0
TABLE
  2
LTYPE
  5
5
330
0
100
AcDbSymbolTable
 70
     6
  0
LTYPE
  5
14
330
5
100
AcDbSymbolTableRecord
100
AcDbLinetypeTableRecord
  2
ByBlock
 70
     0
  3

 72
    65
 73
     0
 40
0.0
  0
LTYPE
  5
15
330
5
100
AcDbSymbolTableRecord
100
AcDbLinetypeTableRecord
  2
ByLayer
 70
     0
  3

 72
    65
 73
     0
 40
0.0
  0
LTYPE
  5
16
330
5
100
AcDbSymbolTableRecord
100
AcDbLinetypeTableRecord
  2
Continuous
 70
     0
  3
Solid line
 72
    65
 73
     0
 40
0.0
  0
LTYPE
  5
3F
330
5
100
AcDbSymbolTableRecord
100
AcDbLinetypeTableRecord
  2
HIDDEN
 70
     0
  3
Hidden __ __ __ __ __ __ __ __ __ __ __ __ __ __
 72
    65
 73
     2
 40
1.905
 49
1.27
 74
     0
 49
-0.635
 74
     0
  0
LTYPE
  5
40
330
5
100
AcDbSymbolTableRecord
100
AcDbLinetypeTableRecord
  2
PHANTOM
 70
     0
  3
Phantom ______  __  __  ______  __  __  ______
 72
    65
 73
     6
 40
12.7
 49
6.349999999999999
 74
     0
 49
-1.27
 74
     0
 49
1.27
 74
     0
 49
-1.27
 74
     0
 49
1.27
 74
     0
 49
-1.27
 74
     0
  0
LTYPE
  5
41
330
5
100
AcDbSymbolTableRecord
100
AcDbLinetypeTableRecord
  2
CENTER
 70
     0
  3
Center ____ _ ____ _ ____ _ ____ _ ____ _ ____
 72
    65
 73
     4
 40
10.16
 49
6.349999999999999
 74
     0
 49
-1.27
 74
     0
 49
1.27
 74
     0
 49
-1.27
 74
     0
  0
LTYPE
  5
42
330
5
100
AcDbSymbolTableRecord
100
AcDbLinetypeTableRecord
  2
CENTERX2
 70
     0
  3
Center (2x) ________  __  ________  __  _____
 72
    65
 73
     4
 40
20.32
 49
12.7
 74
     0
 49
-2.54
 74
     0
 49
2.54
 74
     0
 49
-2.54
 74
     0
  0
LTYPE
  5
43
330
5
100
AcDbSymbolTableRecord
100
AcDbLinetypeTableRecord
  2
DOT2
 70
     0
  3
Dot (.5x) ........................................
 72
    65
 73
     2
 40
0.635
 49
0.0
 74
     0
 49
-0.635
 74
     0
  0
ENDTAB
  0
TABLE
  2
LAYER
  5
2
330
0
100
AcDbSymbolTable
 70
     2
  0
LAYER
  5
10
102
{ACAD_XDICTIONARY
360
5CE
102
}
330
2
100
AcDbSymbolTableRecord
100
AcDbLayerTableRecord
  2
0
 70
     0
 62
     7
  6
Continuous
370
    -3
390
F
347
584
  0
LAYER
  5
5B8
330
2
100
AcDbSymbolTableRecord
100
AcDbLayerTableRecord
  2
Defpoints
 70
     0
 62
     7
  6
Continuous
290
     0
370
    -3
390
F
347
584
  0
ENDTAB
  0
TABLE
  2
STYLE
  5
3
330
0
100
AcDbSymbolTable
 70
     1
  0
STYLE
  5
11
330
3
100
AcDbSymbolTableRecord
100
AcDbTextStyleTableRecord
  2
Standard
 70
     0
 40
0.0
 41
1.0
 50
0.0
 71
     0
 42
3.5
  3
txt
  4

  0
ENDTAB
  0
TABLE
  2
VIEW
  5
6
330
0
100
AcDbSymbolTable
 70
     0
  0
ENDTAB
  0
TABLE
  2
UCS
  5
7
330
0
100
AcDbSymbolTable
 70
     0
  0
ENDTAB
  0
TABLE
  2
APPID
  5
9
330
0
100
AcDbSymbolTable
 70
     2
  0
APPID
  5
12
330
9
100
AcDbSymbolTableRecord
100
AcDbRegAppTableRecord
  2
ACAD
 70
     0
  0
APPID
  5
5B4
330
9
100
AcDbSymbolTableRecord
100
AcDbRegAppTableRecord
  2
ACAD_MLEADERVER
 70
     0
  0
ENDTAB
  0
TABLE
  2
DIMSTYLE
  5
A
330
0
100
AcDbSymbolTable
 70
     1
100
AcDbDimStyleTable
 71
     1
340
27
  0
DIMSTYLE
105
27
330
A
100
AcDbSymbolTableRecord
100
AcDbDimStyleTableRecord
  2
ISO-25
 70
     0
 41
2.5
 42
0.625
 43
3.75
 44
1.25
 73
     0
 74
     0
 77
     1
 78
     8
140
2.5
141
2.5
143
0.03937007874016
147
0.625
171
     3
172
     1
271
     2
272
     2
274
     3
278
    44
283
     0
284
     8
340
11
  0
ENDTAB
  0
TABLE
  2
BLOCK_RECORD
  5
1
330
0
100
AcDbSymbolTable
 70
     2
  0
BLOCK_RECORD
  5
1F
330
1
100
AcDbSymbolTableRecord
100
AcDbBlockTableRecord
  2
*Model_Space
340
22
 70
     0
280
     1
281
     0
  0
BLOCK_RECORD
  5
1B
330
1
100
AcDbSymbolTableRecord
100
AcDbBlockTableRecord
  2
*Paper_Space
340
1E
 70
     0
280
     1
281
     0
  0
BLOCK_RECORD
  5
23
330
1
100
AcDbSymbolTableRecord
100
AcDbBlockTableRecord
  2
*Paper_Space0
340
26
 70
     0
280
     1
281
     0
  0
BLOCK_RECORD
  5
5B9
330
1
100
AcDbSymbolTableRecord
100
AcDbBlockTableRecord
  2
*D1
340
0
 70
     0
280
     1
281
     0
  0
ENDTAB
  0
ENDSEC
  0
SECTION
  2
BLOCKS
  0
BLOCK
  5
20
330
1F
100
AcDbEntity
  8
0
100
AcDbBlockBegin
  2
*Model_Space
 70
     0
 10
0.0
 20
0.0
 30
0.0
  3
*Model_Space
  1

  0
ENDBLK
  5
21
330
1F
100
AcDbEntity
  8
0
100
AcDbBlockEnd
  0
BLOCK
  5
1C
330
1B
100
AcDbEntity
 67
     1
  8
0
100
AcDbBlockBegin
  2
*Paper_Space
 70
     0
 10
0.0
 20
0.0
 30
0.0
  3
*Paper_Space
  1

  0
ENDBLK
  5
1D
330
1B
100
AcDbEntity
 67
     1
  8
0
100
AcDbBlockEnd
  0
BLOCK
  5
24
330
23
100
AcDbEntity
 67
     1
  8
0
100
AcDbBlockBegin
  2
*Paper_Space0
 70
     0
 10
0.0
 20
0.0
 30
0.0
  3
*Paper_Space0
  1

  0
ENDBLK
  5
25
330
23
100
AcDbEntity
 67
     1
  8
0
100
AcDbBlockEnd
  0
BLOCK
  5
5BA
330
5B9
100
AcDbEntity
  8
0
100
AcDbBlockBegin
  2
*D1
 70
     1
 10
0.0
 20
0.0
 30
0.0
  3
*D1
  1

  0
LINE
  5
5C5
330
5B9
100
AcDbEntity
  8
0
 62
     0
370
    -2
100
AcDbLine
 10
318.798775630033
 20
46.72761834040232
 30
0.0
 11
318.798775630033
 21
-4.776029223624107
 31
0.0
  0
LINE
  5
5C6
330
5B9
100
AcDbEntity
  8
0
 62
     0
370
    -2
100
AcDbLine
 10
647.7987756300329
 20
46.72761834040232
 30
0.0
 11
647.7987756300329
 21
-4.776029223624107
 31
0.0
  0
LINE
  5
5C7
330
5B9
100
AcDbEntity
  8
0
 62
     0
370
    -2
100
AcDbLine
 10
322.298775630033
 20
-3.776029223624107
 30
0.0
 11
644.298775630033
 21
-3.776029223624107
 31
0.0
  0
SOLID
  5
5C8
330
5B9
100
AcDbEntity
  8
0
 62
     0
100
AcDbTrace
 10
322.298775630033
 20
-3.192695890290773
 30
0.0
 11
322.298775630033
 21
-4.35936255695744
 31
0.0
 12
318.798775630033
 22
-3.776029223624107
 32
0.0
 13
318.798775630033
 23
-3.776029223624107
 33
0.0
  0
SOLID
  5
5C9
330
5B9
100
AcDbEntity
  8
0
 62
     0
100
AcDbTrace
 10
644.298775630033
 20
-3.192695890290773
 30
0.0
 11
644.298775630033
 21
-4.35936255695744
 31
0.0
 12
647.7987756300329
 22
-3.776029223624107
 32
0.0
 13
647.7987756300329
 23
-3.776029223624107
 33
0.0
  0
MTEXT
  5
5CA
330
5B9
100
AcDbEntity
  8
0
 62
     0
100
AcDbMText
 10
483.298775630033
 20
1.265637443042558
 30
0.0
 40
3.5
 41
0.0
 46
0.0
 71
     5
 72
     1
  1
329,00
 73
     1
 44
1.0
  0
POINT
  5
5CB
330
5B9
100
AcDbEntity
  8
Defpoints
 62
     0
100
AcDbPoint
 10
318.798775630033
 20
46.73761834040232
 30
0.0
  0
POINT
  5
5CC
330
5B9
100
AcDbEntity
  8
Defpoints
 62
     0
100
AcDbPoint
 10
647.7987756300329
 20
46.73761834040232
 30
0.0
  0
POINT
  5
5CD
330
5B9
100
AcDbEntity
  8
Defpoints
 62
     0
100
AcDbPoint
 10
647.7987756300329
 20
-3.776029223624107
 30
0.0
  0
ENDBLK
  5
5BB
330
5B9
100
AcDbEntity
  8
0
100
AcDbBlockEnd
  0
ENDSEC
  0
SECTION
  2
ENTITIES
  0
LINE
  5
44
330
1F
100
AcDbEntity
  8
0
  6
Continuous
 62
     7
370
    15
100
AcDbLine
 10
384.2441076013939
 20
104.3390399503405
 30
0.0
 11
384.2441076013939
 21
143.1593945015495
 31
0.0
  0
LINE
  5
45
330
1F
100
AcDbEntity
  8
0
  6
Continuous
 62
     7
370
    15
100
AcDbLine
 10
370.2441076013939
 20
104.3390399503405
 30
0.0
 11
384.2441076013939
 21
104.3390399503405
 31
0.0
  0
LINE
  5
46
330
1F
100
AcDbEntity
  8
0
  6
Continuous
 62
     7
370
    15
100
AcDbLine
 10
469.7793244926522
 20
210.4125902768353
 30
0.0
 11
470.3153369511487
 21
210.4125902768353
 31
0.0
  0
LINE
  5
47
330
1F
100
AcDbEntity
  8
0
  6
Continuous
 62
     7
370
    15
100
AcDbLine
 10
599.4343921866378
 20
104.3390399503405
 30
0.0
 11
585.4343921866378
 21
104.3390399503405
 31
0.0
  0
LINE
  5
48
330
1F
100
AcDbEntity
  8
0
  6
Continuous
 62
     7
370
    15
100
AcDbLine
 10
477.8934522154591
 20
167.9079349318855
 30
0.0
 11
477.8934522154591
 21
104.2008998162936
 31
0.0
  0
LINE
  5
49
330
1F
100
AcDbEntity
  8
0
  6
Continuous
 62
     7
370
    15
100
AcDbLine
 10
370.2441076013939
 20
176.9092713546022
 30
0.0
 11
370.2441076013939
 21
104.3390399503405
 31
0.0
  0
LINE
  5
4A
330
1F
100
AcDbEntity
  8
0
  6
Continuous
 62
     7
370
    15
100
AcDbLine
 10
599.4343921866378
 20
176.9092713546022
 30
0.0
 11
599.4343921866378
 21
104.3390399503405
 31
0.0
  0
LINE
  5
4B
330
1F
100
AcDbEntity
  8
0
  6
Continuous
 62
     7
370
    15
100
AcDbLine
 10
469.7793244926522
 20
210.4125902768353
 30
0.0
 11
370.2441076013939
 21
176.9092713546022
 31
0.0
  0
LINE
  5
4C
330
1F
100
AcDbEntity
  8
0
  6
Continuous
 62
     7
370
    15
100
AcDbLine
 10
384.2441076013939
 20
143.1593945015495
 30
0.0
 11
457.7696990567786
 21
167.9079349318855
 31
0.0
  0
LINE
  5
4D
330
1F
100
AcDbEntity
  8
0
  6
Continuous
 62
     7
370
    15
100
AcDbLine
 10
457.7696990567786
 20
167.9079349318855
 30
0.0
 11
477.8934522154591
 21
167.9079349318855
 31
0.0
  0
CIRCLE
  5
4E
330
1F
100
AcDbEntity
  8
0
  6
Continuous
 62
     7
370
    15
100
AcDbCircle
 10
484.8392498940159
 20
118.4846400845359
 30
0.0
 40
3.0
  0
LINE
  5
4F
330
1F
100
AcDbEntity
  8
0
  6
Continuous
 62
     7
370
    15
100
AcDbLine
 10
585.4343921866378
 20
143.1593945015495
 30
0.0
 11
511.9088007312532
 21
167.9079349318855
 31
0.0
  0
LINE
  5
50
330
1F
100
AcDbEntity
  8
0
  6
Continuous
 62
     7
370
    15
100
AcDbLine
 10
500.3153369511487
 20
210.2725112463985
 30
0.0
 11
599.4343921866378
 21
176.9092713546022
 31
0.0
  0
LINE
  5
51
330
1F
100
AcDbEntity
  8
0
  6
Continuous
 62
     7
370
    15
100
AcDbLine
 10
511.9088007312532
 20
167.9079349318855
 30
0.0
 11
491.7850475725727
 21
167.9079349318855
 31
0.0
  0
LINE
  5
52
330
1F
100
AcDbEntity
  8
0
  6
Continuous
 62
     7
370
    15
100
AcDbLine
 10
585.4343921866378
 20
104.3390399503405
 30
0.0
 11
585.4343921866378
 21
143.1593945015495
 31
0.0
  0
LINE
  5
53
330
1F
100
AcDbEntity
  8
0
  6
Continuous
 62
     7
370
    15
100
AcDbLine
 10
477.8934522154591
 20
104.2008998162936
 30
0.0
 11
491.7850475725727
 21
104.2008998162936
 31
0.0
  0
CIRCLE
  5
54
330
1F
100
AcDbEntity
  8
0
  6
Continuous
 62
     7
370
    15
100
AcDbCircle
 10
376.5717100700142
 20
118.4846400845359
 30
0.0
 40
3.0
  0
CIRCLE
  5
55
330
1F
100
AcDbEntity
  8
0
  6
Continuous
 62
     7
370
    15
100
AcDbCircle
 10
593.1067897180175
 20
118.4846400845359
 30
0.0
 40
3.0
  0
LINE
  5
56
330
1F
100
AcDbEntity
  8
0
  6
Continuous
 62
     7
370
    15
100
AcDbLine
 10
491.7850475725727
 20
167.9079349318855
 30
0.0
 11
491.7850475725727
 21
104.2008998162936
 31
0.0
  0
LINE
  5
57
330
1F
100
AcDbEntity
  8
0
  6
Continuous
 62
     7
370
    15
100
AcDbLine
 10
427.798775630033
 20
46.73761834040234
 30
0.0
 11
427.798775630033
 21
93.12108284050012
 31
0.0
  0
LINE
  5
58
330
1F
100
AcDbEntity
  8
0
  6
Continuous
 62
     7
370
    15
100
AcDbLine
 10
347.9355328696798
 20
38.7578400801454
 30
0.0
 11
318.798775630033
 21
46.73761834040232
 31
0.0
  0
LINE
  5
59
330
1F
100
AcDbEntity
  8
0
  6
Continuous
 62
     7
370
    15
100
AcDbLine
 10
347.9355328696798
 20
38.7578400801454
 30
0.0
 11
398.6620183903862
 21
38.7578400801454
 31
0.0
  0
LINE
  5
5A
330
1F
100
AcDbEntity
  8
0
  6
Continuous
 62
     7
370
    15
100
AcDbLine
 10
318.798775630033
 20
93.12108284050012
 30
0.0
 11
318.798775630033
 21
46.73761834040232
 31
0.0
  0
LINE
  5
5B
330
1F
100
AcDbEntity
  8
0
  6
Continuous
 62
     7
370
    15
100
AcDbLine
 10
398.6620183903862
 20
38.7578400801454
 30
0.0
 11
427.798775630033
 21
46.73761834040234
 31
0.0
  0
LINE
  5
5C
330
1F
100
AcDbEntity
  8
0
  6
Continuous
 62
     7
370
    15
100
AcDbLine
 10
387.1964428959763
 20
98.75784008014543
 30
0.0
 11
359.4011083640897
 21
98.75784008014543
 31
0.0
  0
ARC
  5
5D
330
1F
100
AcDbEntity
  8
0
  6
Continuous
 62
     7
370
    15
100
AcDbCircle
 10
386.7406379001031
 20
-53.57583997934853
 30
0.0
 40
152.3343619760904
100
AcDbArc
 50
74.36391098845523
 51
89.82856302954768
  0
ARC
  5
5E
330
1F
100
AcDbEntity
  8
0
  6
Continuous
 62
     7
370
    15
100
AcDbCircle
 10
359.8569133599629
 20
-53.57583997934853
 30
0.0
 40
152.3343619760904
100
AcDbArc
 50
90.17143697045394
 51
105.6360890115447
  0
ARC
  5
5F
330
1F
100
AcDbEntity
  8
0
  6
Continuous
 62
     7
370
    15
100
AcDbCircle
 10
390.5547841163516
 20
39.7578400801454
 30
0.0
 40
3.0
100
AcDbArc
 50
270.0
 51
340.5287793655094
  0
LINE
  5
60
330
1F
100
AcDbEntity
  8
0
  6
Continuous
 62
     7
370
    15
100
AcDbLine
 10
390.5547841163516
 20
36.7578400801454
 30
0.0
 11
381.2116383658439
 21
36.7578400801454
 31
0.0
  0
ARC
  5
61
330
1F
100
AcDbEntity
  8
0
  6
Continuous
 62
     7
370
    15
100
AcDbCircle
 10
381.2116383658439
 20
39.7578400801454
 30
0.0
 40
3.000000000000021
100
AcDbArc
 50
199.4712206344914
 51
270.0
  0
LINE
  5
62
330
1F
100
AcDbEntity
  8
0
  6
Continuous
 62
     7
370
    15
100
AcDbLine
 10
365.267619610338
 20
36.7578400801454
 30
0.0
 11
355.9244738598303
 21
36.7578400801454
 31
0.0
  0
ARC
  5
63
330
1F
100
AcDbEntity
  8
0
  6
Continuous
 62
     7
370
    15
100
AcDbCircle
 10
365.267619610338
 20
39.7578400801454
 30
0.0
 40
3.000000000000021
100
AcDbArc
 50
270.0
 51
340.5287793655106
  0
ARC
  5
64
330
1F
100
AcDbEntity
  8
0
  6
Continuous
 62
     7
370
    15
100
AcDbCircle
 10
355.9244738598303
 20
39.7578400801454
 30
0.0
 40
3.0
100
AcDbArc
 50
199.4712206344922
 51
270.0
  0
LINE
  5
65
330
1F
100
AcDbEntity
  8
0
  6
Continuous
 62
     7
370
    15
100
AcDbLine
 10
359.4011083640897
 20
158.7578400801453
 30
0.0
 11
359.4011083640897
 21
98.75784008014543
 31
0.0
  0
LINE
  5
66
330
1F
100
AcDbEntity
  8
0
  6
Continuous
 62
     7
370
    15
100
AcDbLine
 10
359.4011083640897
 20
158.7578400801453
 30
0.0
 11
370.2441076013939
 21
158.7578400801453
 31
0.0
  0
LINE
  5
67
330
1F
100
AcDbEntity
  8
0
  6
Continuous
 62
     7
370
    15
100
AcDbLine
 10
387.1964428959763
 20
144.153143588848
 30
0.0
 11
387.1964428959763
 21
98.75784008014543
 31
0.0
  0
LINE
  5
68
330
1F
100
AcDbEntity
  8
0
  6
Continuous
 62
     7
370
    15
100
AcDbLine
 10
647.7987756300331
 20
46.73761834040234
 30
0.0
 11
647.7987756300331
 21
93.12108284050012
 31
0.0
  0
LINE
  5
69
330
1F
100
AcDbEntity
  8
0
  6
Continuous
 62
     7
370
    15
100
AcDbLine
 10
618.6620183903861
 20
38.7578400801454
 30
0.0
 11
647.7987756300331
 21
46.73761834040234
 31
0.0
  0
LINE
  5
6A
330
1F
100
AcDbEntity
  8
0
  6
Continuous
 62
     7
370
    15
100
AcDbLine
 10
567.9355328696798
 20
38.7578400801454
 30
0.0
 11
618.6620183903861
 21
38.7578400801454
 31
0.0
  0
LINE
  5
6B
330
1F
100
AcDbEntity
  8
0
  6
Continuous
 62
     7
370
    15
100
AcDbLine
 10
567.9355328696798
 20
38.7578400801454
 30
0.0
 11
538.7987756300328
 21
46.73761834040232
 31
0.0
  0
LINE
  5
6C
330
1F
100
AcDbEntity
  8
0
  6
Continuous
 62
     7
370
    15
100
AcDbLine
 10
538.7987756300328
 20
93.12108284050012
 30
0.0
 11
538.7987756300328
 21
46.73761834040232
 31
0.0
  0
ARC
  5
6D
330
1F
100
AcDbEntity
  8
0
  6
Continuous
 62
     7
370
    15
100
AcDbCircle
 10
606.7406379001031
 20
-53.57583997934853
 30
0.0
 40
152.3343619760904
100
AcDbArc
 50
74.36391098845523
 51
89.82856302954768
  0
ARC
  5
6E
330
1F
100
AcDbEntity
  8
0
  6
Continuous
 62
     7
370
    15
100
AcDbCircle
 10
579.8569133599628
 20
-53.57583997934853
 30
0.0
 40
152.3343619760904
100
AcDbArc
 50
90.17143697045232
 51
105.6360890115447
  0
LINE
  5
6F
330
1F
100
AcDbEntity
  8
0
  6
Continuous
 62
     7
370
    15
100
AcDbLine
 10
607.1964428959762
 20
98.75784008014543
 30
0.0
 11
579.4011083640898
 21
98.75784008014543
 31
0.0
  0
ARC
  5
70
330
1F
100
AcDbEntity
  8
0
  6
Continuous
 62
     7
370
    15
100
AcDbCircle
 10
610.5547841163514
 20
39.7578400801454
 30
0.0
 40
3.000000000000021
100
AcDbArc
 50
270.0
 51
340.5287793655106
  0
LINE
  5
71
330
1F
100
AcDbEntity
  8
0
  6
Continuous
 62
     7
370
    15
100
AcDbLine
 10
610.5547841163514
 20
36.7578400801454
 30
0.0
 11
601.2116383658439
 21
36.7578400801454
 31
0.0
  0
ARC
  5
72
330
1F
100
AcDbEntity
  8
0
  6
Continuous
 62
     7
370
    15
100
AcDbCircle
 10
601.2116383658439
 20
39.7578400801454
 30
0.0
 40
3.000000000000021
100
AcDbArc
 50
199.4712206344914
 51
270.0
  0
LINE
  5
73
330
1F
100
AcDbEntity
  8
0
  6
Continuous
 62
     7
370
    15
100
AcDbLine
 10
585.267619610338
 20
36.7578400801454
 30
0.0
 11
575.9244738598303
 21
36.7578400801454
 31
0.0
  0
ARC
  5
74
330
1F
100
AcDbEntity
  8
0
  6
Continuous
 62
     7
370
    15
100
AcDbCircle
 10
575.9244738598303
 20
39.7578400801454
 30
0.0
 40
3.000000000000021
100
AcDbArc
 50
199.4712206344914
 51
270.0
  0
ARC
  5
75
330
1F
100
AcDbEntity
  8
0
  6
Continuous
 62
     7
370
    15
100
AcDbCircle
 10
585.267619610338
 20
39.7578400801454
 30
0.0
 40
3.000000000000021
100
AcDbArc
 50
270.0
 51
340.5287793655106
  0
LINE
  5
76
330
1F
100
AcDbEntity
  8
0
  6
Continuous
 62
     7
370
    15
100
AcDbLine
 10
579.4011083640898
 20
145.1901835867435
 30
0.0
 11
579.4011083640898
 21
98.75784008014543
 31
0.0
  0
LINE
  5
77
330
1F
100
AcDbEntity
  8
0
  6
Continuous
 62
     7
370
    15
100
AcDbLine
 10
599.4343921866378
 20
158.7578400801453
 30
0.0
 11
607.1964428959762
 21
158.7578400801453
 31
0.0
  0
LINE
  5
78
330
1F
100
AcDbEntity
  8
0
  6
Continuous
 62
     7
370
    15
100
AcDbLine
 10
607.1964428959762
 20
158.7578400801453
 30
0.0
 11
607.1964428959762
 21
98.75784008014543
 31
0.0
  0
LINE
  5
79
330
1F
100
AcDbEntity
  8
0
  6
Continuous
 62
     7
370
    15
100
AcDbLine
 10
508.782762104613
 20
38.7578400801454
 30
0.0
 11
537.91951934426
 21
46.73761834040234
 31
0.0
  0
LINE
  5
7A
330
1F
100
AcDbEntity
  8
0
  6
Continuous
 62
     7
370
    15
100
AcDbLine
 10
458.0562765839069
 20
38.7578400801454
 30
0.0
 11
508.782762104613
 21
38.7578400801454
 31
0.0
  0
LINE
  5
7B
330
1F
100
AcDbEntity
  8
0
  6
Continuous
 62
     7
370
    15
100
AcDbLine
 10
458.0562765839069
 20
38.7578400801454
 30
0.0
 11
428.91951934426
 21
46.73761834040232
 31
0.0
  0
LINE
  5
7C
330
1F
100
AcDbEntity
  8
0
  6
Continuous
 62
     7
370
    15
100
AcDbLine
 10
428.91951934426
 20
93.12108284050012
 30
0.0
 11
428.91951934426
 21
46.73761834040232
 31
0.0
  0
LINE
  5
7D
330
1F
100
AcDbEntity
  8
0
  6
Continuous
 62
     7
370
    15
100
AcDbLine
 10
537.91951934426
 20
46.73761834040234
 30
0.0
 11
537.91951934426
 21
93.12108284050012
 31
0.0
  0
ARC
  5
7E
330
1F
100
AcDbEntity
  8
0
  6
Continuous
 62
     7
370
    15
100
AcDbCircle
 10
469.9776570741899
 20
-53.57583997934853
 30
0.0
 40
152.3343619760904
100
AcDbArc
 50
90.17143697045394
 51
105.6360890115447
  0
ARC
  5
7F
330
1F
100
AcDbEntity
  8
0
  6
Continuous
 62
     7
370
    15
100
AcDbCircle
 10
496.86138161433
 20
-53.57583997934853
 30
0.0
 40
152.3343619760904
100
AcDbArc
 50
74.36391098845523
 51
89.82856302954607
  0
LINE
  5
80
330
1F
100
AcDbEntity
  8
0
  6
Continuous
 62
     7
370
    15
100
AcDbLine
 10
497.3171866102033
 20
98.75784008014543
 30
0.0
 11
469.5218520783168
 21
98.75784008014543
 31
0.0
  0
LINE
  5
81
330
1F
100
AcDbEntity
  8
0
  6
Continuous
 62
     7
370
    15
100
AcDbLine
 10
475.388363324565
 20
36.7578400801454
 30
0.0
 11
466.0452175740573
 21
36.7578400801454
 31
0.0
  0
ARC
  5
82
330
1F
100
AcDbEntity
  8
0
  6
Continuous
 62
     7
370
    15
100
AcDbCircle
 10
475.388363324565
 20
39.7578400801454
 30
0.0
 40
3.0
100
AcDbArc
 50
270.0
 51
340.5287793655094
  0
ARC
  5
83
330
1F
100
AcDbEntity
  8
0
  6
Continuous
 62
     7
370
    15
100
AcDbCircle
 10
466.0452175740573
 20
39.7578400801454
 30
0.0
 40
3.000000000000021
100
AcDbArc
 50
199.4712206344914
 51
270.0
  0
LINE
  5
84
330
1F
100
AcDbEntity
  8
0
  6
Continuous
 62
     7
370
    15
100
AcDbLine
 10
500.6755278305785
 20
36.7578400801454
 30
0.0
 11
491.3323820800708
 21
36.7578400801454
 31
0.0
  0
ARC
  5
85
330
1F
100
AcDbEntity
  8
0
  6
Continuous
 62
     7
370
    15
100
AcDbCircle
 10
491.3323820800708
 20
39.7578400801454
 30
0.0
 40
3.0
100
AcDbArc
 50
199.4712206344922
 51
270.0
  0
ARC
  5
86
330
1F
100
AcDbEntity
  8
0
  6
Continuous
 62
     7
370
    15
100
AcDbCircle
 10
500.6755278305785
 20
39.7578400801454
 30
0.0
 40
3.000000000000021
100
AcDbArc
 50
270.0
 51
340.5287793655106
  0
LINE
  5
87
330
1F
100
AcDbEntity
  8
0
  6
Continuous
 62
     7
370
    15
100
AcDbLine
 10
469.5218520783168
 20
158.7578400801453
 30
0.0
 11
469.5218520783168
 21
98.75784008014543
 31
0.0
  0
LINE
  5
88
330
1F
100
AcDbEntity
  8
0
  6
Continuous
 62
     7
370
    15
100
AcDbLine
 10
469.5218520783168
 20
158.7578400801453
 30
0.0
 11
477.8934522154591
 21
158.7578400801453
 31
0.0
  0
LINE
  5
89
330
1F
100
AcDbEntity
  8
0
  6
Continuous
 62
     7
370
    15
100
AcDbLine
 10
491.7850475725727
 20
158.7578400801453
 30
0.0
 11
497.3171866102033
 21
158.7578400801453
 31
0.0
  0
LINE
  5
8A
330
1F
100
AcDbEntity
  8
0
  6
Continuous
 62
     7
370
    15
100
AcDbLine
 10
497.3171866102033
 20
158.7578400801453
 30
0.0
 11
497.3171866102033
 21
98.75784008014543
 31
0.0
  0
LINE
  5
8B
330
1F
100
AcDbEntity
  8
0
  6
Continuous
 62
     7
370
    15
100
AcDbLine
 10
500.3153369511487
 20
249.7578400801454
 30
0.0
 11
470.3153369511487
 21
249.7578400801454
 31
0.0
  0
LINE
  5
8C
330
1F
100
AcDbEntity
  8
0
  6
Continuous
 62
     7
370
    15
100
AcDbLine
 10
500.3153369511487
 20
249.7578400801454
 30
0.0
 11
500.3153369511487
 21
191.3578400801454
 31
0.0
  0
LINE
  5
8D
330
1F
100
AcDbEntity
  8
0
  6
Continuous
 62
     7
370
    15
100
AcDbLine
 10
500.3153369511487
 20
191.3578400801454
 30
0.0
 11
470.3153369511487
 21
191.3578400801454
 31
0.0
  0
LINE
  5
8E
330
1F
100
AcDbEntity
  8
0
  6
Continuous
 62
     7
370
    15
100
AcDbLine
 10
470.3153369511487
 20
249.7578400801454
 30
0.0
 11
470.3153369511487
 21
191.3578400801454
 31
0.0
  0
CIRCLE
  5
8F
330
1F
100
AcDbEntity
  8
0
  6
Continuous
 62
     7
370
    15
100
AcDbCircle
 10
484.8392498940159
 20
204.4975352078639
 30
0.0
 40
3.0
  0
LINE
  5
90
330
1F
100
AcDbEntity
  8
0
  6
Continuous
 62
     7
370
    15
100
AcDbLine
 10
53.84162500427175
 20
104.3390399503405
 30
0.0
 11
55.84162500427175
 21
104.3390399503405
 31
0.0
  0
LINE
  5
91
330
1F
100
AcDbEntity
  8
0
  6
Continuous
 62
     7
370
    15
100
AcDbLine
 10
53.84162500427175
 20
176.9092713546022
 30
0.0
 11
55.84162500427175
 21
176.9092713546022
 31
0.0
  0
LINE
  5
92
330
1F
100
AcDbEntity
  8
0
  6
Continuous
 62
     7
370
    15
100
AcDbLine
 10
53.84162500427175
 20
176.9092713546022
 30
0.0
 11
53.84162500427175
 21
158.7578400801454
 31
0.0
  0
LINE
  5
93
330
1F
100
AcDbEntity
  8
0
  6
Continuous
 62
     7
370
    15
100
AcDbLine
 10
55.84162500427175
 20
176.9092713546022
 30
0.0
 11
55.84162500427175
 21
104.3390399503405
 31
0.0
  0
LINE
  5
94
330
1F
100
AcDbEntity
  8
0
  6
Continuous
 62
     7
370
    15
100
AcDbLine
 10
53.84162500427175
 20
210.4125902768353
 30
0.0
 11
55.84162500427175
 21
210.4125902768353
 31
0.0
  0
LINE
  5
95
330
1F
100
AcDbEntity
  8
0
  6
Continuous
 62
     7
370
    15
100
AcDbLine
 10
53.84162500427175
 20
210.4125902768353
 30
0.0
 11
53.84162500427175
 21
176.9092713546022
 31
0.0
  0
LINE
  5
96
330
1F
100
AcDbEntity
  8
0
  6
Continuous
 62
     7
370
    15
100
AcDbLine
 10
55.84162500427175
 20
210.4125902768353
 30
0.0
 11
55.84162500427175
 21
176.9092713546022
 31
0.0
  0
LINE
  5
97
330
1F
100
AcDbEntity
  8
0
  6
Continuous
 62
     7
370
    15
100
AcDbLine
 10
-78.15837499572825
 20
209.4125902768352
 30
0.0
 11
-78.15837499572825
 21
210.4125902768353
 31
0.0
  0
LINE
  5
98
330
1F
100
AcDbEntity
  8
0
  6
Continuous
 62
     7
370
    15
100
AcDbLine
 10
-78.15837499572825
 20
210.4125902768353
 30
0.0
 11
53.84162500427175
 21
210.4125902768353
 31
0.0
  0
LINE
  5
99
330
1F
100
AcDbEntity
  8
0
  6
Continuous
 62
     7
370
    15
100
AcDbLine
 10
-78.15837499572825
 20
209.4125902768352
 30
0.0
 11
53.84162500427175
 21
209.4125902768352
 31
0.0
  0
LINE
  5
9A
330
1F
100
AcDbEntity
  8
0
  6
Continuous
 62
     7
370
    15
100
AcDbLine
 10
53.84162500427175
 20
104.2008998162936
 30
0.0
 11
55.84162500427175
 21
104.2008998162936
 31
0.0
  0
LINE
  5
9B
330
1F
100
AcDbEntity
  8
0
  6
Continuous
 62
     7
370
    15
100
AcDbLine
 10
55.84162500427175
 20
104.3390399503405
 30
0.0
 11
55.84162500427175
 21
104.2008998162936
 31
0.0
  0
LINE
  5
9C
330
1F
100
AcDbEntity
  8
0
  6
Continuous
 62
     7
370
    15
100
AcDbLine
 10
-210.1583749957283
 20
210.4125902768353
 30
0.0
 11
-212.1583749957283
 21
210.4125902768353
 31
0.0
  0
LINE
  5
9D
330
1F
100
AcDbEntity
  8
0
  6
Continuous
 62
     7
370
    15
100
AcDbLine
 10
-210.1583749957283
 20
210.4125902768353
 30
0.0
 11
-210.1583749957283
 21
176.9092713546021
 31
0.0
  0
LINE
  5
9E
330
1F
100
AcDbEntity
  8
0
  6
Continuous
 62
     7
370
    15
100
AcDbLine
 10
-210.1583749957283
 20
176.9092713546021
 30
0.0
 11
-212.1583749957283
 21
176.9092713546021
 31
0.0
  0
LINE
  5
9F
330
1F
100
AcDbEntity
  8
0
  6
Continuous
 62
     7
370
    15
100
AcDbLine
 10
-212.1583749957283
 20
210.4125902768353
 30
0.0
 11
-212.1583749957283
 21
176.9092713546021
 31
0.0
  0
LINE
  5
A0
330
1F
100
AcDbEntity
  8
0
  6
Continuous
 62
     7
370
    15
100
AcDbLine
 10
-210.1583749957283
 20
104.3390399503403
 30
0.0
 11
-212.1583749957283
 21
104.3390399503403
 31
0.0
  0
LINE
  5
A1
330
1F
100
AcDbEntity
  8
0
  6
Continuous
 62
     7
370
    15
100
AcDbLine
 10
-212.1583749957283
 20
176.9092713546021
 30
0.0
 11
-212.1583749957283
 21
104.3390399503403
 31
0.0
  0
LINE
  5
A2
330
1F
100
AcDbEntity
  8
0
  6
Continuous
 62
     7
370
    15
100
AcDbLine
 10
-210.1583749957283
 20
176.9092713546021
 30
0.0
 11
-210.1583749957283
 21
158.7578400801453
 31
0.0
  0
LINE
  5
A3
330
1F
100
AcDbEntity
  8
0
  6
Continuous
 62
     7
370
    15
100
AcDbLine
 10
-210.1583749957283
 20
209.4125902768353
 30
0.0
 11
-78.15837499572825
 21
209.4125902768353
 31
0.0
  0
LINE
  5
A4
330
1F
100
AcDbEntity
  8
0
  6
Continuous
 62
     7
370
    15
100
AcDbLine
 10
-210.1583749957283
 20
210.4125902768353
 30
0.0
 11
-78.15837499572825
 21
210.4125902768353
 31
0.0
  0
LINE
  5
A5
330
1F
100
AcDbEntity
  8
0
  6
Continuous
 62
     7
370
    15
100
AcDbLine
 10
-210.1583749957283
 20
104.2008998162936
 30
0.0
 11
-212.1583749957283
 21
104.2008998162936
 31
0.0
  0
LINE
  5
A6
330
1F
100
AcDbEntity
  8
0
  6
Continuous
 62
     7
370
    15
100
AcDbLine
 10
-212.1583749957283
 20
104.3390399503405
 30
0.0
 11
-212.1583749957283
 21
104.2008998162936
 31
0.0
  0
LINE
  5
A7
330
1F
100
AcDbEntity
  8
0
  6
Continuous
 62
     7
370
    15
100
AcDbLine
 10
130.4901164289858
 20
94.32774437618864
 30
0.0
 11
140.4901164289858
 21
94.32774437618864
 31
0.0
  0
LINE
  5
A8
330
1F
100
AcDbEntity
  8
0
  6
Continuous
 62
     7
370
    15
100
AcDbLine
 10
140.4901164289858
 20
94.32774437618864
 30
0.0
 11
140.4901164289858
 21
97.86521973273293
 31
0.0
  0
LINE
  5
A9
330
1F
100
AcDbEntity
  8
0
  6
Continuous
 62
     7
370
    15
100
AcDbLine
 10
140.4901164289858
 20
97.86521973273293
 30
0.0
 11
130.4901164289858
 21
97.86521973273293
 31
0.0
  0
LINE
  5
AA
330
1F
100
AcDbEntity
  8
0
  6
Continuous
 62
     7
370
    15
100
AcDbLine
 10
130.4901164289858
 20
97.86521973273293
 30
0.0
 11
130.4901164289858
 21
94.32774437618864
 31
0.0
  0
LINE
  5
AB
330
1F
100
AcDbEntity
  8
0
  6
Continuous
 62
     7
370
    15
100
AcDbLine
 10
100.4901164289858
 20
94.32774437618869
 30
0.0
 11
110.4901164289858
 21
94.32774437618869
 31
0.0
  0
LINE
  5
AC
330
1F
100
AcDbEntity
  8
0
  6
Continuous
 62
     7
370
    15
100
AcDbLine
 10
110.4901164289858
 20
94.32774437618869
 30
0.0
 11
110.4901164289858
 21
97.86521973273298
 31
0.0
  0
LINE
  5
AD
330
1F
100
AcDbEntity
  8
0
  6
Continuous
 62
     7
370
    15
100
AcDbLine
 10
110.4901164289858
 20
97.86521973273298
 30
0.0
 11
100.4901164289858
 21
97.86521973273298
 31
0.0
  0
LINE
  5
AE
330
1F
100
AcDbEntity
  8
0
  6
Continuous
 62
     7
370
    15
100
AcDbLine
 10
100.4901164289858
 20
97.86521973273298
 30
0.0
 11
100.4901164289858
 21
94.32774437618869
 31
0.0
  0
LINE
  5
AF
330
1F
100
AcDbEntity
  8
0
  6
Continuous
 62
     7
370
    15
100
AcDbLine
 10
70.4901164289858
 20
94.32774437618874
 30
0.0
 11
80.4901164289858
 21
94.32774437618874
 31
0.0
  0
LINE
  5
B0
330
1F
100
AcDbEntity
  8
0
  6
Continuous
 62
     7
370
    15
100
AcDbLine
 10
80.4901164289858
 20
94.32774437618874
 30
0.0
 11
80.4901164289858
 21
97.86521973273298
 31
0.0
  0
LINE
  5
B1
330
1F
100
AcDbEntity
  8
0
  6
Continuous
 62
     7
370
    15
100
AcDbLine
 10
80.4901164289858
 20
97.86521973273298
 30
0.0
 11
70.4901164289858
 21
97.86521973273298
 31
0.0
  0
LINE
  5
B2
330
1F
100
AcDbEntity
  8
0
  6
Continuous
 62
     7
370
    15
100
AcDbLine
 10
70.4901164289858
 20
97.86521973273298
 30
0.0
 11
70.4901164289858
 21
94.32774437618874
 31
0.0
  0
LINE
  5
B3
330
1F
100
AcDbEntity
  8
0
  6
Continuous
 62
     7
370
    15
100
AcDbLine
 10
40.49011642898586
 20
94.32774437618883
 30
0.0
 11
50.49011642898591
 21
94.32774437618883
 31
0.0
  0
LINE
  5
B4
330
1F
100
AcDbEntity
  8
0
  6
Continuous
 62
     7
370
    15
100
AcDbLine
 10
50.49011642898591
 20
94.32774437618883
 30
0.0
 11
50.49011642898591
 21
97.86521973273304
 31
0.0
  0
LINE
  5
B5
330
1F
100
AcDbEntity
  8
0
  6
Continuous
 62
     7
370
    15
100
AcDbLine
 10
50.49011642898591
 20
97.86521973273304
 30
0.0
 11
40.49011642898586
 21
97.86521973273304
 31
0.0
  0
LINE
  5
B6
330
1F
100
AcDbEntity
  8
0
  6
Continuous
 62
     7
370
    15
100
AcDbLine
 10
40.49011642898586
 20
97.86521973273304
 30
0.0
 11
40.49011642898586
 21
94.32774437618883
 31
0.0
  0
LINE
  5
B7
330
1F
100
AcDbEntity
  8
0
  6
Continuous
 62
     7
370
    15
100
AcDbLine
 10
10.49011642898586
 20
94.32774437618888
 30
0.0
 11
20.49011642898586
 21
94.32774437618888
 31
0.0
  0
LINE
  5
B8
330
1F
100
AcDbEntity
  8
0
  6
Continuous
 62
     7
370
    15
100
AcDbLine
 10
20.49011642898586
 20
94.32774437618888
 30
0.0
 11
20.49011642898586
 21
97.86521973273309
 31
0.0
  0
LINE
  5
B9
330
1F
100
AcDbEntity
  8
0
  6
Continuous
 62
     7
370
    15
100
AcDbLine
 10
20.49011642898586
 20
97.86521973273309
 30
0.0
 11
10.49011642898586
 21
97.86521973273309
 31
0.0
  0
LINE
  5
BA
330
1F
100
AcDbEntity
  8
0
  6
Continuous
 62
     7
370
    15
100
AcDbLine
 10
10.49011642898586
 20
97.86521973273309
 30
0.0
 11
10.49011642898586
 21
94.32774437618888
 31
0.0
  0
LINE
  5
BB
330
1F
100
AcDbEntity
  8
0
  6
Continuous
 62
     7
370
    15
100
AcDbLine
 10
-19.5098835710142
 20
94.32774437618894
 30
0.0
 11
-9.509883571014142
 21
94.32774437618894
 31
0.0
  0
LINE
  5
BC
330
1F
100
AcDbEntity
  8
0
  6
Continuous
 62
     7
370
    15
100
AcDbLine
 10
-9.509883571014142
 20
94.32774437618894
 30
0.0
 11
-9.509883571014142
 21
97.86521973273309
 31
0.0
  0
LINE
  5
BD
330
1F
100
AcDbEntity
  8
0
  6
Continuous
 62
     7
370
    15
100
AcDbLine
 10
-9.509883571014142
 20
97.86521973273309
 30
0.0
 11
-19.5098835710142
 21
97.86521973273309
 31
0.0
  0
LINE
  5
BE
330
1F
100
AcDbEntity
  8
0
  6
Continuous
 62
     7
370
    15
100
AcDbLine
 10
-19.5098835710142
 20
97.86521973273309
 30
0.0
 11
-19.5098835710142
 21
94.32774437618894
 31
0.0
  0
LINE
  5
BF
330
1F
100
AcDbEntity
  8
0
  6
Continuous
 62
     7
370
    15
100
AcDbLine
 10
-49.5098835710142
 20
94.32774437618906
 30
0.0
 11
-39.5098835710142
 21
94.32774437618906
 31
0.0
  0
LINE
  5
C0
330
1F
100
AcDbEntity
  8
0
  6
Continuous
 62
     7
370
    15
100
AcDbLine
 10
-39.5098835710142
 20
94.32774437618906
 30
0.0
 11
-39.5098835710142
 21
97.86521973273309
 31
0.0
  0
LINE
  5
C1
330
1F
100
AcDbEntity
  8
0
  6
Continuous
 62
     7
370
    15
100
AcDbLine
 10
-39.5098835710142
 20
97.86521973273309
 30
0.0
 11
-49.5098835710142
 21
97.86521973273309
 31
0.0
  0
LINE
  5
C2
330
1F
100
AcDbEntity
  8
0
  6
Continuous
 62
     7
370
    15
100
AcDbLine
 10
-49.5098835710142
 20
97.86521973273309
 30
0.0
 11
-49.5098835710142
 21
94.32774437618906
 31
0.0
  0
LINE
  5
C3
330
1F
100
AcDbEntity
  8
0
  6
Continuous
 62
     7
370
    15
100
AcDbLine
 10
-79.5098835710142
 20
94.32774437618917
 30
0.0
 11
-69.5098835710142
 21
94.32774437618917
 31
0.0
  0
LINE
  5
C4
330
1F
100
AcDbEntity
  8
0
  6
Continuous
 62
     7
370
    15
100
AcDbLine
 10
-69.5098835710142
 20
94.32774437618917
 30
0.0
 11
-69.5098835710142
 21
97.86521973273321
 31
0.0
  0
LINE
  5
C5
330
1F
100
AcDbEntity
  8
0
  6
Continuous
 62
     7
370
    15
100
AcDbLine
 10
-69.5098835710142
 20
97.86521973273321
 30
0.0
 11
-79.5098835710142
 21
97.86521973273321
 31
0.0
  0
LINE
  5
C6
330
1F
100
AcDbEntity
  8
0
  6
Continuous
 62
     7
370
    15
100
AcDbLine
 10
-79.5098835710142
 20
97.86521973273321
 30
0.0
 11
-79.5098835710142
 21
94.32774437618917
 31
0.0
  0
LINE
  5
C7
330
1F
100
AcDbEntity
  8
0
  6
Continuous
 62
     7
370
    15
100
AcDbLine
 10
-109.5098835710141
 20
94.32774437618917
 30
0.0
 11
-99.50988357101415
 21
94.32774437618917
 31
0.0
  0
LINE
  5
C8
330
1F
100
AcDbEntity
  8
0
  6
Continuous
 62
     7
370
    15
100
AcDbLine
 10
-99.50988357101415
 20
94.32774437618917
 30
0.0
 11
-99.50988357101426
 21
97.86521973273321
 31
0.0
  0
LINE
  5
C9
330
1F
100
AcDbEntity
  8
0
  6
Continuous
 62
     7
370
    15
100
AcDbLine
 10
-99.50988357101426
 20
97.86521973273321
 30
0.0
 11
-109.5098835710141
 21
97.86521973273321
 31
0.0
  0
LINE
  5
CA
330
1F
100
AcDbEntity
  8
0
  6
Continuous
 62
     7
370
    15
100
AcDbLine
 10
-109.5098835710141
 20
97.86521973273321
 30
0.0
 11
-109.5098835710141
 21
94.32774437618917
 31
0.0
  0
LINE
  5
CB
330
1F
100
AcDbEntity
  8
0
  6
Continuous
 62
     7
370
    15
100
AcDbLine
 10
-139.5098835710142
 20
94.32774437618929
 30
0.0
 11
-129.5098835710142
 21
94.32774437618929
 31
0.0
  0
LINE
  5
CC
330
1F
100
AcDbEntity
  8
0
  6
Continuous
 62
     7
370
    15
100
AcDbLine
 10
-129.5098835710142
 20
94.32774437618929
 30
0.0
 11
-129.5098835710142
 21
97.86521973273321
 31
0.0
  0
LINE
  5
CD
330
1F
100
AcDbEntity
  8
0
  6
Continuous
 62
     7
370
    15
100
AcDbLine
 10
-129.5098835710142
 20
97.86521973273321
 30
0.0
 11
-139.5098835710142
 21
97.86521973273321
 31
0.0
  0
LINE
  5
CE
330
1F
100
AcDbEntity
  8
0
  6
Continuous
 62
     7
370
    15
100
AcDbLine
 10
-139.5098835710142
 20
97.86521973273321
 30
0.0
 11
-139.5098835710142
 21
94.32774437618929
 31
0.0
  0
LINE
  5
CF
330
1F
100
AcDbEntity
  8
0
  6
Continuous
 62
     7
370
    15
100
AcDbLine
 10
-169.5098835710141
 20
94.3277443761894
 30
0.0
 11
-159.5098835710141
 21
94.3277443761894
 31
0.0
  0
LINE
  5
D0
330
1F
100
AcDbEntity
  8
0
  6
Continuous
 62
     7
370
    15
100
AcDbLine
 10
-159.5098835710141
 20
94.3277443761894
 30
0.0
 11
-159.5098835710141
 21
97.86521973273327
 31
0.0
  0
LINE
  5
D1
330
1F
100
AcDbEntity
  8
0
  6
Continuous
 62
     7
370
    15
100
AcDbLine
 10
-159.5098835710141
 20
97.86521973273327
 30
0.0
 11
-169.5098835710141
 21
97.86521973273327
 31
0.0
  0
LINE
  5
D2
330
1F
100
AcDbEntity
  8
0
  6
Continuous
 62
     7
370
    15
100
AcDbLine
 10
-169.5098835710141
 20
97.86521973273327
 30
0.0
 11
-169.5098835710141
 21
94.3277443761894
 31
0.0
  0
LINE
  5
D3
330
1F
100
AcDbEntity
  8
0
  6
Continuous
 62
     7
370
    15
100
AcDbLine
 10
-199.5098835710141
 20
94.32774437618945
 30
0.0
 11
-189.5098835710141
 21
94.32774437618945
 31
0.0
  0
LINE
  5
D4
330
1F
100
AcDbEntity
  8
0
  6
Continuous
 62
     7
370
    15
100
AcDbLine
 10
-189.5098835710141
 20
94.32774437618945
 30
0.0
 11
-189.5098835710142
 21
97.86521973273332
 31
0.0
  0
LINE
  5
D5
330
1F
100
AcDbEntity
  8
0
  6
Continuous
 62
     7
370
    15
100
AcDbLine
 10
-189.5098835710142
 20
97.86521973273332
 30
0.0
 11
-199.5098835710141
 21
97.86521973273332
 31
0.0
  0
LINE
  5
D6
330
1F
100
AcDbEntity
  8
0
  6
Continuous
 62
     7
370
    15
100
AcDbLine
 10
-199.5098835710141
 20
97.86521973273332
 30
0.0
 11
-199.5098835710141
 21
94.32774437618945
 31
0.0
  0
LINE
  5
D7
330
1F
100
AcDbEntity
  8
0
  6
Continuous
 62
     7
370
    15
100
AcDbLine
 10
-229.5098835710142
 20
94.32774437618951
 30
0.0
 11
-219.5098835710142
 21
94.32774437618951
 31
0.0
  0
LINE
  5
D8
330
1F
100
AcDbEntity
  8
0
  6
Continuous
 62
     7
370
    15
100
AcDbLine
 10
-219.5098835710142
 20
94.32774437618951
 30
0.0
 11
-219.5098835710142
 21
97.86521973273332
 31
0.0
  0
LINE
  5
D9
330
1F
100
AcDbEntity
  8
0
  6
Continuous
 62
     7
370
    15
100
AcDbLine
 10
-219.5098835710142
 20
97.86521973273332
 30
0.0
 11
-229.5098835710142
 21
97.86521973273332
 31
0.0
  0
LINE
  5
DA
330
1F
100
AcDbEntity
  8
0
  6
Continuous
 62
     7
370
    15
100
AcDbLine
 10
-229.5098835710142
 20
97.86521973273332
 30
0.0
 11
-229.5098835710142
 21
94.32774437618951
 31
0.0
  0
LINE
  5
DB
330
1F
100
AcDbEntity
  8
0
  6
Continuous
 62
     7
370
    15
100
AcDbLine
 10
-259.5098835710142
 20
94.32774437618963
 30
0.0
 11
-249.5098835710142
 21
94.32774437618963
 31
0.0
  0
LINE
  5
DC
330
1F
100
AcDbEntity
  8
0
  6
Continuous
 62
     7
370
    15
100
AcDbLine
 10
-249.5098835710142
 20
94.32774437618963
 30
0.0
 11
-249.5098835710142
 21
97.86521973273337
 31
0.0
  0
LINE
  5
DD
330
1F
100
AcDbEntity
  8
0
  6
Continuous
 62
     7
370
    15
100
AcDbLine
 10
-249.5098835710142
 20
97.86521973273337
 30
0.0
 11
-259.5098835710142
 21
97.86521973273337
 31
0.0
  0
LINE
  5
DE
330
1F
100
AcDbEntity
  8
0
  6
Continuous
 62
     7
370
    15
100
AcDbLine
 10
-259.5098835710142
 20
97.86521973273337
 30
0.0
 11
-259.5098835710142
 21
94.32774437618963
 31
0.0
  0
LINE
  5
DF
330
1F
100
AcDbEntity
  8
0
  6
Continuous
 62
     7
370
    15
100
AcDbLine
 10
-289.5098835710141
 20
94.32774437618968
 30
0.0
 11
-279.5098835710141
 21
94.32774437618968
 31
0.0
  0
LINE
  5
E0
330
1F
100
AcDbEntity
  8
0
  6
Continuous
 62
     7
370
    15
100
AcDbLine
 10
-279.5098835710141
 20
94.32774437618968
 30
0.0
 11
-279.5098835710141
 21
97.86521973273345
 31
0.0
  0
LINE
  5
E1
330
1F
100
AcDbEntity
  8
0
  6
Continuous
 62
     7
370
    15
100
AcDbLine
 10
-279.5098835710141
 20
97.86521973273345
 30
0.0
 11
-289.5098835710141
 21
97.86521973273345
 31
0.0
  0
LINE
  5
E2
330
1F
100
AcDbEntity
  8
0
  6
Continuous
 62
     7
370
    15
100
AcDbLine
 10
-289.5098835710141
 20
97.86521973273345
 30
0.0
 11
-289.5098835710141
 21
94.32774437618968
 31
0.0
  0
LINE
  5
E3
330
1F
100
AcDbEntity
  8
0
  6
Continuous
 62
     7
370
    15
100
AcDbLine
 10
-311.3512340616414
 20
93.12108284050012
 30
0.0
 11
151.6487659383585
 21
93.12108284050012
 31
0.0
  0
LINE
  5
E4
330
1F
100
AcDbEntity
  8
0
  6
Continuous
 62
     7
370
    15
100
AcDbLine
 10
-311.3512340616414
 20
93.12108284050012
 30
0.0
 11
-311.3512340616414
 21
98.75784008014543
 31
0.0
  0
LINE
  5
E5
330
1F
100
AcDbEntity
  8
0
  6
Continuous
 62
     7
370
    15
100
AcDbLine
 10
-311.3512340616414
 20
98.75784008014543
 30
0.0
 11
-210.1583749957283
 21
98.75784008014543
 31
0.0
  0
LINE
  5
E6
330
1F
100
AcDbEntity
  8
0
  6
Continuous
 62
     7
370
    15
100
AcDbLine
 10
-210.1583749957283
 20
98.75784008014543
 30
0.0
 11
53.84162500427175
 21
98.75784008014543
 31
0.0
  0
LINE
  5
E7
330
1F
100
AcDbEntity
  8
0
  6
Continuous
 62
     7
370
    15
100
AcDbLine
 10
53.84162500427175
 20
98.75784008014543
 30
0.0
 11
151.6487659383585
 21
98.75784008014543
 31
0.0
  0
LINE
  5
E8
330
1F
100
AcDbEntity
  8
0
  6
Continuous
 62
     7
370
    15
100
AcDbLine
 10
151.6487659383585
 20
93.12108284050012
 30
0.0
 11
151.6487659383585
 21
98.75784008014543
 31
0.0
  0
LINE
  5
E9
330
1F
100
AcDbEntity
  8
0
  6
Continuous
 62
     7
370
    15
100
AcDbLine
 10
-304.5098835710142
 20
94.32774437618974
 30
0.0
 11
-294.5098835710141
 21
94.32774437618974
 31
0.0
  0
LINE
  5
EA
330
1F
100
AcDbEntity
  8
0
  6
Continuous
 62
     7
370
    15
100
AcDbLine
 10
-294.5098835710141
 20
94.32774437618974
 30
0.0
 11
-294.5098835710141
 21
97.86521973273345
 31
0.0
  0
LINE
  5
EB
330
1F
100
AcDbEntity
  8
0
  6
Continuous
 62
     7
370
    15
100
AcDbLine
 10
-294.5098835710141
 20
97.86521973273345
 30
0.0
 11
-304.5098835710142
 21
97.86521973273345
 31
0.0
  0
LINE
  5
EC
330
1F
100
AcDbEntity
  8
0
  6
Continuous
 62
     7
370
    15
100
AcDbLine
 10
-304.5098835710142
 20
97.86521973273345
 30
0.0
 11
-304.5098835710142
 21
94.32774437618974
 31
0.0
  0
LINE
  5
ED
330
1F
100
AcDbEntity
  8
0
  6
Continuous
 62
     7
370
    15
100
AcDbLine
 10
-274.5098835710142
 20
94.32774437618963
 30
0.0
 11
-264.5098835710141
 21
94.32774437618963
 31
0.0
  0
LINE
  5
EE
330
1F
100
AcDbEntity
  8
0
  6
Continuous
 62
     7
370
    15
100
AcDbLine
 10
-264.5098835710141
 20
94.32774437618963
 30
0.0
 11
-264.5098835710141
 21
97.86521973273345
 31
0.0
  0
LINE
  5
EF
330
1F
100
AcDbEntity
  8
0
  6
Continuous
 62
     7
370
    15
100
AcDbLine
 10
-264.5098835710141
 20
97.86521973273345
 30
0.0
 11
-274.5098835710142
 21
97.86521973273345
 31
0.0
  0
LINE
  5
F0
330
1F
100
AcDbEntity
  8
0
  6
Continuous
 62
     7
370
    15
100
AcDbLine
 10
-274.5098835710142
 20
97.86521973273345
 30
0.0
 11
-274.5098835710142
 21
94.32774437618963
 31
0.0
  0
LINE
  5
F1
330
1F
100
AcDbEntity
  8
0
  6
Continuous
 62
     7
370
    15
100
AcDbLine
 10
-244.5098835710142
 20
94.32774437618958
 30
0.0
 11
-234.5098835710142
 21
94.32774437618958
 31
0.0
  0
LINE
  5
F2
330
1F
100
AcDbEntity
  8
0
  6
Continuous
 62
     7
370
    15
100
AcDbLine
 10
-234.5098835710142
 20
94.32774437618958
 30
0.0
 11
-234.5098835710142
 21
97.86521973273337
 31
0.0
  0
LINE
  5
F3
330
1F
100
AcDbEntity
  8
0
  6
Continuous
 62
     7
370
    15
100
AcDbLine
 10
-234.5098835710142
 20
97.86521973273337
 30
0.0
 11
-244.5098835710142
 21
97.86521973273337
 31
0.0
  0
LINE
  5
F4
330
1F
100
AcDbEntity
  8
0
  6
Continuous
 62
     7
370
    15
100
AcDbLine
 10
-244.5098835710142
 20
97.86521973273337
 30
0.0
 11
-244.5098835710142
 21
94.32774437618958
 31
0.0
  0
LINE
  5
F5
330
1F
100
AcDbEntity
  8
0
  6
Continuous
 62
     7
370
    15
100
AcDbLine
 10
-214.5098835710141
 20
94.32774437618951
 30
0.0
 11
-204.5098835710141
 21
94.32774437618951
 31
0.0
  0
LINE
  5
F6
330
1F
100
AcDbEntity
  8
0
  6
Continuous
 62
     7
370
    15
100
AcDbLine
 10
-204.5098835710141
 20
94.32774437618951
 30
0.0
 11
-204.5098835710142
 21
97.86521973273332
 31
0.0
  0
LINE
  5
F7
330
1F
100
AcDbEntity
  8
0
  6
Continuous
 62
     7
370
    15
100
AcDbLine
 10
-204.5098835710142
 20
97.86521973273332
 30
0.0
 11
-214.5098835710141
 21
97.86521973273332
 31
0.0
  0
LINE
  5
F8
330
1F
100
AcDbEntity
  8
0
  6
Continuous
 62
     7
370
    15
100
AcDbLine
 10
-214.5098835710141
 20
97.86521973273332
 30
0.0
 11
-214.5098835710141
 21
94.32774437618951
 31
0.0
  0
LINE
  5
F9
330
1F
100
AcDbEntity
  8
0
  6
Continuous
 62
     7
370
    15
100
AcDbLine
 10
-184.5098835710141
 20
94.3277443761894
 30
0.0
 11
-174.5098835710142
 21
94.3277443761894
 31
0.0
  0
LINE
  5
FA
330
1F
100
AcDbEntity
  8
0
  6
Continuous
 62
     7
370
    15
100
AcDbLine
 10
-174.5098835710142
 20
94.3277443761894
 30
0.0
 11
-174.5098835710142
 21
97.86521973273332
 31
0.0
  0
LINE
  5
FB
330
1F
100
AcDbEntity
  8
0
  6
Continuous
 62
     7
370
    15
100
AcDbLine
 10
-174.5098835710142
 20
97.86521973273332
 30
0.0
 11
-184.5098835710141
 21
97.86521973273332
 31
0.0
  0
LINE
  5
FC
330
1F
100
AcDbEntity
  8
0
  6
Continuous
 62
     7
370
    15
100
AcDbLine
 10
-184.5098835710141
 20
97.86521973273332
 30
0.0
 11
-184.5098835710141
 21
94.3277443761894
 31
0.0
  0
LINE
  5
FD
330
1F
100
AcDbEntity
  8
0
  6
Continuous
 62
     7
370
    15
100
AcDbLine
 10
-154.5098835710141
 20
94.32774437618929
 30
0.0
 11
-144.5098835710141
 21
94.32774437618929
 31
0.0
  0
LINE
  5
FE
330
1F
100
AcDbEntity
  8
0
  6
Continuous
 62
     7
370
    15
100
AcDbLine
 10
-144.5098835710141
 20
94.32774437618929
 30
0.0
 11
-144.5098835710141
 21
97.86521973273327
 31
0.0
  0
LINE
  5
FF
330
1F
100
AcDbEntity
  8
0
  6
Continuous
 62
     7
370
    15
100
AcDbLine
 10
-144.5098835710141
 20
97.86521973273327
 30
0.0
 11
-154.5098835710141
 21
97.86521973273327
 31
0.0
  0
LINE
  5
100
330
1F
100
AcDbEntity
  8
0
  6
Continuous
 62
     7
370
    15
100
AcDbLine
 10
-154.5098835710141
 20
97.86521973273327
 30
0.0
 11
-154.5098835710141
 21
94.32774437618929
 31
0.0
  0
LINE
  5
101
330
1F
100
AcDbEntity
  8
0
  6
Continuous
 62
     7
370
    15
100
AcDbLine
 10
-124.5098835710142
 20
94.32774437618922
 30
0.0
 11
-114.5098835710141
 21
94.32774437618922
 31
0.0
  0
LINE
  5
102
330
1F
100
AcDbEntity
  8
0
  6
Continuous
 62
     7
370
    15
100
AcDbLine
 10
-114.5098835710141
 20
94.32774437618922
 30
0.0
 11
-114.5098835710142
 21
97.86521973273321
 31
0.0
  0
LINE
  5
103
330
1F
100
AcDbEntity
  8
0
  6
Continuous
 62
     7
370
    15
100
AcDbLine
 10
-114.5098835710142
 20
97.86521973273321
 30
0.0
 11
-124.5098835710142
 21
97.86521973273321
 31
0.0
  0
LINE
  5
104
330
1F
100
AcDbEntity
  8
0
  6
Continuous
 62
     7
370
    15
100
AcDbLine
 10
-124.5098835710142
 20
97.86521973273321
 30
0.0
 11
-124.5098835710142
 21
94.32774437618922
 31
0.0
  0
LINE
  5
105
330
1F
100
AcDbEntity
  8
0
  6
Continuous
 62
     7
370
    15
100
AcDbLine
 10
-94.50988357101413
 20
94.32774437618917
 30
0.0
 11
-84.50988357101413
 21
94.32774437618917
 31
0.0
  0
LINE
  5
106
330
1F
100
AcDbEntity
  8
0
  6
Continuous
 62
     7
370
    15
100
AcDbLine
 10
-84.50988357101413
 20
94.32774437618917
 30
0.0
 11
-84.50988357101413
 21
97.86521973273321
 31
0.0
  0
LINE
  5
107
330
1F
100
AcDbEntity
  8
0
  6
Continuous
 62
     7
370
    15
100
AcDbLine
 10
-84.50988357101413
 20
97.86521973273321
 30
0.0
 11
-94.50988357101413
 21
97.86521973273321
 31
0.0
  0
LINE
  5
108
330
1F
100
AcDbEntity
  8
0
  6
Continuous
 62
     7
370
    15
100
AcDbLine
 10
-94.50988357101413
 20
97.86521973273321
 30
0.0
 11
-94.50988357101413
 21
94.32774437618917
 31
0.0
  0
LINE
  5
109
330
1F
100
AcDbEntity
  8
0
  6
Continuous
 62
     7
370
    15
100
AcDbLine
 10
-64.5098835710142
 20
94.32774437618906
 30
0.0
 11
-54.5098835710142
 21
94.32774437618906
 31
0.0
  0
LINE
  5
10A
330
1F
100
AcDbEntity
  8
0
  6
Continuous
 62
     7
370
    15
100
AcDbLine
 10
-54.5098835710142
 20
94.32774437618906
 30
0.0
 11
-54.5098835710142
 21
97.86521973273316
 31
0.0
  0
LINE
  5
10B
330
1F
100
AcDbEntity
  8
0
  6
Continuous
 62
     7
370
    15
100
AcDbLine
 10
-54.5098835710142
 20
97.86521973273316
 30
0.0
 11
-64.5098835710142
 21
97.86521973273316
 31
0.0
  0
LINE
  5
10C
330
1F
100
AcDbEntity
  8
0
  6
Continuous
 62
     7
370
    15
100
AcDbLine
 10
-64.5098835710142
 20
97.86521973273316
 30
0.0
 11
-64.5098835710142
 21
94.32774437618906
 31
0.0
  0
LINE
  5
10D
330
1F
100
AcDbEntity
  8
0
  6
Continuous
 62
     7
370
    15
100
AcDbLine
 10
-34.5098835710142
 20
94.32774437618901
 30
0.0
 11
-24.5098835710142
 21
94.32774437618901
 31
0.0
  0
LINE
  5
10E
330
1F
100
AcDbEntity
  8
0
  6
Continuous
 62
     7
370
    15
100
AcDbLine
 10
-24.5098835710142
 20
94.32774437618901
 30
0.0
 11
-24.5098835710142
 21
97.86521973273309
 31
0.0
  0
LINE
  5
10F
330
1F
100
AcDbEntity
  8
0
  6
Continuous
 62
     7
370
    15
100
AcDbLine
 10
-24.5098835710142
 20
97.86521973273309
 30
0.0
 11
-34.5098835710142
 21
97.86521973273309
 31
0.0
  0
LINE
  5
110
330
1F
100
AcDbEntity
  8
0
  6
Continuous
 62
     7
370
    15
100
AcDbLine
 10
-34.5098835710142
 20
97.86521973273309
 30
0.0
 11
-34.5098835710142
 21
94.32774437618901
 31
0.0
  0
LINE
  5
111
330
1F
100
AcDbEntity
  8
0
  6
Continuous
 62
     7
370
    15
100
AcDbLine
 10
-4.509883571014142
 20
94.32774437618894
 30
0.0
 11
5.490116428985857
 21
94.32774437618894
 31
0.0
  0
LINE
  5
112
330
1F
100
AcDbEntity
  8
0
  6
Continuous
 62
     7
370
    15
100
AcDbLine
 10
5.490116428985857
 20
94.32774437618894
 30
0.0
 11
5.490116428985857
 21
97.86521973273309
 31
0.0
  0
LINE
  5
113
330
1F
100
AcDbEntity
  8
0
  6
Continuous
 62
     7
370
    15
100
AcDbLine
 10
5.490116428985857
 20
97.86521973273309
 30
0.0
 11
-4.509883571014142
 21
97.86521973273309
 31
0.0
  0
LINE
  5
114
330
1F
100
AcDbEntity
  8
0
  6
Continuous
 62
     7
370
    15
100
AcDbLine
 10
-4.509883571014142
 20
97.86521973273309
 30
0.0
 11
-4.509883571014142
 21
94.32774437618894
 31
0.0
  0
LINE
  5
115
330
1F
100
AcDbEntity
  8
0
  6
Continuous
 62
     7
370
    15
100
AcDbLine
 10
25.49011642898586
 20
94.32774437618883
 30
0.0
 11
35.49011642898586
 21
94.32774437618883
 31
0.0
  0
LINE
  5
116
330
1F
100
AcDbEntity
  8
0
  6
Continuous
 62
     7
370
    15
100
AcDbLine
 10
35.49011642898586
 20
94.32774437618883
 30
0.0
 11
35.49011642898586
 21
97.86521973273309
 31
0.0
  0
LINE
  5
117
330
1F
100
AcDbEntity
  8
0
  6
Continuous
 62
     7
370
    15
100
AcDbLine
 10
35.49011642898586
 20
97.86521973273309
 30
0.0
 11
25.49011642898586
 21
97.86521973273309
 31
0.0
  0
LINE
  5
118
330
1F
100
AcDbEntity
  8
0
  6
Continuous
 62
     7
370
    15
100
AcDbLine
 10
25.49011642898586
 20
97.86521973273309
 30
0.0
 11
25.49011642898586
 21
94.32774437618883
 31
0.0
  0
LINE
  5
119
330
1F
100
AcDbEntity
  8
0
  6
Continuous
 62
     7
370
    15
100
AcDbLine
 10
55.49011642898591
 20
94.3277443761888
 30
0.0
 11
65.4901164289858
 21
94.3277443761888
 31
0.0
  0
LINE
  5
11A
330
1F
100
AcDbEntity
  8
0
  6
Continuous
 62
     7
370
    15
100
AcDbLine
 10
65.4901164289858
 20
94.3277443761888
 30
0.0
 11
65.49011642898591
 21
97.86521973273298
 31
0.0
  0
LINE
  5
11B
330
1F
100
AcDbEntity
  8
0
  6
Continuous
 62
     7
370
    15
100
AcDbLine
 10
65.49011642898591
 20
97.86521973273298
 30
0.0
 11
55.49011642898591
 21
97.86521973273298
 31
0.0
  0
LINE
  5
11C
330
1F
100
AcDbEntity
  8
0
  6
Continuous
 62
     7
370
    15
100
AcDbLine
 10
55.49011642898591
 20
97.86521973273298
 30
0.0
 11
55.49011642898591
 21
94.3277443761888
 31
0.0
  0
LINE
  5
11D
330
1F
100
AcDbEntity
  8
0
  6
Continuous
 62
     7
370
    15
100
AcDbLine
 10
85.4901164289858
 20
94.32774437618874
 30
0.0
 11
95.4901164289858
 21
94.32774437618874
 31
0.0
  0
LINE
  5
11E
330
1F
100
AcDbEntity
  8
0
  6
Continuous
 62
     7
370
    15
100
AcDbLine
 10
95.4901164289858
 20
94.32774437618874
 30
0.0
 11
95.4901164289858
 21
97.86521973273298
 31
0.0
  0
LINE
  5
11F
330
1F
100
AcDbEntity
  8
0
  6
Continuous
 62
     7
370
    15
100
AcDbLine
 10
95.4901164289858
 20
97.86521973273298
 30
0.0
 11
85.4901164289858
 21
97.86521973273298
 31
0.0
  0
LINE
  5
120
330
1F
100
AcDbEntity
  8
0
  6
Continuous
 62
     7
370
    15
100
AcDbLine
 10
85.4901164289858
 20
97.86521973273298
 30
0.0
 11
85.4901164289858
 21
94.32774437618874
 31
0.0
  0
LINE
  5
121
330
1F
100
AcDbEntity
  8
0
  6
Continuous
 62
     7
370
    15
100
AcDbLine
 10
115.4901164289858
 20
94.32774437618864
 30
0.0
 11
125.4901164289858
 21
94.32774437618864
 31
0.0
  0
LINE
  5
122
330
1F
100
AcDbEntity
  8
0
  6
Continuous
 62
     7
370
    15
100
AcDbLine
 10
125.4901164289858
 20
94.32774437618864
 30
0.0
 11
125.4901164289858
 21
97.86521973273298
 31
0.0
  0
LINE
  5
123
330
1F
100
AcDbEntity
  8
0
  6
Continuous
 62
     7
370
    15
100
AcDbLine
 10
125.4901164289858
 20
97.86521973273298
 30
0.0
 11
115.4901164289858
 21
97.86521973273298
 31
0.0
  0
LINE
  5
124
330
1F
100
AcDbEntity
  8
0
  6
Continuous
 62
     7
370
    15
100
AcDbLine
 10
115.4901164289858
 20
97.86521973273298
 30
0.0
 11
115.4901164289858
 21
94.32774437618864
 31
0.0
  0
LINE
  5
125
330
1F
100
AcDbEntity
  8
0
  6
Continuous
 62
     7
370
    15
100
AcDbLine
 10
-311.3512340616414
 20
93.12108284050012
 30
0.0
 11
-311.3512340616414
 21
46.73761834040232
 31
0.0
  0
LINE
  5
126
330
1F
100
AcDbEntity
  8
0
  6
Continuous
 62
     7
370
    15
100
AcDbLine
 10
151.6487659383585
 20
93.12108284050012
 30
0.0
 11
151.6487659383585
 21
46.73761834040232
 31
0.0
  0
LINE
  5
127
330
1F
100
AcDbEntity
  8
0
  6
Continuous
 62
     7
370
    15
100
AcDbLine
 10
-311.3512340616414
 20
46.73761834040232
 30
0.0
 11
151.6487659383585
 21
46.73761834040232
 31
0.0
  0
LINE
  5
128
330
1F
100
AcDbEntity
  8
0
  6
Continuous
 62
     7
370
    15
100
AcDbLine
 10
140.4901164289858
 20
45.48190124221259
 30
0.0
 11
130.4901164289858
 21
45.48190124221259
 31
0.0
  0
LINE
  5
129
330
1F
100
AcDbEntity
  8
0
  6
Continuous
 62
     7
370
    15
100
AcDbLine
 10
130.4901164289858
 20
45.48190124221259
 30
0.0
 11
130.4901164289858
 21
40.00443633791728
 31
0.0
  0
LINE
  5
12A
330
1F
100
AcDbEntity
  8
0
  6
Continuous
 62
     7
370
    15
100
AcDbLine
 10
130.4901164289858
 20
40.00443633791728
 30
0.0
 11
140.4901164289858
 21
40.00443633791728
 31
0.0
  0
LINE
  5
12B
330
1F
100
AcDbEntity
  8
0
  6
Continuous
 62
     7
370
    15
100
AcDbLine
 10
140.4901164289858
 20
40.00443633791728
 30
0.0
 11
140.4901164289858
 21
45.48190124221259
 31
0.0
  0
LINE
  5
12C
330
1F
100
AcDbEntity
  8
0
  6
Continuous
 62
     7
370
    15
100
AcDbLine
 10
110.4901164289858
 20
45.48190124221251
 30
0.0
 11
100.4901164289858
 21
45.48190124221251
 31
0.0
  0
LINE
  5
12D
330
1F
100
AcDbEntity
  8
0
  6
Continuous
 62
     7
370
    15
100
AcDbLine
 10
100.4901164289858
 20
45.48190124221251
 30
0.0
 11
100.4901164289858
 21
40.0044363379172
 31
0.0
  0
LINE
  5
12E
330
1F
100
AcDbEntity
  8
0
  6
Continuous
 62
     7
370
    15
100
AcDbLine
 10
100.4901164289858
 20
40.0044363379172
 30
0.0
 11
110.4901164289858
 21
40.0044363379172
 31
0.0
  0
LINE
  5
12F
330
1F
100
AcDbEntity
  8
0
  6
Continuous
 62
     7
370
    15
100
AcDbLine
 10
110.4901164289858
 20
40.0044363379172
 30
0.0
 11
110.4901164289858
 21
45.48190124221251
 31
0.0
  0
LINE
  5
130
330
1F
100
AcDbEntity
  8
0
  6
Continuous
 62
     7
370
    15
100
AcDbLine
 10
80.4901164289858
 20
45.4819012422124
 30
0.0
 11
70.4901164289858
 21
45.4819012422124
 31
0.0
  0
LINE
  5
131
330
1F
100
AcDbEntity
  8
0
  6
Continuous
 62
     7
370
    15
100
AcDbLine
 10
70.4901164289858
 20
45.4819012422124
 30
0.0
 11
70.4901164289858
 21
40.00443633791711
 31
0.0
  0
LINE
  5
132
330
1F
100
AcDbEntity
  8
0
  6
Continuous
 62
     7
370
    15
100
AcDbLine
 10
70.4901164289858
 20
40.00443633791711
 30
0.0
 11
80.4901164289858
 21
40.00443633791711
 31
0.0
  0
LINE
  5
133
330
1F
100
AcDbEntity
  8
0
  6
Continuous
 62
     7
370
    15
100
AcDbLine
 10
80.4901164289858
 20
40.00443633791711
 30
0.0
 11
80.4901164289858
 21
45.4819012422124
 31
0.0
  0
LINE
  5
134
330
1F
100
AcDbEntity
  8
0
  6
Continuous
 62
     7
370
    15
100
AcDbLine
 10
50.4901164289858
 20
45.48190124221235
 30
0.0
 11
40.49011642898574
 21
45.48190124221235
 31
0.0
  0
LINE
  5
135
330
1F
100
AcDbEntity
  8
0
  6
Continuous
 62
     7
370
    15
100
AcDbLine
 10
40.49011642898574
 20
45.48190124221235
 30
0.0
 11
40.49011642898574
 21
40.00443633791703
 31
0.0
  0
LINE
  5
136
330
1F
100
AcDbEntity
  8
0
  6
Continuous
 62
     7
370
    15
100
AcDbLine
 10
40.49011642898574
 20
40.00443633791703
 30
0.0
 11
50.4901164289858
 21
40.00443633791703
 31
0.0
  0
LINE
  5
137
330
1F
100
AcDbEntity
  8
0
  6
Continuous
 62
     7
370
    15
100
AcDbLine
 10
50.4901164289858
 20
40.00443633791703
 30
0.0
 11
50.4901164289858
 21
45.48190124221235
 31
0.0
  0
LINE
  5
138
330
1F
100
AcDbEntity
  8
0
  6
Continuous
 62
     7
370
    15
100
AcDbLine
 10
20.49011642898586
 20
45.48190124221224
 30
0.0
 11
10.49011642898586
 21
45.48190124221224
 31
0.0
  0
LINE
  5
139
330
1F
100
AcDbEntity
  8
0
  6
Continuous
 62
     7
370
    15
100
AcDbLine
 10
10.49011642898586
 20
45.48190124221224
 30
0.0
 11
10.49011642898586
 21
40.00443633791694
 31
0.0
  0
LINE
  5
13A
330
1F
100
AcDbEntity
  8
0
  6
Continuous
 62
     7
370
    15
100
AcDbLine
 10
10.49011642898586
 20
40.00443633791694
 30
0.0
 11
20.49011642898586
 21
40.00443633791694
 31
0.0
  0
LINE
  5
13B
330
1F
100
AcDbEntity
  8
0
  6
Continuous
 62
     7
370
    15
100
AcDbLine
 10
20.49011642898586
 20
40.00443633791694
 30
0.0
 11
20.49011642898586
 21
45.48190124221224
 31
0.0
  0
LINE
  5
13C
330
1F
100
AcDbEntity
  8
0
  6
Continuous
 62
     7
370
    15
100
AcDbLine
 10
-9.509883571014142
 20
45.48190124221219
 30
0.0
 11
-19.5098835710142
 21
45.48190124221219
 31
0.0
  0
LINE
  5
13D
330
1F
100
AcDbEntity
  8
0
  6
Continuous
 62
     7
370
    15
100
AcDbLine
 10
-19.5098835710142
 20
45.48190124221219
 30
0.0
 11
-19.5098835710142
 21
40.00443633791685
 31
0.0
  0
LINE
  5
13E
330
1F
100
AcDbEntity
  8
0
  6
Continuous
 62
     7
370
    15
100
AcDbLine
 10
-19.5098835710142
 20
40.00443633791685
 30
0.0
 11
-9.509883571014142
 21
40.00443633791685
 31
0.0
  0
LINE
  5
13F
330
1F
100
AcDbEntity
  8
0
  6
Continuous
 62
     7
370
    15
100
AcDbLine
 10
-9.509883571014142
 20
40.00443633791685
 30
0.0
 11
-9.509883571014142
 21
45.48190124221219
 31
0.0
  0
LINE
  5
140
330
1F
100
AcDbEntity
  8
0
  6
Continuous
 62
     7
370
    15
100
AcDbLine
 10
-39.5098835710142
 20
45.48190124221207
 30
0.0
 11
-49.5098835710142
 21
45.48190124221207
 31
0.0
  0
LINE
  5
141
330
1F
100
AcDbEntity
  8
0
  6
Continuous
 62
     7
370
    15
100
AcDbLine
 10
-49.5098835710142
 20
45.48190124221207
 30
0.0
 11
-49.5098835710142
 21
40.00443633791678
 31
0.0
  0
LINE
  5
142
330
1F
100
AcDbEntity
  8
0
  6
Continuous
 62
     7
370
    15
100
AcDbLine
 10
-49.5098835710142
 20
40.00443633791678
 30
0.0
 11
-39.5098835710142
 21
40.00443633791678
 31
0.0
  0
LINE
  5
143
330
1F
100
AcDbEntity
  8
0
  6
Continuous
 62
     7
370
    15
100
AcDbLine
 10
-39.5098835710142
 20
40.00443633791678
 30
0.0
 11
-39.5098835710142
 21
45.48190124221207
 31
0.0
  0
LINE
  5
144
330
1F
100
AcDbEntity
  8
0
  6
Continuous
 62
     7
370
    15
100
AcDbLine
 10
-69.5098835710142
 20
45.48190124221202
 30
0.0
 11
-79.5098835710142
 21
45.48190124221202
 31
0.0
  0
LINE
  5
145
330
1F
100
AcDbEntity
  8
0
  6
Continuous
 62
     7
370
    15
100
AcDbLine
 10
-79.5098835710142
 20
45.48190124221202
 30
0.0
 11
-79.5098835710142
 21
40.00443633791667
 31
0.0
  0
LINE
  5
146
330
1F
100
AcDbEntity
  8
0
  6
Continuous
 62
     7
370
    15
100
AcDbLine
 10
-79.5098835710142
 20
40.00443633791667
 30
0.0
 11
-69.5098835710142
 21
40.00443633791667
 31
0.0
  0
LINE
  5
147
330
1F
100
AcDbEntity
  8
0
  6
Continuous
 62
     7
370
    15
100
AcDbLine
 10
-69.5098835710142
 20
40.00443633791667
 30
0.0
 11
-69.5098835710142
 21
45.48190124221202
 31
0.0
  0
LINE
  5
148
330
1F
100
AcDbEntity
  8
0
  6
Continuous
 62
     7
370
    15
100
AcDbLine
 10
-99.50988357101415
 20
45.4819012422119
 30
0.0
 11
-109.5098835710141
 21
45.4819012422119
 31
0.0
  0
LINE
  5
149
330
1F
100
AcDbEntity
  8
0
  6
Continuous
 62
     7
370
    15
100
AcDbLine
 10
-109.5098835710141
 20
45.4819012422119
 30
0.0
 11
-109.5098835710141
 21
40.00443633791658
 31
0.0
  0
LINE
  5
14A
330
1F
100
AcDbEntity
  8
0
  6
Continuous
 62
     7
370
    15
100
AcDbLine
 10
-109.5098835710141
 20
40.00443633791658
 30
0.0
 11
-99.50988357101415
 21
40.00443633791661
 31
0.0
  0
LINE
  5
14B
330
1F
100
AcDbEntity
  8
0
  6
Continuous
 62
     7
370
    15
100
AcDbLine
 10
-99.50988357101415
 20
40.00443633791661
 30
0.0
 11
-99.50988357101415
 21
45.4819012422119
 31
0.0
  0
LINE
  5
14C
330
1F
100
AcDbEntity
  8
0
  6
Continuous
 62
     7
370
    15
100
AcDbLine
 10
-129.5098835710142
 20
45.48190124221181
 30
0.0
 11
-139.5098835710142
 21
45.48190124221181
 31
0.0
  0
LINE
  5
14D
330
1F
100
AcDbEntity
  8
0
  6
Continuous
 62
     7
370
    15
100
AcDbLine
 10
-139.5098835710142
 20
45.48190124221181
 30
0.0
 11
-139.5098835710142
 21
40.0044363379165
 31
0.0
  0
LINE
  5
14E
330
1F
100
AcDbEntity
  8
0
  6
Continuous
 62
     7
370
    15
100
AcDbLine
 10
-139.5098835710142
 20
40.0044363379165
 30
0.0
 11
-129.5098835710142
 21
40.0044363379165
 31
0.0
  0
LINE
  5
14F
330
1F
100
AcDbEntity
  8
0
  6
Continuous
 62
     7
370
    15
100
AcDbLine
 10
-129.5098835710142
 20
40.0044363379165
 30
0.0
 11
-129.5098835710142
 21
45.48190124221181
 31
0.0
  0
LINE
  5
150
330
1F
100
AcDbEntity
  8
0
  6
Continuous
 62
     7
370
    15
100
AcDbLine
 10
-159.5098835710141
 20
45.48190124221173
 30
0.0
 11
-169.5098835710141
 21
45.48190124221173
 31
0.0
  0
LINE
  5
151
330
1F
100
AcDbEntity
  8
0
  6
Continuous
 62
     7
370
    15
100
AcDbLine
 10
-169.5098835710141
 20
45.48190124221173
 30
0.0
 11
-169.5098835710141
 21
40.00443633791644
 31
0.0
  0
LINE
  5
152
330
1F
100
AcDbEntity
  8
0
  6
Continuous
 62
     7
370
    15
100
AcDbLine
 10
-169.5098835710141
 20
40.00443633791644
 30
0.0
 11
-159.5098835710141
 21
40.00443633791642
 31
0.0
  0
LINE
  5
153
330
1F
100
AcDbEntity
  8
0
  6
Continuous
 62
     7
370
    15
100
AcDbLine
 10
-159.5098835710141
 20
40.00443633791642
 30
0.0
 11
-159.5098835710141
 21
45.48190124221173
 31
0.0
  0
LINE
  5
154
330
1F
100
AcDbEntity
  8
0
  6
Continuous
 62
     7
370
    15
100
AcDbLine
 10
-189.5098835710141
 20
45.48190124221164
 30
0.0
 11
-199.5098835710141
 21
45.48190124221164
 31
0.0
  0
LINE
  5
155
330
1F
100
AcDbEntity
  8
0
  6
Continuous
 62
     7
370
    15
100
AcDbLine
 10
-199.5098835710141
 20
45.48190124221164
 30
0.0
 11
-199.5098835710141
 21
40.00443633791633
 31
0.0
  0
LINE
  5
156
330
1F
100
AcDbEntity
  8
0
  6
Continuous
 62
     7
370
    15
100
AcDbLine
 10
-199.5098835710141
 20
40.00443633791633
 30
0.0
 11
-189.5098835710141
 21
40.00443633791633
 31
0.0
  0
LINE
  5
157
330
1F
100
AcDbEntity
  8
0
  6
Continuous
 62
     7
370
    15
100
AcDbLine
 10
-189.5098835710141
 20
40.00443633791633
 30
0.0
 11
-189.5098835710141
 21
45.48190124221164
 31
0.0
  0
LINE
  5
158
330
1F
100
AcDbEntity
  8
0
  6
Continuous
 62
     7
370
    15
100
AcDbLine
 10
-219.5098835710142
 20
45.48190124221157
 30
0.0
 11
-229.5098835710142
 21
45.48190124221157
 31
0.0
  0
LINE
  5
159
330
1F
100
AcDbEntity
  8
0
  6
Continuous
 62
     7
370
    15
100
AcDbLine
 10
-229.5098835710142
 20
45.48190124221157
 30
0.0
 11
-229.5098835710142
 21
40.00443633791627
 31
0.0
  0
LINE
  5
15A
330
1F
100
AcDbEntity
  8
0
  6
Continuous
 62
     7
370
    15
100
AcDbLine
 10
-229.5098835710142
 20
40.00443633791627
 30
0.0
 11
-219.5098835710142
 21
40.00443633791625
 31
0.0
  0
LINE
  5
15B
330
1F
100
AcDbEntity
  8
0
  6
Continuous
 62
     7
370
    15
100
AcDbLine
 10
-219.5098835710142
 20
40.00443633791625
 30
0.0
 11
-219.5098835710142
 21
45.48190124221157
 31
0.0
  0
LINE
  5
15C
330
1F
100
AcDbEntity
  8
0
  6
Continuous
 62
     7
370
    15
100
AcDbLine
 10
-249.5098835710142
 20
45.48190124221149
 30
0.0
 11
-259.5098835710142
 21
45.48190124221149
 31
0.0
  0
LINE
  5
15D
330
1F
100
AcDbEntity
  8
0
  6
Continuous
 62
     7
370
    15
100
AcDbLine
 10
-259.5098835710142
 20
45.48190124221149
 30
0.0
 11
-259.5098835710142
 21
40.00443633791618
 31
0.0
  0
LINE
  5
15E
330
1F
100
AcDbEntity
  8
0
  6
Continuous
 62
     7
370
    15
100
AcDbLine
 10
-259.5098835710142
 20
40.00443633791618
 30
0.0
 11
-249.5098835710142
 21
40.00443633791618
 31
0.0
  0
LINE
  5
15F
330
1F
100
AcDbEntity
  8
0
  6
Continuous
 62
     7
370
    15
100
AcDbLine
 10
-249.5098835710142
 20
40.00443633791618
 30
0.0
 11
-249.5098835710142
 21
45.48190124221149
 31
0.0
  0
LINE
  5
160
330
1F
100
AcDbEntity
  8
0
  6
Continuous
 62
     7
370
    15
100
AcDbLine
 10
-279.5098835710141
 20
45.4819012422114
 30
0.0
 11
-289.5098835710141
 21
45.4819012422114
 31
0.0
  0
LINE
  5
161
330
1F
100
AcDbEntity
  8
0
  6
Continuous
 62
     7
370
    15
100
AcDbLine
 10
-289.5098835710141
 20
45.4819012422114
 30
0.0
 11
-289.5098835710141
 21
40.00443633791609
 31
0.0
  0
LINE
  5
162
330
1F
100
AcDbEntity
  8
0
  6
Continuous
 62
     7
370
    15
100
AcDbLine
 10
-289.5098835710141
 20
40.00443633791609
 30
0.0
 11
-279.5098835710141
 21
40.00443633791609
 31
0.0
  0
LINE
  5
163
330
1F
100
AcDbEntity
  8
0
  6
Continuous
 62
     7
370
    15
100
AcDbLine
 10
-279.5098835710141
 20
40.00443633791609
 30
0.0
 11
-279.5098835710141
 21
45.4819012422114
 31
0.0
  0
LINE
  5
164
330
1F
100
AcDbEntity
  8
0
  6
Continuous
 62
     7
370
    15
100
AcDbLine
 10
-311.3512340616414
 20
38.7578400801454
 30
0.0
 11
151.6487659383585
 21
38.7578400801454
 31
0.0
  0
LINE
  5
165
330
1F
100
AcDbEntity
  8
0
  6
Continuous
 62
     7
370
    15
100
AcDbLine
 10
151.6487659383585
 20
38.7578400801454
 30
0.0
 11
151.6487659383585
 21
46.73761834040232
 31
0.0
  0
LINE
  5
166
330
1F
100
AcDbEntity
  8
0
  6
Continuous
 62
     7
370
    15
100
AcDbLine
 10
-294.5098835710141
 20
45.48190124221135
 30
0.0
 11
-304.5098835710142
 21
45.48190124221135
 31
0.0
  0
LINE
  5
167
330
1F
100
AcDbEntity
  8
0
  6
Continuous
 62
     7
370
    15
100
AcDbLine
 10
-304.5098835710142
 20
45.48190124221135
 30
0.0
 11
-304.5098835710142
 21
40.00443633791606
 31
0.0
  0
LINE
  5
168
330
1F
100
AcDbEntity
  8
0
  6
Continuous
 62
     7
370
    15
100
AcDbLine
 10
-304.5098835710142
 20
40.00443633791606
 30
0.0
 11
-294.5098835710141
 21
40.00443633791606
 31
0.0
  0
LINE
  5
169
330
1F
100
AcDbEntity
  8
0
  6
Continuous
 62
     7
370
    15
100
AcDbLine
 10
-294.5098835710141
 20
40.00443633791606
 30
0.0
 11
-294.5098835710141
 21
45.48190124221135
 31
0.0
  0
LINE
  5
16A
330
1F
100
AcDbEntity
  8
0
  6
Continuous
 62
     7
370
    15
100
AcDbLine
 10
-264.5098835710141
 20
45.48190124221143
 30
0.0
 11
-274.5098835710142
 21
45.48190124221143
 31
0.0
  0
LINE
  5
16B
330
1F
100
AcDbEntity
  8
0
  6
Continuous
 62
     7
370
    15
100
AcDbLine
 10
-274.5098835710142
 20
45.48190124221143
 30
0.0
 11
-274.5098835710142
 21
40.00443633791611
 31
0.0
  0
LINE
  5
16C
330
1F
100
AcDbEntity
  8
0
  6
Continuous
 62
     7
370
    15
100
AcDbLine
 10
-274.5098835710142
 20
40.00443633791611
 30
0.0
 11
-264.5098835710141
 21
40.00443633791611
 31
0.0
  0
LINE
  5
16D
330
1F
100
AcDbEntity
  8
0
  6
Continuous
 62
     7
370
    15
100
AcDbLine
 10
-264.5098835710141
 20
40.00443633791611
 30
0.0
 11
-264.5098835710141
 21
45.48190124221143
 31
0.0
  0
LINE
  5
16E
330
1F
100
AcDbEntity
  8
0
  6
Continuous
 62
     7
370
    15
100
AcDbLine
 10
-234.5098835710142
 20
45.48190124221152
 30
0.0
 11
-244.5098835710142
 21
45.48190124221152
 31
0.0
  0
LINE
  5
16F
330
1F
100
AcDbEntity
  8
0
  6
Continuous
 62
     7
370
    15
100
AcDbLine
 10
-244.5098835710142
 20
45.48190124221152
 30
0.0
 11
-244.5098835710142
 21
40.00443633791618
 31
0.0
  0
LINE
  5
170
330
1F
100
AcDbEntity
  8
0
  6
Continuous
 62
     7
370
    15
100
AcDbLine
 10
-244.5098835710142
 20
40.00443633791618
 30
0.0
 11
-234.5098835710142
 21
40.00443633791621
 31
0.0
  0
LINE
  5
171
330
1F
100
AcDbEntity
  8
0
  6
Continuous
 62
     7
370
    15
100
AcDbLine
 10
-234.5098835710142
 20
40.00443633791621
 30
0.0
 11
-234.5098835710142
 21
45.48190124221152
 31
0.0
  0
LINE
  5
172
330
1F
100
AcDbEntity
  8
0
  6
Continuous
 62
     7
370
    15
100
AcDbLine
 10
-204.5098835710141
 20
45.48190124221163
 30
0.0
 11
-214.5098835710141
 21
45.48190124221163
 31
0.0
  0
LINE
  5
173
330
1F
100
AcDbEntity
  8
0
  6
Continuous
 62
     7
370
    15
100
AcDbLine
 10
-214.5098835710141
 20
45.48190124221163
 30
0.0
 11
-214.5098835710141
 21
40.00443633791627
 31
0.0
  0
LINE
  5
174
330
1F
100
AcDbEntity
  8
0
  6
Continuous
 62
     7
370
    15
100
AcDbLine
 10
-214.5098835710141
 20
40.00443633791627
 30
0.0
 11
-204.5098835710141
 21
40.00443633791627
 31
0.0
  0
LINE
  5
175
330
1F
100
AcDbEntity
  8
0
  6
Continuous
 62
     7
370
    15
100
AcDbLine
 10
-204.5098835710141
 20
40.00443633791627
 30
0.0
 11
-204.5098835710141
 21
45.48190124221163
 31
0.0
  0
LINE
  5
176
330
1F
100
AcDbEntity
  8
0
  6
Continuous
 62
     7
370
    15
100
AcDbLine
 10
-174.5098835710142
 20
45.48190124221167
 30
0.0
 11
-184.5098835710141
 21
45.48190124221167
 31
0.0
  0
LINE
  5
177
330
1F
100
AcDbEntity
  8
0
  6
Continuous
 62
     7
370
    15
100
AcDbLine
 10
-184.5098835710141
 20
45.48190124221167
 30
0.0
 11
-184.5098835710141
 21
40.00443633791639
 31
0.0
  0
LINE
  5
178
330
1F
100
AcDbEntity
  8
0
  6
Continuous
 62
     7
370
    15
100
AcDbLine
 10
-184.5098835710141
 20
40.00443633791639
 30
0.0
 11
-174.5098835710142
 21
40.00443633791639
 31
0.0
  0
LINE
  5
179
330
1F
100
AcDbEntity
  8
0
  6
Continuous
 62
     7
370
    15
100
AcDbLine
 10
-174.5098835710142
 20
40.00443633791639
 30
0.0
 11
-174.5098835710142
 21
45.48190124221167
 31
0.0
  0
LINE
  5
17A
330
1F
100
AcDbEntity
  8
0
  6
Continuous
 62
     7
370
    15
100
AcDbLine
 10
-144.5098835710141
 20
45.48190124221179
 30
0.0
 11
-154.5098835710141
 21
45.48190124221179
 31
0.0
  0
LINE
  5
17B
330
1F
100
AcDbEntity
  8
0
  6
Continuous
 62
     7
370
    15
100
AcDbLine
 10
-154.5098835710141
 20
45.48190124221179
 30
0.0
 11
-154.5098835710141
 21
40.00443633791647
 31
0.0
  0
LINE
  5
17C
330
1F
100
AcDbEntity
  8
0
  6
Continuous
 62
     7
370
    15
100
AcDbLine
 10
-154.5098835710141
 20
40.00443633791647
 30
0.0
 11
-144.5098835710141
 21
40.00443633791647
 31
0.0
  0
LINE
  5
17D
330
1F
100
AcDbEntity
  8
0
  6
Continuous
 62
     7
370
    15
100
AcDbLine
 10
-144.5098835710141
 20
40.00443633791647
 30
0.0
 11
-144.5098835710141
 21
45.48190124221179
 31
0.0
  0
LINE
  5
17E
330
1F
100
AcDbEntity
  8
0
  6
Continuous
 62
     7
370
    15
100
AcDbLine
 10
-114.5098835710141
 20
45.48190124221187
 30
0.0
 11
-124.5098835710142
 21
45.48190124221187
 31
0.0
  0
LINE
  5
17F
330
1F
100
AcDbEntity
  8
0
  6
Continuous
 62
     7
370
    15
100
AcDbLine
 10
-124.5098835710142
 20
45.48190124221187
 30
0.0
 11
-124.5098835710142
 21
40.00443633791656
 31
0.0
  0
LINE
  5
180
330
1F
100
AcDbEntity
  8
0
  6
Continuous
 62
     7
370
    15
100
AcDbLine
 10
-124.5098835710142
 20
40.00443633791656
 30
0.0
 11
-114.5098835710141
 21
40.00443633791656
 31
0.0
  0
LINE
  5
181
330
1F
100
AcDbEntity
  8
0
  6
Continuous
 62
     7
370
    15
100
AcDbLine
 10
-114.5098835710141
 20
40.00443633791656
 30
0.0
 11
-114.5098835710141
 21
45.48190124221187
 31
0.0
  0
LINE
  5
182
330
1F
100
AcDbEntity
  8
0
  6
Continuous
 62
     7
370
    15
100
AcDbLine
 10
-84.50988357101413
 20
45.48190124221195
 30
0.0
 11
-94.50988357101413
 21
45.48190124221195
 31
0.0
  0
LINE
  5
183
330
1F
100
AcDbEntity
  8
0
  6
Continuous
 62
     7
370
    15
100
AcDbLine
 10
-94.50988357101413
 20
45.48190124221195
 30
0.0
 11
-94.50988357101413
 21
40.00443633791664
 31
0.0
  0
LINE
  5
184
330
1F
100
AcDbEntity
  8
0
  6
Continuous
 62
     7
370
    15
100
AcDbLine
 10
-94.50988357101413
 20
40.00443633791664
 30
0.0
 11
-84.50988357101413
 21
40.00443633791664
 31
0.0
  0
LINE
  5
185
330
1F
100
AcDbEntity
  8
0
  6
Continuous
 62
     7
370
    15
100
AcDbLine
 10
-84.50988357101413
 20
40.00443633791664
 30
0.0
 11
-84.50988357101413
 21
45.48190124221195
 31
0.0
  0
LINE
  5
186
330
1F
100
AcDbEntity
  8
0
  6
Continuous
 62
     7
370
    15
100
AcDbLine
 10
-54.5098835710142
 20
45.48190124221204
 30
0.0
 11
-64.5098835710142
 21
45.48190124221204
 31
0.0
  0
LINE
  5
187
330
1F
100
AcDbEntity
  8
0
  6
Continuous
 62
     7
370
    15
100
AcDbLine
 10
-64.5098835710142
 20
45.48190124221204
 30
0.0
 11
-64.5098835710142
 21
40.00443633791673
 31
0.0
  0
LINE
  5
188
330
1F
100
AcDbEntity
  8
0
  6
Continuous
 62
     7
370
    15
100
AcDbLine
 10
-64.5098835710142
 20
40.00443633791673
 30
0.0
 11
-54.5098835710142
 21
40.00443633791673
 31
0.0
  0
LINE
  5
189
330
1F
100
AcDbEntity
  8
0
  6
Continuous
 62
     7
370
    15
100
AcDbLine
 10
-54.5098835710142
 20
40.00443633791673
 30
0.0
 11
-54.5098835710142
 21
45.48190124221204
 31
0.0
  0
LINE
  5
18A
330
1F
100
AcDbEntity
  8
0
  6
Continuous
 62
     7
370
    15
100
AcDbLine
 10
-24.5098835710142
 20
45.48190124221213
 30
0.0
 11
-34.5098835710142
 21
45.48190124221213
 31
0.0
  0
LINE
  5
18B
330
1F
100
AcDbEntity
  8
0
  6
Continuous
 62
     7
370
    15
100
AcDbLine
 10
-34.5098835710142
 20
45.48190124221213
 30
0.0
 11
-34.5098835710142
 21
40.0044363379168
 31
0.0
  0
LINE
  5
18C
330
1F
100
AcDbEntity
  8
0
  6
Continuous
 62
     7
370
    15
100
AcDbLine
 10
-34.5098835710142
 20
40.0044363379168
 30
0.0
 11
-24.5098835710142
 21
40.0044363379168
 31
0.0
  0
LINE
  5
18D
330
1F
100
AcDbEntity
  8
0
  6
Continuous
 62
     7
370
    15
100
AcDbLine
 10
-24.5098835710142
 20
40.0044363379168
 30
0.0
 11
-24.5098835710142
 21
45.48190124221213
 31
0.0
  0
LINE
  5
18E
330
1F
100
AcDbEntity
  8
0
  6
Continuous
 62
     7
370
    15
100
AcDbLine
 10
5.490116428985857
 20
45.48190124221221
 30
0.0
 11
-4.509883571014142
 21
45.48190124221221
 31
0.0
  0
LINE
  5
18F
330
1F
100
AcDbEntity
  8
0
  6
Continuous
 62
     7
370
    15
100
AcDbLine
 10
-4.509883571014142
 20
45.48190124221221
 30
0.0
 11
-4.509883571014142
 21
40.00443633791689
 31
0.0
  0
LINE
  5
190
330
1F
100
AcDbEntity
  8
0
  6
Continuous
 62
     7
370
    15
100
AcDbLine
 10
-4.509883571014142
 20
40.00443633791689
 30
0.0
 11
5.490116428985857
 21
40.00443633791689
 31
0.0
  0
LINE
  5
191
330
1F
100
AcDbEntity
  8
0
  6
Continuous
 62
     7
370
    15
100
AcDbLine
 10
5.490116428985857
 20
40.00443633791689
 30
0.0
 11
5.490116428985857
 21
45.48190124221221
 31
0.0
  0
LINE
  5
192
330
1F
100
AcDbEntity
  8
0
  6
Continuous
 62
     7
370
    15
100
AcDbLine
 10
35.49011642898586
 20
45.48190124221228
 30
0.0
 11
25.49011642898586
 21
45.48190124221228
 31
0.0
  0
LINE
  5
193
330
1F
100
AcDbEntity
  8
0
  6
Continuous
 62
     7
370
    15
100
AcDbLine
 10
25.49011642898586
 20
45.48190124221228
 30
0.0
 11
25.49011642898586
 21
40.00443633791697
 31
0.0
  0
LINE
  5
194
330
1F
100
AcDbEntity
  8
0
  6
Continuous
 62
     7
370
    15
100
AcDbLine
 10
25.49011642898586
 20
40.00443633791697
 30
0.0
 11
35.49011642898586
 21
40.00443633791699
 31
0.0
  0
LINE
  5
195
330
1F
100
AcDbEntity
  8
0
  6
Continuous
 62
     7
370
    15
100
AcDbLine
 10
35.49011642898586
 20
40.00443633791699
 30
0.0
 11
35.49011642898586
 21
45.48190124221228
 31
0.0
  0
LINE
  5
196
330
1F
100
AcDbEntity
  8
0
  6
Continuous
 62
     7
370
    15
100
AcDbLine
 10
65.4901164289858
 20
45.4819012422124
 30
0.0
 11
55.4901164289858
 21
45.4819012422124
 31
0.0
  0
LINE
  5
197
330
1F
100
AcDbEntity
  8
0
  6
Continuous
 62
     7
370
    15
100
AcDbLine
 10
55.4901164289858
 20
45.4819012422124
 30
0.0
 11
55.4901164289858
 21
40.00443633791705
 31
0.0
  0
LINE
  5
198
330
1F
100
AcDbEntity
  8
0
  6
Continuous
 62
     7
370
    15
100
AcDbLine
 10
55.4901164289858
 20
40.00443633791705
 30
0.0
 11
65.4901164289858
 21
40.00443633791705
 31
0.0
  0
LINE
  5
199
330
1F
100
AcDbEntity
  8
0
  6
Continuous
 62
     7
370
    15
100
AcDbLine
 10
65.4901164289858
 20
40.00443633791705
 30
0.0
 11
65.4901164289858
 21
45.4819012422124
 31
0.0
  0
LINE
  5
19A
330
1F
100
AcDbEntity
  8
0
  6
Continuous
 62
     7
370
    15
100
AcDbLine
 10
95.4901164289858
 20
45.48190124221245
 30
0.0
 11
85.4901164289858
 21
45.48190124221245
 31
0.0
  0
LINE
  5
19B
330
1F
100
AcDbEntity
  8
0
  6
Continuous
 62
     7
370
    15
100
AcDbLine
 10
85.4901164289858
 20
45.48190124221245
 30
0.0
 11
85.4901164289858
 21
40.00443633791717
 31
0.0
  0
LINE
  5
19C
330
1F
100
AcDbEntity
  8
0
  6
Continuous
 62
     7
370
    15
100
AcDbLine
 10
85.4901164289858
 20
40.00443633791717
 30
0.0
 11
95.4901164289858
 21
40.00443633791717
 31
0.0
  0
LINE
  5
19D
330
1F
100
AcDbEntity
  8
0
  6
Continuous
 62
     7
370
    15
100
AcDbLine
 10
95.4901164289858
 20
40.00443633791717
 30
0.0
 11
95.4901164289858
 21
45.48190124221245
 31
0.0
  0
LINE
  5
19E
330
1F
100
AcDbEntity
  8
0
  6
Continuous
 62
     7
370
    15
100
AcDbLine
 10
125.4901164289858
 20
45.48190124221257
 30
0.0
 11
115.4901164289858
 21
45.48190124221257
 31
0.0
  0
LINE
  5
19F
330
1F
100
AcDbEntity
  8
0
  6
Continuous
 62
     7
370
    15
100
AcDbLine
 10
115.4901164289858
 20
45.48190124221257
 30
0.0
 11
115.4901164289858
 21
40.00443633791725
 31
0.0
  0
LINE
  5
1A0
330
1F
100
AcDbEntity
  8
0
  6
Continuous
 62
     7
370
    15
100
AcDbLine
 10
115.4901164289858
 20
40.00443633791725
 30
0.0
 11
125.4901164289858
 21
40.00443633791725
 31
0.0
  0
LINE
  5
1A1
330
1F
100
AcDbEntity
  8
0
  6
Continuous
 62
     7
370
    15
100
AcDbLine
 10
125.4901164289858
 20
40.00443633791725
 30
0.0
 11
125.4901164289858
 21
45.48190124221257
 31
0.0
  0
LINE
  5
1A2
330
1F
100
AcDbEntity
  8
0
  6
Continuous
 62
     7
370
    15
100
AcDbLine
 10
-311.3512340616414
 20
38.7578400801454
 30
0.0
 11
-311.3512340616414
 21
46.73761834040232
 31
0.0
  0
LINE
  5
1A3
330
1F
100
AcDbEntity
  8
0
  6
Continuous
 62
     7
370
    15
100
AcDbLine
 10
-283.4816525604891
 20
36.7578400801454
 30
0.0
 11
-292.8247983109967
 21
36.7578400801454
 31
0.0
  0
ARC
  5
1A4
330
1F
100
AcDbEntity
  8
0
  6
Continuous
 62
     7
370
    15
100
AcDbCircle
 10
-283.4816525604891
 20
39.7578400801454
 30
0.0
 40
3.0
100
AcDbArc
 50
270.0
 51
340.5287793655103
  0
ARC
  5
1A5
330
1F
100
AcDbEntity
  8
0
  6
Continuous
 62
     7
370
    15
100
AcDbCircle
 10
-292.8247983109967
 20
39.7578400801454
 30
0.0
 40
3.0
100
AcDbArc
 50
199.4712206344918
 51
270.0
  0
LINE
  5
1A6
330
1F
100
AcDbEntity
  8
0
  6
Continuous
 62
     7
370
    15
100
AcDbLine
 10
-263.4816525604892
 20
36.7578400801454
 30
0.0
 11
-272.8247983109968
 21
36.7578400801454
 31
0.0
  0
ARC
  5
1A7
330
1F
100
AcDbEntity
  8
0
  6
Continuous
 62
     7
370
    15
100
AcDbCircle
 10
-263.4816525604892
 20
39.7578400801454
 30
0.0
 40
3.0
100
AcDbArc
 50
270.0
 51
340.5287793655103
  0
ARC
  5
1A8
330
1F
100
AcDbEntity
  8
0
  6
Continuous
 62
     7
370
    15
100
AcDbCircle
 10
-272.8247983109968
 20
39.7578400801454
 30
0.0
 40
3.0
100
AcDbArc
 50
199.4712206344918
 51
270.0
  0
LINE
  5
1A9
330
1F
100
AcDbEntity
  8
0
  6
Continuous
 62
     7
370
    15
100
AcDbLine
 10
-243.4816525604892
 20
36.7578400801454
 30
0.0
 11
-252.8247983109968
 21
36.7578400801454
 31
0.0
  0
ARC
  5
1AA
330
1F
100
AcDbEntity
  8
0
  6
Continuous
 62
     7
370
    15
100
AcDbCircle
 10
-252.8247983109968
 20
39.7578400801454
 30
0.0
 40
3.0
100
AcDbArc
 50
199.4712206344918
 51
270.0
  0
ARC
  5
1AB
330
1F
100
AcDbEntity
  8
0
  6
Continuous
 62
     7
370
    15
100
AcDbCircle
 10
-243.4816525604892
 20
39.7578400801454
 30
0.0
 40
3.0
100
AcDbArc
 50
270.0
 51
340.5287793655103
  0
LINE
  5
1AC
330
1F
100
AcDbEntity
  8
0
  6
Continuous
 62
     7
370
    15
100
AcDbLine
 10
-223.4816525604891
 20
36.7578400801454
 30
0.0
 11
-232.8247983109968
 21
36.7578400801454
 31
0.0
  0
ARC
  5
1AD
330
1F
100
AcDbEntity
  8
0
  6
Continuous
 62
     7
370
    15
100
AcDbCircle
 10
-232.8247983109968
 20
39.7578400801454
 30
0.0
 40
3.0
100
AcDbArc
 50
199.4712206344918
 51
270.0
  0
ARC
  5
1AE
330
1F
100
AcDbEntity
  8
0
  6
Continuous
 62
     7
370
    15
100
AcDbCircle
 10
-223.4816525604891
 20
39.7578400801454
 30
0.0
 40
3.0
100
AcDbArc
 50
270.0
 51
340.5287793655103
  0
LINE
  5
1AF
330
1F
100
AcDbEntity
  8
0
  6
Continuous
 62
     7
370
    15
100
AcDbLine
 10
-203.4816525604891
 20
36.7578400801454
 30
0.0
 11
-212.8247983109968
 21
36.7578400801454
 31
0.0
  0
ARC
  5
1B0
330
1F
100
AcDbEntity
  8
0
  6
Continuous
 62
     7
370
    15
100
AcDbCircle
 10
-212.8247983109968
 20
39.7578400801454
 30
0.0
 40
3.0
100
AcDbArc
 50
199.4712206344918
 51
270.0
  0
ARC
  5
1B1
330
1F
100
AcDbEntity
  8
0
  6
Continuous
 62
     7
370
    15
100
AcDbCircle
 10
-203.4816525604891
 20
39.7578400801454
 30
0.0
 40
3.0
100
AcDbArc
 50
270.0
 51
340.5287793655103
  0
LINE
  5
1B2
330
1F
100
AcDbEntity
  8
0
  6
Continuous
 62
     7
370
    15
100
AcDbLine
 10
-183.4816525604891
 20
36.7578400801454
 30
0.0
 11
-192.8247983109967
 21
36.7578400801454
 31
0.0
  0
ARC
  5
1B3
330
1F
100
AcDbEntity
  8
0
  6
Continuous
 62
     7
370
    15
100
AcDbCircle
 10
-183.4816525604891
 20
39.7578400801454
 30
0.0
 40
3.0
100
AcDbArc
 50
270.0
 51
340.5287793655103
  0
ARC
  5
1B4
330
1F
100
AcDbEntity
  8
0
  6
Continuous
 62
     7
370
    15
100
AcDbCircle
 10
-192.8247983109967
 20
39.7578400801454
 30
0.0
 40
3.0
100
AcDbArc
 50
199.4712206344918
 51
270.0
  0
LINE
  5
1B5
330
1F
100
AcDbEntity
  8
0
  6
Continuous
 62
     7
370
    15
100
AcDbLine
 10
-163.4816525604892
 20
36.7578400801454
 30
0.0
 11
-172.8247983109967
 21
36.7578400801454
 31
0.0
  0
ARC
  5
1B6
330
1F
100
AcDbEntity
  8
0
  6
Continuous
 62
     7
370
    15
100
AcDbCircle
 10
-172.8247983109967
 20
39.7578400801454
 30
0.0
 40
3.0
100
AcDbArc
 50
199.4712206344918
 51
270.0
  0
ARC
  5
1B7
330
1F
100
AcDbEntity
  8
0
  6
Continuous
 62
     7
370
    15
100
AcDbCircle
 10
-163.4816525604892
 20
39.7578400801454
 30
0.0
 40
3.0
100
AcDbArc
 50
270.0
 51
340.5287793655103
  0
LINE
  5
1B8
330
1F
100
AcDbEntity
  8
0
  6
Continuous
 62
     7
370
    15
100
AcDbLine
 10
-143.4816525604892
 20
36.7578400801454
 30
0.0
 11
-152.8247983109968
 21
36.7578400801454
 31
0.0
  0
ARC
  5
1B9
330
1F
100
AcDbEntity
  8
0
  6
Continuous
 62
     7
370
    15
100
AcDbCircle
 10
-152.8247983109968
 20
39.7578400801454
 30
0.0
 40
3.0
100
AcDbArc
 50
199.4712206344918
 51
270.0
  0
ARC
  5
1BA
330
1F
100
AcDbEntity
  8
0
  6
Continuous
 62
     7
370
    15
100
AcDbCircle
 10
-143.4816525604892
 20
39.7578400801454
 30
0.0
 40
3.0
100
AcDbArc
 50
270.0
 51
340.5287793655103
  0
LINE
  5
1BB
330
1F
100
AcDbEntity
  8
0
  6
Continuous
 62
     7
370
    15
100
AcDbLine
 10
-123.4816525604891
 20
36.7578400801454
 30
0.0
 11
-132.8247983109968
 21
36.7578400801454
 31
0.0
  0
ARC
  5
1BC
330
1F
100
AcDbEntity
  8
0
  6
Continuous
 62
     7
370
    15
100
AcDbCircle
 10
-123.4816525604891
 20
39.7578400801454
 30
0.0
 40
3.0
100
AcDbArc
 50
270.0
 51
340.5287793655103
  0
ARC
  5
1BD
330
1F
100
AcDbEntity
  8
0
  6
Continuous
 62
     7
370
    15
100
AcDbCircle
 10
-132.8247983109968
 20
39.7578400801454
 30
0.0
 40
3.0
100
AcDbArc
 50
199.4712206344918
 51
270.0
  0
LINE
  5
1BE
330
1F
100
AcDbEntity
  8
0
  6
Continuous
 62
     7
370
    15
100
AcDbLine
 10
-103.481652560489
 20
36.7578400801454
 30
0.0
 11
-112.8247983109968
 21
36.7578400801454
 31
0.0
  0
ARC
  5
1BF
330
1F
100
AcDbEntity
  8
0
  6
Continuous
 62
     7
370
    15
100
AcDbCircle
 10
-103.481652560489
 20
39.7578400801454
 30
0.0
 40
3.0
100
AcDbArc
 50
270.0
 51
340.5287793655103
  0
ARC
  5
1C0
330
1F
100
AcDbEntity
  8
0
  6
Continuous
 62
     7
370
    15
100
AcDbCircle
 10
-112.8247983109968
 20
39.7578400801454
 30
0.0
 40
3.0
100
AcDbArc
 50
199.4712206344918
 51
270.0
  0
LINE
  5
1C1
330
1F
100
AcDbEntity
  8
0
  6
Continuous
 62
     7
370
    15
100
AcDbLine
 10
-47.20783587059935
 20
36.7578400801454
 30
0.0
 11
-56.55098162110698
 21
36.7578400801454
 31
0.0
  0
ARC
  5
1C2
330
1F
100
AcDbEntity
  8
0
  6
Continuous
 62
     7
370
    15
100
AcDbCircle
 10
-47.20783587059935
 20
39.7578400801454
 30
0.0
 40
3.000000000000021
100
AcDbArc
 50
270.0
 51
340.5287793655106
  0
ARC
  5
1C3
330
1F
100
AcDbEntity
  8
0
  6
Continuous
 62
     7
370
    15
100
AcDbCircle
 10
-56.55098162110698
 20
39.7578400801454
 30
0.0
 40
3.0
100
AcDbArc
 50
199.4712206344918
 51
270.0
  0
LINE
  5
1C4
330
1F
100
AcDbEntity
  8
0
  6
Continuous
 62
     7
370
    15
100
AcDbLine
 10
-27.2078358705993
 20
36.7578400801454
 30
0.0
 11
-36.55098162110699
 21
36.7578400801454
 31
0.0
  0
ARC
  5
1C5
330
1F
100
AcDbEntity
  8
0
  6
Continuous
 62
     7
370
    15
100
AcDbCircle
 10
-27.2078358705993
 20
39.7578400801454
 30
0.0
 40
3.0
100
AcDbArc
 50
270.0
 51
340.5287793655103
  0
ARC
  5
1C6
330
1F
100
AcDbEntity
  8
0
  6
Continuous
 62
     7
370
    15
100
AcDbCircle
 10
-36.55098162110699
 20
39.7578400801454
 30
0.0
 40
3.0
100
AcDbArc
 50
199.4712206344918
 51
270.0
  0
LINE
  5
1C7
330
1F
100
AcDbEntity
  8
0
  6
Continuous
 62
     7
370
    15
100
AcDbLine
 10
-7.207835870599296
 20
36.7578400801454
 30
0.0
 11
-16.55098162110693
 21
36.7578400801454
 31
0.0
  0
ARC
  5
1C8
330
1F
100
AcDbEntity
  8
0
  6
Continuous
 62
     7
370
    15
100
AcDbCircle
 10
-16.55098162110693
 20
39.7578400801454
 30
0.0
 40
3.000000000000021
100
AcDbArc
 50
199.4712206344914
 51
270.0
  0
ARC
  5
1C9
330
1F
100
AcDbEntity
  8
0
  6
Continuous
 62
     7
370
    15
100
AcDbCircle
 10
-7.207835870599296
 20
39.7578400801454
 30
0.0
 40
3.0
100
AcDbArc
 50
270.0
 51
340.5287793655103
  0
LINE
  5
1CA
330
1F
100
AcDbEntity
  8
0
  6
Continuous
 62
     7
370
    15
100
AcDbLine
 10
12.7921641294007
 20
36.7578400801454
 30
0.0
 11
3.449018378893072
 21
36.7578400801454
 31
0.0
  0
ARC
  5
1CB
330
1F
100
AcDbEntity
  8
0
  6
Continuous
 62
     7
370
    15
100
AcDbCircle
 10
12.7921641294007
 20
39.7578400801454
 30
0.0
 40
3.000000000000021
100
AcDbArc
 50
270.0
 51
340.5287793655106
  0
ARC
  5
1CC
330
1F
100
AcDbEntity
  8
0
  6
Continuous
 62
     7
370
    15
100
AcDbCircle
 10
3.449018378893072
 20
39.7578400801454
 30
0.0
 40
3.000000000000021
100
AcDbArc
 50
199.4712206344914
 51
270.0
  0
LINE
  5
1CD
330
1F
100
AcDbEntity
  8
0
  6
Continuous
 62
     7
370
    15
100
AcDbLine
 10
32.79216412940065
 20
36.7578400801454
 30
0.0
 11
23.44901837889296
 21
36.7578400801454
 31
0.0
  0
ARC
  5
1CE
330
1F
100
AcDbEntity
  8
0
  6
Continuous
 62
     7
370
    15
100
AcDbCircle
 10
23.44901837889296
 20
39.7578400801454
 30
0.0
 40
3.0
100
AcDbArc
 50
199.4712206344925
 51
270.0
  0
ARC
  5
1CF
330
1F
100
AcDbEntity
  8
0
  6
Continuous
 62
     7
370
    15
100
AcDbCircle
 10
32.79216412940065
 20
39.7578400801454
 30
0.0
 40
3.0
100
AcDbArc
 50
270.0
 51
340.5287793655103
  0
LINE
  5
1D0
330
1F
100
AcDbEntity
  8
0
  6
Continuous
 62
     7
370
    15
100
AcDbLine
 10
52.79216412940065
 20
36.7578400801454
 30
0.0
 11
43.44901837889302
 21
36.7578400801454
 31
0.0
  0
ARC
  5
1D1
330
1F
100
AcDbEntity
  8
0
  6
Continuous
 62
     7
370
    15
100
AcDbCircle
 10
52.79216412940065
 20
39.7578400801454
 30
0.0
 40
3.0
100
AcDbArc
 50
270.0
 51
340.5287793655103
  0
ARC
  5
1D2
330
1F
100
AcDbEntity
  8
0
  6
Continuous
 62
     7
370
    15
100
AcDbCircle
 10
43.44901837889302
 20
39.7578400801454
 30
0.0
 40
3.000000000000021
100
AcDbArc
 50
199.4712206344914
 51
270.0
  0
LINE
  5
1D3
330
1F
100
AcDbEntity
  8
0
  6
Continuous
 62
     7
370
    15
100
AcDbLine
 10
72.79216412940065
 20
36.7578400801454
 30
0.0
 11
63.44901837889302
 21
36.7578400801454
 31
0.0
  0
ARC
  5
1D4
330
1F
100
AcDbEntity
  8
0
  6
Continuous
 62
     7
370
    15
100
AcDbCircle
 10
63.44901837889302
 20
39.7578400801454
 30
0.0
 40
3.000000000000021
100
AcDbArc
 50
199.4712206344914
 51
270.0
  0
ARC
  5
1D5
330
1F
100
AcDbEntity
  8
0
  6
Continuous
 62
     7
370
    15
100
AcDbCircle
 10
72.79216412940065
 20
39.7578400801454
 30
0.0
 40
3.000000000000021
100
AcDbArc
 50
270.0
 51
340.5287793655106
  0
LINE
  5
1D6
330
1F
100
AcDbEntity
  8
0
  6
Continuous
 62
     7
370
    15
100
AcDbLine
 10
92.79216412940071
 20
36.7578400801454
 30
0.0
 11
83.44901837889301
 21
36.7578400801454
 31
0.0
  0
ARC
  5
1D7
330
1F
100
AcDbEntity
  8
0
  6
Continuous
 62
     7
370
    15
100
AcDbCircle
 10
92.79216412940071
 20
39.7578400801454
 30
0.0
 40
3.0
100
AcDbArc
 50
270.0
 51
340.5287793655103
  0
ARC
  5
1D8
330
1F
100
AcDbEntity
  8
0
  6
Continuous
 62
     7
370
    15
100
AcDbCircle
 10
83.44901837889301
 20
39.7578400801454
 30
0.0
 40
3.0
100
AcDbArc
 50
199.4712206344918
 51
270.0
  0
LINE
  5
1D9
330
1F
100
AcDbEntity
  8
0
  6
Continuous
 62
     7
370
    15
100
AcDbLine
 10
112.7921641294007
 20
36.7578400801454
 30
0.0
 11
103.449018378893
 21
36.7578400801454
 31
0.0
  0
ARC
  5
1DA
330
1F
100
AcDbEntity
  8
0
  6
Continuous
 62
     7
370
    15
100
AcDbCircle
 10
103.449018378893
 20
39.7578400801454
 30
0.0
 40
3.0
100
AcDbArc
 50
199.4712206344918
 51
270.0
  0
ARC
  5
1DB
330
1F
100
AcDbEntity
  8
0
  6
Continuous
 62
     7
370
    15
100
AcDbCircle
 10
112.7921641294007
 20
39.7578400801454
 30
0.0
 40
3.0
100
AcDbArc
 50
270.0
 51
340.5287793655103
  0
LINE
  5
1DC
330
1F
100
AcDbEntity
  8
0
  6
Continuous
 62
     7
370
    15
100
AcDbLine
 10
132.7921641294007
 20
36.7578400801454
 30
0.0
 11
123.4490183788931
 21
36.7578400801454
 31
0.0
  0
ARC
  5
1DD
330
1F
100
AcDbEntity
  8
0
  6
Continuous
 62
     7
370
    15
100
AcDbCircle
 10
123.4490183788931
 20
39.7578400801454
 30
0.0
 40
3.000000000000021
100
AcDbArc
 50
199.4712206344914
 51
270.0
  0
ARC
  5
1DE
330
1F
100
AcDbEntity
  8
0
  6
Continuous
 62
     7
370
    15
100
AcDbCircle
 10
132.7921641294007
 20
39.7578400801454
 30
0.0
 40
3.000000000000021
100
AcDbArc
 50
270.0
 51
340.5287793655106
  0
LINE
  5
1DF
330
1F
100
AcDbEntity
  8
0
  6
Continuous
 62
     7
370
    15
100
AcDbLine
 10
-210.1583749957283
 20
158.7578400801453
 30
0.0
 11
-210.1583749957283
 21
98.75784008014543
 31
0.0
  0
LINE
  5
1E0
330
1F
100
AcDbEntity
  8
0
  6
Continuous
 62
     7
370
    15
100
AcDbLine
 10
-210.1583749957283
 20
158.7578400801453
 30
0.0
 11
53.84162500427175
 21
158.7578400801453
 31
0.0
  0
LINE
  5
1E1
330
1F
100
AcDbEntity
  8
0
  6
Continuous
 62
     7
370
    15
100
AcDbLine
 10
53.84162500427175
 20
158.7578400801453
 30
0.0
 11
53.84162500427175
 21
98.75784008014543
 31
0.0
  0
LINE
  5
1E2
330
1F
100
AcDbEntity
  8
0
  6
Continuous
 62
     7
370
    15
100
AcDbLine
 10
-201.8638447220082
 20
100.6352658012422
 30
0.0
 11
-201.8638447220082
 21
148.484640084536
 31
0.0
  0
LINE
  5
1E3
330
1F
100
AcDbEntity
  8
0
  6
Continuous
 62
     7
370
    15
100
AcDbLine
 10
-201.8638447220082
 20
148.484640084536
 30
0.0
 11
-204.9284652802084
 21
148.484640084536
 31
0.0
  0
LINE
  5
1E4
330
1F
100
AcDbEntity
  8
0
  6
Continuous
 62
     7
370
    15
100
AcDbLine
 10
-204.9284652802084
 20
148.484640084536
 30
0.0
 11
-204.9284652802084
 21
100.6352658012422
 31
0.0
  0
LINE
  5
1E5
330
1F
100
AcDbEntity
  8
0
  6
Continuous
 62
     7
370
    15
100
AcDbLine
 10
-204.9284652802084
 20
100.6352658012422
 30
0.0
 11
-201.8638447220082
 21
100.6352658012422
 31
0.0
  0
LINE
  5
1E6
330
1F
100
AcDbEntity
  8
0
  6
Continuous
 62
     7
370
    15
100
AcDbLine
 10
-191.8638447220082
 20
100.6352658012422
 30
0.0
 11
-191.8638447220082
 21
148.484640084536
 31
0.0
  0
LINE
  5
1E7
330
1F
100
AcDbEntity
  8
0
  6
Continuous
 62
     7
370
    15
100
AcDbLine
 10
-191.8638447220082
 20
148.484640084536
 30
0.0
 11
-194.9284652802083
 21
148.484640084536
 31
0.0
  0
LINE
  5
1E8
330
1F
100
AcDbEntity
  8
0
  6
Continuous
 62
     7
370
    15
100
AcDbLine
 10
-194.9284652802083
 20
148.484640084536
 30
0.0
 11
-194.9284652802083
 21
100.6352658012422
 31
0.0
  0
LINE
  5
1E9
330
1F
100
AcDbEntity
  8
0
  6
Continuous
 62
     7
370
    15
100
AcDbLine
 10
-194.9284652802083
 20
100.6352658012422
 30
0.0
 11
-191.8638447220082
 21
100.6352658012422
 31
0.0
  0
LINE
  5
1EA
330
1F
100
AcDbEntity
  8
0
  6
Continuous
 62
     7
370
    15
100
AcDbLine
 10
-181.8638447220082
 20
100.6352658012422
 30
0.0
 11
-181.8638447220082
 21
148.484640084536
 31
0.0
  0
LINE
  5
1EB
330
1F
100
AcDbEntity
  8
0
  6
Continuous
 62
     7
370
    15
100
AcDbLine
 10
-181.8638447220082
 20
148.484640084536
 30
0.0
 11
-184.9284652802083
 21
148.484640084536
 31
0.0
  0
LINE
  5
1EC
330
1F
100
AcDbEntity
  8
0
  6
Continuous
 62
     7
370
    15
100
AcDbLine
 10
-184.9284652802083
 20
148.484640084536
 30
0.0
 11
-184.9284652802083
 21
100.6352658012422
 31
0.0
  0
LINE
  5
1ED
330
1F
100
AcDbEntity
  8
0
  6
Continuous
 62
     7
370
    15
100
AcDbLine
 10
-184.9284652802083
 20
100.6352658012422
 30
0.0
 11
-181.8638447220082
 21
100.6352658012422
 31
0.0
  0
LINE
  5
1EE
330
1F
100
AcDbEntity
  8
0
  6
Continuous
 62
     7
370
    15
100
AcDbLine
 10
-171.8638447220082
 20
100.6352658012422
 30
0.0
 11
-171.8638447220083
 21
148.484640084536
 31
0.0
  0
LINE
  5
1EF
330
1F
100
AcDbEntity
  8
0
  6
Continuous
 62
     7
370
    15
100
AcDbLine
 10
-171.8638447220083
 20
148.484640084536
 30
0.0
 11
-174.9284652802084
 21
148.484640084536
 31
0.0
  0
LINE
  5
1F0
330
1F
100
AcDbEntity
  8
0
  6
Continuous
 62
     7
370
    15
100
AcDbLine
 10
-174.9284652802084
 20
148.484640084536
 30
0.0
 11
-174.9284652802083
 21
100.6352658012422
 31
0.0
  0
LINE
  5
1F1
330
1F
100
AcDbEntity
  8
0
  6
Continuous
 62
     7
370
    15
100
AcDbLine
 10
-174.9284652802083
 20
100.6352658012422
 30
0.0
 11
-171.8638447220082
 21
100.6352658012422
 31
0.0
  0
LINE
  5
1F2
330
1F
100
AcDbEntity
  8
0
  6
Continuous
 62
     7
370
    15
100
AcDbLine
 10
-161.8638447220082
 20
100.6352658012422
 30
0.0
 11
-161.8638447220082
 21
148.484640084536
 31
0.0
  0
LINE
  5
1F3
330
1F
100
AcDbEntity
  8
0
  6
Continuous
 62
     7
370
    15
100
AcDbLine
 10
-161.8638447220082
 20
148.484640084536
 30
0.0
 11
-164.9284652802084
 21
148.484640084536
 31
0.0
  0
LINE
  5
1F4
330
1F
100
AcDbEntity
  8
0
  6
Continuous
 62
     7
370
    15
100
AcDbLine
 10
-164.9284652802084
 20
148.484640084536
 30
0.0
 11
-164.9284652802083
 21
100.6352658012422
 31
0.0
  0
LINE
  5
1F5
330
1F
100
AcDbEntity
  8
0
  6
Continuous
 62
     7
370
    15
100
AcDbLine
 10
-164.9284652802083
 20
100.6352658012422
 30
0.0
 11
-161.8638447220082
 21
100.6352658012422
 31
0.0
  0
LINE
  5
1F6
330
1F
100
AcDbEntity
  8
0
  6
Continuous
 62
     7
370
    15
100
AcDbLine
 10
-151.8638447220083
 20
100.6352658012422
 30
0.0
 11
-151.8638447220083
 21
148.484640084536
 31
0.0
  0
LINE
  5
1F7
330
1F
100
AcDbEntity
  8
0
  6
Continuous
 62
     7
370
    15
100
AcDbLine
 10
-151.8638447220083
 20
148.484640084536
 30
0.0
 11
-154.9284652802084
 21
148.484640084536
 31
0.0
  0
LINE
  5
1F8
330
1F
100
AcDbEntity
  8
0
  6
Continuous
 62
     7
370
    15
100
AcDbLine
 10
-154.9284652802084
 20
148.484640084536
 30
0.0
 11
-154.9284652802083
 21
100.6352658012422
 31
0.0
  0
LINE
  5
1F9
330
1F
100
AcDbEntity
  8
0
  6
Continuous
 62
     7
370
    15
100
AcDbLine
 10
-154.9284652802083
 20
100.6352658012422
 30
0.0
 11
-151.8638447220083
 21
100.6352658012422
 31
0.0
  0
LINE
  5
1FA
330
1F
100
AcDbEntity
  8
0
  6
Continuous
 62
     7
370
    15
100
AcDbLine
 10
-141.8638447220082
 20
100.6352658012422
 30
0.0
 11
-141.8638447220083
 21
148.484640084536
 31
0.0
  0
LINE
  5
1FB
330
1F
100
AcDbEntity
  8
0
  6
Continuous
 62
     7
370
    15
100
AcDbLine
 10
-141.8638447220083
 20
148.484640084536
 30
0.0
 11
-144.9284652802084
 21
148.484640084536
 31
0.0
  0
LINE
  5
1FC
330
1F
100
AcDbEntity
  8
0
  6
Continuous
 62
     7
370
    15
100
AcDbLine
 10
-144.9284652802084
 20
148.484640084536
 30
0.0
 11
-144.9284652802083
 21
100.6352658012422
 31
0.0
  0
LINE
  5
1FD
330
1F
100
AcDbEntity
  8
0
  6
Continuous
 62
     7
370
    15
100
AcDbLine
 10
-144.9284652802083
 20
100.6352658012422
 30
0.0
 11
-141.8638447220082
 21
100.6352658012422
 31
0.0
  0
LINE
  5
1FE
330
1F
100
AcDbEntity
  8
0
  6
Continuous
 62
     7
370
    15
100
AcDbLine
 10
-131.8638447220082
 20
100.6352658012422
 30
0.0
 11
-131.8638447220083
 21
148.484640084536
 31
0.0
  0
LINE
  5
1FF
330
1F
100
AcDbEntity
  8
0
  6
Continuous
 62
     7
370
    15
100
AcDbLine
 10
-131.8638447220083
 20
148.484640084536
 30
0.0
 11
-134.9284652802084
 21
148.484640084536
 31
0.0
  0
LINE
  5
200
330
1F
100
AcDbEntity
  8
0
  6
Continuous
 62
     7
370
    15
100
AcDbLine
 10
-134.9284652802084
 20
148.484640084536
 30
0.0
 11
-134.9284652802083
 21
100.6352658012422
 31
0.0
  0
LINE
  5
201
330
1F
100
AcDbEntity
  8
0
  6
Continuous
 62
     7
370
    15
100
AcDbLine
 10
-134.9284652802083
 20
100.6352658012422
 30
0.0
 11
-131.8638447220082
 21
100.6352658012422
 31
0.0
  0
LINE
  5
202
330
1F
100
AcDbEntity
  8
0
  6
Continuous
 62
     7
370
    15
100
AcDbLine
 10
-121.8638447220082
 20
100.6352658012422
 30
0.0
 11
-121.8638447220083
 21
148.484640084536
 31
0.0
  0
LINE
  5
203
330
1F
100
AcDbEntity
  8
0
  6
Continuous
 62
     7
370
    15
100
AcDbLine
 10
-121.8638447220083
 20
148.484640084536
 30
0.0
 11
-124.9284652802084
 21
148.484640084536
 31
0.0
  0
LINE
  5
204
330
1F
100
AcDbEntity
  8
0
  6
Continuous
 62
     7
370
    15
100
AcDbLine
 10
-124.9284652802084
 20
148.484640084536
 30
0.0
 11
-124.9284652802083
 21
100.6352658012422
 31
0.0
  0
LINE
  5
205
330
1F
100
AcDbEntity
  8
0
  6
Continuous
 62
     7
370
    15
100
AcDbLine
 10
-124.9284652802083
 20
100.6352658012422
 30
0.0
 11
-121.8638447220082
 21
100.6352658012422
 31
0.0
  0
LINE
  5
206
330
1F
100
AcDbEntity
  8
0
  6
Continuous
 62
     7
370
    15
100
AcDbLine
 10
-111.8638447220083
 20
100.6352658012422
 30
0.0
 11
-111.8638447220083
 21
148.484640084536
 31
0.0
  0
LINE
  5
207
330
1F
100
AcDbEntity
  8
0
  6
Continuous
 62
     7
370
    15
100
AcDbLine
 10
-111.8638447220083
 20
148.484640084536
 30
0.0
 11
-114.9284652802084
 21
148.484640084536
 31
0.0
  0
LINE
  5
208
330
1F
100
AcDbEntity
  8
0
  6
Continuous
 62
     7
370
    15
100
AcDbLine
 10
-114.9284652802084
 20
148.484640084536
 30
0.0
 11
-114.9284652802084
 21
100.6352658012422
 31
0.0
  0
LINE
  5
209
330
1F
100
AcDbEntity
  8
0
  6
Continuous
 62
     7
370
    15
100
AcDbLine
 10
-114.9284652802084
 20
100.6352658012422
 30
0.0
 11
-111.8638447220083
 21
100.6352658012422
 31
0.0
  0
LINE
  5
20A
330
1F
100
AcDbEntity
  8
0
  6
Continuous
 62
     7
370
    15
100
AcDbLine
 10
-101.8638447220083
 20
100.6352658012422
 30
0.0
 11
-101.8638447220083
 21
148.484640084536
 31
0.0
  0
LINE
  5
20B
330
1F
100
AcDbEntity
  8
0
  6
Continuous
 62
     7
370
    15
100
AcDbLine
 10
-101.8638447220083
 20
148.484640084536
 30
0.0
 11
-104.9284652802084
 21
148.484640084536
 31
0.0
  0
LINE
  5
20C
330
1F
100
AcDbEntity
  8
0
  6
Continuous
 62
     7
370
    15
100
AcDbLine
 10
-104.9284652802084
 20
148.484640084536
 30
0.0
 11
-104.9284652802084
 21
100.6352658012422
 31
0.0
  0
LINE
  5
20D
330
1F
100
AcDbEntity
  8
0
  6
Continuous
 62
     7
370
    15
100
AcDbLine
 10
-104.9284652802084
 20
100.6352658012422
 30
0.0
 11
-101.8638447220083
 21
100.6352658012422
 31
0.0
  0
LINE
  5
20E
330
1F
100
AcDbEntity
  8
0
  6
Continuous
 62
     7
370
    15
100
AcDbLine
 10
-91.86384472200831
 20
100.6352658012422
 30
0.0
 11
-91.86384472200831
 21
148.484640084536
 31
0.0
  0
LINE
  5
20F
330
1F
100
AcDbEntity
  8
0
  6
Continuous
 62
     7
370
    15
100
AcDbLine
 10
-91.86384472200831
 20
148.484640084536
 30
0.0
 11
-94.92846528020839
 21
148.484640084536
 31
0.0
  0
LINE
  5
210
330
1F
100
AcDbEntity
  8
0
  6
Continuous
 62
     7
370
    15
100
AcDbLine
 10
-94.92846528020839
 20
148.484640084536
 30
0.0
 11
-94.92846528020839
 21
100.6352658012422
 31
0.0
  0
LINE
  5
211
330
1F
100
AcDbEntity
  8
0
  6
Continuous
 62
     7
370
    15
100
AcDbLine
 10
-94.92846528020839
 20
100.6352658012422
 30
0.0
 11
-91.86384472200831
 21
100.6352658012422
 31
0.0
  0
LINE
  5
212
330
1F
100
AcDbEntity
  8
0
  6
Continuous
 62
     7
370
    15
100
AcDbLine
 10
-81.86384472200831
 20
100.6352658012422
 30
0.0
 11
-81.86384472200831
 21
148.484640084536
 31
0.0
  0
LINE
  5
213
330
1F
100
AcDbEntity
  8
0
  6
Continuous
 62
     7
370
    15
100
AcDbLine
 10
-81.86384472200831
 20
148.484640084536
 30
0.0
 11
-84.92846528020839
 21
148.484640084536
 31
0.0
  0
LINE
  5
214
330
1F
100
AcDbEntity
  8
0
  6
Continuous
 62
     7
370
    15
100
AcDbLine
 10
-84.92846528020839
 20
148.484640084536
 30
0.0
 11
-84.92846528020839
 21
100.6352658012422
 31
0.0
  0
LINE
  5
215
330
1F
100
AcDbEntity
  8
0
  6
Continuous
 62
     7
370
    15
100
AcDbLine
 10
-84.92846528020839
 20
100.6352658012422
 30
0.0
 11
-81.86384472200831
 21
100.6352658012422
 31
0.0
  0
LINE
  5
216
330
1F
100
AcDbEntity
  8
0
  6
Continuous
 62
     7
370
    15
100
AcDbLine
 10
-71.86384472200831
 20
100.6352658012422
 30
0.0
 11
-71.86384472200831
 21
148.484640084536
 31
0.0
  0
LINE
  5
217
330
1F
100
AcDbEntity
  8
0
  6
Continuous
 62
     7
370
    15
100
AcDbLine
 10
-71.86384472200831
 20
148.484640084536
 30
0.0
 11
-74.9284652802084
 21
148.484640084536
 31
0.0
  0
LINE
  5
218
330
1F
100
AcDbEntity
  8
0
  6
Continuous
 62
     7
370
    15
100
AcDbLine
 10
-74.9284652802084
 20
148.484640084536
 30
0.0
 11
-74.9284652802084
 21
100.6352658012422
 31
0.0
  0
LINE
  5
219
330
1F
100
AcDbEntity
  8
0
  6
Continuous
 62
     7
370
    15
100
AcDbLine
 10
-74.9284652802084
 20
100.6352658012422
 30
0.0
 11
-71.86384472200831
 21
100.6352658012422
 31
0.0
  0
LINE
  5
21A
330
1F
100
AcDbEntity
  8
0
  6
Continuous
 62
     7
370
    15
100
AcDbLine
 10
-61.86384472200825
 20
100.6352658012422
 30
0.0
 11
-61.86384472200836
 21
148.484640084536
 31
0.0
  0
LINE
  5
21B
330
1F
100
AcDbEntity
  8
0
  6
Continuous
 62
     7
370
    15
100
AcDbLine
 10
-61.86384472200836
 20
148.484640084536
 30
0.0
 11
-64.92846528020852
 21
148.484640084536
 31
0.0
  0
LINE
  5
21C
330
1F
100
AcDbEntity
  8
0
  6
Continuous
 62
     7
370
    15
100
AcDbLine
 10
-64.92846528020852
 20
148.484640084536
 30
0.0
 11
-64.9284652802084
 21
100.6352658012422
 31
0.0
  0
LINE
  5
21D
330
1F
100
AcDbEntity
  8
0
  6
Continuous
 62
     7
370
    15
100
AcDbLine
 10
-64.9284652802084
 20
100.6352658012422
 30
0.0
 11
-61.86384472200825
 21
100.6352658012422
 31
0.0
  0
LINE
  5
21E
330
1F
100
AcDbEntity
  8
0
  6
Continuous
 62
     7
370
    15
100
AcDbLine
 10
-51.86384472200825
 20
100.6352658012422
 30
0.0
 11
-51.86384472200836
 21
148.484640084536
 31
0.0
  0
LINE
  5
21F
330
1F
100
AcDbEntity
  8
0
  6
Continuous
 62
     7
370
    15
100
AcDbLine
 10
-51.86384472200836
 20
148.484640084536
 30
0.0
 11
-54.92846528020852
 21
148.484640084536
 31
0.0
  0
LINE
  5
220
330
1F
100
AcDbEntity
  8
0
  6
Continuous
 62
     7
370
    15
100
AcDbLine
 10
-54.92846528020852
 20
148.484640084536
 30
0.0
 11
-54.9284652802084
 21
100.6352658012422
 31
0.0
  0
LINE
  5
221
330
1F
100
AcDbEntity
  8
0
  6
Continuous
 62
     7
370
    15
100
AcDbLine
 10
-54.9284652802084
 20
100.6352658012422
 30
0.0
 11
-51.86384472200825
 21
100.6352658012422
 31
0.0
  0
LINE
  5
222
330
1F
100
AcDbEntity
  8
0
  6
Continuous
 62
     7
370
    15
100
AcDbLine
 10
-41.86384472200825
 20
100.6352658012422
 30
0.0
 11
-41.86384472200836
 21
148.484640084536
 31
0.0
  0
LINE
  5
223
330
1F
100
AcDbEntity
  8
0
  6
Continuous
 62
     7
370
    15
100
AcDbLine
 10
-41.86384472200836
 20
148.484640084536
 30
0.0
 11
-44.92846528020845
 21
148.484640084536
 31
0.0
  0
LINE
  5
224
330
1F
100
AcDbEntity
  8
0
  6
Continuous
 62
     7
370
    15
100
AcDbLine
 10
-44.92846528020845
 20
148.484640084536
 30
0.0
 11
-44.9284652802084
 21
100.6352658012422
 31
0.0
  0
LINE
  5
225
330
1F
100
AcDbEntity
  8
0
  6
Continuous
 62
     7
370
    15
100
AcDbLine
 10
-44.9284652802084
 20
100.6352658012422
 30
0.0
 11
-41.86384472200825
 21
100.6352658012422
 31
0.0
  0
LINE
  5
226
330
1F
100
AcDbEntity
  8
0
  6
Continuous
 62
     7
370
    15
100
AcDbLine
 10
-31.86384472200825
 20
100.6352658012422
 30
0.0
 11
-31.86384472200837
 21
148.484640084536
 31
0.0
  0
LINE
  5
227
330
1F
100
AcDbEntity
  8
0
  6
Continuous
 62
     7
370
    15
100
AcDbLine
 10
-31.86384472200837
 20
148.484640084536
 30
0.0
 11
-34.92846528020846
 21
148.484640084536
 31
0.0
  0
LINE
  5
228
330
1F
100
AcDbEntity
  8
0
  6
Continuous
 62
     7
370
    15
100
AcDbLine
 10
-34.92846528020846
 20
148.484640084536
 30
0.0
 11
-34.92846528020834
 21
100.6352658012422
 31
0.0
  0
LINE
  5
229
330
1F
100
AcDbEntity
  8
0
  6
Continuous
 62
     7
370
    15
100
AcDbLine
 10
-34.92846528020834
 20
100.6352658012422
 30
0.0
 11
-31.86384472200825
 21
100.6352658012422
 31
0.0
  0
LINE
  5
22A
330
1F
100
AcDbEntity
  8
0
  6
Continuous
 62
     7
370
    15
100
AcDbLine
 10
-21.86384472200825
 20
100.6352658012422
 30
0.0
 11
-21.86384472200836
 21
148.484640084536
 31
0.0
  0
LINE
  5
22B
330
1F
100
AcDbEntity
  8
0
  6
Continuous
 62
     7
370
    15
100
AcDbLine
 10
-21.86384472200836
 20
148.484640084536
 30
0.0
 11
-24.92846528020846
 21
148.484640084536
 31
0.0
  0
LINE
  5
22C
330
1F
100
AcDbEntity
  8
0
  6
Continuous
 62
     7
370
    15
100
AcDbLine
 10
-24.92846528020846
 20
148.484640084536
 30
0.0
 11
-24.92846528020834
 21
100.6352658012422
 31
0.0
  0
LINE
  5
22D
330
1F
100
AcDbEntity
  8
0
  6
Continuous
 62
     7
370
    15
100
AcDbLine
 10
-24.92846528020834
 20
100.6352658012422
 30
0.0
 11
-21.86384472200825
 21
100.6352658012422
 31
0.0
  0
LINE
  5
22E
330
1F
100
AcDbEntity
  8
0
  6
Continuous
 62
     7
370
    15
100
AcDbLine
 10
-11.86384472200825
 20
100.6352658012422
 30
0.0
 11
-11.86384472200836
 21
148.484640084536
 31
0.0
  0
LINE
  5
22F
330
1F
100
AcDbEntity
  8
0
  6
Continuous
 62
     7
370
    15
100
AcDbLine
 10
-11.86384472200836
 20
148.484640084536
 30
0.0
 11
-14.92846528020846
 21
148.484640084536
 31
0.0
  0
LINE
  5
230
330
1F
100
AcDbEntity
  8
0
  6
Continuous
 62
     7
370
    15
100
AcDbLine
 10
-14.92846528020846
 20
148.484640084536
 30
0.0
 11
-14.92846528020834
 21
100.6352658012422
 31
0.0
  0
LINE
  5
231
330
1F
100
AcDbEntity
  8
0
  6
Continuous
 62
     7
370
    15
100
AcDbLine
 10
-14.92846528020834
 20
100.6352658012422
 30
0.0
 11
-11.86384472200825
 21
100.6352658012422
 31
0.0
  0
LINE
  5
232
330
1F
100
AcDbEntity
  8
0
  6
Continuous
 62
     7
370
    15
100
AcDbLine
 10
-1.863844722008195
 20
100.6352658012422
 30
0.0
 11
-1.863844722008309
 21
148.484640084536
 31
0.0
  0
LINE
  5
233
330
1F
100
AcDbEntity
  8
0
  6
Continuous
 62
     7
370
    15
100
AcDbLine
 10
-1.863844722008309
 20
148.484640084536
 30
0.0
 11
-4.928465280208456
 21
148.484640084536
 31
0.0
  0
LINE
  5
234
330
1F
100
AcDbEntity
  8
0
  6
Continuous
 62
     7
370
    15
100
AcDbLine
 10
-4.928465280208456
 20
148.484640084536
 30
0.0
 11
-4.928465280208342
 21
100.6352658012422
 31
0.0
  0
LINE
  5
235
330
1F
100
AcDbEntity
  8
0
  6
Continuous
 62
     7
370
    15
100
AcDbLine
 10
-4.928465280208342
 20
100.6352658012422
 30
0.0
 11
-1.863844722008195
 21
100.6352658012422
 31
0.0
  0
LINE
  5
236
330
1F
100
AcDbEntity
  8
0
  6
Continuous
 62
     7
370
    15
100
AcDbLine
 10
8.13615527799169
 20
100.6352658012422
 30
0.0
 11
8.13615527799169
 21
148.484640084536
 31
0.0
  0
LINE
  5
237
330
1F
100
AcDbEntity
  8
0
  6
Continuous
 62
     7
370
    15
100
AcDbLine
 10
8.13615527799169
 20
148.484640084536
 30
0.0
 11
5.071534719791543
 21
148.484640084536
 31
0.0
  0
LINE
  5
238
330
1F
100
AcDbEntity
  8
0
  6
Continuous
 62
     7
370
    15
100
AcDbLine
 10
5.071534719791543
 20
148.484640084536
 30
0.0
 11
5.071534719791543
 21
100.6352658012422
 31
0.0
  0
LINE
  5
239
330
1F
100
AcDbEntity
  8
0
  6
Continuous
 62
     7
370
    15
100
AcDbLine
 10
5.071534719791543
 20
100.6352658012422
 30
0.0
 11
8.13615527799169
 21
100.6352658012422
 31
0.0
  0
LINE
  5
23A
330
1F
100
AcDbEntity
  8
0
  6
Continuous
 62
     7
370
    15
100
AcDbLine
 10
18.13615527799169
 20
100.6352658012422
 30
0.0
 11
18.13615527799157
 21
148.484640084536
 31
0.0
  0
LINE
  5
23B
330
1F
100
AcDbEntity
  8
0
  6
Continuous
 62
     7
370
    15
100
AcDbLine
 10
18.13615527799157
 20
148.484640084536
 30
0.0
 11
15.07153471979143
 21
148.484640084536
 31
0.0
  0
LINE
  5
23C
330
1F
100
AcDbEntity
  8
0
  6
Continuous
 62
     7
370
    15
100
AcDbLine
 10
15.07153471979143
 20
148.484640084536
 30
0.0
 11
15.07153471979154
 21
100.6352658012422
 31
0.0
  0
LINE
  5
23D
330
1F
100
AcDbEntity
  8
0
  6
Continuous
 62
     7
370
    15
100
AcDbLine
 10
15.07153471979154
 20
100.6352658012422
 30
0.0
 11
18.13615527799169
 21
100.6352658012422
 31
0.0
  0
LINE
  5
23E
330
1F
100
AcDbEntity
  8
0
  6
Continuous
 62
     7
370
    15
100
AcDbLine
 10
28.13615527799169
 20
100.6352658012422
 30
0.0
 11
28.13615527799158
 21
148.484640084536
 31
0.0
  0
LINE
  5
23F
330
1F
100
AcDbEntity
  8
0
  6
Continuous
 62
     7
370
    15
100
AcDbLine
 10
28.13615527799158
 20
148.484640084536
 30
0.0
 11
25.07153471979149
 21
148.484640084536
 31
0.0
  0
LINE
  5
240
330
1F
100
AcDbEntity
  8
0
  6
Continuous
 62
     7
370
    15
100
AcDbLine
 10
25.07153471979149
 20
148.484640084536
 30
0.0
 11
25.0715347197916
 21
100.6352658012422
 31
0.0
  0
LINE
  5
241
330
1F
100
AcDbEntity
  8
0
  6
Continuous
 62
     7
370
    15
100
AcDbLine
 10
25.0715347197916
 20
100.6352658012422
 30
0.0
 11
28.13615527799169
 21
100.6352658012422
 31
0.0
  0
LINE
  5
242
330
1F
100
AcDbEntity
  8
0
  6
Continuous
 62
     7
370
    15
100
AcDbLine
 10
38.13615527799169
 20
100.6352658012422
 30
0.0
 11
38.13615527799158
 21
148.484640084536
 31
0.0
  0
LINE
  5
243
330
1F
100
AcDbEntity
  8
0
  6
Continuous
 62
     7
370
    15
100
AcDbLine
 10
38.13615527799158
 20
148.484640084536
 30
0.0
 11
35.07153471979149
 21
148.484640084536
 31
0.0
  0
LINE
  5
244
330
1F
100
AcDbEntity
  8
0
  6
Continuous
 62
     7
370
    15
100
AcDbLine
 10
35.07153471979149
 20
148.484640084536
 30
0.0
 11
35.0715347197916
 21
100.6352658012422
 31
0.0
  0
LINE
  5
245
330
1F
100
AcDbEntity
  8
0
  6
Continuous
 62
     7
370
    15
100
AcDbLine
 10
35.0715347197916
 20
100.6352658012422
 30
0.0
 11
38.13615527799169
 21
100.6352658012422
 31
0.0
  0
LINE
  5
246
330
1F
100
AcDbEntity
  8
0
  6
Continuous
 62
     7
370
    15
100
AcDbLine
 10
48.13615527799169
 20
100.6352658012422
 30
0.0
 11
48.13615527799157
 21
148.484640084536
 31
0.0
  0
LINE
  5
247
330
1F
100
AcDbEntity
  8
0
  6
Continuous
 62
     7
370
    15
100
AcDbLine
 10
48.13615527799157
 20
148.484640084536
 30
0.0
 11
45.07153471979148
 21
148.484640084536
 31
0.0
  0
LINE
  5
248
330
1F
100
AcDbEntity
  8
0
  6
Continuous
 62
     7
370
    15
100
AcDbLine
 10
45.07153471979148
 20
148.484640084536
 30
0.0
 11
45.0715347197916
 21
100.6352658012422
 31
0.0
  0
LINE
  5
249
330
1F
100
AcDbEntity
  8
0
  6
Continuous
 62
     7
370
    15
100
AcDbLine
 10
45.0715347197916
 20
100.6352658012422
 30
0.0
 11
48.13615527799169
 21
100.6352658012422
 31
0.0
  0
LINE
  5
24A
330
1F
100
AcDbEntity
  8
0
  6
Continuous
 62
     7
370
    15
100
AcDbLine
 10
57.84162500427175
 20
249.7578400801454
 30
0.0
 11
57.84162500427175
 21
191.3578400801454
 31
0.0
  0
LINE
  5
24B
330
1F
100
AcDbEntity
  8
0
  6
Continuous
 62
     7
370
    15
100
AcDbLine
 10
57.84162500427175
 20
191.3578400801454
 30
0.0
 11
55.84162500427175
 21
191.3578400801454
 31
0.0
  0
LINE
  5
24C
330
1F
100
AcDbEntity
  8
0
  6
Continuous
 62
     7
370
    15
100
AcDbLine
 10
55.84162500427175
 20
210.4125902768353
 30
0.0
 11
55.84162500427175
 21
247.7578400801454
 31
0.0
  0
LINE
  5
24D
330
1F
100
AcDbEntity
  8
0
  6
Continuous
 62
     7
370
    15
100
AcDbLine
 10
-214.1583749957283
 20
191.3578400801454
 30
0.0
 11
-214.1583749957283
 21
249.7578400801454
 31
0.0
  0
LINE
  5
24E
330
1F
100
AcDbEntity
  8
0
  6
Continuous
 62
     7
370
    15
100
AcDbLine
 10
-212.1583749957283
 20
247.7578400801454
 30
0.0
 11
-212.1583749957283
 21
210.4125902768353
 31
0.0
  0
LINE
  5
24F
330
1F
100
AcDbEntity
  8
0
  6
Continuous
 62
     7
370
    15
100
AcDbLine
 10
-212.1583749957283
 20
191.3578400801454
 30
0.0
 11
-214.1583749957283
 21
191.3578400801454
 31
0.0
  0
LINE
  5
250
330
1F
100
AcDbEntity
  8
0
  6
Continuous
 62
     7
370
    15
100
AcDbLine
 10
-214.1583749957283
 20
249.7578400801454
 30
0.0
 11
57.84162500427175
 21
249.7578400801454
 31
0.0
  0
LINE
  5
251
330
1F
100
AcDbEntity
  8
0
  6
Continuous
 62
     7
370
    15
100
AcDbLine
 10
55.84162500427175
 20
247.7578400801454
 30
0.0
 11
-212.1583749957283
 21
247.7578400801454
 31
0.0
  0
LINE
  5
252
330
1F
100
AcDbEntity
  8
0
  6
Continuous
 62
     7
370
    15
100
AcDbLine
 10
53.84162500427163
 20
-255.9061171833955
 30
0.0
 11
53.84162500427175
 21
-156.7870619479061
 31
0.0
  0
LINE
  5
253
330
1F
100
AcDbEntity
  8
0
  6
Continuous
 62
     7
370
    15
100
AcDbLine
 10
53.84162500427175
 20
-156.7870619479061
 30
0.0
 11
55.84162500427175
 21
-156.7870619479061
 31
0.0
  0
LINE
  5
254
330
1F
100
AcDbEntity
  8
0
  6
Continuous
 62
     7
370
    15
100
AcDbLine
 10
55.84162500427175
 20
-255.9061171833955
 30
0.0
 11
55.84162500427175
 21
-156.7870619479061
 31
0.0
  0
LINE
  5
255
330
1F
100
AcDbEntity
  8
0
  6
Continuous
 62
     7
370
    15
100
AcDbLine
 10
53.84162500427175
 20
-286.4421296418918
 30
0.0
 11
55.84162500427175
 21
-286.4421296418918
 31
0.0
  0
LINE
  5
256
330
1F
100
AcDbEntity
  8
0
  6
Continuous
 62
     7
370
    15
100
AcDbLine
 10
-78.15837499572825
 20
-286.4421296418918
 30
0.0
 11
53.84162500427175
 21
-286.4421296418918
 31
0.0
  0
LINE
  5
257
330
1F
100
AcDbEntity
  8
0
  6
Continuous
 62
     7
370
    15
100
AcDbLine
 10
-78.15837499572825
 20
-285.9061171833955
 30
0.0
 11
-78.15837499572825
 21
-286.4421296418918
 31
0.0
  0
LINE
  5
258
330
1F
100
AcDbEntity
  8
0
  6
Continuous
 62
     7
370
    15
100
AcDbLine
 10
55.84162500427175
 20
-286.4421296418918
 30
0.0
 11
55.84162500427163
 21
-285.9061171833955
 31
0.0
  0
LINE
  5
259
330
1F
100
AcDbEntity
  8
0
  6
Continuous
 62
     7
370
    15
100
AcDbLine
 10
53.84162500427175
 20
-385.9773465331501
 30
0.0
 11
55.84162500427175
 21
-385.9773465331501
 31
0.0
  0
LINE
  5
25A
330
1F
100
AcDbEntity
  8
0
  6
Continuous
 62
     7
370
    15
100
AcDbLine
 10
53.84162500427175
 20
-286.4421296418918
 30
0.0
 11
53.84162500427175
 21
-385.9773465331501
 31
0.0
  0
LINE
  5
25B
330
1F
100
AcDbEntity
  8
0
  6
Continuous
 62
     7
370
    15
100
AcDbLine
 10
55.84162500427175
 20
-286.4421296418918
 30
0.0
 11
55.84162500427175
 21
-385.9773465331501
 31
0.0
  0
LINE
  5
25C
330
1F
100
AcDbEntity
  8
0
  6
Continuous
 62
     7
370
    15
100
AcDbLine
 10
-210.1583749957283
 20
-156.7870619479061
 30
0.0
 11
-212.1583749957283
 21
-156.7870619479061
 31
0.0
  0
LINE
  5
25D
330
1F
100
AcDbEntity
  8
0
  6
Continuous
 62
     7
370
    15
100
AcDbLine
 10
-212.1583749957283
 20
-255.9061171833955
 30
0.0
 11
-212.1583749957283
 21
-156.7870619479061
 31
0.0
  0
LINE
  5
25E
330
1F
100
AcDbEntity
  8
0
  6
Continuous
 62
     7
370
    15
100
AcDbLine
 10
-210.1583749957283
 20
-255.9061171833955
 30
0.0
 11
-210.1583749957283
 21
-156.7870619479061
 31
0.0
  0
LINE
  5
25F
330
1F
100
AcDbEntity
  8
0
  6
Continuous
 62
     7
370
    15
100
AcDbLine
 10
-210.1583749957283
 20
-286.4421296418918
 30
0.0
 11
-78.15837499572825
 21
-286.4421296418918
 31
0.0
  0
LINE
  5
260
330
1F
100
AcDbEntity
  8
0
  6
Continuous
 62
     7
370
    15
100
AcDbLine
 10
-210.1583749957283
 20
-286.4421296418918
 30
0.0
 11
-212.1583749957283
 21
-286.4421296418918
 31
0.0
  0
LINE
  5
261
330
1F
100
AcDbEntity
  8
0
  6
Continuous
 62
     7
370
    15
100
AcDbLine
 10
-212.1583749957283
 20
-285.9061171833955
 30
0.0
 11
-212.1583749957283
 21
-286.4421296418918
 31
0.0
  0
LINE
  5
262
330
1F
100
AcDbEntity
  8
0
  6
Continuous
 62
     7
370
    15
100
AcDbLine
 10
-210.1583749957283
 20
-385.9773465331502
 30
0.0
 11
-212.1583749957283
 21
-385.9773465331502
 31
0.0
  0
LINE
  5
263
330
1F
100
AcDbEntity
  8
0
  6
Continuous
 62
     7
370
    15
100
AcDbLine
 10
-212.1583749957283
 20
-286.4421296418918
 30
0.0
 11
-212.1583749957283
 21
-385.9773465331502
 31
0.0
  0
LINE
  5
264
330
1F
100
AcDbEntity
  8
0
  6
Continuous
 62
     7
370
    15
100
AcDbLine
 10
-210.1583749957283
 20
-286.4421296418918
 30
0.0
 11
-210.1583749957283
 21
-385.9773465331502
 31
0.0
  0
LINE
  5
265
330
1F
100
AcDbEntity
  8
0
  6
Continuous
 62
     7
370
    15
100
AcDbLine
 10
-210.1583749957283
 20
-396.8203457704542
 30
0.0
 11
53.84162500427175
 21
-396.8203457704542
 31
0.0
  0
LINE
  5
266
330
1F
100
AcDbEntity
  8
0
  6
Continuous
 62
     7
370
    15
100
AcDbLine
 10
53.84162500427175
 20
-396.8203457704542
 30
0.0
 11
53.84162500427163
 21
-385.9773465331502
 31
0.0
  0
LINE
  5
267
330
1F
100
AcDbEntity
  8
0
  6
Continuous
 62
     7
370
    15
100
AcDbLine
 10
53.84162500427175
 20
-369.0250112385678
 30
0.0
 11
-210.1583749957283
 21
-369.0250112385678
 31
0.0
  0
LINE
  5
268
330
1F
100
AcDbEntity
  8
0
  6
Continuous
 62
     7
370
    15
100
AcDbLine
 10
-210.1583749957283
 20
-385.9773465331502
 30
0.0
 11
-210.1583749957283
 21
-396.8203457704542
 31
0.0
  0
LINE
  5
269
330
1F
100
AcDbEntity
  8
0
  6
Continuous
 62
     7
370
    15
100
AcDbLine
 10
140.4901164289858
 20
-332.8376483121496
 30
0.0
 11
140.4901164289858
 21
-352.8376483121496
 31
0.0
  0
LINE
  5
26A
330
1F
100
AcDbEntity
  8
0
  6
Continuous
 62
     7
370
    15
100
AcDbLine
 10
130.4901164289858
 20
-332.8376483121496
 30
0.0
 11
140.4901164289858
 21
-332.8376483121496
 31
0.0
  0
LINE
  5
26B
330
1F
100
AcDbEntity
  8
0
  6
Continuous
 62
     7
370
    15
100
AcDbLine
 10
130.4901164289858
 20
-352.8376483121496
 30
0.0
 11
130.4901164289858
 21
-332.8376483121496
 31
0.0
  0
LINE
  5
26C
330
1F
100
AcDbEntity
  8
0
  6
Continuous
 62
     7
370
    15
100
AcDbLine
 10
140.4901164289858
 20
-352.8376483121496
 30
0.0
 11
130.4901164289858
 21
-352.8376483121496
 31
0.0
  0
LINE
  5
26D
330
1F
100
AcDbEntity
  8
0
  6
Continuous
 62
     7
370
    15
100
AcDbLine
 10
110.4901164289858
 20
-332.8376483121493
 30
0.0
 11
110.4901164289858
 21
-352.8376483121493
 31
0.0
  0
LINE
  5
26E
330
1F
100
AcDbEntity
  8
0
  6
Continuous
 62
     7
370
    15
100
AcDbLine
 10
100.4901164289858
 20
-332.8376483121493
 30
0.0
 11
110.4901164289858
 21
-332.8376483121493
 31
0.0
  0
LINE
  5
26F
330
1F
100
AcDbEntity
  8
0
  6
Continuous
 62
     7
370
    15
100
AcDbLine
 10
100.4901164289858
 20
-352.8376483121493
 30
0.0
 11
100.4901164289858
 21
-332.8376483121493
 31
0.0
  0
LINE
  5
270
330
1F
100
AcDbEntity
  8
0
  6
Continuous
 62
     7
370
    15
100
AcDbLine
 10
110.4901164289858
 20
-352.8376483121493
 30
0.0
 11
100.4901164289858
 21
-352.8376483121493
 31
0.0
  0
LINE
  5
271
330
1F
100
AcDbEntity
  8
0
  6
Continuous
 62
     7
370
    15
100
AcDbLine
 10
80.4901164289858
 20
-332.8376483121489
 30
0.0
 11
80.4901164289858
 21
-352.8376483121489
 31
0.0
  0
LINE
  5
272
330
1F
100
AcDbEntity
  8
0
  6
Continuous
 62
     7
370
    15
100
AcDbLine
 10
70.4901164289858
 20
-332.8376483121489
 30
0.0
 11
80.4901164289858
 21
-332.8376483121489
 31
0.0
  0
LINE
  5
273
330
1F
100
AcDbEntity
  8
0
  6
Continuous
 62
     7
370
    15
100
AcDbLine
 10
70.4901164289858
 20
-352.8376483121489
 30
0.0
 11
70.4901164289858
 21
-332.8376483121489
 31
0.0
  0
LINE
  5
274
330
1F
100
AcDbEntity
  8
0
  6
Continuous
 62
     7
370
    15
100
AcDbLine
 10
80.4901164289858
 20
-352.8376483121489
 30
0.0
 11
70.4901164289858
 21
-352.8376483121489
 31
0.0
  0
LINE
  5
275
330
1F
100
AcDbEntity
  8
0
  6
Continuous
 62
     7
370
    15
100
AcDbLine
 10
50.49011642898591
 20
-332.8376483121487
 30
0.0
 11
50.49011642898591
 21
-352.8376483121487
 31
0.0
  0
LINE
  5
276
330
1F
100
AcDbEntity
  8
0
  6
Continuous
 62
     7
370
    15
100
AcDbLine
 10
40.49011642898586
 20
-332.8376483121487
 30
0.0
 11
50.49011642898591
 21
-332.8376483121487
 31
0.0
  0
LINE
  5
277
330
1F
100
AcDbEntity
  8
0
  6
Continuous
 62
     7
370
    15
100
AcDbLine
 10
40.49011642898586
 20
-352.8376483121487
 30
0.0
 11
40.49011642898586
 21
-332.8376483121487
 31
0.0
  0
LINE
  5
278
330
1F
100
AcDbEntity
  8
0
  6
Continuous
 62
     7
370
    15
100
AcDbLine
 10
50.49011642898591
 20
-352.8376483121487
 30
0.0
 11
40.49011642898586
 21
-352.8376483121487
 31
0.0
  0
LINE
  5
279
330
1F
100
AcDbEntity
  8
0
  6
Continuous
 62
     7
370
    15
100
AcDbLine
 10
20.49011642898586
 20
-332.8376483121484
 30
0.0
 11
20.49011642898586
 21
-352.8376483121484
 31
0.0
  0
LINE
  5
27A
330
1F
100
AcDbEntity
  8
0
  6
Continuous
 62
     7
370
    15
100
AcDbLine
 10
10.49011642898586
 20
-332.8376483121484
 30
0.0
 11
20.49011642898586
 21
-332.8376483121484
 31
0.0
  0
LINE
  5
27B
330
1F
100
AcDbEntity
  8
0
  6
Continuous
 62
     7
370
    15
100
AcDbLine
 10
10.49011642898586
 20
-352.8376483121484
 30
0.0
 11
10.49011642898586
 21
-332.8376483121484
 31
0.0
  0
LINE
  5
27C
330
1F
100
AcDbEntity
  8
0
  6
Continuous
 62
     7
370
    15
100
AcDbLine
 10
20.49011642898586
 20
-352.8376483121484
 30
0.0
 11
10.49011642898586
 21
-352.8376483121484
 31
0.0
  0
LINE
  5
27D
330
1F
100
AcDbEntity
  8
0
  6
Continuous
 62
     7
370
    15
100
AcDbLine
 10
-9.509883571014142
 20
-332.837648312148
 30
0.0
 11
-9.509883571014142
 21
-352.837648312148
 31
0.0
  0
LINE
  5
27E
330
1F
100
AcDbEntity
  8
0
  6
Continuous
 62
     7
370
    15
100
AcDbLine
 10
-19.5098835710142
 20
-332.837648312148
 30
0.0
 11
-9.509883571014142
 21
-332.837648312148
 31
0.0
  0
LINE
  5
27F
330
1F
100
AcDbEntity
  8
0
  6
Continuous
 62
     7
370
    15
100
AcDbLine
 10
-19.5098835710142
 20
-352.837648312148
 30
0.0
 11
-19.5098835710142
 21
-332.837648312148
 31
0.0
  0
LINE
  5
280
330
1F
100
AcDbEntity
  8
0
  6
Continuous
 62
     7
370
    15
100
AcDbLine
 10
-9.509883571014142
 20
-352.837648312148
 30
0.0
 11
-19.5098835710142
 21
-352.837648312148
 31
0.0
  0
LINE
  5
281
330
1F
100
AcDbEntity
  8
0
  6
Continuous
 62
     7
370
    15
100
AcDbLine
 10
-39.5098835710142
 20
-332.8376483121478
 30
0.0
 11
-39.5098835710142
 21
-352.8376483121477
 31
0.0
  0
LINE
  5
282
330
1F
100
AcDbEntity
  8
0
  6
Continuous
 62
     7
370
    15
100
AcDbLine
 10
-49.5098835710142
 20
-332.8376483121478
 30
0.0
 11
-39.5098835710142
 21
-332.8376483121478
 31
0.0
  0
LINE
  5
283
330
1F
100
AcDbEntity
  8
0
  6
Continuous
 62
     7
370
    15
100
AcDbLine
 10
-49.5098835710142
 20
-352.8376483121477
 30
0.0
 11
-49.5098835710142
 21
-332.8376483121478
 31
0.0
  0
LINE
  5
284
330
1F
100
AcDbEntity
  8
0
  6
Continuous
 62
     7
370
    15
100
AcDbLine
 10
-39.5098835710142
 20
-352.8376483121477
 30
0.0
 11
-49.5098835710142
 21
-352.8376483121477
 31
0.0
  0
LINE
  5
285
330
1F
100
AcDbEntity
  8
0
  6
Continuous
 62
     7
370
    15
100
AcDbLine
 10
-69.5098835710142
 20
-332.8376483121473
 30
0.0
 11
-69.5098835710142
 21
-352.8376483121474
 31
0.0
  0
LINE
  5
286
330
1F
100
AcDbEntity
  8
0
  6
Continuous
 62
     7
370
    15
100
AcDbLine
 10
-79.5098835710142
 20
-332.8376483121473
 30
0.0
 11
-69.5098835710142
 21
-332.8376483121473
 31
0.0
  0
LINE
  5
287
330
1F
100
AcDbEntity
  8
0
  6
Continuous
 62
     7
370
    15
100
AcDbLine
 10
-79.5098835710142
 20
-352.8376483121474
 30
0.0
 11
-79.5098835710142
 21
-332.8376483121473
 31
0.0
  0
LINE
  5
288
330
1F
100
AcDbEntity
  8
0
  6
Continuous
 62
     7
370
    15
100
AcDbLine
 10
-69.5098835710142
 20
-352.8376483121474
 30
0.0
 11
-79.5098835710142
 21
-352.8376483121474
 31
0.0
  0
LINE
  5
289
330
1F
100
AcDbEntity
  8
0
  6
Continuous
 62
     7
370
    15
100
AcDbLine
 10
-99.50988357101426
 20
-332.8376483121471
 30
0.0
 11
-99.50988357101415
 21
-352.8376483121472
 31
0.0
  0
LINE
  5
28A
330
1F
100
AcDbEntity
  8
0
  6
Continuous
 62
     7
370
    15
100
AcDbLine
 10
-109.5098835710141
 20
-332.8376483121471
 30
0.0
 11
-99.50988357101426
 21
-332.8376483121471
 31
0.0
  0
LINE
  5
28B
330
1F
100
AcDbEntity
  8
0
  6
Continuous
 62
     7
370
    15
100
AcDbLine
 10
-109.5098835710141
 20
-352.8376483121472
 30
0.0
 11
-109.5098835710141
 21
-332.8376483121471
 31
0.0
  0
LINE
  5
28C
330
1F
100
AcDbEntity
  8
0
  6
Continuous
 62
     7
370
    15
100
AcDbLine
 10
-99.50988357101415
 20
-352.8376483121472
 30
0.0
 11
-109.5098835710141
 21
-352.8376483121472
 31
0.0
  0
LINE
  5
28D
330
1F
100
AcDbEntity
  8
0
  6
Continuous
 62
     7
370
    15
100
AcDbLine
 10
-129.5098835710142
 20
-332.8376483121468
 30
0.0
 11
-129.5098835710142
 21
-352.8376483121467
 31
0.0
  0
LINE
  5
28E
330
1F
100
AcDbEntity
  8
0
  6
Continuous
 62
     7
370
    15
100
AcDbLine
 10
-139.5098835710142
 20
-332.8376483121468
 30
0.0
 11
-129.5098835710142
 21
-332.8376483121468
 31
0.0
  0
LINE
  5
28F
330
1F
100
AcDbEntity
  8
0
  6
Continuous
 62
     7
370
    15
100
AcDbLine
 10
-139.5098835710142
 20
-352.8376483121467
 30
0.0
 11
-139.5098835710142
 21
-332.8376483121468
 31
0.0
  0
LINE
  5
290
330
1F
100
AcDbEntity
  8
0
  6
Continuous
 62
     7
370
    15
100
AcDbLine
 10
-129.5098835710142
 20
-352.8376483121467
 30
0.0
 11
-139.5098835710142
 21
-352.8376483121467
 31
0.0
  0
LINE
  5
291
330
1F
100
AcDbEntity
  8
0
  6
Continuous
 62
     7
370
    15
100
AcDbLine
 10
-159.5098835710141
 20
-332.8376483121465
 30
0.0
 11
-159.5098835710141
 21
-352.8376483121465
 31
0.0
  0
LINE
  5
292
330
1F
100
AcDbEntity
  8
0
  6
Continuous
 62
     7
370
    15
100
AcDbLine
 10
-169.5098835710141
 20
-332.8376483121465
 30
0.0
 11
-159.5098835710141
 21
-332.8376483121465
 31
0.0
  0
LINE
  5
293
330
1F
100
AcDbEntity
  8
0
  6
Continuous
 62
     7
370
    15
100
AcDbLine
 10
-169.5098835710141
 20
-352.8376483121465
 30
0.0
 11
-169.5098835710141
 21
-332.8376483121465
 31
0.0
  0
LINE
  5
294
330
1F
100
AcDbEntity
  8
0
  6
Continuous
 62
     7
370
    15
100
AcDbLine
 10
-159.5098835710141
 20
-352.8376483121465
 30
0.0
 11
-169.5098835710141
 21
-352.8376483121465
 31
0.0
  0
LINE
  5
295
330
1F
100
AcDbEntity
  8
0
  6
Continuous
 62
     7
370
    15
100
AcDbLine
 10
-189.5098835710142
 20
-332.8376483121461
 30
0.0
 11
-189.5098835710141
 21
-352.8376483121462
 31
0.0
  0
LINE
  5
296
330
1F
100
AcDbEntity
  8
0
  6
Continuous
 62
     7
370
    15
100
AcDbLine
 10
-199.5098835710141
 20
-332.8376483121461
 30
0.0
 11
-189.5098835710142
 21
-332.8376483121461
 31
0.0
  0
LINE
  5
297
330
1F
100
AcDbEntity
  8
0
  6
Continuous
 62
     7
370
    15
100
AcDbLine
 10
-199.5098835710141
 20
-352.8376483121462
 30
0.0
 11
-199.5098835710141
 21
-332.8376483121461
 31
0.0
  0
LINE
  5
298
330
1F
100
AcDbEntity
  8
0
  6
Continuous
 62
     7
370
    15
100
AcDbLine
 10
-189.5098835710141
 20
-352.8376483121462
 30
0.0
 11
-199.5098835710141
 21
-352.8376483121462
 31
0.0
  0
LINE
  5
299
330
1F
100
AcDbEntity
  8
0
  6
Continuous
 62
     7
370
    15
100
AcDbLine
 10
-219.5098835710142
 20
-332.8376483121458
 30
0.0
 11
-219.5098835710142
 21
-352.8376483121458
 31
0.0
  0
LINE
  5
29A
330
1F
100
AcDbEntity
  8
0
  6
Continuous
 62
     7
370
    15
100
AcDbLine
 10
-229.5098835710142
 20
-332.8376483121458
 30
0.0
 11
-219.5098835710142
 21
-332.8376483121458
 31
0.0
  0
LINE
  5
29B
330
1F
100
AcDbEntity
  8
0
  6
Continuous
 62
     7
370
    15
100
AcDbLine
 10
-229.5098835710142
 20
-352.8376483121458
 30
0.0
 11
-229.5098835710142
 21
-332.8376483121458
 31
0.0
  0
LINE
  5
29C
330
1F
100
AcDbEntity
  8
0
  6
Continuous
 62
     7
370
    15
100
AcDbLine
 10
-219.5098835710142
 20
-352.8376483121458
 30
0.0
 11
-229.5098835710142
 21
-352.8376483121458
 31
0.0
  0
LINE
  5
29D
330
1F
100
AcDbEntity
  8
0
  6
Continuous
 62
     7
370
    15
100
AcDbLine
 10
-249.5098835710142
 20
-332.8376483121456
 30
0.0
 11
-249.5098835710142
 21
-352.8376483121456
 31
0.0
  0
LINE
  5
29E
330
1F
100
AcDbEntity
  8
0
  6
Continuous
 62
     7
370
    15
100
AcDbLine
 10
-259.5098835710142
 20
-332.8376483121456
 30
0.0
 11
-249.5098835710142
 21
-332.8376483121456
 31
0.0
  0
LINE
  5
29F
330
1F
100
AcDbEntity
  8
0
  6
Continuous
 62
     7
370
    15
100
AcDbLine
 10
-259.5098835710142
 20
-352.8376483121456
 30
0.0
 11
-259.5098835710142
 21
-332.8376483121456
 31
0.0
  0
LINE
  5
2A0
330
1F
100
AcDbEntity
  8
0
  6
Continuous
 62
     7
370
    15
100
AcDbLine
 10
-249.5098835710142
 20
-352.8376483121456
 30
0.0
 11
-259.5098835710142
 21
-352.8376483121456
 31
0.0
  0
LINE
  5
2A1
330
1F
100
AcDbEntity
  8
0
  6
Continuous
 62
     7
370
    15
100
AcDbLine
 10
-279.5098835710141
 20
-332.8376483121451
 30
0.0
 11
-279.5098835710141
 21
-352.8376483121452
 31
0.0
  0
LINE
  5
2A2
330
1F
100
AcDbEntity
  8
0
  6
Continuous
 62
     7
370
    15
100
AcDbLine
 10
-289.5098835710141
 20
-332.8376483121451
 30
0.0
 11
-279.5098835710141
 21
-332.8376483121451
 31
0.0
  0
LINE
  5
2A3
330
1F
100
AcDbEntity
  8
0
  6
Continuous
 62
     7
370
    15
100
AcDbLine
 10
-289.5098835710141
 20
-352.8376483121452
 30
0.0
 11
-289.5098835710141
 21
-332.8376483121451
 31
0.0
  0
LINE
  5
2A4
330
1F
100
AcDbEntity
  8
0
  6
Continuous
 62
     7
370
    15
100
AcDbLine
 10
-279.5098835710141
 20
-352.8376483121452
 30
0.0
 11
-289.5098835710141
 21
-352.8376483121452
 31
0.0
  0
LINE
  5
2A5
330
1F
100
AcDbEntity
  8
0
  6
Continuous
 62
     7
370
    15
100
AcDbLine
 10
-311.3512340616414
 20
-328.422678504511
 30
0.0
 11
-311.3512340616414
 21
-369.0250112385678
 31
0.0
  0
LINE
  5
2A6
330
1F
100
AcDbEntity
  8
0
  6
Continuous
 62
     7
370
    15
100
AcDbLine
 10
-311.3512340616414
 20
-328.422678504511
 30
0.0
 11
-212.1583749957283
 21
-328.422678504511
 31
0.0
  0
LINE
  5
2A7
330
1F
100
AcDbEntity
  8
0
  6
Continuous
 62
     7
370
    15
100
AcDbLine
 10
-210.1583749957283
 20
-328.422678504511
 30
0.0
 11
53.84162500427175
 21
-328.422678504511
 31
0.0
  0
LINE
  5
2A8
330
1F
100
AcDbEntity
  8
0
  6
Continuous
 62
     7
370
    15
100
AcDbLine
 10
55.84162500427163
 20
-328.422678504511
 30
0.0
 11
151.6487659383585
 21
-328.422678504511
 31
0.0
  0
LINE
  5
2A9
330
1F
100
AcDbEntity
  8
0
  6
Continuous
 62
     7
370
    15
100
AcDbLine
 10
151.6487659383585
 20
-328.422678504511
 30
0.0
 11
151.6487659383585
 21
-369.0250112385678
 31
0.0
  0
LINE
  5
2AA
330
1F
100
AcDbEntity
  8
0
  6
Continuous
 62
     7
370
    15
100
AcDbLine
 10
-294.5098835710141
 20
-332.8376483121451
 30
0.0
 11
-294.5098835710141
 21
-352.8376483121451
 31
0.0
  0
LINE
  5
2AB
330
1F
100
AcDbEntity
  8
0
  6
Continuous
 62
     7
370
    15
100
AcDbLine
 10
-304.5098835710142
 20
-332.8376483121451
 30
0.0
 11
-294.5098835710141
 21
-332.8376483121451
 31
0.0
  0
LINE
  5
2AC
330
1F
100
AcDbEntity
  8
0
  6
Continuous
 62
     7
370
    15
100
AcDbLine
 10
-304.5098835710142
 20
-352.8376483121451
 30
0.0
 11
-304.5098835710142
 21
-332.8376483121451
 31
0.0
  0
LINE
  5
2AD
330
1F
100
AcDbEntity
  8
0
  6
Continuous
 62
     7
370
    15
100
AcDbLine
 10
-294.5098835710141
 20
-352.8376483121451
 30
0.0
 11
-304.5098835710142
 21
-352.8376483121451
 31
0.0
  0
LINE
  5
2AE
330
1F
100
AcDbEntity
  8
0
  6
Continuous
 62
     7
370
    15
100
AcDbLine
 10
-264.5098835710141
 20
-332.8376483121453
 30
0.0
 11
-264.5098835710141
 21
-352.8376483121454
 31
0.0
  0
LINE
  5
2AF
330
1F
100
AcDbEntity
  8
0
  6
Continuous
 62
     7
370
    15
100
AcDbLine
 10
-274.5098835710142
 20
-332.8376483121453
 30
0.0
 11
-264.5098835710141
 21
-332.8376483121453
 31
0.0
  0
LINE
  5
2B0
330
1F
100
AcDbEntity
  8
0
  6
Continuous
 62
     7
370
    15
100
AcDbLine
 10
-274.5098835710142
 20
-352.8376483121454
 30
0.0
 11
-274.5098835710142
 21
-332.8376483121453
 31
0.0
  0
LINE
  5
2B1
330
1F
100
AcDbEntity
  8
0
  6
Continuous
 62
     7
370
    15
100
AcDbLine
 10
-264.5098835710141
 20
-352.8376483121454
 30
0.0
 11
-274.5098835710142
 21
-352.8376483121454
 31
0.0
  0
LINE
  5
2B2
330
1F
100
AcDbEntity
  8
0
  6
Continuous
 62
     7
370
    15
100
AcDbLine
 10
-234.5098835710142
 20
-332.8376483121457
 30
0.0
 11
-234.5098835710142
 21
-352.8376483121457
 31
0.0
  0
LINE
  5
2B3
330
1F
100
AcDbEntity
  8
0
  6
Continuous
 62
     7
370
    15
100
AcDbLine
 10
-244.5098835710142
 20
-332.8376483121457
 30
0.0
 11
-234.5098835710142
 21
-332.8376483121457
 31
0.0
  0
LINE
  5
2B4
330
1F
100
AcDbEntity
  8
0
  6
Continuous
 62
     7
370
    15
100
AcDbLine
 10
-244.5098835710142
 20
-352.8376483121457
 30
0.0
 11
-244.5098835710142
 21
-332.8376483121457
 31
0.0
  0
LINE
  5
2B5
330
1F
100
AcDbEntity
  8
0
  6
Continuous
 62
     7
370
    15
100
AcDbLine
 10
-234.5098835710142
 20
-352.8376483121457
 30
0.0
 11
-244.5098835710142
 21
-352.8376483121457
 31
0.0
  0
LINE
  5
2B6
330
1F
100
AcDbEntity
  8
0
  6
Continuous
 62
     7
370
    15
100
AcDbLine
 10
-204.5098835710142
 20
-332.837648312146
 30
0.0
 11
-204.5098835710141
 21
-352.837648312146
 31
0.0
  0
LINE
  5
2B7
330
1F
100
AcDbEntity
  8
0
  6
Continuous
 62
     7
370
    15
100
AcDbLine
 10
-214.5098835710141
 20
-332.837648312146
 30
0.0
 11
-212.1583749957283
 21
-332.837648312146
 31
0.0
  0
LINE
  5
2B8
330
1F
100
AcDbEntity
  8
0
  6
Continuous
 62
     7
370
    15
100
AcDbLine
 10
-210.1583749957283
 20
-332.837648312146
 30
0.0
 11
-204.5098835710142
 21
-332.837648312146
 31
0.0
  0
LINE
  5
2B9
330
1F
100
AcDbEntity
  8
0
  6
Continuous
 62
     7
370
    15
100
AcDbLine
 10
-214.5098835710141
 20
-352.837648312146
 30
0.0
 11
-214.5098835710141
 21
-332.837648312146
 31
0.0
  0
LINE
  5
2BA
330
1F
100
AcDbEntity
  8
0
  6
Continuous
 62
     7
370
    15
100
AcDbLine
 10
-204.5098835710141
 20
-352.837648312146
 30
0.0
 11
-210.1583749957283
 21
-352.837648312146
 31
0.0
  0
LINE
  5
2BB
330
1F
100
AcDbEntity
  8
0
  6
Continuous
 62
     7
370
    15
100
AcDbLine
 10
-212.1583749957283
 20
-352.837648312146
 30
0.0
 11
-214.5098835710141
 21
-352.837648312146
 31
0.0
  0
LINE
  5
2BC
330
1F
100
AcDbEntity
  8
0
  6
Continuous
 62
     7
370
    15
100
AcDbLine
 10
-174.5098835710142
 20
-332.8376483121463
 30
0.0
 11
-174.5098835710142
 21
-352.8376483121463
 31
0.0
  0
LINE
  5
2BD
330
1F
100
AcDbEntity
  8
0
  6
Continuous
 62
     7
370
    15
100
AcDbLine
 10
-184.5098835710141
 20
-332.8376483121463
 30
0.0
 11
-174.5098835710142
 21
-332.8376483121463
 31
0.0
  0
LINE
  5
2BE
330
1F
100
AcDbEntity
  8
0
  6
Continuous
 62
     7
370
    15
100
AcDbLine
 10
-184.5098835710141
 20
-352.8376483121463
 30
0.0
 11
-184.5098835710141
 21
-332.8376483121463
 31
0.0
  0
LINE
  5
2BF
330
1F
100
AcDbEntity
  8
0
  6
Continuous
 62
     7
370
    15
100
AcDbLine
 10
-174.5098835710142
 20
-352.8376483121463
 30
0.0
 11
-184.5098835710141
 21
-352.8376483121463
 31
0.0
  0
LINE
  5
2C0
330
1F
100
AcDbEntity
  8
0
  6
Continuous
 62
     7
370
    15
100
AcDbLine
 10
-144.5098835710141
 20
-332.8376483121467
 30
0.0
 11
-144.5098835710141
 21
-352.8376483121466
 31
0.0
  0
LINE
  5
2C1
330
1F
100
AcDbEntity
  8
0
  6
Continuous
 62
     7
370
    15
100
AcDbLine
 10
-154.5098835710141
 20
-332.8376483121467
 30
0.0
 11
-144.5098835710141
 21
-332.8376483121467
 31
0.0
  0
LINE
  5
2C2
330
1F
100
AcDbEntity
  8
0
  6
Continuous
 62
     7
370
    15
100
AcDbLine
 10
-154.5098835710141
 20
-352.8376483121466
 30
0.0
 11
-154.5098835710141
 21
-332.8376483121467
 31
0.0
  0
LINE
  5
2C3
330
1F
100
AcDbEntity
  8
0
  6
Continuous
 62
     7
370
    15
100
AcDbLine
 10
-144.5098835710141
 20
-352.8376483121466
 30
0.0
 11
-154.5098835710141
 21
-352.8376483121466
 31
0.0
  0
LINE
  5
2C4
330
1F
100
AcDbEntity
  8
0
  6
Continuous
 62
     7
370
    15
100
AcDbLine
 10
-114.5098835710142
 20
-332.8376483121469
 30
0.0
 11
-114.5098835710141
 21
-352.837648312147
 31
0.0
  0
LINE
  5
2C5
330
1F
100
AcDbEntity
  8
0
  6
Continuous
 62
     7
370
    15
100
AcDbLine
 10
-124.5098835710142
 20
-332.8376483121469
 30
0.0
 11
-114.5098835710142
 21
-332.8376483121469
 31
0.0
  0
LINE
  5
2C6
330
1F
100
AcDbEntity
  8
0
  6
Continuous
 62
     7
370
    15
100
AcDbLine
 10
-124.5098835710142
 20
-352.837648312147
 30
0.0
 11
-124.5098835710142
 21
-332.8376483121469
 31
0.0
  0
LINE
  5
2C7
330
1F
100
AcDbEntity
  8
0
  6
Continuous
 62
     7
370
    15
100
AcDbLine
 10
-114.5098835710141
 20
-352.837648312147
 30
0.0
 11
-124.5098835710142
 21
-352.837648312147
 31
0.0
  0
LINE
  5
2C8
330
1F
100
AcDbEntity
  8
0
  6
Continuous
 62
     7
370
    15
100
AcDbLine
 10
-84.50988357101413
 20
-332.8376483121472
 30
0.0
 11
-84.50988357101413
 21
-352.8376483121473
 31
0.0
  0
LINE
  5
2C9
330
1F
100
AcDbEntity
  8
0
  6
Continuous
 62
     7
370
    15
100
AcDbLine
 10
-94.50988357101413
 20
-332.8376483121472
 30
0.0
 11
-84.50988357101413
 21
-332.8376483121472
 31
0.0
  0
LINE
  5
2CA
330
1F
100
AcDbEntity
  8
0
  6
Continuous
 62
     7
370
    15
100
AcDbLine
 10
-94.50988357101413
 20
-352.8376483121473
 30
0.0
 11
-94.50988357101413
 21
-332.8376483121472
 31
0.0
  0
LINE
  5
2CB
330
1F
100
AcDbEntity
  8
0
  6
Continuous
 62
     7
370
    15
100
AcDbLine
 10
-84.50988357101413
 20
-352.8376483121473
 30
0.0
 11
-94.50988357101413
 21
-352.8376483121473
 31
0.0
  0
LINE
  5
2CC
330
1F
100
AcDbEntity
  8
0
  6
Continuous
 62
     7
370
    15
100
AcDbLine
 10
-54.5098835710142
 20
-332.8376483121476
 30
0.0
 11
-54.5098835710142
 21
-352.8376483121476
 31
0.0
  0
LINE
  5
2CD
330
1F
100
AcDbEntity
  8
0
  6
Continuous
 62
     7
370
    15
100
AcDbLine
 10
-64.5098835710142
 20
-332.8376483121476
 30
0.0
 11
-54.5098835710142
 21
-332.8376483121476
 31
0.0
  0
LINE
  5
2CE
330
1F
100
AcDbEntity
  8
0
  6
Continuous
 62
     7
370
    15
100
AcDbLine
 10
-64.5098835710142
 20
-352.8376483121476
 30
0.0
 11
-64.5098835710142
 21
-332.8376483121476
 31
0.0
  0
LINE
  5
2CF
330
1F
100
AcDbEntity
  8
0
  6
Continuous
 62
     7
370
    15
100
AcDbLine
 10
-54.5098835710142
 20
-352.8376483121476
 30
0.0
 11
-64.5098835710142
 21
-352.8376483121476
 31
0.0
  0
LINE
  5
2D0
330
1F
100
AcDbEntity
  8
0
  6
Continuous
 62
     7
370
    15
100
AcDbLine
 10
-24.5098835710142
 20
-332.8376483121478
 30
0.0
 11
-24.5098835710142
 21
-352.8376483121478
 31
0.0
  0
LINE
  5
2D1
330
1F
100
AcDbEntity
  8
0
  6
Continuous
 62
     7
370
    15
100
AcDbLine
 10
-34.5098835710142
 20
-332.8376483121478
 30
0.0
 11
-24.5098835710142
 21
-332.8376483121478
 31
0.0
  0
LINE
  5
2D2
330
1F
100
AcDbEntity
  8
0
  6
Continuous
 62
     7
370
    15
100
AcDbLine
 10
-34.5098835710142
 20
-352.8376483121478
 30
0.0
 11
-34.5098835710142
 21
-332.8376483121478
 31
0.0
  0
LINE
  5
2D3
330
1F
100
AcDbEntity
  8
0
  6
Continuous
 62
     7
370
    15
100
AcDbLine
 10
-24.5098835710142
 20
-352.8376483121478
 30
0.0
 11
-34.5098835710142
 21
-352.8376483121478
 31
0.0
  0
LINE
  5
2D4
330
1F
100
AcDbEntity
  8
0
  6
Continuous
 62
     7
370
    15
100
AcDbLine
 10
5.490116428985857
 20
-332.8376483121482
 30
0.0
 11
5.490116428985857
 21
-352.8376483121482
 31
0.0
  0
LINE
  5
2D5
330
1F
100
AcDbEntity
  8
0
  6
Continuous
 62
     7
370
    15
100
AcDbLine
 10
-4.509883571014142
 20
-332.8376483121482
 30
0.0
 11
5.490116428985857
 21
-332.8376483121482
 31
0.0
  0
LINE
  5
2D6
330
1F
100
AcDbEntity
  8
0
  6
Continuous
 62
     7
370
    15
100
AcDbLine
 10
-4.509883571014142
 20
-352.8376483121482
 30
0.0
 11
-4.509883571014142
 21
-332.8376483121482
 31
0.0
  0
LINE
  5
2D7
330
1F
100
AcDbEntity
  8
0
  6
Continuous
 62
     7
370
    15
100
AcDbLine
 10
5.490116428985857
 20
-352.8376483121482
 30
0.0
 11
-4.509883571014142
 21
-352.8376483121482
 31
0.0
  0
LINE
  5
2D8
330
1F
100
AcDbEntity
  8
0
  6
Continuous
 62
     7
370
    15
100
AcDbLine
 10
35.49011642898586
 20
-332.8376483121485
 30
0.0
 11
35.49011642898586
 21
-352.8376483121485
 31
0.0
  0
LINE
  5
2D9
330
1F
100
AcDbEntity
  8
0
  6
Continuous
 62
     7
370
    15
100
AcDbLine
 10
25.49011642898586
 20
-332.8376483121485
 30
0.0
 11
35.49011642898586
 21
-332.8376483121485
 31
0.0
  0
LINE
  5
2DA
330
1F
100
AcDbEntity
  8
0
  6
Continuous
 62
     7
370
    15
100
AcDbLine
 10
25.49011642898586
 20
-352.8376483121485
 30
0.0
 11
25.49011642898586
 21
-332.8376483121485
 31
0.0
  0
LINE
  5
2DB
330
1F
100
AcDbEntity
  8
0
  6
Continuous
 62
     7
370
    15
100
AcDbLine
 10
35.49011642898586
 20
-352.8376483121485
 30
0.0
 11
25.49011642898586
 21
-352.8376483121485
 31
0.0
  0
LINE
  5
2DC
330
1F
100
AcDbEntity
  8
0
  6
Continuous
 62
     7
370
    15
100
AcDbLine
 10
65.49011642898591
 20
-332.8376483121488
 30
0.0
 11
65.4901164289858
 21
-352.8376483121488
 31
0.0
  0
LINE
  5
2DD
330
1F
100
AcDbEntity
  8
0
  6
Continuous
 62
     7
370
    15
100
AcDbLine
 10
55.84162500427175
 20
-332.8376483121488
 30
0.0
 11
65.49011642898591
 21
-332.8376483121488
 31
0.0
  0
LINE
  5
2DE
330
1F
100
AcDbEntity
  8
0
  6
Continuous
 62
     7
370
    15
100
AcDbLine
 10
65.4901164289858
 20
-352.8376483121488
 30
0.0
 11
55.84162500427175
 21
-352.8376483121488
 31
0.0
  0
LINE
  5
2DF
330
1F
100
AcDbEntity
  8
0
  6
Continuous
 62
     7
370
    15
100
AcDbLine
 10
95.4901164289858
 20
-332.8376483121492
 30
0.0
 11
95.4901164289858
 21
-352.8376483121491
 31
0.0
  0
LINE
  5
2E0
330
1F
100
AcDbEntity
  8
0
  6
Continuous
 62
     7
370
    15
100
AcDbLine
 10
85.4901164289858
 20
-332.8376483121492
 30
0.0
 11
95.4901164289858
 21
-332.8376483121492
 31
0.0
  0
LINE
  5
2E1
330
1F
100
AcDbEntity
  8
0
  6
Continuous
 62
     7
370
    15
100
AcDbLine
 10
85.4901164289858
 20
-352.8376483121491
 30
0.0
 11
85.4901164289858
 21
-332.8376483121492
 31
0.0
  0
LINE
  5
2E2
330
1F
100
AcDbEntity
  8
0
  6
Continuous
 62
     7
370
    15
100
AcDbLine
 10
95.4901164289858
 20
-352.8376483121491
 30
0.0
 11
85.4901164289858
 21
-352.8376483121491
 31
0.0
  0
LINE
  5
2E3
330
1F
100
AcDbEntity
  8
0
  6
Continuous
 62
     7
370
    15
100
AcDbLine
 10
125.4901164289858
 20
-332.8376483121494
 30
0.0
 11
125.4901164289858
 21
-352.8376483121495
 31
0.0
  0
LINE
  5
2E4
330
1F
100
AcDbEntity
  8
0
  6
Continuous
 62
     7
370
    15
100
AcDbLine
 10
115.4901164289858
 20
-332.8376483121494
 30
0.0
 11
125.4901164289858
 21
-332.8376483121494
 31
0.0
  0
LINE
  5
2E5
330
1F
100
AcDbEntity
  8
0
  6
Continuous
 62
     7
370
    15
100
AcDbLine
 10
115.4901164289858
 20
-352.8376483121495
 30
0.0
 11
115.4901164289858
 21
-332.8376483121494
 31
0.0
  0
LINE
  5
2E6
330
1F
100
AcDbEntity
  8
0
  6
Continuous
 62
     7
370
    15
100
AcDbLine
 10
125.4901164289858
 20
-352.8376483121495
 30
0.0
 11
115.4901164289858
 21
-352.8376483121495
 31
0.0
  0
LINE
  5
2E7
330
1F
100
AcDbEntity
  8
0
  6
Continuous
 62
     7
370
    15
100
AcDbLine
 10
-311.3512340616414
 20
-396.8203457704542
 30
0.0
 11
-210.1583749957283
 21
-396.8203457704542
 31
0.0
  0
LINE
  5
2E8
330
1F
100
AcDbEntity
  8
0
  6
Continuous
 62
     7
370
    15
100
AcDbLine
 10
-311.3512340616414
 20
-369.0250112385678
 30
0.0
 11
-311.3512340616414
 21
-396.8203457704542
 31
0.0
  0
LINE
  5
2E9
330
1F
100
AcDbEntity
  8
0
  6
Continuous
 62
     7
370
    15
100
AcDbLine
 10
151.6487659383585
 20
-369.0250112385678
 30
0.0
 11
151.6487659383585
 21
-396.8203457704542
 31
0.0
  0
LINE
  5
2EA
330
1F
100
AcDbEntity
  8
0
  6
Continuous
 62
     7
370
    15
100
AcDbLine
 10
53.84162500427175
 20
-396.8203457704542
 30
0.0
 11
151.6487659383585
 21
-396.8203457704542
 31
0.0
  0
LINE
  5
2EB
330
1F
100
AcDbEntity
  8
0
  6
Continuous
 62
     7
370
    15
100
AcDbLine
 10
130.4901164289858
 20
-432.8376483121496
 30
0.0
 11
140.4901164289858
 21
-432.8376483121496
 31
0.0
  0
LINE
  5
2EC
330
1F
100
AcDbEntity
  8
0
  6
Continuous
 62
     7
370
    15
100
AcDbLine
 10
140.4901164289858
 20
-432.8376483121496
 30
0.0
 11
140.4901164289858
 21
-412.8376483121496
 31
0.0
  0
LINE
  5
2ED
330
1F
100
AcDbEntity
  8
0
  6
Continuous
 62
     7
370
    15
100
AcDbLine
 10
140.4901164289858
 20
-412.8376483121496
 30
0.0
 11
130.4901164289858
 21
-412.8376483121496
 31
0.0
  0
LINE
  5
2EE
330
1F
100
AcDbEntity
  8
0
  6
Continuous
 62
     7
370
    15
100
AcDbLine
 10
130.4901164289858
 20
-412.8376483121496
 30
0.0
 11
130.4901164289858
 21
-432.8376483121496
 31
0.0
  0
LINE
  5
2EF
330
1F
100
AcDbEntity
  8
0
  6
Continuous
 62
     7
370
    15
100
AcDbLine
 10
100.4901164289858
 20
-432.8376483121492
 30
0.0
 11
110.4901164289858
 21
-432.8376483121492
 31
0.0
  0
LINE
  5
2F0
330
1F
100
AcDbEntity
  8
0
  6
Continuous
 62
     7
370
    15
100
AcDbLine
 10
110.4901164289858
 20
-432.8376483121492
 30
0.0
 11
110.4901164289858
 21
-412.8376483121493
 31
0.0
  0
LINE
  5
2F1
330
1F
100
AcDbEntity
  8
0
  6
Continuous
 62
     7
370
    15
100
AcDbLine
 10
110.4901164289858
 20
-412.8376483121493
 30
0.0
 11
100.4901164289858
 21
-412.8376483121493
 31
0.0
  0
LINE
  5
2F2
330
1F
100
AcDbEntity
  8
0
  6
Continuous
 62
     7
370
    15
100
AcDbLine
 10
100.4901164289858
 20
-412.8376483121493
 30
0.0
 11
100.4901164289858
 21
-432.8376483121492
 31
0.0
  0
LINE
  5
2F3
330
1F
100
AcDbEntity
  8
0
  6
Continuous
 62
     7
370
    15
100
AcDbLine
 10
70.4901164289858
 20
-432.8376483121489
 30
0.0
 11
80.4901164289858
 21
-432.8376483121489
 31
0.0
  0
LINE
  5
2F4
330
1F
100
AcDbEntity
  8
0
  6
Continuous
 62
     7
370
    15
100
AcDbLine
 10
80.4901164289858
 20
-432.8376483121489
 30
0.0
 11
80.4901164289858
 21
-412.8376483121489
 31
0.0
  0
LINE
  5
2F5
330
1F
100
AcDbEntity
  8
0
  6
Continuous
 62
     7
370
    15
100
AcDbLine
 10
80.4901164289858
 20
-412.8376483121489
 30
0.0
 11
70.4901164289858
 21
-412.8376483121489
 31
0.0
  0
LINE
  5
2F6
330
1F
100
AcDbEntity
  8
0
  6
Continuous
 62
     7
370
    15
100
AcDbLine
 10
70.4901164289858
 20
-412.8376483121489
 30
0.0
 11
70.4901164289858
 21
-432.8376483121489
 31
0.0
  0
LINE
  5
2F7
330
1F
100
AcDbEntity
  8
0
  6
Continuous
 62
     7
370
    15
100
AcDbLine
 10
40.49011642898586
 20
-432.8376483121486
 30
0.0
 11
50.49011642898591
 21
-432.8376483121486
 31
0.0
  0
LINE
  5
2F8
330
1F
100
AcDbEntity
  8
0
  6
Continuous
 62
     7
370
    15
100
AcDbLine
 10
50.49011642898591
 20
-432.8376483121486
 30
0.0
 11
50.49011642898591
 21
-412.8376483121486
 31
0.0
  0
LINE
  5
2F9
330
1F
100
AcDbEntity
  8
0
  6
Continuous
 62
     7
370
    15
100
AcDbLine
 10
50.49011642898591
 20
-412.8376483121486
 30
0.0
 11
40.49011642898586
 21
-412.8376483121486
 31
0.0
  0
LINE
  5
2FA
330
1F
100
AcDbEntity
  8
0
  6
Continuous
 62
     7
370
    15
100
AcDbLine
 10
40.49011642898586
 20
-412.8376483121486
 30
0.0
 11
40.49011642898586
 21
-432.8376483121486
 31
0.0
  0
LINE
  5
2FB
330
1F
100
AcDbEntity
  8
0
  6
Continuous
 62
     7
370
    15
100
AcDbLine
 10
10.49011642898586
 20
-432.8376483121482
 30
0.0
 11
20.49011642898586
 21
-432.8376483121482
 31
0.0
  0
LINE
  5
2FC
330
1F
100
AcDbEntity
  8
0
  6
Continuous
 62
     7
370
    15
100
AcDbLine
 10
20.49011642898586
 20
-432.8376483121482
 30
0.0
 11
20.49011642898586
 21
-412.8376483121483
 31
0.0
  0
LINE
  5
2FD
330
1F
100
AcDbEntity
  8
0
  6
Continuous
 62
     7
370
    15
100
AcDbLine
 10
20.49011642898586
 20
-412.8376483121483
 30
0.0
 11
10.49011642898586
 21
-412.8376483121483
 31
0.0
  0
LINE
  5
2FE
330
1F
100
AcDbEntity
  8
0
  6
Continuous
 62
     7
370
    15
100
AcDbLine
 10
10.49011642898586
 20
-412.8376483121483
 30
0.0
 11
10.49011642898586
 21
-432.8376483121482
 31
0.0
  0
LINE
  5
2FF
330
1F
100
AcDbEntity
  8
0
  6
Continuous
 62
     7
370
    15
100
AcDbLine
 10
-19.5098835710142
 20
-432.8376483121481
 30
0.0
 11
-9.509883571014142
 21
-432.8376483121481
 31
0.0
  0
LINE
  5
300
330
1F
100
AcDbEntity
  8
0
  6
Continuous
 62
     7
370
    15
100
AcDbLine
 10
-9.509883571014142
 20
-432.8376483121481
 30
0.0
 11
-9.509883571014142
 21
-412.837648312148
 31
0.0
  0
LINE
  5
301
330
1F
100
AcDbEntity
  8
0
  6
Continuous
 62
     7
370
    15
100
AcDbLine
 10
-9.509883571014142
 20
-412.837648312148
 30
0.0
 11
-19.5098835710142
 21
-412.837648312148
 31
0.0
  0
LINE
  5
302
330
1F
100
AcDbEntity
  8
0
  6
Continuous
 62
     7
370
    15
100
AcDbLine
 10
-19.5098835710142
 20
-412.837648312148
 30
0.0
 11
-19.5098835710142
 21
-432.8376483121481
 31
0.0
  0
LINE
  5
303
330
1F
100
AcDbEntity
  8
0
  6
Continuous
 62
     7
370
    15
100
AcDbLine
 10
-49.5098835710142
 20
-432.8376483121477
 30
0.0
 11
-39.5098835710142
 21
-432.8376483121477
 31
0.0
  0
LINE
  5
304
330
1F
100
AcDbEntity
  8
0
  6
Continuous
 62
     7
370
    15
100
AcDbLine
 10
-39.5098835710142
 20
-432.8376483121477
 30
0.0
 11
-39.5098835710142
 21
-412.8376483121476
 31
0.0
  0
LINE
  5
305
330
1F
100
AcDbEntity
  8
0
  6
Continuous
 62
     7
370
    15
100
AcDbLine
 10
-39.5098835710142
 20
-412.8376483121476
 30
0.0
 11
-49.5098835710142
 21
-412.8376483121476
 31
0.0
  0
LINE
  5
306
330
1F
100
AcDbEntity
  8
0
  6
Continuous
 62
     7
370
    15
100
AcDbLine
 10
-49.5098835710142
 20
-412.8376483121476
 30
0.0
 11
-49.5098835710142
 21
-432.8376483121477
 31
0.0
  0
LINE
  5
307
330
1F
100
AcDbEntity
  8
0
  6
Continuous
 62
     7
370
    15
100
AcDbLine
 10
-79.5098835710142
 20
-432.8376483121473
 30
0.0
 11
-69.5098835710142
 21
-432.8376483121473
 31
0.0
  0
LINE
  5
308
330
1F
100
AcDbEntity
  8
0
  6
Continuous
 62
     7
370
    15
100
AcDbLine
 10
-69.5098835710142
 20
-432.8376483121473
 30
0.0
 11
-69.5098835710142
 21
-412.8376483121474
 31
0.0
  0
LINE
  5
309
330
1F
100
AcDbEntity
  8
0
  6
Continuous
 62
     7
370
    15
100
AcDbLine
 10
-69.5098835710142
 20
-412.8376483121474
 30
0.0
 11
-79.5098835710142
 21
-412.8376483121474
 31
0.0
  0
LINE
  5
30A
330
1F
100
AcDbEntity
  8
0
  6
Continuous
 62
     7
370
    15
100
AcDbLine
 10
-79.5098835710142
 20
-412.8376483121474
 30
0.0
 11
-79.5098835710142
 21
-432.8376483121473
 31
0.0
  0
LINE
  5
30B
330
1F
100
AcDbEntity
  8
0
  6
Continuous
 62
     7
370
    15
100
AcDbLine
 10
-109.5098835710141
 20
-432.8376483121471
 30
0.0
 11
-99.50988357101415
 21
-432.8376483121471
 31
0.0
  0
LINE
  5
30C
330
1F
100
AcDbEntity
  8
0
  6
Continuous
 62
     7
370
    15
100
AcDbLine
 10
-99.50988357101415
 20
-432.8376483121471
 30
0.0
 11
-99.50988357101426
 21
-412.8376483121471
 31
0.0
  0
LINE
  5
30D
330
1F
100
AcDbEntity
  8
0
  6
Continuous
 62
     7
370
    15
100
AcDbLine
 10
-99.50988357101426
 20
-412.8376483121471
 30
0.0
 11
-109.5098835710141
 21
-412.8376483121471
 31
0.0
  0
LINE
  5
30E
330
1F
100
AcDbEntity
  8
0
  6
Continuous
 62
     7
370
    15
100
AcDbLine
 10
-109.5098835710141
 20
-412.8376483121471
 30
0.0
 11
-109.5098835710141
 21
-432.8376483121471
 31
0.0
  0
LINE
  5
30F
330
1F
100
AcDbEntity
  8
0
  6
Continuous
 62
     7
370
    15
100
AcDbLine
 10
-139.5098835710142
 20
-432.8376483121467
 30
0.0
 11
-129.5098835710142
 21
-432.8376483121467
 31
0.0
  0
LINE
  5
310
330
1F
100
AcDbEntity
  8
0
  6
Continuous
 62
     7
370
    15
100
AcDbLine
 10
-129.5098835710142
 20
-432.8376483121467
 30
0.0
 11
-129.5098835710142
 21
-412.8376483121467
 31
0.0
  0
LINE
  5
311
330
1F
100
AcDbEntity
  8
0
  6
Continuous
 62
     7
370
    15
100
AcDbLine
 10
-129.5098835710142
 20
-412.8376483121467
 30
0.0
 11
-139.5098835710142
 21
-412.8376483121467
 31
0.0
  0
LINE
  5
312
330
1F
100
AcDbEntity
  8
0
  6
Continuous
 62
     7
370
    15
100
AcDbLine
 10
-139.5098835710142
 20
-412.8376483121467
 30
0.0
 11
-139.5098835710142
 21
-432.8376483121467
 31
0.0
  0
LINE
  5
313
330
1F
100
AcDbEntity
  8
0
  6
Continuous
 62
     7
370
    15
100
AcDbLine
 10
-169.5098835710141
 20
-432.8376483121464
 30
0.0
 11
-159.5098835710141
 21
-432.8376483121464
 31
0.0
  0
LINE
  5
314
330
1F
100
AcDbEntity
  8
0
  6
Continuous
 62
     7
370
    15
100
AcDbLine
 10
-159.5098835710141
 20
-432.8376483121464
 30
0.0
 11
-159.5098835710141
 21
-412.8376483121465
 31
0.0
  0
LINE
  5
315
330
1F
100
AcDbEntity
  8
0
  6
Continuous
 62
     7
370
    15
100
AcDbLine
 10
-159.5098835710141
 20
-412.8376483121465
 30
0.0
 11
-169.5098835710141
 21
-412.8376483121465
 31
0.0
  0
LINE
  5
316
330
1F
100
AcDbEntity
  8
0
  6
Continuous
 62
     7
370
    15
100
AcDbLine
 10
-169.5098835710141
 20
-412.8376483121465
 30
0.0
 11
-169.5098835710141
 21
-432.8376483121464
 31
0.0
  0
LINE
  5
317
330
1F
100
AcDbEntity
  8
0
  6
Continuous
 62
     7
370
    15
100
AcDbLine
 10
-199.5098835710141
 20
-432.8376483121461
 30
0.0
 11
-189.5098835710141
 21
-432.8376483121461
 31
0.0
  0
LINE
  5
318
330
1F
100
AcDbEntity
  8
0
  6
Continuous
 62
     7
370
    15
100
AcDbLine
 10
-189.5098835710141
 20
-432.8376483121461
 30
0.0
 11
-189.5098835710142
 21
-412.8376483121461
 31
0.0
  0
LINE
  5
319
330
1F
100
AcDbEntity
  8
0
  6
Continuous
 62
     7
370
    15
100
AcDbLine
 10
-189.5098835710142
 20
-412.8376483121461
 30
0.0
 11
-199.5098835710141
 21
-412.8376483121461
 31
0.0
  0
LINE
  5
31A
330
1F
100
AcDbEntity
  8
0
  6
Continuous
 62
     7
370
    15
100
AcDbLine
 10
-199.5098835710141
 20
-412.8376483121461
 30
0.0
 11
-199.5098835710141
 21
-432.8376483121461
 31
0.0
  0
LINE
  5
31B
330
1F
100
AcDbEntity
  8
0
  6
Continuous
 62
     7
370
    15
100
AcDbLine
 10
-229.5098835710142
 20
-432.8376483121458
 30
0.0
 11
-219.5098835710142
 21
-432.8376483121458
 31
0.0
  0
LINE
  5
31C
330
1F
100
AcDbEntity
  8
0
  6
Continuous
 62
     7
370
    15
100
AcDbLine
 10
-219.5098835710142
 20
-432.8376483121458
 30
0.0
 11
-219.5098835710142
 21
-412.8376483121458
 31
0.0
  0
LINE
  5
31D
330
1F
100
AcDbEntity
  8
0
  6
Continuous
 62
     7
370
    15
100
AcDbLine
 10
-219.5098835710142
 20
-412.8376483121458
 30
0.0
 11
-229.5098835710142
 21
-412.8376483121458
 31
0.0
  0
LINE
  5
31E
330
1F
100
AcDbEntity
  8
0
  6
Continuous
 62
     7
370
    15
100
AcDbLine
 10
-229.5098835710142
 20
-412.8376483121458
 30
0.0
 11
-229.5098835710142
 21
-432.8376483121458
 31
0.0
  0
LINE
  5
31F
330
1F
100
AcDbEntity
  8
0
  6
Continuous
 62
     7
370
    15
100
AcDbLine
 10
-259.5098835710142
 20
-432.8376483121456
 30
0.0
 11
-249.5098835710142
 21
-432.8376483121456
 31
0.0
  0
LINE
  5
320
330
1F
100
AcDbEntity
  8
0
  6
Continuous
 62
     7
370
    15
100
AcDbLine
 10
-249.5098835710142
 20
-432.8376483121456
 30
0.0
 11
-249.5098835710142
 21
-412.8376483121455
 31
0.0
  0
LINE
  5
321
330
1F
100
AcDbEntity
  8
0
  6
Continuous
 62
     7
370
    15
100
AcDbLine
 10
-249.5098835710142
 20
-412.8376483121455
 30
0.0
 11
-259.5098835710142
 21
-412.8376483121455
 31
0.0
  0
LINE
  5
322
330
1F
100
AcDbEntity
  8
0
  6
Continuous
 62
     7
370
    15
100
AcDbLine
 10
-259.5098835710142
 20
-412.8376483121455
 30
0.0
 11
-259.5098835710142
 21
-432.8376483121456
 31
0.0
  0
LINE
  5
323
330
1F
100
AcDbEntity
  8
0
  6
Continuous
 62
     7
370
    15
100
AcDbLine
 10
-289.5098835710141
 20
-432.8376483121452
 30
0.0
 11
-279.5098835710141
 21
-432.8376483121452
 31
0.0
  0
LINE
  5
324
330
1F
100
AcDbEntity
  8
0
  6
Continuous
 62
     7
370
    15
100
AcDbLine
 10
-279.5098835710141
 20
-432.8376483121452
 30
0.0
 11
-279.5098835710141
 21
-412.8376483121451
 31
0.0
  0
LINE
  5
325
330
1F
100
AcDbEntity
  8
0
  6
Continuous
 62
     7
370
    15
100
AcDbLine
 10
-279.5098835710141
 20
-412.8376483121451
 30
0.0
 11
-289.5098835710141
 21
-412.8376483121451
 31
0.0
  0
LINE
  5
326
330
1F
100
AcDbEntity
  8
0
  6
Continuous
 62
     7
370
    15
100
AcDbLine
 10
-289.5098835710141
 20
-412.8376483121451
 30
0.0
 11
-289.5098835710141
 21
-432.8376483121452
 31
0.0
  0
LINE
  5
327
330
1F
100
AcDbEntity
  8
0
  6
Continuous
 62
     7
370
    15
100
AcDbLine
 10
-311.3512340616414
 20
-437.422678504511
 30
0.0
 11
151.6487659383585
 21
-437.422678504511
 31
0.0
  0
LINE
  5
328
330
1F
100
AcDbEntity
  8
0
  6
Continuous
 62
     7
370
    15
100
AcDbLine
 10
-311.3512340616414
 20
-437.422678504511
 30
0.0
 11
-311.3512340616414
 21
-396.8203457704542
 31
0.0
  0
LINE
  5
329
330
1F
100
AcDbEntity
  8
0
  6
Continuous
 62
     7
370
    15
100
AcDbLine
 10
151.6487659383585
 20
-437.422678504511
 30
0.0
 11
151.6487659383585
 21
-396.8203457704542
 31
0.0
  0
LINE
  5
32A
330
1F
100
AcDbEntity
  8
0
  6
Continuous
 62
     7
370
    15
100
AcDbLine
 10
-304.5098835710142
 20
-432.837648312145
 30
0.0
 11
-294.5098835710141
 21
-432.837648312145
 31
0.0
  0
LINE
  5
32B
330
1F
100
AcDbEntity
  8
0
  6
Continuous
 62
     7
370
    15
100
AcDbLine
 10
-294.5098835710141
 20
-432.837648312145
 30
0.0
 11
-294.5098835710141
 21
-412.8376483121449
 31
0.0
  0
LINE
  5
32C
330
1F
100
AcDbEntity
  8
0
  6
Continuous
 62
     7
370
    15
100
AcDbLine
 10
-294.5098835710141
 20
-412.8376483121449
 30
0.0
 11
-304.5098835710142
 21
-412.8376483121449
 31
0.0
  0
LINE
  5
32D
330
1F
100
AcDbEntity
  8
0
  6
Continuous
 62
     7
370
    15
100
AcDbLine
 10
-304.5098835710142
 20
-412.8376483121449
 30
0.0
 11
-304.5098835710142
 21
-432.837648312145
 31
0.0
  0
LINE
  5
32E
330
1F
100
AcDbEntity
  8
0
  6
Continuous
 62
     7
370
    15
100
AcDbLine
 10
-274.5098835710142
 20
-432.8376483121453
 30
0.0
 11
-264.5098835710141
 21
-432.8376483121453
 31
0.0
  0
LINE
  5
32F
330
1F
100
AcDbEntity
  8
0
  6
Continuous
 62
     7
370
    15
100
AcDbLine
 10
-264.5098835710141
 20
-432.8376483121453
 30
0.0
 11
-264.5098835710141
 21
-412.8376483121454
 31
0.0
  0
LINE
  5
330
330
1F
100
AcDbEntity
  8
0
  6
Continuous
 62
     7
370
    15
100
AcDbLine
 10
-264.5098835710141
 20
-412.8376483121454
 30
0.0
 11
-274.5098835710142
 21
-412.8376483121454
 31
0.0
  0
LINE
  5
331
330
1F
100
AcDbEntity
  8
0
  6
Continuous
 62
     7
370
    15
100
AcDbLine
 10
-274.5098835710142
 20
-412.8376483121454
 30
0.0
 11
-274.5098835710142
 21
-432.8376483121453
 31
0.0
  0
LINE
  5
332
330
1F
100
AcDbEntity
  8
0
  6
Continuous
 62
     7
370
    15
100
AcDbLine
 10
-244.5098835710142
 20
-432.8376483121457
 30
0.0
 11
-234.5098835710142
 21
-432.8376483121457
 31
0.0
  0
LINE
  5
333
330
1F
100
AcDbEntity
  8
0
  6
Continuous
 62
     7
370
    15
100
AcDbLine
 10
-234.5098835710142
 20
-432.8376483121457
 30
0.0
 11
-234.5098835710142
 21
-412.8376483121455
 31
0.0
  0
LINE
  5
334
330
1F
100
AcDbEntity
  8
0
  6
Continuous
 62
     7
370
    15
100
AcDbLine
 10
-234.5098835710142
 20
-412.8376483121455
 30
0.0
 11
-244.5098835710142
 21
-412.8376483121455
 31
0.0
  0
LINE
  5
335
330
1F
100
AcDbEntity
  8
0
  6
Continuous
 62
     7
370
    15
100
AcDbLine
 10
-244.5098835710142
 20
-412.8376483121455
 30
0.0
 11
-244.5098835710142
 21
-432.8376483121457
 31
0.0
  0
LINE
  5
336
330
1F
100
AcDbEntity
  8
0
  6
Continuous
 62
     7
370
    15
100
AcDbLine
 10
-214.5098835710141
 20
-432.8376483121459
 30
0.0
 11
-204.5098835710141
 21
-432.8376483121459
 31
0.0
  0
LINE
  5
337
330
1F
100
AcDbEntity
  8
0
  6
Continuous
 62
     7
370
    15
100
AcDbLine
 10
-204.5098835710141
 20
-432.8376483121459
 30
0.0
 11
-204.5098835710142
 21
-412.8376483121459
 31
0.0
  0
LINE
  5
338
330
1F
100
AcDbEntity
  8
0
  6
Continuous
 62
     7
370
    15
100
AcDbLine
 10
-204.5098835710142
 20
-412.8376483121459
 30
0.0
 11
-214.5098835710141
 21
-412.8376483121459
 31
0.0
  0
LINE
  5
339
330
1F
100
AcDbEntity
  8
0
  6
Continuous
 62
     7
370
    15
100
AcDbLine
 10
-214.5098835710141
 20
-412.8376483121459
 30
0.0
 11
-214.5098835710141
 21
-432.8376483121459
 31
0.0
  0
LINE
  5
33A
330
1F
100
AcDbEntity
  8
0
  6
Continuous
 62
     7
370
    15
100
AcDbLine
 10
-184.5098835710141
 20
-432.8376483121463
 30
0.0
 11
-174.5098835710142
 21
-432.8376483121463
 31
0.0
  0
LINE
  5
33B
330
1F
100
AcDbEntity
  8
0
  6
Continuous
 62
     7
370
    15
100
AcDbLine
 10
-174.5098835710142
 20
-432.8376483121463
 30
0.0
 11
-174.5098835710142
 21
-412.8376483121463
 31
0.0
  0
LINE
  5
33C
330
1F
100
AcDbEntity
  8
0
  6
Continuous
 62
     7
370
    15
100
AcDbLine
 10
-174.5098835710142
 20
-412.8376483121463
 30
0.0
 11
-184.5098835710141
 21
-412.8376483121463
 31
0.0
  0
LINE
  5
33D
330
1F
100
AcDbEntity
  8
0
  6
Continuous
 62
     7
370
    15
100
AcDbLine
 10
-184.5098835710141
 20
-412.8376483121463
 30
0.0
 11
-184.5098835710141
 21
-432.8376483121463
 31
0.0
  0
LINE
  5
33E
330
1F
100
AcDbEntity
  8
0
  6
Continuous
 62
     7
370
    15
100
AcDbLine
 10
-154.5098835710141
 20
-432.8376483121465
 30
0.0
 11
-144.5098835710141
 21
-432.8376483121465
 31
0.0
  0
LINE
  5
33F
330
1F
100
AcDbEntity
  8
0
  6
Continuous
 62
     7
370
    15
100
AcDbLine
 10
-144.5098835710141
 20
-432.8376483121465
 30
0.0
 11
-144.5098835710141
 21
-412.8376483121466
 31
0.0
  0
LINE
  5
340
330
1F
100
AcDbEntity
  8
0
  6
Continuous
 62
     7
370
    15
100
AcDbLine
 10
-144.5098835710141
 20
-412.8376483121466
 30
0.0
 11
-154.5098835710141
 21
-412.8376483121466
 31
0.0
  0
LINE
  5
341
330
1F
100
AcDbEntity
  8
0
  6
Continuous
 62
     7
370
    15
100
AcDbLine
 10
-154.5098835710141
 20
-412.8376483121466
 30
0.0
 11
-154.5098835710141
 21
-432.8376483121465
 31
0.0
  0
LINE
  5
342
330
1F
100
AcDbEntity
  8
0
  6
Continuous
 62
     7
370
    15
100
AcDbLine
 10
-124.5098835710142
 20
-432.8376483121469
 30
0.0
 11
-114.5098835710141
 21
-432.8376483121469
 31
0.0
  0
LINE
  5
343
330
1F
100
AcDbEntity
  8
0
  6
Continuous
 62
     7
370
    15
100
AcDbLine
 10
-114.5098835710141
 20
-432.8376483121469
 30
0.0
 11
-114.5098835710142
 21
-412.837648312147
 31
0.0
  0
LINE
  5
344
330
1F
100
AcDbEntity
  8
0
  6
Continuous
 62
     7
370
    15
100
AcDbLine
 10
-114.5098835710142
 20
-412.837648312147
 30
0.0
 11
-124.5098835710142
 21
-412.837648312147
 31
0.0
  0
LINE
  5
345
330
1F
100
AcDbEntity
  8
0
  6
Continuous
 62
     7
370
    15
100
AcDbLine
 10
-124.5098835710142
 20
-412.837648312147
 30
0.0
 11
-124.5098835710142
 21
-432.8376483121469
 31
0.0
  0
LINE
  5
346
330
1F
100
AcDbEntity
  8
0
  6
Continuous
 62
     7
370
    15
100
AcDbLine
 10
-94.50988357101413
 20
-432.8376483121472
 30
0.0
 11
-84.50988357101413
 21
-432.8376483121472
 31
0.0
  0
LINE
  5
347
330
1F
100
AcDbEntity
  8
0
  6
Continuous
 62
     7
370
    15
100
AcDbLine
 10
-84.50988357101413
 20
-432.8376483121472
 30
0.0
 11
-84.50988357101413
 21
-412.8376483121471
 31
0.0
  0
LINE
  5
348
330
1F
100
AcDbEntity
  8
0
  6
Continuous
 62
     7
370
    15
100
AcDbLine
 10
-84.50988357101413
 20
-412.8376483121471
 30
0.0
 11
-94.50988357101413
 21
-412.8376483121471
 31
0.0
  0
LINE
  5
349
330
1F
100
AcDbEntity
  8
0
  6
Continuous
 62
     7
370
    15
100
AcDbLine
 10
-94.50988357101413
 20
-412.8376483121471
 30
0.0
 11
-94.50988357101413
 21
-432.8376483121472
 31
0.0
  0
LINE
  5
34A
330
1F
100
AcDbEntity
  8
0
  6
Continuous
 62
     7
370
    15
100
AcDbLine
 10
-64.5098835710142
 20
-432.8376483121475
 30
0.0
 11
-54.5098835710142
 21
-432.8376483121475
 31
0.0
  0
LINE
  5
34B
330
1F
100
AcDbEntity
  8
0
  6
Continuous
 62
     7
370
    15
100
AcDbLine
 10
-54.5098835710142
 20
-432.8376483121475
 30
0.0
 11
-54.5098835710142
 21
-412.8376483121475
 31
0.0
  0
LINE
  5
34C
330
1F
100
AcDbEntity
  8
0
  6
Continuous
 62
     7
370
    15
100
AcDbLine
 10
-54.5098835710142
 20
-412.8376483121475
 30
0.0
 11
-64.5098835710142
 21
-412.8376483121475
 31
0.0
  0
LINE
  5
34D
330
1F
100
AcDbEntity
  8
0
  6
Continuous
 62
     7
370
    15
100
AcDbLine
 10
-64.5098835710142
 20
-412.8376483121475
 30
0.0
 11
-64.5098835710142
 21
-432.8376483121475
 31
0.0
  0
LINE
  5
34E
330
1F
100
AcDbEntity
  8
0
  6
Continuous
 62
     7
370
    15
100
AcDbLine
 10
-34.5098835710142
 20
-432.8376483121479
 30
0.0
 11
-24.5098835710142
 21
-432.8376483121479
 31
0.0
  0
LINE
  5
34F
330
1F
100
AcDbEntity
  8
0
  6
Continuous
 62
     7
370
    15
100
AcDbLine
 10
-24.5098835710142
 20
-432.8376483121479
 30
0.0
 11
-24.5098835710142
 21
-412.8376483121478
 31
0.0
  0
LINE
  5
350
330
1F
100
AcDbEntity
  8
0
  6
Continuous
 62
     7
370
    15
100
AcDbLine
 10
-24.5098835710142
 20
-412.8376483121478
 30
0.0
 11
-34.5098835710142
 21
-412.8376483121478
 31
0.0
  0
LINE
  5
351
330
1F
100
AcDbEntity
  8
0
  6
Continuous
 62
     7
370
    15
100
AcDbLine
 10
-34.5098835710142
 20
-412.8376483121478
 30
0.0
 11
-34.5098835710142
 21
-432.8376483121479
 31
0.0
  0
LINE
  5
352
330
1F
100
AcDbEntity
  8
0
  6
Continuous
 62
     7
370
    15
100
AcDbLine
 10
-4.509883571014142
 20
-432.8376483121482
 30
0.0
 11
5.490116428985857
 21
-432.8376483121482
 31
0.0
  0
LINE
  5
353
330
1F
100
AcDbEntity
  8
0
  6
Continuous
 62
     7
370
    15
100
AcDbLine
 10
5.490116428985857
 20
-432.8376483121482
 30
0.0
 11
5.490116428985857
 21
-412.8376483121481
 31
0.0
  0
LINE
  5
354
330
1F
100
AcDbEntity
  8
0
  6
Continuous
 62
     7
370
    15
100
AcDbLine
 10
5.490116428985857
 20
-412.8376483121481
 30
0.0
 11
-4.509883571014142
 21
-412.8376483121481
 31
0.0
  0
LINE
  5
355
330
1F
100
AcDbEntity
  8
0
  6
Continuous
 62
     7
370
    15
100
AcDbLine
 10
-4.509883571014142
 20
-412.8376483121481
 30
0.0
 11
-4.509883571014142
 21
-432.8376483121482
 31
0.0
  0
LINE
  5
356
330
1F
100
AcDbEntity
  8
0
  6
Continuous
 62
     7
370
    15
100
AcDbLine
 10
25.49011642898586
 20
-432.8376483121484
 30
0.0
 11
35.49011642898586
 21
-432.8376483121484
 31
0.0
  0
LINE
  5
357
330
1F
100
AcDbEntity
  8
0
  6
Continuous
 62
     7
370
    15
100
AcDbLine
 10
35.49011642898586
 20
-432.8376483121484
 30
0.0
 11
35.49011642898586
 21
-412.8376483121485
 31
0.0
  0
LINE
  5
358
330
1F
100
AcDbEntity
  8
0
  6
Continuous
 62
     7
370
    15
100
AcDbLine
 10
35.49011642898586
 20
-412.8376483121485
 30
0.0
 11
25.49011642898586
 21
-412.8376483121485
 31
0.0
  0
LINE
  5
359
330
1F
100
AcDbEntity
  8
0
  6
Continuous
 62
     7
370
    15
100
AcDbLine
 10
25.49011642898586
 20
-412.8376483121485
 30
0.0
 11
25.49011642898586
 21
-432.8376483121484
 31
0.0
  0
LINE
  5
35A
330
1F
100
AcDbEntity
  8
0
  6
Continuous
 62
     7
370
    15
100
AcDbLine
 10
55.49011642898591
 20
-432.8376483121488
 30
0.0
 11
65.4901164289858
 21
-432.8376483121488
 31
0.0
  0
LINE
  5
35B
330
1F
100
AcDbEntity
  8
0
  6
Continuous
 62
     7
370
    15
100
AcDbLine
 10
65.4901164289858
 20
-432.8376483121488
 30
0.0
 11
65.49011642898591
 21
-412.8376483121487
 31
0.0
  0
LINE
  5
35C
330
1F
100
AcDbEntity
  8
0
  6
Continuous
 62
     7
370
    15
100
AcDbLine
 10
65.49011642898591
 20
-412.8376483121487
 30
0.0
 11
55.49011642898591
 21
-412.8376483121487
 31
0.0
  0
LINE
  5
35D
330
1F
100
AcDbEntity
  8
0
  6
Continuous
 62
     7
370
    15
100
AcDbLine
 10
55.49011642898591
 20
-412.8376483121487
 30
0.0
 11
55.49011642898591
 21
-432.8376483121488
 31
0.0
  0
LINE
  5
35E
330
1F
100
AcDbEntity
  8
0
  6
Continuous
 62
     7
370
    15
100
AcDbLine
 10
85.4901164289858
 20
-432.837648312149
 30
0.0
 11
95.4901164289858
 21
-432.837648312149
 31
0.0
  0
LINE
  5
35F
330
1F
100
AcDbEntity
  8
0
  6
Continuous
 62
     7
370
    15
100
AcDbLine
 10
95.4901164289858
 20
-432.837648312149
 30
0.0
 11
95.4901164289858
 21
-412.8376483121492
 31
0.0
  0
LINE
  5
360
330
1F
100
AcDbEntity
  8
0
  6
Continuous
 62
     7
370
    15
100
AcDbLine
 10
95.4901164289858
 20
-412.8376483121492
 30
0.0
 11
85.4901164289858
 21
-412.8376483121492
 31
0.0
  0
LINE
  5
361
330
1F
100
AcDbEntity
  8
0
  6
Continuous
 62
     7
370
    15
100
AcDbLine
 10
85.4901164289858
 20
-412.8376483121492
 30
0.0
 11
85.4901164289858
 21
-432.837648312149
 31
0.0
  0
LINE
  5
362
330
1F
100
AcDbEntity
  8
0
  6
Continuous
 62
     7
370
    15
100
AcDbLine
 10
115.4901164289858
 20
-432.8376483121494
 30
0.0
 11
125.4901164289858
 21
-432.8376483121494
 31
0.0
  0
LINE
  5
363
330
1F
100
AcDbEntity
  8
0
  6
Continuous
 62
     7
370
    15
100
AcDbLine
 10
125.4901164289858
 20
-432.8376483121494
 30
0.0
 11
125.4901164289858
 21
-412.8376483121494
 31
0.0
  0
LINE
  5
364
330
1F
100
AcDbEntity
  8
0
  6
Continuous
 62
     7
370
    15
100
AcDbLine
 10
125.4901164289858
 20
-412.8376483121494
 30
0.0
 11
115.4901164289858
 21
-412.8376483121494
 31
0.0
  0
LINE
  5
365
330
1F
100
AcDbEntity
  8
0
  6
Continuous
 62
     7
370
    15
100
AcDbLine
 10
115.4901164289858
 20
-412.8376483121494
 30
0.0
 11
115.4901164289858
 21
-432.8376483121494
 31
0.0
  0
LINE
  5
366
330
1F
100
AcDbEntity
  8
0
  6
Continuous
 62
     7
370
    15
100
AcDbLine
 10
-210.1583749957283
 20
-176.8203457704542
 30
0.0
 11
53.84162500427175
 21
-176.8203457704542
 31
0.0
  0
LINE
  5
367
330
1F
100
AcDbEntity
  8
0
  6
Continuous
 62
     7
370
    15
100
AcDbLine
 10
53.84162500427175
 20
-156.7870619479062
 30
0.0
 11
53.84162500427175
 21
-149.0250112385678
 31
0.0
  0
LINE
  5
368
330
1F
100
AcDbEntity
  8
0
  6
Continuous
 62
     7
370
    15
100
AcDbLine
 10
-210.1583749957283
 20
-149.0250112385678
 30
0.0
 11
-210.1583749957283
 21
-156.7870619479062
 31
0.0
  0
LINE
  5
369
330
1F
100
AcDbEntity
  8
0
  6
Continuous
 62
     7
370
    15
100
AcDbLine
 10
53.84162500427175
 20
-149.0250112385678
 30
0.0
 11
-210.1583749957283
 21
-149.0250112385678
 31
0.0
  0
LINE
  5
36A
330
1F
100
AcDbEntity
  8
0
  6
Continuous
 62
     7
370
    15
100
AcDbLine
 10
140.4901164289858
 20
-112.8376483121496
 30
0.0
 11
140.4901164289858
 21
-132.8376483121496
 31
0.0
  0
LINE
  5
36B
330
1F
100
AcDbEntity
  8
0
  6
Continuous
 62
     7
370
    15
100
AcDbLine
 10
130.4901164289858
 20
-112.8376483121496
 30
0.0
 11
140.4901164289858
 21
-112.8376483121496
 31
0.0
  0
LINE
  5
36C
330
1F
100
AcDbEntity
  8
0
  6
Continuous
 62
     7
370
    15
100
AcDbLine
 10
130.4901164289858
 20
-132.8376483121496
 30
0.0
 11
130.4901164289858
 21
-112.8376483121496
 31
0.0
  0
LINE
  5
36D
330
1F
100
AcDbEntity
  8
0
  6
Continuous
 62
     7
370
    15
100
AcDbLine
 10
140.4901164289858
 20
-132.8376483121496
 30
0.0
 11
130.4901164289858
 21
-132.8376483121496
 31
0.0
  0
LINE
  5
36E
330
1F
100
AcDbEntity
  8
0
  6
Continuous
 62
     7
370
    15
100
AcDbLine
 10
110.4901164289858
 20
-112.8376483121494
 30
0.0
 11
110.4901164289858
 21
-132.8376483121493
 31
0.0
  0
LINE
  5
36F
330
1F
100
AcDbEntity
  8
0
  6
Continuous
 62
     7
370
    15
100
AcDbLine
 10
100.4901164289858
 20
-112.8376483121494
 30
0.0
 11
110.4901164289858
 21
-112.8376483121494
 31
0.0
  0
LINE
  5
370
330
1F
100
AcDbEntity
  8
0
  6
Continuous
 62
     7
370
    15
100
AcDbLine
 10
100.4901164289858
 20
-132.8376483121493
 30
0.0
 11
100.4901164289858
 21
-112.8376483121494
 31
0.0
  0
LINE
  5
371
330
1F
100
AcDbEntity
  8
0
  6
Continuous
 62
     7
370
    15
100
AcDbLine
 10
110.4901164289858
 20
-132.8376483121493
 30
0.0
 11
100.4901164289858
 21
-132.8376483121493
 31
0.0
  0
LINE
  5
372
330
1F
100
AcDbEntity
  8
0
  6
Continuous
 62
     7
370
    15
100
AcDbLine
 10
80.4901164289858
 20
-112.8376483121489
 30
0.0
 11
80.4901164289858
 21
-132.8376483121489
 31
0.0
  0
LINE
  5
373
330
1F
100
AcDbEntity
  8
0
  6
Continuous
 62
     7
370
    15
100
AcDbLine
 10
70.4901164289858
 20
-112.8376483121489
 30
0.0
 11
80.4901164289858
 21
-112.8376483121489
 31
0.0
  0
LINE
  5
374
330
1F
100
AcDbEntity
  8
0
  6
Continuous
 62
     7
370
    15
100
AcDbLine
 10
70.4901164289858
 20
-132.8376483121489
 30
0.0
 11
70.4901164289858
 21
-112.8376483121489
 31
0.0
  0
LINE
  5
375
330
1F
100
AcDbEntity
  8
0
  6
Continuous
 62
     7
370
    15
100
AcDbLine
 10
80.4901164289858
 20
-132.8376483121489
 30
0.0
 11
70.4901164289858
 21
-132.8376483121489
 31
0.0
  0
LINE
  5
376
330
1F
100
AcDbEntity
  8
0
  6
Continuous
 62
     7
370
    15
100
AcDbLine
 10
50.49011642898591
 20
-112.8376483121487
 30
0.0
 11
50.49011642898591
 21
-132.8376483121487
 31
0.0
  0
LINE
  5
377
330
1F
100
AcDbEntity
  8
0
  6
Continuous
 62
     7
370
    15
100
AcDbLine
 10
40.49011642898586
 20
-112.8376483121487
 30
0.0
 11
50.49011642898591
 21
-112.8376483121487
 31
0.0
  0
LINE
  5
378
330
1F
100
AcDbEntity
  8
0
  6
Continuous
 62
     7
370
    15
100
AcDbLine
 10
40.49011642898586
 20
-132.8376483121487
 30
0.0
 11
40.49011642898586
 21
-112.8376483121487
 31
0.0
  0
LINE
  5
379
330
1F
100
AcDbEntity
  8
0
  6
Continuous
 62
     7
370
    15
100
AcDbLine
 10
50.49011642898591
 20
-132.8376483121487
 30
0.0
 11
40.49011642898586
 21
-132.8376483121487
 31
0.0
  0
LINE
  5
37A
330
1F
100
AcDbEntity
  8
0
  6
Continuous
 62
     7
370
    15
100
AcDbLine
 10
20.49011642898586
 20
-112.8376483121484
 30
0.0
 11
20.49011642898586
 21
-132.8376483121484
 31
0.0
  0
LINE
  5
37B
330
1F
100
AcDbEntity
  8
0
  6
Continuous
 62
     7
370
    15
100
AcDbLine
 10
10.49011642898586
 20
-112.8376483121484
 30
0.0
 11
20.49011642898586
 21
-112.8376483121484
 31
0.0
  0
LINE
  5
37C
330
1F
100
AcDbEntity
  8
0
  6
Continuous
 62
     7
370
    15
100
AcDbLine
 10
10.49011642898586
 20
-132.8376483121484
 30
0.0
 11
10.49011642898586
 21
-112.8376483121484
 31
0.0
  0
LINE
  5
37D
330
1F
100
AcDbEntity
  8
0
  6
Continuous
 62
     7
370
    15
100
AcDbLine
 10
20.49011642898586
 20
-132.8376483121484
 30
0.0
 11
10.49011642898586
 21
-132.8376483121484
 31
0.0
  0
LINE
  5
37E
330
1F
100
AcDbEntity
  8
0
  6
Continuous
 62
     7
370
    15
100
AcDbLine
 10
-9.509883571014142
 20
-112.837648312148
 30
0.0
 11
-9.509883571014142
 21
-132.8376483121481
 31
0.0
  0
LINE
  5
37F
330
1F
100
AcDbEntity
  8
0
  6
Continuous
 62
     7
370
    15
100
AcDbLine
 10
-19.5098835710142
 20
-112.837648312148
 30
0.0
 11
-9.509883571014142
 21
-112.837648312148
 31
0.0
  0
LINE
  5
380
330
1F
100
AcDbEntity
  8
0
  6
Continuous
 62
     7
370
    15
100
AcDbLine
 10
-19.5098835710142
 20
-132.8376483121481
 30
0.0
 11
-19.5098835710142
 21
-112.837648312148
 31
0.0
  0
LINE
  5
381
330
1F
100
AcDbEntity
  8
0
  6
Continuous
 62
     7
370
    15
100
AcDbLine
 10
-9.509883571014142
 20
-132.8376483121481
 30
0.0
 11
-19.5098835710142
 21
-132.8376483121481
 31
0.0
  0
LINE
  5
382
330
1F
100
AcDbEntity
  8
0
  6
Continuous
 62
     7
370
    15
100
AcDbLine
 10
-39.5098835710142
 20
-112.8376483121478
 30
0.0
 11
-39.5098835710142
 21
-132.8376483121477
 31
0.0
  0
LINE
  5
383
330
1F
100
AcDbEntity
  8
0
  6
Continuous
 62
     7
370
    15
100
AcDbLine
 10
-49.5098835710142
 20
-112.8376483121478
 30
0.0
 11
-39.5098835710142
 21
-112.8376483121478
 31
0.0
  0
LINE
  5
384
330
1F
100
AcDbEntity
  8
0
  6
Continuous
 62
     7
370
    15
100
AcDbLine
 10
-49.5098835710142
 20
-132.8376483121477
 30
0.0
 11
-49.5098835710142
 21
-112.8376483121478
 31
0.0
  0
LINE
  5
385
330
1F
100
AcDbEntity
  8
0
  6
Continuous
 62
     7
370
    15
100
AcDbLine
 10
-39.5098835710142
 20
-132.8376483121477
 30
0.0
 11
-49.5098835710142
 21
-132.8376483121477
 31
0.0
  0
LINE
  5
386
330
1F
100
AcDbEntity
  8
0
  6
Continuous
 62
     7
370
    15
100
AcDbLine
 10
-69.5098835710142
 20
-112.8376483121473
 30
0.0
 11
-69.5098835710142
 21
-132.8376483121474
 31
0.0
  0
LINE
  5
387
330
1F
100
AcDbEntity
  8
0
  6
Continuous
 62
     7
370
    15
100
AcDbLine
 10
-79.5098835710142
 20
-112.8376483121473
 30
0.0
 11
-69.5098835710142
 21
-112.8376483121473
 31
0.0
  0
LINE
  5
388
330
1F
100
AcDbEntity
  8
0
  6
Continuous
 62
     7
370
    15
100
AcDbLine
 10
-79.5098835710142
 20
-132.8376483121474
 30
0.0
 11
-79.5098835710142
 21
-112.8376483121473
 31
0.0
  0
LINE
  5
389
330
1F
100
AcDbEntity
  8
0
  6
Continuous
 62
     7
370
    15
100
AcDbLine
 10
-69.5098835710142
 20
-132.8376483121474
 30
0.0
 11
-79.5098835710142
 21
-132.8376483121474
 31
0.0
  0
LINE
  5
38A
330
1F
100
AcDbEntity
  8
0
  6
Continuous
 62
     7
370
    15
100
AcDbLine
 10
-99.50988357101426
 20
-112.8376483121471
 30
0.0
 11
-99.50988357101415
 21
-132.8376483121471
 31
0.0
  0
LINE
  5
38B
330
1F
100
AcDbEntity
  8
0
  6
Continuous
 62
     7
370
    15
100
AcDbLine
 10
-109.5098835710141
 20
-112.8376483121471
 30
0.0
 11
-99.50988357101426
 21
-112.8376483121471
 31
0.0
  0
LINE
  5
38C
330
1F
100
AcDbEntity
  8
0
  6
Continuous
 62
     7
370
    15
100
AcDbLine
 10
-109.5098835710141
 20
-132.8376483121471
 30
0.0
 11
-109.5098835710141
 21
-112.8376483121471
 31
0.0
  0
LINE
  5
38D
330
1F
100
AcDbEntity
  8
0
  6
Continuous
 62
     7
370
    15
100
AcDbLine
 10
-99.50988357101415
 20
-132.8376483121471
 30
0.0
 11
-109.5098835710141
 21
-132.8376483121471
 31
0.0
  0
LINE
  5
38E
330
1F
100
AcDbEntity
  8
0
  6
Continuous
 62
     7
370
    15
100
AcDbLine
 10
-129.5098835710142
 20
-112.8376483121468
 30
0.0
 11
-129.5098835710142
 21
-132.8376483121467
 31
0.0
  0
LINE
  5
38F
330
1F
100
AcDbEntity
  8
0
  6
Continuous
 62
     7
370
    15
100
AcDbLine
 10
-139.5098835710142
 20
-112.8376483121468
 30
0.0
 11
-129.5098835710142
 21
-112.8376483121468
 31
0.0
  0
LINE
  5
390
330
1F
100
AcDbEntity
  8
0
  6
Continuous
 62
     7
370
    15
100
AcDbLine
 10
-139.5098835710142
 20
-132.8376483121467
 30
0.0
 11
-139.5098835710142
 21
-112.8376483121468
 31
0.0
  0
LINE
  5
391
330
1F
100
AcDbEntity
  8
0
  6
Continuous
 62
     7
370
    15
100
AcDbLine
 10
-129.5098835710142
 20
-132.8376483121467
 30
0.0
 11
-139.5098835710142
 21
-132.8376483121467
 31
0.0
  0
LINE
  5
392
330
1F
100
AcDbEntity
  8
0
  6
Continuous
 62
     7
370
    15
100
AcDbLine
 10
-159.5098835710141
 20
-112.8376483121465
 30
0.0
 11
-159.5098835710141
 21
-132.8376483121465
 31
0.0
  0
LINE
  5
393
330
1F
100
AcDbEntity
  8
0
  6
Continuous
 62
     7
370
    15
100
AcDbLine
 10
-169.5098835710141
 20
-112.8376483121465
 30
0.0
 11
-159.5098835710141
 21
-112.8376483121465
 31
0.0
  0
LINE
  5
394
330
1F
100
AcDbEntity
  8
0
  6
Continuous
 62
     7
370
    15
100
AcDbLine
 10
-169.5098835710141
 20
-132.8376483121465
 30
0.0
 11
-169.5098835710141
 21
-112.8376483121465
 31
0.0
  0
LINE
  5
395
330
1F
100
AcDbEntity
  8
0
  6
Continuous
 62
     7
370
    15
100
AcDbLine
 10
-159.5098835710141
 20
-132.8376483121465
 30
0.0
 11
-169.5098835710141
 21
-132.8376483121465
 31
0.0
  0
LINE
  5
396
330
1F
100
AcDbEntity
  8
0
  6
Continuous
 62
     7
370
    15
100
AcDbLine
 10
-189.5098835710142
 20
-112.8376483121461
 30
0.0
 11
-189.5098835710141
 21
-132.8376483121461
 31
0.0
  0
LINE
  5
397
330
1F
100
AcDbEntity
  8
0
  6
Continuous
 62
     7
370
    15
100
AcDbLine
 10
-199.5098835710141
 20
-112.8376483121461
 30
0.0
 11
-189.5098835710142
 21
-112.8376483121461
 31
0.0
  0
LINE
  5
398
330
1F
100
AcDbEntity
  8
0
  6
Continuous
 62
     7
370
    15
100
AcDbLine
 10
-199.5098835710141
 20
-132.8376483121461
 30
0.0
 11
-199.5098835710141
 21
-112.8376483121461
 31
0.0
  0
LINE
  5
399
330
1F
100
AcDbEntity
  8
0
  6
Continuous
 62
     7
370
    15
100
AcDbLine
 10
-189.5098835710141
 20
-132.8376483121461
 30
0.0
 11
-199.5098835710141
 21
-132.8376483121461
 31
0.0
  0
LINE
  5
39A
330
1F
100
AcDbEntity
  8
0
  6
Continuous
 62
     7
370
    15
100
AcDbLine
 10
-219.5098835710142
 20
-112.8376483121458
 30
0.0
 11
-219.5098835710142
 21
-132.8376483121458
 31
0.0
  0
LINE
  5
39B
330
1F
100
AcDbEntity
  8
0
  6
Continuous
 62
     7
370
    15
100
AcDbLine
 10
-229.5098835710142
 20
-112.8376483121458
 30
0.0
 11
-219.5098835710142
 21
-112.8376483121458
 31
0.0
  0
LINE
  5
39C
330
1F
100
AcDbEntity
  8
0
  6
Continuous
 62
     7
370
    15
100
AcDbLine
 10
-229.5098835710142
 20
-132.8376483121458
 30
0.0
 11
-229.5098835710142
 21
-112.8376483121458
 31
0.0
  0
LINE
  5
39D
330
1F
100
AcDbEntity
  8
0
  6
Continuous
 62
     7
370
    15
100
AcDbLine
 10
-219.5098835710142
 20
-132.8376483121458
 30
0.0
 11
-229.5098835710142
 21
-132.8376483121458
 31
0.0
  0
LINE
  5
39E
330
1F
100
AcDbEntity
  8
0
  6
Continuous
 62
     7
370
    15
100
AcDbLine
 10
-249.5098835710142
 20
-112.8376483121456
 30
0.0
 11
-249.5098835710142
 21
-132.8376483121456
 31
0.0
  0
LINE
  5
39F
330
1F
100
AcDbEntity
  8
0
  6
Continuous
 62
     7
370
    15
100
AcDbLine
 10
-259.5098835710142
 20
-112.8376483121456
 30
0.0
 11
-249.5098835710142
 21
-112.8376483121456
 31
0.0
  0
LINE
  5
3A0
330
1F
100
AcDbEntity
  8
0
  6
Continuous
 62
     7
370
    15
100
AcDbLine
 10
-259.5098835710142
 20
-132.8376483121456
 30
0.0
 11
-259.5098835710142
 21
-112.8376483121456
 31
0.0
  0
LINE
  5
3A1
330
1F
100
AcDbEntity
  8
0
  6
Continuous
 62
     7
370
    15
100
AcDbLine
 10
-249.5098835710142
 20
-132.8376483121456
 30
0.0
 11
-259.5098835710142
 21
-132.8376483121456
 31
0.0
  0
LINE
  5
3A2
330
1F
100
AcDbEntity
  8
0
  6
Continuous
 62
     7
370
    15
100
AcDbLine
 10
-279.5098835710141
 20
-112.8376483121451
 30
0.0
 11
-279.5098835710141
 21
-132.8376483121451
 31
0.0
  0
LINE
  5
3A3
330
1F
100
AcDbEntity
  8
0
  6
Continuous
 62
     7
370
    15
100
AcDbLine
 10
-289.5098835710141
 20
-112.8376483121451
 30
0.0
 11
-279.5098835710141
 21
-112.8376483121451
 31
0.0
  0
LINE
  5
3A4
330
1F
100
AcDbEntity
  8
0
  6
Continuous
 62
     7
370
    15
100
AcDbLine
 10
-289.5098835710141
 20
-132.8376483121451
 30
0.0
 11
-289.5098835710141
 21
-112.8376483121451
 31
0.0
  0
LINE
  5
3A5
330
1F
100
AcDbEntity
  8
0
  6
Continuous
 62
     7
370
    15
100
AcDbLine
 10
-279.5098835710141
 20
-132.8376483121451
 30
0.0
 11
-289.5098835710141
 21
-132.8376483121451
 31
0.0
  0
LINE
  5
3A6
330
1F
100
AcDbEntity
  8
0
  6
Continuous
 62
     7
370
    15
100
AcDbLine
 10
53.84162500427175
 20
-149.0250112385678
 30
0.0
 11
151.6487659383585
 21
-149.0250112385678
 31
0.0
  0
LINE
  5
3A7
330
1F
100
AcDbEntity
  8
0
  6
Continuous
 62
     7
370
    15
100
AcDbLine
 10
-311.3512340616414
 20
-149.0250112385678
 30
0.0
 11
-210.1583749957283
 21
-149.0250112385678
 31
0.0
  0
LINE
  5
3A8
330
1F
100
AcDbEntity
  8
0
  6
Continuous
 62
     7
370
    15
100
AcDbLine
 10
-311.3512340616414
 20
-108.422678504511
 30
0.0
 11
-311.3512340616414
 21
-149.0250112385678
 31
0.0
  0
LINE
  5
3A9
330
1F
100
AcDbEntity
  8
0
  6
Continuous
 62
     7
370
    15
100
AcDbLine
 10
-311.3512340616414
 20
-108.422678504511
 30
0.0
 11
151.6487659383585
 21
-108.422678504511
 31
0.0
  0
LINE
  5
3AA
330
1F
100
AcDbEntity
  8
0
  6
Continuous
 62
     7
370
    15
100
AcDbLine
 10
151.6487659383585
 20
-108.422678504511
 30
0.0
 11
151.6487659383585
 21
-149.0250112385678
 31
0.0
  0
LINE
  5
3AB
330
1F
100
AcDbEntity
  8
0
  6
Continuous
 62
     7
370
    15
100
AcDbLine
 10
-294.5098835710141
 20
-112.8376483121451
 30
0.0
 11
-294.5098835710141
 21
-132.837648312145
 31
0.0
  0
LINE
  5
3AC
330
1F
100
AcDbEntity
  8
0
  6
Continuous
 62
     7
370
    15
100
AcDbLine
 10
-304.5098835710142
 20
-112.8376483121451
 30
0.0
 11
-294.5098835710141
 21
-112.8376483121451
 31
0.0
  0
LINE
  5
3AD
330
1F
100
AcDbEntity
  8
0
  6
Continuous
 62
     7
370
    15
100
AcDbLine
 10
-304.5098835710142
 20
-132.837648312145
 30
0.0
 11
-304.5098835710142
 21
-112.8376483121451
 31
0.0
  0
LINE
  5
3AE
330
1F
100
AcDbEntity
  8
0
  6
Continuous
 62
     7
370
    15
100
AcDbLine
 10
-294.5098835710141
 20
-132.837648312145
 30
0.0
 11
-304.5098835710142
 21
-132.837648312145
 31
0.0
  0
LINE
  5
3AF
330
1F
100
AcDbEntity
  8
0
  6
Continuous
 62
     7
370
    15
100
AcDbLine
 10
-264.5098835710141
 20
-112.8376483121453
 30
0.0
 11
-264.5098835710141
 21
-132.8376483121454
 31
0.0
  0
LINE
  5
3B0
330
1F
100
AcDbEntity
  8
0
  6
Continuous
 62
     7
370
    15
100
AcDbLine
 10
-274.5098835710142
 20
-112.8376483121453
 30
0.0
 11
-264.5098835710141
 21
-112.8376483121453
 31
0.0
  0
LINE
  5
3B1
330
1F
100
AcDbEntity
  8
0
  6
Continuous
 62
     7
370
    15
100
AcDbLine
 10
-274.5098835710142
 20
-132.8376483121454
 30
0.0
 11
-274.5098835710142
 21
-112.8376483121453
 31
0.0
  0
LINE
  5
3B2
330
1F
100
AcDbEntity
  8
0
  6
Continuous
 62
     7
370
    15
100
AcDbLine
 10
-264.5098835710141
 20
-132.8376483121454
 30
0.0
 11
-274.5098835710142
 21
-132.8376483121454
 31
0.0
  0
LINE
  5
3B3
330
1F
100
AcDbEntity
  8
0
  6
Continuous
 62
     7
370
    15
100
AcDbLine
 10
-234.5098835710142
 20
-112.8376483121457
 30
0.0
 11
-234.5098835710142
 21
-132.8376483121457
 31
0.0
  0
LINE
  5
3B4
330
1F
100
AcDbEntity
  8
0
  6
Continuous
 62
     7
370
    15
100
AcDbLine
 10
-244.5098835710142
 20
-112.8376483121457
 30
0.0
 11
-234.5098835710142
 21
-112.8376483121457
 31
0.0
  0
LINE
  5
3B5
330
1F
100
AcDbEntity
  8
0
  6
Continuous
 62
     7
370
    15
100
AcDbLine
 10
-244.5098835710142
 20
-132.8376483121457
 30
0.0
 11
-244.5098835710142
 21
-112.8376483121457
 31
0.0
  0
LINE
  5
3B6
330
1F
100
AcDbEntity
  8
0
  6
Continuous
 62
     7
370
    15
100
AcDbLine
 10
-234.5098835710142
 20
-132.8376483121457
 30
0.0
 11
-244.5098835710142
 21
-132.8376483121457
 31
0.0
  0
LINE
  5
3B7
330
1F
100
AcDbEntity
  8
0
  6
Continuous
 62
     7
370
    15
100
AcDbLine
 10
-204.5098835710142
 20
-112.837648312146
 30
0.0
 11
-204.5098835710141
 21
-132.837648312146
 31
0.0
  0
LINE
  5
3B8
330
1F
100
AcDbEntity
  8
0
  6
Continuous
 62
     7
370
    15
100
AcDbLine
 10
-214.5098835710141
 20
-112.837648312146
 30
0.0
 11
-204.5098835710142
 21
-112.837648312146
 31
0.0
  0
LINE
  5
3B9
330
1F
100
AcDbEntity
  8
0
  6
Continuous
 62
     7
370
    15
100
AcDbLine
 10
-214.5098835710141
 20
-132.837648312146
 30
0.0
 11
-214.5098835710141
 21
-112.837648312146
 31
0.0
  0
LINE
  5
3BA
330
1F
100
AcDbEntity
  8
0
  6
Continuous
 62
     7
370
    15
100
AcDbLine
 10
-204.5098835710141
 20
-132.837648312146
 30
0.0
 11
-214.5098835710141
 21
-132.837648312146
 31
0.0
  0
LINE
  5
3BB
330
1F
100
AcDbEntity
  8
0
  6
Continuous
 62
     7
370
    15
100
AcDbLine
 10
-174.5098835710142
 20
-112.8376483121462
 30
0.0
 11
-174.5098835710142
 21
-132.8376483121463
 31
0.0
  0
LINE
  5
3BC
330
1F
100
AcDbEntity
  8
0
  6
Continuous
 62
     7
370
    15
100
AcDbLine
 10
-184.5098835710141
 20
-112.8376483121462
 30
0.0
 11
-174.5098835710142
 21
-112.8376483121462
 31
0.0
  0
LINE
  5
3BD
330
1F
100
AcDbEntity
  8
0
  6
Continuous
 62
     7
370
    15
100
AcDbLine
 10
-184.5098835710141
 20
-132.8376483121463
 30
0.0
 11
-184.5098835710141
 21
-112.8376483121462
 31
0.0
  0
LINE
  5
3BE
330
1F
100
AcDbEntity
  8
0
  6
Continuous
 62
     7
370
    15
100
AcDbLine
 10
-174.5098835710142
 20
-132.8376483121463
 30
0.0
 11
-184.5098835710141
 21
-132.8376483121463
 31
0.0
  0
LINE
  5
3BF
330
1F
100
AcDbEntity
  8
0
  6
Continuous
 62
     7
370
    15
100
AcDbLine
 10
-144.5098835710141
 20
-112.8376483121467
 30
0.0
 11
-144.5098835710141
 21
-132.8376483121466
 31
0.0
  0
LINE
  5
3C0
330
1F
100
AcDbEntity
  8
0
  6
Continuous
 62
     7
370
    15
100
AcDbLine
 10
-154.5098835710141
 20
-112.8376483121467
 30
0.0
 11
-144.5098835710141
 21
-112.8376483121467
 31
0.0
  0
LINE
  5
3C1
330
1F
100
AcDbEntity
  8
0
  6
Continuous
 62
     7
370
    15
100
AcDbLine
 10
-154.5098835710141
 20
-132.8376483121466
 30
0.0
 11
-154.5098835710141
 21
-112.8376483121467
 31
0.0
  0
LINE
  5
3C2
330
1F
100
AcDbEntity
  8
0
  6
Continuous
 62
     7
370
    15
100
AcDbLine
 10
-144.5098835710141
 20
-132.8376483121466
 30
0.0
 11
-154.5098835710141
 21
-132.8376483121466
 31
0.0
  0
LINE
  5
3C3
330
1F
100
AcDbEntity
  8
0
  6
Continuous
 62
     7
370
    15
100
AcDbLine
 10
-114.5098835710142
 20
-112.8376483121469
 30
0.0
 11
-114.5098835710141
 21
-132.8376483121469
 31
0.0
  0
LINE
  5
3C4
330
1F
100
AcDbEntity
  8
0
  6
Continuous
 62
     7
370
    15
100
AcDbLine
 10
-124.5098835710142
 20
-112.8376483121469
 30
0.0
 11
-114.5098835710142
 21
-112.8376483121469
 31
0.0
  0
LINE
  5
3C5
330
1F
100
AcDbEntity
  8
0
  6
Continuous
 62
     7
370
    15
100
AcDbLine
 10
-124.5098835710142
 20
-132.8376483121469
 30
0.0
 11
-124.5098835710142
 21
-112.8376483121469
 31
0.0
  0
LINE
  5
3C6
330
1F
100
AcDbEntity
  8
0
  6
Continuous
 62
     7
370
    15
100
AcDbLine
 10
-114.5098835710141
 20
-132.8376483121469
 30
0.0
 11
-124.5098835710142
 21
-132.8376483121469
 31
0.0
  0
LINE
  5
3C7
330
1F
100
AcDbEntity
  8
0
  6
Continuous
 62
     7
370
    15
100
AcDbLine
 10
-84.50988357101413
 20
-112.8376483121472
 30
0.0
 11
-84.50988357101413
 21
-132.8376483121473
 31
0.0
  0
LINE
  5
3C8
330
1F
100
AcDbEntity
  8
0
  6
Continuous
 62
     7
370
    15
100
AcDbLine
 10
-94.50988357101413
 20
-112.8376483121472
 30
0.0
 11
-84.50988357101413
 21
-112.8376483121472
 31
0.0
  0
LINE
  5
3C9
330
1F
100
AcDbEntity
  8
0
  6
Continuous
 62
     7
370
    15
100
AcDbLine
 10
-94.50988357101413
 20
-132.8376483121473
 30
0.0
 11
-94.50988357101413
 21
-112.8376483121472
 31
0.0
  0
LINE
  5
3CA
330
1F
100
AcDbEntity
  8
0
  6
Continuous
 62
     7
370
    15
100
AcDbLine
 10
-84.50988357101413
 20
-132.8376483121473
 30
0.0
 11
-94.50988357101413
 21
-132.8376483121473
 31
0.0
  0
LINE
  5
3CB
330
1F
100
AcDbEntity
  8
0
  6
Continuous
 62
     7
370
    15
100
AcDbLine
 10
-54.5098835710142
 20
-112.8376483121476
 30
0.0
 11
-54.5098835710142
 21
-132.8376483121476
 31
0.0
  0
LINE
  5
3CC
330
1F
100
AcDbEntity
  8
0
  6
Continuous
 62
     7
370
    15
100
AcDbLine
 10
-64.5098835710142
 20
-112.8376483121476
 30
0.0
 11
-54.5098835710142
 21
-112.8376483121476
 31
0.0
  0
LINE
  5
3CD
330
1F
100
AcDbEntity
  8
0
  6
Continuous
 62
     7
370
    15
100
AcDbLine
 10
-64.5098835710142
 20
-132.8376483121476
 30
0.0
 11
-64.5098835710142
 21
-112.8376483121476
 31
0.0
  0
LINE
  5
3CE
330
1F
100
AcDbEntity
  8
0
  6
Continuous
 62
     7
370
    15
100
AcDbLine
 10
-54.5098835710142
 20
-132.8376483121476
 30
0.0
 11
-64.5098835710142
 21
-132.8376483121476
 31
0.0
  0
LINE
  5
3CF
330
1F
100
AcDbEntity
  8
0
  6
Continuous
 62
     7
370
    15
100
AcDbLine
 10
-24.5098835710142
 20
-112.8376483121478
 30
0.0
 11
-24.5098835710142
 21
-132.8376483121478
 31
0.0
  0
LINE
  5
3D0
330
1F
100
AcDbEntity
  8
0
  6
Continuous
 62
     7
370
    15
100
AcDbLine
 10
-34.5098835710142
 20
-112.8376483121478
 30
0.0
 11
-24.5098835710142
 21
-112.8376483121478
 31
0.0
  0
LINE
  5
3D1
330
1F
100
AcDbEntity
  8
0
  6
Continuous
 62
     7
370
    15
100
AcDbLine
 10
-34.5098835710142
 20
-132.8376483121478
 30
0.0
 11
-34.5098835710142
 21
-112.8376483121478
 31
0.0
  0
LINE
  5
3D2
330
1F
100
AcDbEntity
  8
0
  6
Continuous
 62
     7
370
    15
100
AcDbLine
 10
-24.5098835710142
 20
-132.8376483121478
 30
0.0
 11
-34.5098835710142
 21
-132.8376483121478
 31
0.0
  0
LINE
  5
3D3
330
1F
100
AcDbEntity
  8
0
  6
Continuous
 62
     7
370
    15
100
AcDbLine
 10
5.490116428985857
 20
-112.8376483121483
 30
0.0
 11
5.490116428985857
 21
-132.8376483121483
 31
0.0
  0
LINE
  5
3D4
330
1F
100
AcDbEntity
  8
0
  6
Continuous
 62
     7
370
    15
100
AcDbLine
 10
-4.509883571014142
 20
-112.8376483121483
 30
0.0
 11
5.490116428985857
 21
-112.8376483121483
 31
0.0
  0
LINE
  5
3D5
330
1F
100
AcDbEntity
  8
0
  6
Continuous
 62
     7
370
    15
100
AcDbLine
 10
-4.509883571014142
 20
-132.8376483121483
 30
0.0
 11
-4.509883571014142
 21
-112.8376483121483
 31
0.0
  0
LINE
  5
3D6
330
1F
100
AcDbEntity
  8
0
  6
Continuous
 62
     7
370
    15
100
AcDbLine
 10
5.490116428985857
 20
-132.8376483121483
 30
0.0
 11
-4.509883571014142
 21
-132.8376483121483
 31
0.0
  0
LINE
  5
3D7
330
1F
100
AcDbEntity
  8
0
  6
Continuous
 62
     7
370
    15
100
AcDbLine
 10
35.49011642898586
 20
-112.8376483121485
 30
0.0
 11
35.49011642898586
 21
-132.8376483121485
 31
0.0
  0
LINE
  5
3D8
330
1F
100
AcDbEntity
  8
0
  6
Continuous
 62
     7
370
    15
100
AcDbLine
 10
25.49011642898586
 20
-112.8376483121485
 30
0.0
 11
35.49011642898586
 21
-112.8376483121485
 31
0.0
  0
LINE
  5
3D9
330
1F
100
AcDbEntity
  8
0
  6
Continuous
 62
     7
370
    15
100
AcDbLine
 10
25.49011642898586
 20
-132.8376483121485
 30
0.0
 11
25.49011642898586
 21
-112.8376483121485
 31
0.0
  0
LINE
  5
3DA
330
1F
100
AcDbEntity
  8
0
  6
Continuous
 62
     7
370
    15
100
AcDbLine
 10
35.49011642898586
 20
-132.8376483121485
 30
0.0
 11
25.49011642898586
 21
-132.8376483121485
 31
0.0
  0
LINE
  5
3DB
330
1F
100
AcDbEntity
  8
0
  6
Continuous
 62
     7
370
    15
100
AcDbLine
 10
65.49011642898591
 20
-112.8376483121488
 30
0.0
 11
65.4901164289858
 21
-132.8376483121488
 31
0.0
  0
LINE
  5
3DC
330
1F
100
AcDbEntity
  8
0
  6
Continuous
 62
     7
370
    15
100
AcDbLine
 10
55.49011642898591
 20
-112.8376483121488
 30
0.0
 11
65.49011642898591
 21
-112.8376483121488
 31
0.0
  0
LINE
  5
3DD
330
1F
100
AcDbEntity
  8
0
  6
Continuous
 62
     7
370
    15
100
AcDbLine
 10
55.49011642898591
 20
-132.8376483121488
 30
0.0
 11
55.49011642898591
 21
-112.8376483121488
 31
0.0
  0
LINE
  5
3DE
330
1F
100
AcDbEntity
  8
0
  6
Continuous
 62
     7
370
    15
100
AcDbLine
 10
65.4901164289858
 20
-132.8376483121488
 30
0.0
 11
55.49011642898591
 21
-132.8376483121488
 31
0.0
  0
LINE
  5
3DF
330
1F
100
AcDbEntity
  8
0
  6
Continuous
 62
     7
370
    15
100
AcDbLine
 10
95.4901164289858
 20
-112.8376483121491
 30
0.0
 11
95.4901164289858
 21
-132.8376483121491
 31
0.0
  0
LINE
  5
3E0
330
1F
100
AcDbEntity
  8
0
  6
Continuous
 62
     7
370
    15
100
AcDbLine
 10
85.4901164289858
 20
-112.8376483121491
 30
0.0
 11
95.4901164289858
 21
-112.8376483121491
 31
0.0
  0
LINE
  5
3E1
330
1F
100
AcDbEntity
  8
0
  6
Continuous
 62
     7
370
    15
100
AcDbLine
 10
85.4901164289858
 20
-132.8376483121491
 30
0.0
 11
85.4901164289858
 21
-112.8376483121491
 31
0.0
  0
LINE
  5
3E2
330
1F
100
AcDbEntity
  8
0
  6
Continuous
 62
     7
370
    15
100
AcDbLine
 10
95.4901164289858
 20
-132.8376483121491
 30
0.0
 11
85.4901164289858
 21
-132.8376483121491
 31
0.0
  0
LINE
  5
3E3
330
1F
100
AcDbEntity
  8
0
  6
Continuous
 62
     7
370
    15
100
AcDbLine
 10
125.4901164289858
 20
-112.8376483121495
 30
0.0
 11
125.4901164289858
 21
-132.8376483121495
 31
0.0
  0
LINE
  5
3E4
330
1F
100
AcDbEntity
  8
0
  6
Continuous
 62
     7
370
    15
100
AcDbLine
 10
115.4901164289858
 20
-112.8376483121495
 30
0.0
 11
125.4901164289858
 21
-112.8376483121495
 31
0.0
  0
LINE
  5
3E5
330
1F
100
AcDbEntity
  8
0
  6
Continuous
 62
     7
370
    15
100
AcDbLine
 10
115.4901164289858
 20
-132.8376483121495
 30
0.0
 11
115.4901164289858
 21
-112.8376483121495
 31
0.0
  0
LINE
  5
3E6
330
1F
100
AcDbEntity
  8
0
  6
Continuous
 62
     7
370
    15
100
AcDbLine
 10
125.4901164289858
 20
-132.8376483121495
 30
0.0
 11
115.4901164289858
 21
-132.8376483121495
 31
0.0
  0
LINE
  5
3E7
330
1F
100
AcDbEntity
  8
0
  6
Continuous
 62
     7
370
    15
100
AcDbLine
 10
151.6487659383585
 20
-149.0250112385678
 30
0.0
 11
151.6487659383585
 21
-176.8203457704542
 31
0.0
  0
LINE
  5
3E8
330
1F
100
AcDbEntity
  8
0
  6
Continuous
 62
     7
370
    15
100
AcDbLine
 10
-311.3512340616414
 20
-149.0250112385678
 30
0.0
 11
-311.3512340616414
 21
-176.8203457704542
 31
0.0
  0
LINE
  5
3E9
330
1F
100
AcDbEntity
  8
0
  6
Continuous
 62
     7
370
    15
100
AcDbLine
 10
130.4901164289858
 20
-212.8376483121496
 30
0.0
 11
140.4901164289858
 21
-212.8376483121496
 31
0.0
  0
LINE
  5
3EA
330
1F
100
AcDbEntity
  8
0
  6
Continuous
 62
     7
370
    15
100
AcDbLine
 10
140.4901164289858
 20
-212.8376483121496
 30
0.0
 11
140.4901164289858
 21
-192.8376483121496
 31
0.0
  0
LINE
  5
3EB
330
1F
100
AcDbEntity
  8
0
  6
Continuous
 62
     7
370
    15
100
AcDbLine
 10
140.4901164289858
 20
-192.8376483121496
 30
0.0
 11
130.4901164289858
 21
-192.8376483121496
 31
0.0
  0
LINE
  5
3EC
330
1F
100
AcDbEntity
  8
0
  6
Continuous
 62
     7
370
    15
100
AcDbLine
 10
130.4901164289858
 20
-192.8376483121496
 30
0.0
 11
130.4901164289858
 21
-212.8376483121496
 31
0.0
  0
LINE
  5
3ED
330
1F
100
AcDbEntity
  8
0
  6
Continuous
 62
     7
370
    15
100
AcDbLine
 10
100.4901164289858
 20
-212.8376483121493
 30
0.0
 11
110.4901164289858
 21
-212.8376483121493
 31
0.0
  0
LINE
  5
3EE
330
1F
100
AcDbEntity
  8
0
  6
Continuous
 62
     7
370
    15
100
AcDbLine
 10
110.4901164289858
 20
-212.8376483121493
 30
0.0
 11
110.4901164289858
 21
-192.8376483121493
 31
0.0
  0
LINE
  5
3EF
330
1F
100
AcDbEntity
  8
0
  6
Continuous
 62
     7
370
    15
100
AcDbLine
 10
110.4901164289858
 20
-192.8376483121493
 30
0.0
 11
100.4901164289858
 21
-192.8376483121493
 31
0.0
  0
LINE
  5
3F0
330
1F
100
AcDbEntity
  8
0
  6
Continuous
 62
     7
370
    15
100
AcDbLine
 10
100.4901164289858
 20
-192.8376483121493
 30
0.0
 11
100.4901164289858
 21
-212.8376483121493
 31
0.0
  0
LINE
  5
3F1
330
1F
100
AcDbEntity
  8
0
  6
Continuous
 62
     7
370
    15
100
AcDbLine
 10
70.4901164289858
 20
-212.837648312149
 30
0.0
 11
80.4901164289858
 21
-212.837648312149
 31
0.0
  0
LINE
  5
3F2
330
1F
100
AcDbEntity
  8
0
  6
Continuous
 62
     7
370
    15
100
AcDbLine
 10
80.4901164289858
 20
-212.837648312149
 30
0.0
 11
80.4901164289858
 21
-192.837648312149
 31
0.0
  0
LINE
  5
3F3
330
1F
100
AcDbEntity
  8
0
  6
Continuous
 62
     7
370
    15
100
AcDbLine
 10
80.4901164289858
 20
-192.837648312149
 30
0.0
 11
70.4901164289858
 21
-192.837648312149
 31
0.0
  0
LINE
  5
3F4
330
1F
100
AcDbEntity
  8
0
  6
Continuous
 62
     7
370
    15
100
AcDbLine
 10
70.4901164289858
 20
-192.837648312149
 30
0.0
 11
70.4901164289858
 21
-212.837648312149
 31
0.0
  0
LINE
  5
3F5
330
1F
100
AcDbEntity
  8
0
  6
Continuous
 62
     7
370
    15
100
AcDbLine
 10
40.49011642898586
 20
-212.8376483121487
 30
0.0
 11
50.49011642898591
 21
-212.8376483121487
 31
0.0
  0
LINE
  5
3F6
330
1F
100
AcDbEntity
  8
0
  6
Continuous
 62
     7
370
    15
100
AcDbLine
 10
50.49011642898591
 20
-212.8376483121487
 30
0.0
 11
50.49011642898591
 21
-192.8376483121486
 31
0.0
  0
LINE
  5
3F7
330
1F
100
AcDbEntity
  8
0
  6
Continuous
 62
     7
370
    15
100
AcDbLine
 10
50.49011642898591
 20
-192.8376483121486
 30
0.0
 11
40.49011642898586
 21
-192.8376483121486
 31
0.0
  0
LINE
  5
3F8
330
1F
100
AcDbEntity
  8
0
  6
Continuous
 62
     7
370
    15
100
AcDbLine
 10
40.49011642898586
 20
-192.8376483121486
 30
0.0
 11
40.49011642898586
 21
-212.8376483121487
 31
0.0
  0
LINE
  5
3F9
330
1F
100
AcDbEntity
  8
0
  6
Continuous
 62
     7
370
    15
100
AcDbLine
 10
10.49011642898586
 20
-212.8376483121483
 30
0.0
 11
20.49011642898586
 21
-212.8376483121483
 31
0.0
  0
LINE
  5
3FA
330
1F
100
AcDbEntity
  8
0
  6
Continuous
 62
     7
370
    15
100
AcDbLine
 10
20.49011642898586
 20
-212.8376483121483
 30
0.0
 11
20.49011642898586
 21
-192.8376483121483
 31
0.0
  0
LINE
  5
3FB
330
1F
100
AcDbEntity
  8
0
  6
Continuous
 62
     7
370
    15
100
AcDbLine
 10
20.49011642898586
 20
-192.8376483121483
 30
0.0
 11
10.49011642898586
 21
-192.8376483121483
 31
0.0
  0
LINE
  5
3FC
330
1F
100
AcDbEntity
  8
0
  6
Continuous
 62
     7
370
    15
100
AcDbLine
 10
10.49011642898586
 20
-192.8376483121483
 30
0.0
 11
10.49011642898586
 21
-212.8376483121483
 31
0.0
  0
LINE
  5
3FD
330
1F
100
AcDbEntity
  8
0
  6
Continuous
 62
     7
370
    15
100
AcDbLine
 10
-19.5098835710142
 20
-212.8376483121481
 30
0.0
 11
-9.509883571014142
 21
-212.8376483121481
 31
0.0
  0
LINE
  5
3FE
330
1F
100
AcDbEntity
  8
0
  6
Continuous
 62
     7
370
    15
100
AcDbLine
 10
-9.509883571014142
 20
-212.8376483121481
 30
0.0
 11
-9.509883571014142
 21
-192.8376483121481
 31
0.0
  0
LINE
  5
3FF
330
1F
100
AcDbEntity
  8
0
  6
Continuous
 62
     7
370
    15
100
AcDbLine
 10
-9.509883571014142
 20
-192.8376483121481
 30
0.0
 11
-19.5098835710142
 21
-192.8376483121481
 31
0.0
  0
LINE
  5
400
330
1F
100
AcDbEntity
  8
0
  6
Continuous
 62
     7
370
    15
100
AcDbLine
 10
-19.5098835710142
 20
-192.8376483121481
 30
0.0
 11
-19.5098835710142
 21
-212.8376483121481
 31
0.0
  0
LINE
  5
401
330
1F
100
AcDbEntity
  8
0
  6
Continuous
 62
     7
370
    15
100
AcDbLine
 10
-49.5098835710142
 20
-212.8376483121477
 30
0.0
 11
-39.5098835710142
 21
-212.8376483121477
 31
0.0
  0
LINE
  5
402
330
1F
100
AcDbEntity
  8
0
  6
Continuous
 62
     7
370
    15
100
AcDbLine
 10
-39.5098835710142
 20
-212.8376483121477
 30
0.0
 11
-39.5098835710142
 21
-192.8376483121477
 31
0.0
  0
LINE
  5
403
330
1F
100
AcDbEntity
  8
0
  6
Continuous
 62
     7
370
    15
100
AcDbLine
 10
-39.5098835710142
 20
-192.8376483121477
 30
0.0
 11
-49.5098835710142
 21
-192.8376483121477
 31
0.0
  0
LINE
  5
404
330
1F
100
AcDbEntity
  8
0
  6
Continuous
 62
     7
370
    15
100
AcDbLine
 10
-49.5098835710142
 20
-192.8376483121477
 30
0.0
 11
-49.5098835710142
 21
-212.8376483121477
 31
0.0
  0
LINE
  5
405
330
1F
100
AcDbEntity
  8
0
  6
Continuous
 62
     7
370
    15
100
AcDbLine
 10
-79.5098835710142
 20
-212.8376483121474
 30
0.0
 11
-69.5098835710142
 21
-212.8376483121474
 31
0.0
  0
LINE
  5
406
330
1F
100
AcDbEntity
  8
0
  6
Continuous
 62
     7
370
    15
100
AcDbLine
 10
-69.5098835710142
 20
-212.8376483121474
 30
0.0
 11
-69.5098835710142
 21
-192.8376483121474
 31
0.0
  0
LINE
  5
407
330
1F
100
AcDbEntity
  8
0
  6
Continuous
 62
     7
370
    15
100
AcDbLine
 10
-69.5098835710142
 20
-192.8376483121474
 30
0.0
 11
-79.5098835710142
 21
-192.8376483121474
 31
0.0
  0
LINE
  5
408
330
1F
100
AcDbEntity
  8
0
  6
Continuous
 62
     7
370
    15
100
AcDbLine
 10
-79.5098835710142
 20
-192.8376483121474
 30
0.0
 11
-79.5098835710142
 21
-212.8376483121474
 31
0.0
  0
LINE
  5
409
330
1F
100
AcDbEntity
  8
0
  6
Continuous
 62
     7
370
    15
100
AcDbLine
 10
-109.5098835710141
 20
-212.8376483121471
 30
0.0
 11
-99.50988357101415
 21
-212.8376483121471
 31
0.0
  0
LINE
  5
40A
330
1F
100
AcDbEntity
  8
0
  6
Continuous
 62
     7
370
    15
100
AcDbLine
 10
-99.50988357101415
 20
-212.8376483121471
 30
0.0
 11
-99.50988357101426
 21
-192.8376483121471
 31
0.0
  0
LINE
  5
40B
330
1F
100
AcDbEntity
  8
0
  6
Continuous
 62
     7
370
    15
100
AcDbLine
 10
-99.50988357101426
 20
-192.8376483121471
 30
0.0
 11
-109.5098835710141
 21
-192.8376483121471
 31
0.0
  0
LINE
  5
40C
330
1F
100
AcDbEntity
  8
0
  6
Continuous
 62
     7
370
    15
100
AcDbLine
 10
-109.5098835710141
 20
-192.8376483121471
 30
0.0
 11
-109.5098835710141
 21
-212.8376483121471
 31
0.0
  0
LINE
  5
40D
330
1F
100
AcDbEntity
  8
0
  6
Continuous
 62
     7
370
    15
100
AcDbLine
 10
-139.5098835710142
 20
-212.8376483121468
 30
0.0
 11
-129.5098835710142
 21
-212.8376483121468
 31
0.0
  0
LINE
  5
40E
330
1F
100
AcDbEntity
  8
0
  6
Continuous
 62
     7
370
    15
100
AcDbLine
 10
-129.5098835710142
 20
-212.8376483121468
 30
0.0
 11
-129.5098835710142
 21
-192.8376483121468
 31
0.0
  0
LINE
  5
40F
330
1F
100
AcDbEntity
  8
0
  6
Continuous
 62
     7
370
    15
100
AcDbLine
 10
-129.5098835710142
 20
-192.8376483121468
 30
0.0
 11
-139.5098835710142
 21
-192.8376483121468
 31
0.0
  0
LINE
  5
410
330
1F
100
AcDbEntity
  8
0
  6
Continuous
 62
     7
370
    15
100
AcDbLine
 10
-139.5098835710142
 20
-192.8376483121468
 30
0.0
 11
-139.5098835710142
 21
-212.8376483121468
 31
0.0
  0
LINE
  5
411
330
1F
100
AcDbEntity
  8
0
  6
Continuous
 62
     7
370
    15
100
AcDbLine
 10
-169.5098835710141
 20
-212.8376483121464
 30
0.0
 11
-159.5098835710141
 21
-212.8376483121464
 31
0.0
  0
LINE
  5
412
330
1F
100
AcDbEntity
  8
0
  6
Continuous
 62
     7
370
    15
100
AcDbLine
 10
-159.5098835710141
 20
-212.8376483121464
 30
0.0
 11
-159.5098835710141
 21
-192.8376483121466
 31
0.0
  0
LINE
  5
413
330
1F
100
AcDbEntity
  8
0
  6
Continuous
 62
     7
370
    15
100
AcDbLine
 10
-159.5098835710141
 20
-192.8376483121466
 30
0.0
 11
-169.5098835710141
 21
-192.8376483121466
 31
0.0
  0
LINE
  5
414
330
1F
100
AcDbEntity
  8
0
  6
Continuous
 62
     7
370
    15
100
AcDbLine
 10
-169.5098835710141
 20
-192.8376483121466
 30
0.0
 11
-169.5098835710141
 21
-212.8376483121464
 31
0.0
  0
LINE
  5
415
330
1F
100
AcDbEntity
  8
0
  6
Continuous
 62
     7
370
    15
100
AcDbLine
 10
-199.5098835710141
 20
-212.8376483121462
 30
0.0
 11
-189.5098835710141
 21
-212.8376483121462
 31
0.0
  0
LINE
  5
416
330
1F
100
AcDbEntity
  8
0
  6
Continuous
 62
     7
370
    15
100
AcDbLine
 10
-189.5098835710141
 20
-212.8376483121462
 30
0.0
 11
-189.5098835710142
 21
-192.8376483121461
 31
0.0
  0
LINE
  5
417
330
1F
100
AcDbEntity
  8
0
  6
Continuous
 62
     7
370
    15
100
AcDbLine
 10
-189.5098835710142
 20
-192.8376483121461
 30
0.0
 11
-199.5098835710141
 21
-192.8376483121461
 31
0.0
  0
LINE
  5
418
330
1F
100
AcDbEntity
  8
0
  6
Continuous
 62
     7
370
    15
100
AcDbLine
 10
-199.5098835710141
 20
-192.8376483121461
 30
0.0
 11
-199.5098835710141
 21
-212.8376483121462
 31
0.0
  0
LINE
  5
419
330
1F
100
AcDbEntity
  8
0
  6
Continuous
 62
     7
370
    15
100
AcDbLine
 10
-229.5098835710142
 20
-212.8376483121459
 30
0.0
 11
-219.5098835710142
 21
-212.8376483121459
 31
0.0
  0
LINE
  5
41A
330
1F
100
AcDbEntity
  8
0
  6
Continuous
 62
     7
370
    15
100
AcDbLine
 10
-219.5098835710142
 20
-212.8376483121459
 30
0.0
 11
-219.5098835710142
 21
-192.8376483121459
 31
0.0
  0
LINE
  5
41B
330
1F
100
AcDbEntity
  8
0
  6
Continuous
 62
     7
370
    15
100
AcDbLine
 10
-219.5098835710142
 20
-192.8376483121459
 30
0.0
 11
-229.5098835710142
 21
-192.8376483121459
 31
0.0
  0
LINE
  5
41C
330
1F
100
AcDbEntity
  8
0
  6
Continuous
 62
     7
370
    15
100
AcDbLine
 10
-229.5098835710142
 20
-192.8376483121459
 30
0.0
 11
-229.5098835710142
 21
-212.8376483121459
 31
0.0
  0
LINE
  5
41D
330
1F
100
AcDbEntity
  8
0
  6
Continuous
 62
     7
370
    15
100
AcDbLine
 10
-259.5098835710142
 20
-212.8376483121456
 30
0.0
 11
-249.5098835710142
 21
-212.8376483121456
 31
0.0
  0
LINE
  5
41E
330
1F
100
AcDbEntity
  8
0
  6
Continuous
 62
     7
370
    15
100
AcDbLine
 10
-249.5098835710142
 20
-212.8376483121456
 30
0.0
 11
-249.5098835710142
 21
-192.8376483121455
 31
0.0
  0
LINE
  5
41F
330
1F
100
AcDbEntity
  8
0
  6
Continuous
 62
     7
370
    15
100
AcDbLine
 10
-249.5098835710142
 20
-192.8376483121455
 30
0.0
 11
-259.5098835710142
 21
-192.8376483121455
 31
0.0
  0
LINE
  5
420
330
1F
100
AcDbEntity
  8
0
  6
Continuous
 62
     7
370
    15
100
AcDbLine
 10
-259.5098835710142
 20
-192.8376483121455
 30
0.0
 11
-259.5098835710142
 21
-212.8376483121456
 31
0.0
  0
LINE
  5
421
330
1F
100
AcDbEntity
  8
0
  6
Continuous
 62
     7
370
    15
100
AcDbLine
 10
-289.5098835710141
 20
-212.8376483121452
 30
0.0
 11
-279.5098835710141
 21
-212.8376483121452
 31
0.0
  0
LINE
  5
422
330
1F
100
AcDbEntity
  8
0
  6
Continuous
 62
     7
370
    15
100
AcDbLine
 10
-279.5098835710141
 20
-212.8376483121452
 30
0.0
 11
-279.5098835710141
 21
-192.8376483121452
 31
0.0
  0
LINE
  5
423
330
1F
100
AcDbEntity
  8
0
  6
Continuous
 62
     7
370
    15
100
AcDbLine
 10
-279.5098835710141
 20
-192.8376483121452
 30
0.0
 11
-289.5098835710141
 21
-192.8376483121452
 31
0.0
  0
LINE
  5
424
330
1F
100
AcDbEntity
  8
0
  6
Continuous
 62
     7
370
    15
100
AcDbLine
 10
-289.5098835710141
 20
-192.8376483121452
 30
0.0
 11
-289.5098835710141
 21
-212.8376483121452
 31
0.0
  0
LINE
  5
425
330
1F
100
AcDbEntity
  8
0
  6
Continuous
 62
     7
370
    15
100
AcDbLine
 10
-311.3512340616414
 20
-217.4226785045111
 30
0.0
 11
-212.1583749957283
 21
-217.4226785045111
 31
0.0
  0
LINE
  5
426
330
1F
100
AcDbEntity
  8
0
  6
Continuous
 62
     7
370
    15
100
AcDbLine
 10
-210.1583749957283
 20
-217.4226785045111
 30
0.0
 11
53.84162500427175
 21
-217.4226785045111
 31
0.0
  0
LINE
  5
427
330
1F
100
AcDbEntity
  8
0
  6
Continuous
 62
     7
370
    15
100
AcDbLine
 10
55.84162500427163
 20
-217.4226785045111
 30
0.0
 11
151.6487659383585
 21
-217.4226785045111
 31
0.0
  0
LINE
  5
428
330
1F
100
AcDbEntity
  8
0
  6
Continuous
 62
     7
370
    15
100
AcDbLine
 10
-311.3512340616414
 20
-217.4226785045111
 30
0.0
 11
-311.3512340616414
 21
-176.8203457704542
 31
0.0
  0
LINE
  5
429
330
1F
100
AcDbEntity
  8
0
  6
Continuous
 62
     7
370
    15
100
AcDbLine
 10
151.6487659383585
 20
-217.4226785045111
 30
0.0
 11
151.6487659383585
 21
-176.8203457704542
 31
0.0
  0
LINE
  5
42A
330
1F
100
AcDbEntity
  8
0
  6
Continuous
 62
     7
370
    15
100
AcDbLine
 10
-304.5098835710142
 20
-212.8376483121451
 30
0.0
 11
-294.5098835710141
 21
-212.8376483121451
 31
0.0
  0
LINE
  5
42B
330
1F
100
AcDbEntity
  8
0
  6
Continuous
 62
     7
370
    15
100
AcDbLine
 10
-294.5098835710141
 20
-212.8376483121451
 30
0.0
 11
-294.5098835710141
 21
-192.837648312145
 31
0.0
  0
LINE
  5
42C
330
1F
100
AcDbEntity
  8
0
  6
Continuous
 62
     7
370
    15
100
AcDbLine
 10
-294.5098835710141
 20
-192.837648312145
 30
0.0
 11
-304.5098835710142
 21
-192.837648312145
 31
0.0
  0
LINE
  5
42D
330
1F
100
AcDbEntity
  8
0
  6
Continuous
 62
     7
370
    15
100
AcDbLine
 10
-304.5098835710142
 20
-192.837648312145
 30
0.0
 11
-304.5098835710142
 21
-212.8376483121451
 31
0.0
  0
LINE
  5
42E
330
1F
100
AcDbEntity
  8
0
  6
Continuous
 62
     7
370
    15
100
AcDbLine
 10
-274.5098835710142
 20
-212.8376483121453
 30
0.0
 11
-264.5098835710141
 21
-212.8376483121453
 31
0.0
  0
LINE
  5
42F
330
1F
100
AcDbEntity
  8
0
  6
Continuous
 62
     7
370
    15
100
AcDbLine
 10
-264.5098835710141
 20
-212.8376483121453
 30
0.0
 11
-264.5098835710141
 21
-192.8376483121454
 31
0.0
  0
LINE
  5
430
330
1F
100
AcDbEntity
  8
0
  6
Continuous
 62
     7
370
    15
100
AcDbLine
 10
-264.5098835710141
 20
-192.8376483121454
 30
0.0
 11
-274.5098835710142
 21
-192.8376483121454
 31
0.0
  0
LINE
  5
431
330
1F
100
AcDbEntity
  8
0
  6
Continuous
 62
     7
370
    15
100
AcDbLine
 10
-274.5098835710142
 20
-192.8376483121454
 30
0.0
 11
-274.5098835710142
 21
-212.8376483121453
 31
0.0
  0
LINE
  5
432
330
1F
100
AcDbEntity
  8
0
  6
Continuous
 62
     7
370
    15
100
AcDbLine
 10
-244.5098835710142
 20
-212.8376483121457
 30
0.0
 11
-234.5098835710142
 21
-212.8376483121457
 31
0.0
  0
LINE
  5
433
330
1F
100
AcDbEntity
  8
0
  6
Continuous
 62
     7
370
    15
100
AcDbLine
 10
-234.5098835710142
 20
-212.8376483121457
 30
0.0
 11
-234.5098835710142
 21
-192.8376483121456
 31
0.0
  0
LINE
  5
434
330
1F
100
AcDbEntity
  8
0
  6
Continuous
 62
     7
370
    15
100
AcDbLine
 10
-234.5098835710142
 20
-192.8376483121456
 30
0.0
 11
-244.5098835710142
 21
-192.8376483121456
 31
0.0
  0
LINE
  5
435
330
1F
100
AcDbEntity
  8
0
  6
Continuous
 62
     7
370
    15
100
AcDbLine
 10
-244.5098835710142
 20
-192.8376483121456
 30
0.0
 11
-244.5098835710142
 21
-212.8376483121457
 31
0.0
  0
LINE
  5
436
330
1F
100
AcDbEntity
  8
0
  6
Continuous
 62
     7
370
    15
100
AcDbLine
 10
-214.5098835710141
 20
-212.837648312146
 30
0.0
 11
-212.1583749957283
 21
-212.8376483121461
 31
0.0
  0
LINE
  5
437
330
1F
100
AcDbEntity
  8
0
  6
Continuous
 62
     7
370
    15
100
AcDbLine
 10
-210.1583749957283
 20
-212.837648312146
 30
0.0
 11
-204.5098835710141
 21
-212.837648312146
 31
0.0
  0
LINE
  5
438
330
1F
100
AcDbEntity
  8
0
  6
Continuous
 62
     7
370
    15
100
AcDbLine
 10
-204.5098835710141
 20
-212.837648312146
 30
0.0
 11
-204.5098835710142
 21
-192.837648312146
 31
0.0
  0
LINE
  5
439
330
1F
100
AcDbEntity
  8
0
  6
Continuous
 62
     7
370
    15
100
AcDbLine
 10
-204.5098835710142
 20
-192.837648312146
 30
0.0
 11
-210.1583749957283
 21
-192.837648312146
 31
0.0
  0
LINE
  5
43A
330
1F
100
AcDbEntity
  8
0
  6
Continuous
 62
     7
370
    15
100
AcDbLine
 10
-212.1583749957283
 20
-192.837648312146
 30
0.0
 11
-214.5098835710141
 21
-192.837648312146
 31
0.0
  0
LINE
  5
43B
330
1F
100
AcDbEntity
  8
0
  6
Continuous
 62
     7
370
    15
100
AcDbLine
 10
-214.5098835710141
 20
-192.837648312146
 30
0.0
 11
-214.5098835710141
 21
-212.837648312146
 31
0.0
  0
LINE
  5
43C
330
1F
100
AcDbEntity
  8
0
  6
Continuous
 62
     7
370
    15
100
AcDbLine
 10
-184.5098835710141
 20
-212.8376483121463
 30
0.0
 11
-174.5098835710142
 21
-212.8376483121463
 31
0.0
  0
LINE
  5
43D
330
1F
100
AcDbEntity
  8
0
  6
Continuous
 62
     7
370
    15
100
AcDbLine
 10
-174.5098835710142
 20
-212.8376483121463
 30
0.0
 11
-174.5098835710142
 21
-192.8376483121463
 31
0.0
  0
LINE
  5
43E
330
1F
100
AcDbEntity
  8
0
  6
Continuous
 62
     7
370
    15
100
AcDbLine
 10
-174.5098835710142
 20
-192.8376483121463
 30
0.0
 11
-184.5098835710141
 21
-192.8376483121463
 31
0.0
  0
LINE
  5
43F
330
1F
100
AcDbEntity
  8
0
  6
Continuous
 62
     7
370
    15
100
AcDbLine
 10
-184.5098835710141
 20
-192.8376483121463
 30
0.0
 11
-184.5098835710141
 21
-212.8376483121463
 31
0.0
  0
LINE
  5
440
330
1F
100
AcDbEntity
  8
0
  6
Continuous
 62
     7
370
    15
100
AcDbLine
 10
-154.5098835710141
 20
-212.8376483121466
 30
0.0
 11
-144.5098835710141
 21
-212.8376483121466
 31
0.0
  0
LINE
  5
441
330
1F
100
AcDbEntity
  8
0
  6
Continuous
 62
     7
370
    15
100
AcDbLine
 10
-144.5098835710141
 20
-212.8376483121466
 30
0.0
 11
-144.5098835710141
 21
-192.8376483121467
 31
0.0
  0
LINE
  5
442
330
1F
100
AcDbEntity
  8
0
  6
Continuous
 62
     7
370
    15
100
AcDbLine
 10
-144.5098835710141
 20
-192.8376483121467
 30
0.0
 11
-154.5098835710141
 21
-192.8376483121467
 31
0.0
  0
LINE
  5
443
330
1F
100
AcDbEntity
  8
0
  6
Continuous
 62
     7
370
    15
100
AcDbLine
 10
-154.5098835710141
 20
-192.8376483121467
 30
0.0
 11
-154.5098835710141
 21
-212.8376483121466
 31
0.0
  0
LINE
  5
444
330
1F
100
AcDbEntity
  8
0
  6
Continuous
 62
     7
370
    15
100
AcDbLine
 10
-124.5098835710142
 20
-212.837648312147
 30
0.0
 11
-114.5098835710141
 21
-212.837648312147
 31
0.0
  0
LINE
  5
445
330
1F
100
AcDbEntity
  8
0
  6
Continuous
 62
     7
370
    15
100
AcDbLine
 10
-114.5098835710141
 20
-212.837648312147
 30
0.0
 11
-114.5098835710142
 21
-192.837648312147
 31
0.0
  0
LINE
  5
446
330
1F
100
AcDbEntity
  8
0
  6
Continuous
 62
     7
370
    15
100
AcDbLine
 10
-114.5098835710142
 20
-192.837648312147
 30
0.0
 11
-124.5098835710142
 21
-192.837648312147
 31
0.0
  0
LINE
  5
447
330
1F
100
AcDbEntity
  8
0
  6
Continuous
 62
     7
370
    15
100
AcDbLine
 10
-124.5098835710142
 20
-192.837648312147
 30
0.0
 11
-124.5098835710142
 21
-212.837648312147
 31
0.0
  0
LINE
  5
448
330
1F
100
AcDbEntity
  8
0
  6
Continuous
 62
     7
370
    15
100
AcDbLine
 10
-94.50988357101413
 20
-212.8376483121472
 30
0.0
 11
-84.50988357101413
 21
-212.8376483121472
 31
0.0
  0
LINE
  5
449
330
1F
100
AcDbEntity
  8
0
  6
Continuous
 62
     7
370
    15
100
AcDbLine
 10
-84.50988357101413
 20
-212.8376483121472
 30
0.0
 11
-84.50988357101413
 21
-192.8376483121472
 31
0.0
  0
LINE
  5
44A
330
1F
100
AcDbEntity
  8
0
  6
Continuous
 62
     7
370
    15
100
AcDbLine
 10
-84.50988357101413
 20
-192.8376483121472
 30
0.0
 11
-94.50988357101413
 21
-192.8376483121472
 31
0.0
  0
LINE
  5
44B
330
1F
100
AcDbEntity
  8
0
  6
Continuous
 62
     7
370
    15
100
AcDbLine
 10
-94.50988357101413
 20
-192.8376483121472
 30
0.0
 11
-94.50988357101413
 21
-212.8376483121472
 31
0.0
  0
LINE
  5
44C
330
1F
100
AcDbEntity
  8
0
  6
Continuous
 62
     7
370
    15
100
AcDbLine
 10
-64.5098835710142
 20
-212.8376483121476
 30
0.0
 11
-54.5098835710142
 21
-212.8376483121476
 31
0.0
  0
LINE
  5
44D
330
1F
100
AcDbEntity
  8
0
  6
Continuous
 62
     7
370
    15
100
AcDbLine
 10
-54.5098835710142
 20
-212.8376483121476
 30
0.0
 11
-54.5098835710142
 21
-192.8376483121475
 31
0.0
  0
LINE
  5
44E
330
1F
100
AcDbEntity
  8
0
  6
Continuous
 62
     7
370
    15
100
AcDbLine
 10
-54.5098835710142
 20
-192.8376483121475
 30
0.0
 11
-64.5098835710142
 21
-192.8376483121475
 31
0.0
  0
LINE
  5
44F
330
1F
100
AcDbEntity
  8
0
  6
Continuous
 62
     7
370
    15
100
AcDbLine
 10
-64.5098835710142
 20
-192.8376483121475
 30
0.0
 11
-64.5098835710142
 21
-212.8376483121476
 31
0.0
  0
LINE
  5
450
330
1F
100
AcDbEntity
  8
0
  6
Continuous
 62
     7
370
    15
100
AcDbLine
 10
-34.5098835710142
 20
-212.8376483121479
 30
0.0
 11
-24.5098835710142
 21
-212.8376483121479
 31
0.0
  0
LINE
  5
451
330
1F
100
AcDbEntity
  8
0
  6
Continuous
 62
     7
370
    15
100
AcDbLine
 10
-24.5098835710142
 20
-212.8376483121479
 30
0.0
 11
-24.5098835710142
 21
-192.8376483121479
 31
0.0
  0
LINE
  5
452
330
1F
100
AcDbEntity
  8
0
  6
Continuous
 62
     7
370
    15
100
AcDbLine
 10
-24.5098835710142
 20
-192.8376483121479
 30
0.0
 11
-34.5098835710142
 21
-192.8376483121479
 31
0.0
  0
LINE
  5
453
330
1F
100
AcDbEntity
  8
0
  6
Continuous
 62
     7
370
    15
100
AcDbLine
 10
-34.5098835710142
 20
-192.8376483121479
 30
0.0
 11
-34.5098835710142
 21
-212.8376483121479
 31
0.0
  0
LINE
  5
454
330
1F
100
AcDbEntity
  8
0
  6
Continuous
 62
     7
370
    15
100
AcDbLine
 10
-4.509883571014142
 20
-212.8376483121483
 30
0.0
 11
5.490116428985857
 21
-212.8376483121483
 31
0.0
  0
LINE
  5
455
330
1F
100
AcDbEntity
  8
0
  6
Continuous
 62
     7
370
    15
100
AcDbLine
 10
5.490116428985857
 20
-212.8376483121483
 30
0.0
 11
5.490116428985857
 21
-192.8376483121482
 31
0.0
  0
LINE
  5
456
330
1F
100
AcDbEntity
  8
0
  6
Continuous
 62
     7
370
    15
100
AcDbLine
 10
5.490116428985857
 20
-192.8376483121482
 30
0.0
 11
-4.509883571014142
 21
-192.8376483121482
 31
0.0
  0
LINE
  5
457
330
1F
100
AcDbEntity
  8
0
  6
Continuous
 62
     7
370
    15
100
AcDbLine
 10
-4.509883571014142
 20
-192.8376483121482
 30
0.0
 11
-4.509883571014142
 21
-212.8376483121483
 31
0.0
  0
LINE
  5
458
330
1F
100
AcDbEntity
  8
0
  6
Continuous
 62
     7
370
    15
100
AcDbLine
 10
25.49011642898586
 20
-212.8376483121485
 30
0.0
 11
35.49011642898586
 21
-212.8376483121485
 31
0.0
  0
LINE
  5
459
330
1F
100
AcDbEntity
  8
0
  6
Continuous
 62
     7
370
    15
100
AcDbLine
 10
35.49011642898586
 20
-212.8376483121485
 30
0.0
 11
35.49011642898586
 21
-192.8376483121485
 31
0.0
  0
LINE
  5
45A
330
1F
100
AcDbEntity
  8
0
  6
Continuous
 62
     7
370
    15
100
AcDbLine
 10
35.49011642898586
 20
-192.8376483121485
 30
0.0
 11
25.49011642898586
 21
-192.8376483121485
 31
0.0
  0
LINE
  5
45B
330
1F
100
AcDbEntity
  8
0
  6
Continuous
 62
     7
370
    15
100
AcDbLine
 10
25.49011642898586
 20
-192.8376483121485
 30
0.0
 11
25.49011642898586
 21
-212.8376483121485
 31
0.0
  0
LINE
  5
45C
330
1F
100
AcDbEntity
  8
0
  6
Continuous
 62
     7
370
    15
100
AcDbLine
 10
55.84162500427163
 20
-212.8376483121489
 30
0.0
 11
65.4901164289858
 21
-212.8376483121488
 31
0.0
  0
LINE
  5
45D
330
1F
100
AcDbEntity
  8
0
  6
Continuous
 62
     7
370
    15
100
AcDbLine
 10
65.4901164289858
 20
-212.8376483121488
 30
0.0
 11
65.49011642898591
 21
-192.8376483121488
 31
0.0
  0
LINE
  5
45E
330
1F
100
AcDbEntity
  8
0
  6
Continuous
 62
     7
370
    15
100
AcDbLine
 10
65.49011642898591
 20
-192.8376483121488
 30
0.0
 11
55.84162500427175
 21
-192.8376483121488
 31
0.0
  0
LINE
  5
45F
330
1F
100
AcDbEntity
  8
0
  6
Continuous
 62
     7
370
    15
100
AcDbLine
 10
85.4901164289858
 20
-212.8376483121491
 30
0.0
 11
95.4901164289858
 21
-212.8376483121491
 31
0.0
  0
LINE
  5
460
330
1F
100
AcDbEntity
  8
0
  6
Continuous
 62
     7
370
    15
100
AcDbLine
 10
95.4901164289858
 20
-212.8376483121491
 30
0.0
 11
95.4901164289858
 21
-192.8376483121492
 31
0.0
  0
LINE
  5
461
330
1F
100
AcDbEntity
  8
0
  6
Continuous
 62
     7
370
    15
100
AcDbLine
 10
95.4901164289858
 20
-192.8376483121492
 30
0.0
 11
85.4901164289858
 21
-192.8376483121492
 31
0.0
  0
LINE
  5
462
330
1F
100
AcDbEntity
  8
0
  6
Continuous
 62
     7
370
    15
100
AcDbLine
 10
85.4901164289858
 20
-192.8376483121492
 30
0.0
 11
85.4901164289858
 21
-212.8376483121491
 31
0.0
  0
LINE
  5
463
330
1F
100
AcDbEntity
  8
0
  6
Continuous
 62
     7
370
    15
100
AcDbLine
 10
115.4901164289858
 20
-212.8376483121495
 30
0.0
 11
125.4901164289858
 21
-212.8376483121495
 31
0.0
  0
LINE
  5
464
330
1F
100
AcDbEntity
  8
0
  6
Continuous
 62
     7
370
    15
100
AcDbLine
 10
125.4901164289858
 20
-212.8376483121495
 30
0.0
 11
125.4901164289858
 21
-192.8376483121494
 31
0.0
  0
LINE
  5
465
330
1F
100
AcDbEntity
  8
0
  6
Continuous
 62
     7
370
    15
100
AcDbLine
 10
125.4901164289858
 20
-192.8376483121494
 30
0.0
 11
115.4901164289858
 21
-192.8376483121494
 31
0.0
  0
LINE
  5
466
330
1F
100
AcDbEntity
  8
0
  6
Continuous
 62
     7
370
    15
100
AcDbLine
 10
115.4901164289858
 20
-192.8376483121494
 30
0.0
 11
115.4901164289858
 21
-212.8376483121495
 31
0.0
  0
LINE
  5
467
330
1F
100
AcDbEntity
  8
0
  6
Continuous
 62
     7
370
    15
100
AcDbLine
 10
-210.1583749957283
 20
-286.6996020562273
 30
0.0
 11
53.84162500427175
 21
-286.6996020562273
 31
0.0
  0
LINE
  5
468
330
1F
100
AcDbEntity
  8
0
  6
Continuous
 62
     7
370
    15
100
AcDbLine
 10
140.4901164289858
 20
-222.7169045979226
 30
0.0
 11
140.4901164289858
 21
-242.7169045979226
 31
0.0
  0
LINE
  5
469
330
1F
100
AcDbEntity
  8
0
  6
Continuous
 62
     7
370
    15
100
AcDbLine
 10
130.4901164289858
 20
-222.7169045979226
 30
0.0
 11
140.4901164289858
 21
-222.7169045979226
 31
0.0
  0
LINE
  5
46A
330
1F
100
AcDbEntity
  8
0
  6
Continuous
 62
     7
370
    15
100
AcDbLine
 10
130.4901164289858
 20
-242.7169045979226
 30
0.0
 11
130.4901164289858
 21
-222.7169045979226
 31
0.0
  0
LINE
  5
46B
330
1F
100
AcDbEntity
  8
0
  6
Continuous
 62
     7
370
    15
100
AcDbLine
 10
140.4901164289858
 20
-242.7169045979226
 30
0.0
 11
130.4901164289858
 21
-242.7169045979226
 31
0.0
  0
LINE
  5
46C
330
1F
100
AcDbEntity
  8
0
  6
Continuous
 62
     7
370
    15
100
AcDbLine
 10
110.4901164289858
 20
-222.7169045979223
 30
0.0
 11
110.4901164289858
 21
-242.7169045979223
 31
0.0
  0
LINE
  5
46D
330
1F
100
AcDbEntity
  8
0
  6
Continuous
 62
     7
370
    15
100
AcDbLine
 10
100.4901164289858
 20
-222.7169045979223
 30
0.0
 11
110.4901164289858
 21
-222.7169045979223
 31
0.0
  0
LINE
  5
46E
330
1F
100
AcDbEntity
  8
0
  6
Continuous
 62
     7
370
    15
100
AcDbLine
 10
100.4901164289858
 20
-242.7169045979223
 30
0.0
 11
100.4901164289858
 21
-222.7169045979223
 31
0.0
  0
LINE
  5
46F
330
1F
100
AcDbEntity
  8
0
  6
Continuous
 62
     7
370
    15
100
AcDbLine
 10
110.4901164289858
 20
-242.7169045979223
 30
0.0
 11
100.4901164289858
 21
-242.7169045979223
 31
0.0
  0
LINE
  5
470
330
1F
100
AcDbEntity
  8
0
  6
Continuous
 62
     7
370
    15
100
AcDbLine
 10
80.4901164289858
 20
-222.7169045979219
 30
0.0
 11
80.4901164289858
 21
-242.7169045979219
 31
0.0
  0
LINE
  5
471
330
1F
100
AcDbEntity
  8
0
  6
Continuous
 62
     7
370
    15
100
AcDbLine
 10
70.4901164289858
 20
-222.7169045979219
 30
0.0
 11
80.4901164289858
 21
-222.7169045979219
 31
0.0
  0
LINE
  5
472
330
1F
100
AcDbEntity
  8
0
  6
Continuous
 62
     7
370
    15
100
AcDbLine
 10
70.4901164289858
 20
-242.7169045979219
 30
0.0
 11
70.4901164289858
 21
-222.7169045979219
 31
0.0
  0
LINE
  5
473
330
1F
100
AcDbEntity
  8
0
  6
Continuous
 62
     7
370
    15
100
AcDbLine
 10
80.4901164289858
 20
-242.7169045979219
 30
0.0
 11
70.4901164289858
 21
-242.7169045979219
 31
0.0
  0
LINE
  5
474
330
1F
100
AcDbEntity
  8
0
  6
Continuous
 62
     7
370
    15
100
AcDbLine
 10
50.49011642898591
 20
-222.7169045979217
 30
0.0
 11
50.49011642898591
 21
-242.7169045979217
 31
0.0
  0
LINE
  5
475
330
1F
100
AcDbEntity
  8
0
  6
Continuous
 62
     7
370
    15
100
AcDbLine
 10
40.49011642898586
 20
-222.7169045979217
 30
0.0
 11
50.49011642898591
 21
-222.7169045979217
 31
0.0
  0
LINE
  5
476
330
1F
100
AcDbEntity
  8
0
  6
Continuous
 62
     7
370
    15
100
AcDbLine
 10
40.49011642898586
 20
-242.7169045979217
 30
0.0
 11
40.49011642898586
 21
-222.7169045979217
 31
0.0
  0
LINE
  5
477
330
1F
100
AcDbEntity
  8
0
  6
Continuous
 62
     7
370
    15
100
AcDbLine
 10
50.49011642898591
 20
-242.7169045979217
 30
0.0
 11
40.49011642898586
 21
-242.7169045979217
 31
0.0
  0
LINE
  5
478
330
1F
100
AcDbEntity
  8
0
  6
Continuous
 62
     7
370
    15
100
AcDbLine
 10
20.49011642898586
 20
-222.7169045979214
 30
0.0
 11
20.49011642898586
 21
-242.7169045979214
 31
0.0
  0
LINE
  5
479
330
1F
100
AcDbEntity
  8
0
  6
Continuous
 62
     7
370
    15
100
AcDbLine
 10
10.49011642898586
 20
-222.7169045979214
 30
0.0
 11
20.49011642898586
 21
-222.7169045979214
 31
0.0
  0
LINE
  5
47A
330
1F
100
AcDbEntity
  8
0
  6
Continuous
 62
     7
370
    15
100
AcDbLine
 10
10.49011642898586
 20
-242.7169045979214
 30
0.0
 11
10.49011642898586
 21
-222.7169045979214
 31
0.0
  0
LINE
  5
47B
330
1F
100
AcDbEntity
  8
0
  6
Continuous
 62
     7
370
    15
100
AcDbLine
 10
20.49011642898586
 20
-242.7169045979214
 30
0.0
 11
10.49011642898586
 21
-242.7169045979214
 31
0.0
  0
LINE
  5
47C
330
1F
100
AcDbEntity
  8
0
  6
Continuous
 62
     7
370
    15
100
AcDbLine
 10
-9.509883571014142
 20
-222.716904597921
 30
0.0
 11
-9.509883571014142
 21
-242.7169045979211
 31
0.0
  0
LINE
  5
47D
330
1F
100
AcDbEntity
  8
0
  6
Continuous
 62
     7
370
    15
100
AcDbLine
 10
-19.5098835710142
 20
-222.716904597921
 30
0.0
 11
-9.509883571014142
 21
-222.716904597921
 31
0.0
  0
LINE
  5
47E
330
1F
100
AcDbEntity
  8
0
  6
Continuous
 62
     7
370
    15
100
AcDbLine
 10
-19.5098835710142
 20
-242.7169045979211
 30
0.0
 11
-19.5098835710142
 21
-222.716904597921
 31
0.0
  0
LINE
  5
47F
330
1F
100
AcDbEntity
  8
0
  6
Continuous
 62
     7
370
    15
100
AcDbLine
 10
-9.509883571014142
 20
-242.7169045979211
 30
0.0
 11
-19.5098835710142
 21
-242.7169045979211
 31
0.0
  0
LINE
  5
480
330
1F
100
AcDbEntity
  8
0
  6
Continuous
 62
     7
370
    15
100
AcDbLine
 10
-39.5098835710142
 20
-222.7169045979208
 30
0.0
 11
-39.5098835710142
 21
-242.7169045979207
 31
0.0
  0
LINE
  5
481
330
1F
100
AcDbEntity
  8
0
  6
Continuous
 62
     7
370
    15
100
AcDbLine
 10
-49.5098835710142
 20
-222.7169045979208
 30
0.0
 11
-39.5098835710142
 21
-222.7169045979208
 31
0.0
  0
LINE
  5
482
330
1F
100
AcDbEntity
  8
0
  6
Continuous
 62
     7
370
    15
100
AcDbLine
 10
-49.5098835710142
 20
-242.7169045979207
 30
0.0
 11
-49.5098835710142
 21
-222.7169045979208
 31
0.0
  0
LINE
  5
483
330
1F
100
AcDbEntity
  8
0
  6
Continuous
 62
     7
370
    15
100
AcDbLine
 10
-39.5098835710142
 20
-242.7169045979207
 30
0.0
 11
-49.5098835710142
 21
-242.7169045979207
 31
0.0
  0
LINE
  5
484
330
1F
100
AcDbEntity
  8
0
  6
Continuous
 62
     7
370
    15
100
AcDbLine
 10
-69.5098835710142
 20
-222.7169045979204
 30
0.0
 11
-69.5098835710142
 21
-242.7169045979204
 31
0.0
  0
LINE
  5
485
330
1F
100
AcDbEntity
  8
0
  6
Continuous
 62
     7
370
    15
100
AcDbLine
 10
-79.5098835710142
 20
-222.7169045979204
 30
0.0
 11
-69.5098835710142
 21
-222.7169045979204
 31
0.0
  0
LINE
  5
486
330
1F
100
AcDbEntity
  8
0
  6
Continuous
 62
     7
370
    15
100
AcDbLine
 10
-79.5098835710142
 20
-242.7169045979204
 30
0.0
 11
-79.5098835710142
 21
-222.7169045979204
 31
0.0
  0
LINE
  5
487
330
1F
100
AcDbEntity
  8
0
  6
Continuous
 62
     7
370
    15
100
AcDbLine
 10
-69.5098835710142
 20
-242.7169045979204
 30
0.0
 11
-79.5098835710142
 21
-242.7169045979204
 31
0.0
  0
LINE
  5
488
330
1F
100
AcDbEntity
  8
0
  6
Continuous
 62
     7
370
    15
100
AcDbLine
 10
-99.50988357101426
 20
-222.7169045979202
 30
0.0
 11
-99.50988357101415
 21
-242.7169045979202
 31
0.0
  0
LINE
  5
489
330
1F
100
AcDbEntity
  8
0
  6
Continuous
 62
     7
370
    15
100
AcDbLine
 10
-109.5098835710141
 20
-222.7169045979202
 30
0.0
 11
-99.50988357101426
 21
-222.7169045979202
 31
0.0
  0
LINE
  5
48A
330
1F
100
AcDbEntity
  8
0
  6
Continuous
 62
     7
370
    15
100
AcDbLine
 10
-109.5098835710141
 20
-242.7169045979202
 30
0.0
 11
-109.5098835710141
 21
-222.7169045979202
 31
0.0
  0
LINE
  5
48B
330
1F
100
AcDbEntity
  8
0
  6
Continuous
 62
     7
370
    15
100
AcDbLine
 10
-99.50988357101415
 20
-242.7169045979202
 30
0.0
 11
-109.5098835710141
 21
-242.7169045979202
 31
0.0
  0
LINE
  5
48C
330
1F
100
AcDbEntity
  8
0
  6
Continuous
 62
     7
370
    15
100
AcDbLine
 10
-129.5098835710142
 20
-222.7169045979198
 30
0.0
 11
-129.5098835710142
 21
-242.7169045979197
 31
0.0
  0
LINE
  5
48D
330
1F
100
AcDbEntity
  8
0
  6
Continuous
 62
     7
370
    15
100
AcDbLine
 10
-139.5098835710142
 20
-222.7169045979198
 30
0.0
 11
-129.5098835710142
 21
-222.7169045979198
 31
0.0
  0
LINE
  5
48E
330
1F
100
AcDbEntity
  8
0
  6
Continuous
 62
     7
370
    15
100
AcDbLine
 10
-139.5098835710142
 20
-242.7169045979197
 30
0.0
 11
-139.5098835710142
 21
-222.7169045979198
 31
0.0
  0
LINE
  5
48F
330
1F
100
AcDbEntity
  8
0
  6
Continuous
 62
     7
370
    15
100
AcDbLine
 10
-129.5098835710142
 20
-242.7169045979197
 30
0.0
 11
-139.5098835710142
 21
-242.7169045979197
 31
0.0
  0
LINE
  5
490
330
1F
100
AcDbEntity
  8
0
  6
Continuous
 62
     7
370
    15
100
AcDbLine
 10
-159.5098835710141
 20
-222.7169045979195
 30
0.0
 11
-159.5098835710141
 21
-242.7169045979195
 31
0.0
  0
LINE
  5
491
330
1F
100
AcDbEntity
  8
0
  6
Continuous
 62
     7
370
    15
100
AcDbLine
 10
-169.5098835710141
 20
-222.7169045979195
 30
0.0
 11
-159.5098835710141
 21
-222.7169045979195
 31
0.0
  0
LINE
  5
492
330
1F
100
AcDbEntity
  8
0
  6
Continuous
 62
     7
370
    15
100
AcDbLine
 10
-169.5098835710141
 20
-242.7169045979195
 30
0.0
 11
-169.5098835710141
 21
-222.7169045979195
 31
0.0
  0
LINE
  5
493
330
1F
100
AcDbEntity
  8
0
  6
Continuous
 62
     7
370
    15
100
AcDbLine
 10
-159.5098835710141
 20
-242.7169045979195
 30
0.0
 11
-169.5098835710141
 21
-242.7169045979195
 31
0.0
  0
LINE
  5
494
330
1F
100
AcDbEntity
  8
0
  6
Continuous
 62
     7
370
    15
100
AcDbLine
 10
-189.5098835710142
 20
-222.7169045979191
 30
0.0
 11
-189.5098835710141
 21
-242.7169045979192
 31
0.0
  0
LINE
  5
495
330
1F
100
AcDbEntity
  8
0
  6
Continuous
 62
     7
370
    15
100
AcDbLine
 10
-199.5098835710141
 20
-222.7169045979191
 30
0.0
 11
-189.5098835710142
 21
-222.7169045979191
 31
0.0
  0
LINE
  5
496
330
1F
100
AcDbEntity
  8
0
  6
Continuous
 62
     7
370
    15
100
AcDbLine
 10
-199.5098835710141
 20
-242.7169045979192
 30
0.0
 11
-199.5098835710141
 21
-222.7169045979191
 31
0.0
  0
LINE
  5
497
330
1F
100
AcDbEntity
  8
0
  6
Continuous
 62
     7
370
    15
100
AcDbLine
 10
-189.5098835710141
 20
-242.7169045979192
 30
0.0
 11
-199.5098835710141
 21
-242.7169045979192
 31
0.0
  0
LINE
  5
498
330
1F
100
AcDbEntity
  8
0
  6
Continuous
 62
     7
370
    15
100
AcDbLine
 10
-219.5098835710142
 20
-222.7169045979188
 30
0.0
 11
-219.5098835710142
 21
-242.7169045979189
 31
0.0
  0
LINE
  5
499
330
1F
100
AcDbEntity
  8
0
  6
Continuous
 62
     7
370
    15
100
AcDbLine
 10
-229.5098835710142
 20
-222.7169045979188
 30
0.0
 11
-219.5098835710142
 21
-222.7169045979188
 31
0.0
  0
LINE
  5
49A
330
1F
100
AcDbEntity
  8
0
  6
Continuous
 62
     7
370
    15
100
AcDbLine
 10
-229.5098835710142
 20
-242.7169045979189
 30
0.0
 11
-229.5098835710142
 21
-222.7169045979188
 31
0.0
  0
LINE
  5
49B
330
1F
100
AcDbEntity
  8
0
  6
Continuous
 62
     7
370
    15
100
AcDbLine
 10
-219.5098835710142
 20
-242.7169045979189
 30
0.0
 11
-229.5098835710142
 21
-242.7169045979189
 31
0.0
  0
LINE
  5
49C
330
1F
100
AcDbEntity
  8
0
  6
Continuous
 62
     7
370
    15
100
AcDbLine
 10
-249.5098835710142
 20
-222.7169045979186
 30
0.0
 11
-249.5098835710142
 21
-242.7169045979186
 31
0.0
  0
LINE
  5
49D
330
1F
100
AcDbEntity
  8
0
  6
Continuous
 62
     7
370
    15
100
AcDbLine
 10
-259.5098835710142
 20
-222.7169045979186
 30
0.0
 11
-249.5098835710142
 21
-222.7169045979186
 31
0.0
  0
LINE
  5
49E
330
1F
100
AcDbEntity
  8
0
  6
Continuous
 62
     7
370
    15
100
AcDbLine
 10
-259.5098835710142
 20
-242.7169045979186
 30
0.0
 11
-259.5098835710142
 21
-222.7169045979186
 31
0.0
  0
LINE
  5
49F
330
1F
100
AcDbEntity
  8
0
  6
Continuous
 62
     7
370
    15
100
AcDbLine
 10
-249.5098835710142
 20
-242.7169045979186
 30
0.0
 11
-259.5098835710142
 21
-242.7169045979186
 31
0.0
  0
LINE
  5
4A0
330
1F
100
AcDbEntity
  8
0
  6
Continuous
 62
     7
370
    15
100
AcDbLine
 10
-279.5098835710141
 20
-222.7169045979182
 30
0.0
 11
-279.5098835710141
 21
-242.7169045979182
 31
0.0
  0
LINE
  5
4A1
330
1F
100
AcDbEntity
  8
0
  6
Continuous
 62
     7
370
    15
100
AcDbLine
 10
-289.5098835710141
 20
-222.7169045979182
 30
0.0
 11
-279.5098835710141
 21
-222.7169045979182
 31
0.0
  0
LINE
  5
4A2
330
1F
100
AcDbEntity
  8
0
  6
Continuous
 62
     7
370
    15
100
AcDbLine
 10
-289.5098835710141
 20
-242.7169045979182
 30
0.0
 11
-289.5098835710141
 21
-222.7169045979182
 31
0.0
  0
LINE
  5
4A3
330
1F
100
AcDbEntity
  8
0
  6
Continuous
 62
     7
370
    15
100
AcDbLine
 10
-279.5098835710141
 20
-242.7169045979182
 30
0.0
 11
-289.5098835710141
 21
-242.7169045979182
 31
0.0
  0
LINE
  5
4A4
330
1F
100
AcDbEntity
  8
0
  6
Continuous
 62
     7
370
    15
100
AcDbLine
 10
-311.3512340616414
 20
-218.3019347902841
 30
0.0
 11
-311.3512340616414
 21
-258.9042675243408
 31
0.0
  0
LINE
  5
4A5
330
1F
100
AcDbEntity
  8
0
  6
Continuous
 62
     7
370
    15
100
AcDbLine
 10
-311.3512340616414
 20
-218.3019347902841
 30
0.0
 11
-212.1583749957283
 21
-218.3019347902841
 31
0.0
  0
LINE
  5
4A6
330
1F
100
AcDbEntity
  8
0
  6
Continuous
 62
     7
370
    15
100
AcDbLine
 10
-210.1583749957283
 20
-218.3019347902841
 30
0.0
 11
53.84162500427175
 21
-218.3019347902841
 31
0.0
  0
LINE
  5
4A7
330
1F
100
AcDbEntity
  8
0
  6
Continuous
 62
     7
370
    15
100
AcDbLine
 10
55.84162500427163
 20
-218.3019347902841
 30
0.0
 11
151.6487659383585
 21
-218.3019347902841
 31
0.0
  0
LINE
  5
4A8
330
1F
100
AcDbEntity
  8
0
  6
Continuous
 62
     7
370
    15
100
AcDbLine
 10
151.6487659383585
 20
-218.3019347902841
 30
0.0
 11
151.6487659383585
 21
-258.9042675243408
 31
0.0
  0
LINE
  5
4A9
330
1F
100
AcDbEntity
  8
0
  6
Continuous
 62
     7
370
    15
100
AcDbLine
 10
-294.5098835710141
 20
-222.7169045979182
 30
0.0
 11
-294.5098835710141
 21
-242.7169045979181
 31
0.0
  0
LINE
  5
4AA
330
1F
100
AcDbEntity
  8
0
  6
Continuous
 62
     7
370
    15
100
AcDbLine
 10
-304.5098835710142
 20
-222.7169045979182
 30
0.0
 11
-294.5098835710141
 21
-222.7169045979182
 31
0.0
  0
LINE
  5
4AB
330
1F
100
AcDbEntity
  8
0
  6
Continuous
 62
     7
370
    15
100
AcDbLine
 10
-304.5098835710142
 20
-242.7169045979181
 30
0.0
 11
-304.5098835710142
 21
-222.7169045979182
 31
0.0
  0
LINE
  5
4AC
330
1F
100
AcDbEntity
  8
0
  6
Continuous
 62
     7
370
    15
100
AcDbLine
 10
-294.5098835710141
 20
-242.7169045979181
 30
0.0
 11
-304.5098835710142
 21
-242.7169045979181
 31
0.0
  0
LINE
  5
4AD
330
1F
100
AcDbEntity
  8
0
  6
Continuous
 62
     7
370
    15
100
AcDbLine
 10
-264.5098835710141
 20
-222.7169045979184
 30
0.0
 11
-264.5098835710141
 21
-242.7169045979184
 31
0.0
  0
LINE
  5
4AE
330
1F
100
AcDbEntity
  8
0
  6
Continuous
 62
     7
370
    15
100
AcDbLine
 10
-274.5098835710142
 20
-222.7169045979184
 30
0.0
 11
-264.5098835710141
 21
-222.7169045979184
 31
0.0
  0
LINE
  5
4AF
330
1F
100
AcDbEntity
  8
0
  6
Continuous
 62
     7
370
    15
100
AcDbLine
 10
-274.5098835710142
 20
-242.7169045979184
 30
0.0
 11
-274.5098835710142
 21
-222.7169045979184
 31
0.0
  0
LINE
  5
4B0
330
1F
100
AcDbEntity
  8
0
  6
Continuous
 62
     7
370
    15
100
AcDbLine
 10
-264.5098835710141
 20
-242.7169045979184
 30
0.0
 11
-274.5098835710142
 21
-242.7169045979184
 31
0.0
  0
LINE
  5
4B1
330
1F
100
AcDbEntity
  8
0
  6
Continuous
 62
     7
370
    15
100
AcDbLine
 10
-234.5098835710142
 20
-222.7169045979187
 30
0.0
 11
-234.5098835710142
 21
-242.7169045979187
 31
0.0
  0
LINE
  5
4B2
330
1F
100
AcDbEntity
  8
0
  6
Continuous
 62
     7
370
    15
100
AcDbLine
 10
-244.5098835710142
 20
-222.7169045979187
 30
0.0
 11
-234.5098835710142
 21
-222.7169045979187
 31
0.0
  0
LINE
  5
4B3
330
1F
100
AcDbEntity
  8
0
  6
Continuous
 62
     7
370
    15
100
AcDbLine
 10
-244.5098835710142
 20
-242.7169045979187
 30
0.0
 11
-244.5098835710142
 21
-222.7169045979187
 31
0.0
  0
LINE
  5
4B4
330
1F
100
AcDbEntity
  8
0
  6
Continuous
 62
     7
370
    15
100
AcDbLine
 10
-234.5098835710142
 20
-242.7169045979187
 30
0.0
 11
-244.5098835710142
 21
-242.7169045979187
 31
0.0
  0
LINE
  5
4B5
330
1F
100
AcDbEntity
  8
0
  6
Continuous
 62
     7
370
    15
100
AcDbLine
 10
-204.5098835710142
 20
-222.7169045979191
 30
0.0
 11
-204.5098835710141
 21
-242.7169045979191
 31
0.0
  0
LINE
  5
4B6
330
1F
100
AcDbEntity
  8
0
  6
Continuous
 62
     7
370
    15
100
AcDbLine
 10
-214.5098835710141
 20
-222.7169045979191
 30
0.0
 11
-212.1583749957283
 21
-222.7169045979191
 31
0.0
  0
LINE
  5
4B7
330
1F
100
AcDbEntity
  8
0
  6
Continuous
 62
     7
370
    15
100
AcDbLine
 10
-210.1583749957283
 20
-222.7169045979191
 30
0.0
 11
-204.5098835710142
 21
-222.7169045979191
 31
0.0
  0
LINE
  5
4B8
330
1F
100
AcDbEntity
  8
0
  6
Continuous
 62
     7
370
    15
100
AcDbLine
 10
-214.5098835710141
 20
-242.7169045979191
 30
0.0
 11
-214.5098835710141
 21
-222.7169045979191
 31
0.0
  0
LINE
  5
4B9
330
1F
100
AcDbEntity
  8
0
  6
Continuous
 62
     7
370
    15
100
AcDbLine
 10
-204.5098835710141
 20
-242.7169045979191
 30
0.0
 11
-210.1583749957283
 21
-242.7169045979191
 31
0.0
  0
LINE
  5
4BA
330
1F
100
AcDbEntity
  8
0
  6
Continuous
 62
     7
370
    15
100
AcDbLine
 10
-212.1583749957283
 20
-242.7169045979191
 30
0.0
 11
-214.5098835710141
 21
-242.7169045979191
 31
0.0
  0
LINE
  5
4BB
330
1F
100
AcDbEntity
  8
0
  6
Continuous
 62
     7
370
    15
100
AcDbLine
 10
-174.5098835710142
 20
-222.7169045979193
 30
0.0
 11
-174.5098835710142
 21
-242.7169045979193
 31
0.0
  0
LINE
  5
4BC
330
1F
100
AcDbEntity
  8
0
  6
Continuous
 62
     7
370
    15
100
AcDbLine
 10
-184.5098835710141
 20
-222.7169045979193
 30
0.0
 11
-174.5098835710142
 21
-222.7169045979193
 31
0.0
  0
LINE
  5
4BD
330
1F
100
AcDbEntity
  8
0
  6
Continuous
 62
     7
370
    15
100
AcDbLine
 10
-184.5098835710141
 20
-242.7169045979193
 30
0.0
 11
-184.5098835710141
 21
-222.7169045979193
 31
0.0
  0
LINE
  5
4BE
330
1F
100
AcDbEntity
  8
0
  6
Continuous
 62
     7
370
    15
100
AcDbLine
 10
-174.5098835710142
 20
-242.7169045979193
 30
0.0
 11
-184.5098835710141
 21
-242.7169045979193
 31
0.0
  0
LINE
  5
4BF
330
1F
100
AcDbEntity
  8
0
  6
Continuous
 62
     7
370
    15
100
AcDbLine
 10
-144.5098835710141
 20
-222.7169045979197
 30
0.0
 11
-144.5098835710141
 21
-242.7169045979196
 31
0.0
  0
LINE
  5
4C0
330
1F
100
AcDbEntity
  8
0
  6
Continuous
 62
     7
370
    15
100
AcDbLine
 10
-154.5098835710141
 20
-222.7169045979197
 30
0.0
 11
-144.5098835710141
 21
-222.7169045979197
 31
0.0
  0
LINE
  5
4C1
330
1F
100
AcDbEntity
  8
0
  6
Continuous
 62
     7
370
    15
100
AcDbLine
 10
-154.5098835710141
 20
-242.7169045979196
 30
0.0
 11
-154.5098835710141
 21
-222.7169045979197
 31
0.0
  0
LINE
  5
4C2
330
1F
100
AcDbEntity
  8
0
  6
Continuous
 62
     7
370
    15
100
AcDbLine
 10
-144.5098835710141
 20
-242.7169045979196
 30
0.0
 11
-154.5098835710141
 21
-242.7169045979196
 31
0.0
  0
LINE
  5
4C3
330
1F
100
AcDbEntity
  8
0
  6
Continuous
 62
     7
370
    15
100
AcDbLine
 10
-114.5098835710142
 20
-222.7169045979199
 30
0.0
 11
-114.5098835710141
 21
-242.71690459792
 31
0.0
  0
LINE
  5
4C4
330
1F
100
AcDbEntity
  8
0
  6
Continuous
 62
     7
370
    15
100
AcDbLine
 10
-124.5098835710142
 20
-222.7169045979199
 30
0.0
 11
-114.5098835710142
 21
-222.7169045979199
 31
0.0
  0
LINE
  5
4C5
330
1F
100
AcDbEntity
  8
0
  6
Continuous
 62
     7
370
    15
100
AcDbLine
 10
-124.5098835710142
 20
-242.71690459792
 30
0.0
 11
-124.5098835710142
 21
-222.7169045979199
 31
0.0
  0
LINE
  5
4C6
330
1F
100
AcDbEntity
  8
0
  6
Continuous
 62
     7
370
    15
100
AcDbLine
 10
-114.5098835710141
 20
-242.71690459792
 30
0.0
 11
-124.5098835710142
 21
-242.71690459792
 31
0.0
  0
LINE
  5
4C7
330
1F
100
AcDbEntity
  8
0
  6
Continuous
 62
     7
370
    15
100
AcDbLine
 10
-84.50988357101413
 20
-222.7169045979203
 30
0.0
 11
-84.50988357101413
 21
-242.7169045979203
 31
0.0
  0
LINE
  5
4C8
330
1F
100
AcDbEntity
  8
0
  6
Continuous
 62
     7
370
    15
100
AcDbLine
 10
-94.50988357101413
 20
-222.7169045979203
 30
0.0
 11
-84.50988357101413
 21
-222.7169045979203
 31
0.0
  0
LINE
  5
4C9
330
1F
100
AcDbEntity
  8
0
  6
Continuous
 62
     7
370
    15
100
AcDbLine
 10
-94.50988357101413
 20
-242.7169045979203
 30
0.0
 11
-94.50988357101413
 21
-222.7169045979203
 31
0.0
  0
LINE
  5
4CA
330
1F
100
AcDbEntity
  8
0
  6
Continuous
 62
     7
370
    15
100
AcDbLine
 10
-84.50988357101413
 20
-242.7169045979203
 30
0.0
 11
-94.50988357101413
 21
-242.7169045979203
 31
0.0
  0
LINE
  5
4CB
330
1F
100
AcDbEntity
  8
0
  6
Continuous
 62
     7
370
    15
100
AcDbLine
 10
-54.5098835710142
 20
-222.7169045979206
 30
0.0
 11
-54.5098835710142
 21
-242.7169045979206
 31
0.0
  0
LINE
  5
4CC
330
1F
100
AcDbEntity
  8
0
  6
Continuous
 62
     7
370
    15
100
AcDbLine
 10
-64.5098835710142
 20
-222.7169045979206
 30
0.0
 11
-54.5098835710142
 21
-222.7169045979206
 31
0.0
  0
LINE
  5
4CD
330
1F
100
AcDbEntity
  8
0
  6
Continuous
 62
     7
370
    15
100
AcDbLine
 10
-64.5098835710142
 20
-242.7169045979206
 30
0.0
 11
-64.5098835710142
 21
-222.7169045979206
 31
0.0
  0
LINE
  5
4CE
330
1F
100
AcDbEntity
  8
0
  6
Continuous
 62
     7
370
    15
100
AcDbLine
 10
-54.5098835710142
 20
-242.7169045979206
 30
0.0
 11
-64.5098835710142
 21
-242.7169045979206
 31
0.0
  0
LINE
  5
4CF
330
1F
100
AcDbEntity
  8
0
  6
Continuous
 62
     7
370
    15
100
AcDbLine
 10
-24.5098835710142
 20
-222.7169045979208
 30
0.0
 11
-24.5098835710142
 21
-242.7169045979209
 31
0.0
  0
LINE
  5
4D0
330
1F
100
AcDbEntity
  8
0
  6
Continuous
 62
     7
370
    15
100
AcDbLine
 10
-34.5098835710142
 20
-222.7169045979208
 30
0.0
 11
-24.5098835710142
 21
-222.7169045979208
 31
0.0
  0
LINE
  5
4D1
330
1F
100
AcDbEntity
  8
0
  6
Continuous
 62
     7
370
    15
100
AcDbLine
 10
-34.5098835710142
 20
-242.7169045979209
 30
0.0
 11
-34.5098835710142
 21
-222.7169045979208
 31
0.0
  0
LINE
  5
4D2
330
1F
100
AcDbEntity
  8
0
  6
Continuous
 62
     7
370
    15
100
AcDbLine
 10
-24.5098835710142
 20
-242.7169045979209
 30
0.0
 11
-34.5098835710142
 21
-242.7169045979209
 31
0.0
  0
LINE
  5
4D3
330
1F
100
AcDbEntity
  8
0
  6
Continuous
 62
     7
370
    15
100
AcDbLine
 10
5.490116428985857
 20
-222.7169045979213
 30
0.0
 11
5.490116428985857
 21
-242.7169045979213
 31
0.0
  0
LINE
  5
4D4
330
1F
100
AcDbEntity
  8
0
  6
Continuous
 62
     7
370
    15
100
AcDbLine
 10
-4.509883571014142
 20
-222.7169045979213
 30
0.0
 11
5.490116428985857
 21
-222.7169045979213
 31
0.0
  0
LINE
  5
4D5
330
1F
100
AcDbEntity
  8
0
  6
Continuous
 62
     7
370
    15
100
AcDbLine
 10
-4.509883571014142
 20
-242.7169045979213
 30
0.0
 11
-4.509883571014142
 21
-222.7169045979213
 31
0.0
  0
LINE
  5
4D6
330
1F
100
AcDbEntity
  8
0
  6
Continuous
 62
     7
370
    15
100
AcDbLine
 10
5.490116428985857
 20
-242.7169045979213
 30
0.0
 11
-4.509883571014142
 21
-242.7169045979213
 31
0.0
  0
LINE
  5
4D7
330
1F
100
AcDbEntity
  8
0
  6
Continuous
 62
     7
370
    15
100
AcDbLine
 10
35.49011642898586
 20
-222.7169045979215
 30
0.0
 11
35.49011642898586
 21
-242.7169045979215
 31
0.0
  0
LINE
  5
4D8
330
1F
100
AcDbEntity
  8
0
  6
Continuous
 62
     7
370
    15
100
AcDbLine
 10
25.49011642898586
 20
-222.7169045979215
 30
0.0
 11
35.49011642898586
 21
-222.7169045979215
 31
0.0
  0
LINE
  5
4D9
330
1F
100
AcDbEntity
  8
0
  6
Continuous
 62
     7
370
    15
100
AcDbLine
 10
25.49011642898586
 20
-242.7169045979215
 30
0.0
 11
25.49011642898586
 21
-222.7169045979215
 31
0.0
  0
LINE
  5
4DA
330
1F
100
AcDbEntity
  8
0
  6
Continuous
 62
     7
370
    15
100
AcDbLine
 10
35.49011642898586
 20
-242.7169045979215
 30
0.0
 11
25.49011642898586
 21
-242.7169045979215
 31
0.0
  0
LINE
  5
4DB
330
1F
100
AcDbEntity
  8
0
  6
Continuous
 62
     7
370
    15
100
AcDbLine
 10
65.49011642898591
 20
-222.7169045979218
 30
0.0
 11
65.4901164289858
 21
-242.7169045979218
 31
0.0
  0
LINE
  5
4DC
330
1F
100
AcDbEntity
  8
0
  6
Continuous
 62
     7
370
    15
100
AcDbLine
 10
55.84162500427175
 20
-222.7169045979218
 30
0.0
 11
65.49011642898591
 21
-222.7169045979218
 31
0.0
  0
LINE
  5
4DD
330
1F
100
AcDbEntity
  8
0
  6
Continuous
 62
     7
370
    15
100
AcDbLine
 10
65.4901164289858
 20
-242.7169045979218
 30
0.0
 11
55.84162500427175
 21
-242.7169045979218
 31
0.0
  0
LINE
  5
4DE
330
1F
100
AcDbEntity
  8
0
  6
Continuous
 62
     7
370
    15
100
AcDbLine
 10
95.4901164289858
 20
-222.7169045979222
 30
0.0
 11
95.4901164289858
 21
-242.7169045979222
 31
0.0
  0
LINE
  5
4DF
330
1F
100
AcDbEntity
  8
0
  6
Continuous
 62
     7
370
    15
100
AcDbLine
 10
85.4901164289858
 20
-222.7169045979222
 30
0.0
 11
95.4901164289858
 21
-222.7169045979222
 31
0.0
  0
LINE
  5
4E0
330
1F
100
AcDbEntity
  8
0
  6
Continuous
 62
     7
370
    15
100
AcDbLine
 10
85.4901164289858
 20
-242.7169045979222
 30
0.0
 11
85.4901164289858
 21
-222.7169045979222
 31
0.0
  0
LINE
  5
4E1
330
1F
100
AcDbEntity
  8
0
  6
Continuous
 62
     7
370
    15
100
AcDbLine
 10
95.4901164289858
 20
-242.7169045979222
 30
0.0
 11
85.4901164289858
 21
-242.7169045979222
 31
0.0
  0
LINE
  5
4E2
330
1F
100
AcDbEntity
  8
0
  6
Continuous
 62
     7
370
    15
100
AcDbLine
 10
125.4901164289858
 20
-222.7169045979225
 30
0.0
 11
125.4901164289858
 21
-242.7169045979225
 31
0.0
  0
LINE
  5
4E3
330
1F
100
AcDbEntity
  8
0
  6
Continuous
 62
     7
370
    15
100
AcDbLine
 10
115.4901164289858
 20
-222.7169045979225
 30
0.0
 11
125.4901164289858
 21
-222.7169045979225
 31
0.0
  0
LINE
  5
4E4
330
1F
100
AcDbEntity
  8
0
  6
Continuous
 62
     7
370
    15
100
AcDbLine
 10
115.4901164289858
 20
-242.7169045979225
 30
0.0
 11
115.4901164289858
 21
-222.7169045979225
 31
0.0
  0
LINE
  5
4E5
330
1F
100
AcDbEntity
  8
0
  6
Continuous
 62
     7
370
    15
100
AcDbLine
 10
125.4901164289858
 20
-242.7169045979225
 30
0.0
 11
115.4901164289858
 21
-242.7169045979225
 31
0.0
  0
LINE
  5
4E6
330
1F
100
AcDbEntity
  8
0
  6
Continuous
 62
     7
370
    15
100
AcDbLine
 10
151.6487659383585
 20
-258.9042675243408
 30
0.0
 11
151.6487659383585
 21
-286.6996020562273
 31
0.0
  0
LINE
  5
4E7
330
1F
100
AcDbEntity
  8
0
  6
Continuous
 62
     7
370
    15
100
AcDbLine
 10
-311.3512340616414
 20
-258.9042675243408
 30
0.0
 11
-311.3512340616414
 21
-286.6996020562273
 31
0.0
  0
LINE
  5
4E8
330
1F
100
AcDbEntity
  8
0
  6
Continuous
 62
     7
370
    15
100
AcDbLine
 10
130.4901164289858
 20
-322.7169045979226
 30
0.0
 11
140.4901164289858
 21
-322.7169045979226
 31
0.0
  0
LINE
  5
4E9
330
1F
100
AcDbEntity
  8
0
  6
Continuous
 62
     7
370
    15
100
AcDbLine
 10
140.4901164289858
 20
-322.7169045979226
 30
0.0
 11
140.4901164289858
 21
-302.7169045979227
 31
0.0
  0
LINE
  5
4EA
330
1F
100
AcDbEntity
  8
0
  6
Continuous
 62
     7
370
    15
100
AcDbLine
 10
140.4901164289858
 20
-302.7169045979227
 30
0.0
 11
130.4901164289858
 21
-302.7169045979227
 31
0.0
  0
LINE
  5
4EB
330
1F
100
AcDbEntity
  8
0
  6
Continuous
 62
     7
370
    15
100
AcDbLine
 10
130.4901164289858
 20
-302.7169045979227
 30
0.0
 11
130.4901164289858
 21
-322.7169045979226
 31
0.0
  0
LINE
  5
4EC
330
1F
100
AcDbEntity
  8
0
  6
Continuous
 62
     7
370
    15
100
AcDbLine
 10
100.4901164289858
 20
-322.7169045979223
 30
0.0
 11
110.4901164289858
 21
-322.7169045979223
 31
0.0
  0
LINE
  5
4ED
330
1F
100
AcDbEntity
  8
0
  6
Continuous
 62
     7
370
    15
100
AcDbLine
 10
110.4901164289858
 20
-322.7169045979223
 30
0.0
 11
110.4901164289858
 21
-302.7169045979223
 31
0.0
  0
LINE
  5
4EE
330
1F
100
AcDbEntity
  8
0
  6
Continuous
 62
     7
370
    15
100
AcDbLine
 10
110.4901164289858
 20
-302.7169045979223
 30
0.0
 11
100.4901164289858
 21
-302.7169045979223
 31
0.0
  0
LINE
  5
4EF
330
1F
100
AcDbEntity
  8
0
  6
Continuous
 62
     7
370
    15
100
AcDbLine
 10
100.4901164289858
 20
-302.7169045979223
 30
0.0
 11
100.4901164289858
 21
-322.7169045979223
 31
0.0
  0
LINE
  5
4F0
330
1F
100
AcDbEntity
  8
0
  6
Continuous
 62
     7
370
    15
100
AcDbLine
 10
70.4901164289858
 20
-322.716904597922
 30
0.0
 11
80.4901164289858
 21
-322.716904597922
 31
0.0
  0
LINE
  5
4F1
330
1F
100
AcDbEntity
  8
0
  6
Continuous
 62
     7
370
    15
100
AcDbLine
 10
80.4901164289858
 20
-322.716904597922
 30
0.0
 11
80.4901164289858
 21
-302.716904597922
 31
0.0
  0
LINE
  5
4F2
330
1F
100
AcDbEntity
  8
0
  6
Continuous
 62
     7
370
    15
100
AcDbLine
 10
80.4901164289858
 20
-302.716904597922
 30
0.0
 11
70.4901164289858
 21
-302.716904597922
 31
0.0
  0
LINE
  5
4F3
330
1F
100
AcDbEntity
  8
0
  6
Continuous
 62
     7
370
    15
100
AcDbLine
 10
70.4901164289858
 20
-302.716904597922
 30
0.0
 11
70.4901164289858
 21
-322.716904597922
 31
0.0
  0
LINE
  5
4F4
330
1F
100
AcDbEntity
  8
0
  6
Continuous
 62
     7
370
    15
100
AcDbLine
 10
40.49011642898586
 20
-322.7169045979217
 30
0.0
 11
50.49011642898591
 21
-322.7169045979217
 31
0.0
  0
LINE
  5
4F5
330
1F
100
AcDbEntity
  8
0
  6
Continuous
 62
     7
370
    15
100
AcDbLine
 10
50.49011642898591
 20
-322.7169045979217
 30
0.0
 11
50.49011642898591
 21
-302.7169045979217
 31
0.0
  0
LINE
  5
4F6
330
1F
100
AcDbEntity
  8
0
  6
Continuous
 62
     7
370
    15
100
AcDbLine
 10
50.49011642898591
 20
-302.7169045979217
 30
0.0
 11
40.49011642898586
 21
-302.7169045979217
 31
0.0
  0
LINE
  5
4F7
330
1F
100
AcDbEntity
  8
0
  6
Continuous
 62
     7
370
    15
100
AcDbLine
 10
40.49011642898586
 20
-302.7169045979217
 30
0.0
 11
40.49011642898586
 21
-322.7169045979217
 31
0.0
  0
LINE
  5
4F8
330
1F
100
AcDbEntity
  8
0
  6
Continuous
 62
     7
370
    15
100
AcDbLine
 10
10.49011642898586
 20
-322.7169045979214
 30
0.0
 11
20.49011642898586
 21
-322.7169045979214
 31
0.0
  0
LINE
  5
4F9
330
1F
100
AcDbEntity
  8
0
  6
Continuous
 62
     7
370
    15
100
AcDbLine
 10
20.49011642898586
 20
-322.7169045979214
 30
0.0
 11
20.49011642898586
 21
-302.7169045979214
 31
0.0
  0
LINE
  5
4FA
330
1F
100
AcDbEntity
  8
0
  6
Continuous
 62
     7
370
    15
100
AcDbLine
 10
20.49011642898586
 20
-302.7169045979214
 30
0.0
 11
10.49011642898586
 21
-302.7169045979214
 31
0.0
  0
LINE
  5
4FB
330
1F
100
AcDbEntity
  8
0
  6
Continuous
 62
     7
370
    15
100
AcDbLine
 10
10.49011642898586
 20
-302.7169045979214
 30
0.0
 11
10.49011642898586
 21
-322.7169045979214
 31
0.0
  0
LINE
  5
4FC
330
1F
100
AcDbEntity
  8
0
  6
Continuous
 62
     7
370
    15
100
AcDbLine
 10
-19.5098835710142
 20
-322.7169045979211
 30
0.0
 11
-9.509883571014142
 21
-322.7169045979211
 31
0.0
  0
LINE
  5
4FD
330
1F
100
AcDbEntity
  8
0
  6
Continuous
 62
     7
370
    15
100
AcDbLine
 10
-9.509883571014142
 20
-322.7169045979211
 30
0.0
 11
-9.509883571014142
 21
-302.7169045979211
 31
0.0
  0
LINE
  5
4FE
330
1F
100
AcDbEntity
  8
0
  6
Continuous
 62
     7
370
    15
100
AcDbLine
 10
-9.509883571014142
 20
-302.7169045979211
 30
0.0
 11
-19.5098835710142
 21
-302.7169045979211
 31
0.0
  0
LINE
  5
4FF
330
1F
100
AcDbEntity
  8
0
  6
Continuous
 62
     7
370
    15
100
AcDbLine
 10
-19.5098835710142
 20
-302.7169045979211
 30
0.0
 11
-19.5098835710142
 21
-322.7169045979211
 31
0.0
  0
LINE
  5
500
330
1F
100
AcDbEntity
  8
0
  6
Continuous
 62
     7
370
    15
100
AcDbLine
 10
-49.5098835710142
 20
-322.7169045979207
 30
0.0
 11
-39.5098835710142
 21
-322.7169045979207
 31
0.0
  0
LINE
  5
501
330
1F
100
AcDbEntity
  8
0
  6
Continuous
 62
     7
370
    15
100
AcDbLine
 10
-39.5098835710142
 20
-322.7169045979207
 30
0.0
 11
-39.5098835710142
 21
-302.7169045979207
 31
0.0
  0
LINE
  5
502
330
1F
100
AcDbEntity
  8
0
  6
Continuous
 62
     7
370
    15
100
AcDbLine
 10
-39.5098835710142
 20
-302.7169045979207
 30
0.0
 11
-49.5098835710142
 21
-302.7169045979207
 31
0.0
  0
LINE
  5
503
330
1F
100
AcDbEntity
  8
0
  6
Continuous
 62
     7
370
    15
100
AcDbLine
 10
-49.5098835710142
 20
-302.7169045979207
 30
0.0
 11
-49.5098835710142
 21
-322.7169045979207
 31
0.0
  0
LINE
  5
504
330
1F
100
AcDbEntity
  8
0
  6
Continuous
 62
     7
370
    15
100
AcDbLine
 10
-79.5098835710142
 20
-322.7169045979204
 30
0.0
 11
-69.5098835710142
 21
-322.7169045979204
 31
0.0
  0
LINE
  5
505
330
1F
100
AcDbEntity
  8
0
  6
Continuous
 62
     7
370
    15
100
AcDbLine
 10
-69.5098835710142
 20
-322.7169045979204
 30
0.0
 11
-69.5098835710142
 21
-302.7169045979205
 31
0.0
  0
LINE
  5
506
330
1F
100
AcDbEntity
  8
0
  6
Continuous
 62
     7
370
    15
100
AcDbLine
 10
-69.5098835710142
 20
-302.7169045979205
 30
0.0
 11
-79.5098835710142
 21
-302.7169045979205
 31
0.0
  0
LINE
  5
507
330
1F
100
AcDbEntity
  8
0
  6
Continuous
 62
     7
370
    15
100
AcDbLine
 10
-79.5098835710142
 20
-302.7169045979205
 30
0.0
 11
-79.5098835710142
 21
-322.7169045979204
 31
0.0
  0
LINE
  5
508
330
1F
100
AcDbEntity
  8
0
  6
Continuous
 62
     7
370
    15
100
AcDbLine
 10
-109.5098835710141
 20
-322.7169045979201
 30
0.0
 11
-99.50988357101415
 21
-322.7169045979201
 31
0.0
  0
LINE
  5
509
330
1F
100
AcDbEntity
  8
0
  6
Continuous
 62
     7
370
    15
100
AcDbLine
 10
-99.50988357101415
 20
-322.7169045979201
 30
0.0
 11
-99.50988357101426
 21
-302.7169045979201
 31
0.0
  0
LINE
  5
50A
330
1F
100
AcDbEntity
  8
0
  6
Continuous
 62
     7
370
    15
100
AcDbLine
 10
-99.50988357101426
 20
-302.7169045979201
 30
0.0
 11
-109.5098835710141
 21
-302.7169045979201
 31
0.0
  0
LINE
  5
50B
330
1F
100
AcDbEntity
  8
0
  6
Continuous
 62
     7
370
    15
100
AcDbLine
 10
-109.5098835710141
 20
-302.7169045979201
 30
0.0
 11
-109.5098835710141
 21
-322.7169045979201
 31
0.0
  0
LINE
  5
50C
330
1F
100
AcDbEntity
  8
0
  6
Continuous
 62
     7
370
    15
100
AcDbLine
 10
-139.5098835710142
 20
-322.7169045979198
 30
0.0
 11
-129.5098835710142
 21
-322.7169045979198
 31
0.0
  0
LINE
  5
50D
330
1F
100
AcDbEntity
  8
0
  6
Continuous
 62
     7
370
    15
100
AcDbLine
 10
-129.5098835710142
 20
-322.7169045979198
 30
0.0
 11
-129.5098835710142
 21
-302.7169045979198
 31
0.0
  0
LINE
  5
50E
330
1F
100
AcDbEntity
  8
0
  6
Continuous
 62
     7
370
    15
100
AcDbLine
 10
-129.5098835710142
 20
-302.7169045979198
 30
0.0
 11
-139.5098835710142
 21
-302.7169045979198
 31
0.0
  0
LINE
  5
50F
330
1F
100
AcDbEntity
  8
0
  6
Continuous
 62
     7
370
    15
100
AcDbLine
 10
-139.5098835710142
 20
-302.7169045979198
 30
0.0
 11
-139.5098835710142
 21
-322.7169045979198
 31
0.0
  0
LINE
  5
510
330
1F
100
AcDbEntity
  8
0
  6
Continuous
 62
     7
370
    15
100
AcDbLine
 10
-169.5098835710141
 20
-322.7169045979195
 30
0.0
 11
-159.5098835710141
 21
-322.7169045979195
 31
0.0
  0
LINE
  5
511
330
1F
100
AcDbEntity
  8
0
  6
Continuous
 62
     7
370
    15
100
AcDbLine
 10
-159.5098835710141
 20
-322.7169045979195
 30
0.0
 11
-159.5098835710141
 21
-302.7169045979196
 31
0.0
  0
LINE
  5
512
330
1F
100
AcDbEntity
  8
0
  6
Continuous
 62
     7
370
    15
100
AcDbLine
 10
-159.5098835710141
 20
-302.7169045979196
 30
0.0
 11
-169.5098835710141
 21
-302.7169045979196
 31
0.0
  0
LINE
  5
513
330
1F
100
AcDbEntity
  8
0
  6
Continuous
 62
     7
370
    15
100
AcDbLine
 10
-169.5098835710141
 20
-302.7169045979196
 30
0.0
 11
-169.5098835710141
 21
-322.7169045979195
 31
0.0
  0
LINE
  5
514
330
1F
100
AcDbEntity
  8
0
  6
Continuous
 62
     7
370
    15
100
AcDbLine
 10
-199.5098835710141
 20
-322.7169045979192
 30
0.0
 11
-189.5098835710141
 21
-322.7169045979192
 31
0.0
  0
LINE
  5
515
330
1F
100
AcDbEntity
  8
0
  6
Continuous
 62
     7
370
    15
100
AcDbLine
 10
-189.5098835710141
 20
-322.7169045979192
 30
0.0
 11
-189.5098835710142
 21
-302.7169045979191
 31
0.0
  0
LINE
  5
516
330
1F
100
AcDbEntity
  8
0
  6
Continuous
 62
     7
370
    15
100
AcDbLine
 10
-189.5098835710142
 20
-302.7169045979191
 30
0.0
 11
-199.5098835710141
 21
-302.7169045979191
 31
0.0
  0
LINE
  5
517
330
1F
100
AcDbEntity
  8
0
  6
Continuous
 62
     7
370
    15
100
AcDbLine
 10
-199.5098835710141
 20
-302.7169045979191
 30
0.0
 11
-199.5098835710141
 21
-322.7169045979192
 31
0.0
  0
LINE
  5
518
330
1F
100
AcDbEntity
  8
0
  6
Continuous
 62
     7
370
    15
100
AcDbLine
 10
-229.5098835710142
 20
-322.7169045979189
 30
0.0
 11
-219.5098835710142
 21
-322.7169045979189
 31
0.0
  0
LINE
  5
519
330
1F
100
AcDbEntity
  8
0
  6
Continuous
 62
     7
370
    15
100
AcDbLine
 10
-219.5098835710142
 20
-322.7169045979189
 30
0.0
 11
-219.5098835710142
 21
-302.7169045979189
 31
0.0
  0
LINE
  5
51A
330
1F
100
AcDbEntity
  8
0
  6
Continuous
 62
     7
370
    15
100
AcDbLine
 10
-219.5098835710142
 20
-302.7169045979189
 30
0.0
 11
-229.5098835710142
 21
-302.7169045979189
 31
0.0
  0
LINE
  5
51B
330
1F
100
AcDbEntity
  8
0
  6
Continuous
 62
     7
370
    15
100
AcDbLine
 10
-229.5098835710142
 20
-302.7169045979189
 30
0.0
 11
-229.5098835710142
 21
-322.7169045979189
 31
0.0
  0
LINE
  5
51C
330
1F
100
AcDbEntity
  8
0
  6
Continuous
 62
     7
370
    15
100
AcDbLine
 10
-259.5098835710142
 20
-322.7169045979186
 30
0.0
 11
-249.5098835710142
 21
-322.7169045979186
 31
0.0
  0
LINE
  5
51D
330
1F
100
AcDbEntity
  8
0
  6
Continuous
 62
     7
370
    15
100
AcDbLine
 10
-249.5098835710142
 20
-322.7169045979186
 30
0.0
 11
-249.5098835710142
 21
-302.7169045979186
 31
0.0
  0
LINE
  5
51E
330
1F
100
AcDbEntity
  8
0
  6
Continuous
 62
     7
370
    15
100
AcDbLine
 10
-249.5098835710142
 20
-302.7169045979186
 30
0.0
 11
-259.5098835710142
 21
-302.7169045979186
 31
0.0
  0
LINE
  5
51F
330
1F
100
AcDbEntity
  8
0
  6
Continuous
 62
     7
370
    15
100
AcDbLine
 10
-259.5098835710142
 20
-302.7169045979186
 30
0.0
 11
-259.5098835710142
 21
-322.7169045979186
 31
0.0
  0
LINE
  5
520
330
1F
100
AcDbEntity
  8
0
  6
Continuous
 62
     7
370
    15
100
AcDbLine
 10
-289.5098835710141
 20
-322.7169045979183
 30
0.0
 11
-279.5098835710141
 21
-322.7169045979183
 31
0.0
  0
LINE
  5
521
330
1F
100
AcDbEntity
  8
0
  6
Continuous
 62
     7
370
    15
100
AcDbLine
 10
-279.5098835710141
 20
-322.7169045979183
 30
0.0
 11
-279.5098835710141
 21
-302.7169045979182
 31
0.0
  0
LINE
  5
522
330
1F
100
AcDbEntity
  8
0
  6
Continuous
 62
     7
370
    15
100
AcDbLine
 10
-279.5098835710141
 20
-302.7169045979182
 30
0.0
 11
-289.5098835710141
 21
-302.7169045979182
 31
0.0
  0
LINE
  5
523
330
1F
100
AcDbEntity
  8
0
  6
Continuous
 62
     7
370
    15
100
AcDbLine
 10
-289.5098835710141
 20
-302.7169045979182
 30
0.0
 11
-289.5098835710141
 21
-322.7169045979183
 31
0.0
  0
LINE
  5
524
330
1F
100
AcDbEntity
  8
0
  6
Continuous
 62
     7
370
    15
100
AcDbLine
 10
-311.3512340616414
 20
-327.3019347902841
 30
0.0
 11
-212.1583749957283
 21
-327.3019347902841
 31
0.0
  0
LINE
  5
525
330
1F
100
AcDbEntity
  8
0
  6
Continuous
 62
     7
370
    15
100
AcDbLine
 10
-210.1583749957283
 20
-327.3019347902841
 30
0.0
 11
53.84162500427175
 21
-327.301934790284
 31
0.0
  0
LINE
  5
526
330
1F
100
AcDbEntity
  8
0
  6
Continuous
 62
     7
370
    15
100
AcDbLine
 10
55.84162500427163
 20
-327.3019347902841
 30
0.0
 11
151.6487659383585
 21
-327.3019347902841
 31
0.0
  0
LINE
  5
527
330
1F
100
AcDbEntity
  8
0
  6
Continuous
 62
     7
370
    15
100
AcDbLine
 10
-311.3512340616414
 20
-327.3019347902841
 30
0.0
 11
-311.3512340616414
 21
-286.6996020562273
 31
0.0
  0
LINE
  5
528
330
1F
100
AcDbEntity
  8
0
  6
Continuous
 62
     7
370
    15
100
AcDbLine
 10
151.6487659383585
 20
-327.3019347902841
 30
0.0
 11
151.6487659383585
 21
-286.6996020562273
 31
0.0
  0
LINE
  5
529
330
1F
100
AcDbEntity
  8
0
  6
Continuous
 62
     7
370
    15
100
AcDbLine
 10
-304.5098835710142
 20
-322.7169045979181
 30
0.0
 11
-294.5098835710141
 21
-322.7169045979181
 31
0.0
  0
LINE
  5
52A
330
1F
100
AcDbEntity
  8
0
  6
Continuous
 62
     7
370
    15
100
AcDbLine
 10
-294.5098835710141
 20
-322.7169045979181
 30
0.0
 11
-294.5098835710141
 21
-302.716904597918
 31
0.0
  0
LINE
  5
52B
330
1F
100
AcDbEntity
  8
0
  6
Continuous
 62
     7
370
    15
100
AcDbLine
 10
-294.5098835710141
 20
-302.716904597918
 30
0.0
 11
-304.5098835710142
 21
-302.716904597918
 31
0.0
  0
LINE
  5
52C
330
1F
100
AcDbEntity
  8
0
  6
Continuous
 62
     7
370
    15
100
AcDbLine
 10
-304.5098835710142
 20
-302.716904597918
 30
0.0
 11
-304.5098835710142
 21
-322.7169045979181
 31
0.0
  0
LINE
  5
52D
330
1F
100
AcDbEntity
  8
0
  6
Continuous
 62
     7
370
    15
100
AcDbLine
 10
-274.5098835710142
 20
-322.7169045979183
 30
0.0
 11
-264.5098835710141
 21
-322.7169045979183
 31
0.0
  0
LINE
  5
52E
330
1F
100
AcDbEntity
  8
0
  6
Continuous
 62
     7
370
    15
100
AcDbLine
 10
-264.5098835710141
 20
-322.7169045979183
 30
0.0
 11
-264.5098835710141
 21
-302.7169045979184
 31
0.0
  0
LINE
  5
52F
330
1F
100
AcDbEntity
  8
0
  6
Continuous
 62
     7
370
    15
100
AcDbLine
 10
-264.5098835710141
 20
-302.7169045979184
 30
0.0
 11
-274.5098835710142
 21
-302.7169045979184
 31
0.0
  0
LINE
  5
530
330
1F
100
AcDbEntity
  8
0
  6
Continuous
 62
     7
370
    15
100
AcDbLine
 10
-274.5098835710142
 20
-302.7169045979184
 30
0.0
 11
-274.5098835710142
 21
-322.7169045979183
 31
0.0
  0
LINE
  5
531
330
1F
100
AcDbEntity
  8
0
  6
Continuous
 62
     7
370
    15
100
AcDbLine
 10
-244.5098835710142
 20
-322.7169045979187
 30
0.0
 11
-234.5098835710142
 21
-322.7169045979187
 31
0.0
  0
LINE
  5
532
330
1F
100
AcDbEntity
  8
0
  6
Continuous
 62
     7
370
    15
100
AcDbLine
 10
-234.5098835710142
 20
-322.7169045979187
 30
0.0
 11
-234.5098835710142
 21
-302.7169045979186
 31
0.0
  0
LINE
  5
533
330
1F
100
AcDbEntity
  8
0
  6
Continuous
 62
     7
370
    15
100
AcDbLine
 10
-234.5098835710142
 20
-302.7169045979186
 30
0.0
 11
-244.5098835710142
 21
-302.7169045979186
 31
0.0
  0
LINE
  5
534
330
1F
100
AcDbEntity
  8
0
  6
Continuous
 62
     7
370
    15
100
AcDbLine
 10
-244.5098835710142
 20
-302.7169045979186
 30
0.0
 11
-244.5098835710142
 21
-322.7169045979187
 31
0.0
  0
LINE
  5
535
330
1F
100
AcDbEntity
  8
0
  6
Continuous
 62
     7
370
    15
100
AcDbLine
 10
-214.5098835710141
 20
-322.7169045979191
 30
0.0
 11
-212.1583749957283
 21
-322.7169045979191
 31
0.0
  0
LINE
  5
536
330
1F
100
AcDbEntity
  8
0
  6
Continuous
 62
     7
370
    15
100
AcDbLine
 10
-210.1583749957283
 20
-322.7169045979191
 30
0.0
 11
-204.5098835710141
 21
-322.7169045979191
 31
0.0
  0
LINE
  5
537
330
1F
100
AcDbEntity
  8
0
  6
Continuous
 62
     7
370
    15
100
AcDbLine
 10
-204.5098835710141
 20
-322.7169045979191
 30
0.0
 11
-204.5098835710142
 21
-302.716904597919
 31
0.0
  0
LINE
  5
538
330
1F
100
AcDbEntity
  8
0
  6
Continuous
 62
     7
370
    15
100
AcDbLine
 10
-204.5098835710142
 20
-302.716904597919
 30
0.0
 11
-210.1583749957283
 21
-302.716904597919
 31
0.0
  0
LINE
  5
539
330
1F
100
AcDbEntity
  8
0
  6
Continuous
 62
     7
370
    15
100
AcDbLine
 10
-212.1583749957283
 20
-302.716904597919
 30
0.0
 11
-214.5098835710141
 21
-302.716904597919
 31
0.0
  0
LINE
  5
53A
330
1F
100
AcDbEntity
  8
0
  6
Continuous
 62
     7
370
    15
100
AcDbLine
 10
-214.5098835710141
 20
-302.716904597919
 30
0.0
 11
-214.5098835710141
 21
-322.7169045979191
 31
0.0
  0
LINE
  5
53B
330
1F
100
AcDbEntity
  8
0
  6
Continuous
 62
     7
370
    15
100
AcDbLine
 10
-184.5098835710141
 20
-322.7169045979194
 30
0.0
 11
-174.5098835710142
 21
-322.7169045979194
 31
0.0
  0
LINE
  5
53C
330
1F
100
AcDbEntity
  8
0
  6
Continuous
 62
     7
370
    15
100
AcDbLine
 10
-174.5098835710142
 20
-322.7169045979194
 30
0.0
 11
-174.5098835710142
 21
-302.7169045979193
 31
0.0
  0
LINE
  5
53D
330
1F
100
AcDbEntity
  8
0
  6
Continuous
 62
     7
370
    15
100
AcDbLine
 10
-174.5098835710142
 20
-302.7169045979193
 30
0.0
 11
-184.5098835710141
 21
-302.7169045979193
 31
0.0
  0
LINE
  5
53E
330
1F
100
AcDbEntity
  8
0
  6
Continuous
 62
     7
370
    15
100
AcDbLine
 10
-184.5098835710141
 20
-302.7169045979193
 30
0.0
 11
-184.5098835710141
 21
-322.7169045979194
 31
0.0
  0
LINE
  5
53F
330
1F
100
AcDbEntity
  8
0
  6
Continuous
 62
     7
370
    15
100
AcDbLine
 10
-154.5098835710141
 20
-322.7169045979196
 30
0.0
 11
-144.5098835710141
 21
-322.7169045979196
 31
0.0
  0
LINE
  5
540
330
1F
100
AcDbEntity
  8
0
  6
Continuous
 62
     7
370
    15
100
AcDbLine
 10
-144.5098835710141
 20
-322.7169045979196
 30
0.0
 11
-144.5098835710141
 21
-302.7169045979197
 31
0.0
  0
LINE
  5
541
330
1F
100
AcDbEntity
  8
0
  6
Continuous
 62
     7
370
    15
100
AcDbLine
 10
-144.5098835710141
 20
-302.7169045979197
 30
0.0
 11
-154.5098835710141
 21
-302.7169045979197
 31
0.0
  0
LINE
  5
542
330
1F
100
AcDbEntity
  8
0
  6
Continuous
 62
     7
370
    15
100
AcDbLine
 10
-154.5098835710141
 20
-302.7169045979197
 30
0.0
 11
-154.5098835710141
 21
-322.7169045979196
 31
0.0
  0
LINE
  5
543
330
1F
100
AcDbEntity
  8
0
  6
Continuous
 62
     7
370
    15
100
AcDbLine
 10
-124.5098835710142
 20
-322.7169045979199
 30
0.0
 11
-114.5098835710141
 21
-322.7169045979199
 31
0.0
  0
LINE
  5
544
330
1F
100
AcDbEntity
  8
0
  6
Continuous
 62
     7
370
    15
100
AcDbLine
 10
-114.5098835710141
 20
-322.7169045979199
 30
0.0
 11
-114.5098835710142
 21
-302.71690459792
 31
0.0
  0
LINE
  5
545
330
1F
100
AcDbEntity
  8
0
  6
Continuous
 62
     7
370
    15
100
AcDbLine
 10
-114.5098835710142
 20
-302.71690459792
 30
0.0
 11
-124.5098835710142
 21
-302.71690459792
 31
0.0
  0
LINE
  5
546
330
1F
100
AcDbEntity
  8
0
  6
Continuous
 62
     7
370
    15
100
AcDbLine
 10
-124.5098835710142
 20
-302.71690459792
 30
0.0
 11
-124.5098835710142
 21
-322.7169045979199
 31
0.0
  0
LINE
  5
547
330
1F
100
AcDbEntity
  8
0
  6
Continuous
 62
     7
370
    15
100
AcDbLine
 10
-94.50988357101413
 20
-322.7169045979203
 30
0.0
 11
-84.50988357101413
 21
-322.7169045979203
 31
0.0
  0
LINE
  5
548
330
1F
100
AcDbEntity
  8
0
  6
Continuous
 62
     7
370
    15
100
AcDbLine
 10
-84.50988357101413
 20
-322.7169045979203
 30
0.0
 11
-84.50988357101413
 21
-302.7169045979202
 31
0.0
  0
LINE
  5
549
330
1F
100
AcDbEntity
  8
0
  6
Continuous
 62
     7
370
    15
100
AcDbLine
 10
-84.50988357101413
 20
-302.7169045979202
 30
0.0
 11
-94.50988357101413
 21
-302.7169045979202
 31
0.0
  0
LINE
  5
54A
330
1F
100
AcDbEntity
  8
0
  6
Continuous
 62
     7
370
    15
100
AcDbLine
 10
-94.50988357101413
 20
-302.7169045979202
 30
0.0
 11
-94.50988357101413
 21
-322.7169045979203
 31
0.0
  0
LINE
  5
54B
330
1F
100
AcDbEntity
  8
0
  6
Continuous
 62
     7
370
    15
100
AcDbLine
 10
-64.5098835710142
 20
-322.7169045979206
 30
0.0
 11
-54.5098835710142
 21
-322.7169045979206
 31
0.0
  0
LINE
  5
54C
330
1F
100
AcDbEntity
  8
0
  6
Continuous
 62
     7
370
    15
100
AcDbLine
 10
-54.5098835710142
 20
-322.7169045979206
 30
0.0
 11
-54.5098835710142
 21
-302.7169045979206
 31
0.0
  0
LINE
  5
54D
330
1F
100
AcDbEntity
  8
0
  6
Continuous
 62
     7
370
    15
100
AcDbLine
 10
-54.5098835710142
 20
-302.7169045979206
 30
0.0
 11
-64.5098835710142
 21
-302.7169045979206
 31
0.0
  0
LINE
  5
54E
330
1F
100
AcDbEntity
  8
0
  6
Continuous
 62
     7
370
    15
100
AcDbLine
 10
-64.5098835710142
 20
-302.7169045979206
 30
0.0
 11
-64.5098835710142
 21
-322.7169045979206
 31
0.0
  0
LINE
  5
54F
330
1F
100
AcDbEntity
  8
0
  6
Continuous
 62
     7
370
    15
100
AcDbLine
 10
-34.5098835710142
 20
-322.7169045979209
 30
0.0
 11
-24.5098835710142
 21
-322.7169045979209
 31
0.0
  0
LINE
  5
550
330
1F
100
AcDbEntity
  8
0
  6
Continuous
 62
     7
370
    15
100
AcDbLine
 10
-24.5098835710142
 20
-322.7169045979209
 30
0.0
 11
-24.5098835710142
 21
-302.7169045979209
 31
0.0
  0
LINE
  5
551
330
1F
100
AcDbEntity
  8
0
  6
Continuous
 62
     7
370
    15
100
AcDbLine
 10
-24.5098835710142
 20
-302.7169045979209
 30
0.0
 11
-34.5098835710142
 21
-302.7169045979209
 31
0.0
  0
LINE
  5
552
330
1F
100
AcDbEntity
  8
0
  6
Continuous
 62
     7
370
    15
100
AcDbLine
 10
-34.5098835710142
 20
-302.7169045979209
 30
0.0
 11
-34.5098835710142
 21
-322.7169045979209
 31
0.0
  0
LINE
  5
553
330
1F
100
AcDbEntity
  8
0
  6
Continuous
 62
     7
370
    15
100
AcDbLine
 10
-4.509883571014142
 20
-322.7169045979213
 30
0.0
 11
5.490116428985857
 21
-322.7169045979213
 31
0.0
  0
LINE
  5
554
330
1F
100
AcDbEntity
  8
0
  6
Continuous
 62
     7
370
    15
100
AcDbLine
 10
5.490116428985857
 20
-322.7169045979213
 30
0.0
 11
5.490116428985857
 21
-302.7169045979213
 31
0.0
  0
LINE
  5
555
330
1F
100
AcDbEntity
  8
0
  6
Continuous
 62
     7
370
    15
100
AcDbLine
 10
5.490116428985857
 20
-302.7169045979213
 30
0.0
 11
-4.509883571014142
 21
-302.7169045979213
 31
0.0
  0
LINE
  5
556
330
1F
100
AcDbEntity
  8
0
  6
Continuous
 62
     7
370
    15
100
AcDbLine
 10
-4.509883571014142
 20
-302.7169045979213
 30
0.0
 11
-4.509883571014142
 21
-322.7169045979213
 31
0.0
  0
LINE
  5
557
330
1F
100
AcDbEntity
  8
0
  6
Continuous
 62
     7
370
    15
100
AcDbLine
 10
25.49011642898586
 20
-322.7169045979215
 30
0.0
 11
35.49011642898586
 21
-322.7169045979215
 31
0.0
  0
LINE
  5
558
330
1F
100
AcDbEntity
  8
0
  6
Continuous
 62
     7
370
    15
100
AcDbLine
 10
35.49011642898586
 20
-322.7169045979215
 30
0.0
 11
35.49011642898586
 21
-302.7169045979216
 31
0.0
  0
LINE
  5
559
330
1F
100
AcDbEntity
  8
0
  6
Continuous
 62
     7
370
    15
100
AcDbLine
 10
35.49011642898586
 20
-302.7169045979216
 30
0.0
 11
25.49011642898586
 21
-302.7169045979216
 31
0.0
  0
LINE
  5
55A
330
1F
100
AcDbEntity
  8
0
  6
Continuous
 62
     7
370
    15
100
AcDbLine
 10
25.49011642898586
 20
-302.7169045979216
 30
0.0
 11
25.49011642898586
 21
-322.7169045979215
 31
0.0
  0
LINE
  5
55B
330
1F
100
AcDbEntity
  8
0
  6
Continuous
 62
     7
370
    15
100
AcDbLine
 10
55.84162500427163
 20
-322.7169045979218
 30
0.0
 11
65.4901164289858
 21
-322.7169045979218
 31
0.0
  0
LINE
  5
55C
330
1F
100
AcDbEntity
  8
0
  6
Continuous
 62
     7
370
    15
100
AcDbLine
 10
65.4901164289858
 20
-322.7169045979218
 30
0.0
 11
65.49011642898591
 21
-302.7169045979217
 31
0.0
  0
LINE
  5
55D
330
1F
100
AcDbEntity
  8
0
  6
Continuous
 62
     7
370
    15
100
AcDbLine
 10
65.49011642898591
 20
-302.7169045979217
 30
0.0
 11
55.84162500427175
 21
-302.7169045979217
 31
0.0
  0
LINE
  5
55E
330
1F
100
AcDbEntity
  8
0
  6
Continuous
 62
     7
370
    15
100
AcDbLine
 10
85.4901164289858
 20
-322.7169045979221
 30
0.0
 11
95.4901164289858
 21
-322.7169045979221
 31
0.0
  0
LINE
  5
55F
330
1F
100
AcDbEntity
  8
0
  6
Continuous
 62
     7
370
    15
100
AcDbLine
 10
95.4901164289858
 20
-322.7169045979221
 30
0.0
 11
95.4901164289858
 21
-302.7169045979222
 31
0.0
  0
LINE
  5
560
330
1F
100
AcDbEntity
  8
0
  6
Continuous
 62
     7
370
    15
100
AcDbLine
 10
95.4901164289858
 20
-302.7169045979222
 30
0.0
 11
85.4901164289858
 21
-302.7169045979222
 31
0.0
  0
LINE
  5
561
330
1F
100
AcDbEntity
  8
0
  6
Continuous
 62
     7
370
    15
100
AcDbLine
 10
85.4901164289858
 20
-302.7169045979222
 30
0.0
 11
85.4901164289858
 21
-322.7169045979221
 31
0.0
  0
LINE
  5
562
330
1F
100
AcDbEntity
  8
0
  6
Continuous
 62
     7
370
    15
100
AcDbLine
 10
115.4901164289858
 20
-322.7169045979224
 30
0.0
 11
125.4901164289858
 21
-322.7169045979224
 31
0.0
  0
LINE
  5
563
330
1F
100
AcDbEntity
  8
0
  6
Continuous
 62
     7
370
    15
100
AcDbLine
 10
125.4901164289858
 20
-322.7169045979224
 30
0.0
 11
125.4901164289858
 21
-302.7169045979225
 31
0.0
  0
LINE
  5
564
330
1F
100
AcDbEntity
  8
0
  6
Continuous
 62
     7
370
    15
100
AcDbLine
 10
125.4901164289858
 20
-302.7169045979225
 30
0.0
 11
115.4901164289858
 21
-302.7169045979225
 31
0.0
  0
LINE
  5
565
330
1F
100
AcDbEntity
  8
0
  6
Continuous
 62
     7
370
    15
100
AcDbLine
 10
115.4901164289858
 20
-302.7169045979225
 30
0.0
 11
115.4901164289858
 21
-322.7169045979224
 31
0.0
  0
LINE
  5
566
330
1F
100
AcDbEntity
  8
0
  6
Continuous
 62
     7
370
    15
100
AcDbLine
 10
-214.1583749957283
 20
-255.9061171833953
 30
0.0
 11
57.84162500427175
 21
-255.9061171833953
 31
0.0
  0
LINE
  5
567
330
1F
100
AcDbEntity
  8
0
  6
Continuous
 62
     7
370
    15
100
AcDbLine
 10
-214.1583749957283
 20
-285.9061171833953
 30
0.0
 11
57.84162500427175
 21
-285.9061171833953
 31
0.0
  0
LINE
  5
568
330
1F
100
AcDbEntity
  8
0
  6
Continuous
 62
     7
370
    15
100
AcDbLine
 10
-214.1583749957283
 20
-255.9061171833953
 30
0.0
 11
-214.1583749957283
 21
-285.9061171833953
 31
0.0
  0
LINE
  5
569
330
1F
100
AcDbEntity
  8
0
  6
Continuous
 62
     7
370
    15
100
AcDbLine
 10
57.84162500427175
 20
-255.9061171833953
 30
0.0
 11
57.84162500427175
 21
-285.9061171833953
 31
0.0
  0
LINE
  5
56A
330
1F
100
AcDbEntity
  8
0
  6
Continuous
 62
     8
370
    15
100
AcDbLine
 10
55.84162500427175
 20
-369.0250112385678
 30
0.0
 11
151.6487659383585
 21
-369.0250112385678
 31
0.0
  0
LINE
  5
56B
330
1F
100
AcDbEntity
  8
0
  6
Continuous
 62
     8
370
    15
100
AcDbLine
 10
-311.3512340616414
 20
-369.0250112385678
 30
0.0
 11
-212.1583749957283
 21
-369.0250112385678
 31
0.0
  0
LINE
  5
56C
330
1F
100
AcDbEntity
  8
0
  6
Continuous
 62
     8
370
    15
100
AcDbLine
 10
55.84162500427175
 20
-176.8203457704542
 30
0.0
 11
151.6487659383585
 21
-176.8203457704542
 31
0.0
  0
LINE
  5
56D
330
1F
100
AcDbEntity
  8
0
  6
Continuous
 62
     8
370
    15
100
AcDbLine
 10
-311.3512340616414
 20
-176.8203457704542
 30
0.0
 11
-212.1583749957283
 21
-176.8203457704542
 31
0.0
  0
LINE
  5
56E
330
1F
100
AcDbEntity
  8
0
  6
Continuous
 62
     8
370
    15
100
AcDbLine
 10
57.84162500427175
 20
-258.9042675243408
 30
0.0
 11
151.6487659383585
 21
-258.9042675243408
 31
0.0
  0
LINE
  5
56F
330
1F
100
AcDbEntity
  8
0
  6
Continuous
 62
     8
370
    15
100
AcDbLine
 10
-311.3512340616414
 20
-258.9042675243408
 30
0.0
 11
-214.1583749957283
 21
-258.9042675243408
 31
0.0
  0
LINE
  5
570
330
1F
100
AcDbEntity
  8
0
  6
Continuous
 62
     8
370
    15
100
AcDbLine
 10
55.84162500427175
 20
-286.6996020562273
 30
0.0
 11
151.6487659383585
 21
-286.6996020562273
 31
0.0
  0
LINE
  5
571
330
1F
100
AcDbEntity
  8
0
  6
Continuous
 62
     8
370
    15
100
AcDbLine
 10
-311.3512340616414
 20
-286.6996020562273
 30
0.0
 11
-212.1583749957283
 21
-286.6996020562273
 31
0.0
  0
ENDSEC
  0
SECTION
  2
OBJECTS
  0
DICTIONARY
  5
C
330
0
100
AcDbDictionary
281
     1
  3
ACAD_COLOR
350
59D
  3
ACAD_GROUP
350
D
  3
ACAD_LAYOUT
350
1A
  3
ACAD_MATERIAL
350
573
  3
ACAD_MLEADERSTYLE
350
5B2
  3
ACAD_MLINESTYLE
350
17
  3
ACAD_PLOTSETTINGS
350
19
  3
ACAD_PLOTSTYLENAME
350
E
  3
ACAD_SCALELIST
350
5A0
  3
ACAD_TABLESTYLE
350
59E
  3
ACAD_VISUALSTYLE
350
58C
  3
ACDB_RECOMPOSE_DATA
350
5DD
  3
AcDbVariableDictionary
350
5D0
  0
DICTIONARY
  5
5CE
330
10
100
AcDbDictionary
280
     1
281
     1
  3
ADSK_XREC_LAYER_RECONCILED
360
5CF
  0
DICTIONARY
  5
59D
102
{ACAD_REACTORS
330
C
102
}
330
C
100
AcDbDictionary
281
     1
  0
DICTIONARY
  5
D
102
{ACAD_REACTORS
330
C
102
}
330
C
100
AcDbDictionary
281
     1
  0
DICTIONARY
  5
1A
102
{ACAD_REACTORS
330
C
102
}
330
C
100
AcDbDictionary
281
     1
  3
Layout1
350
1E
  3
Layout2
350
26
  3
Model
350
22
  0
DICTIONARY
  5
573
102
{ACAD_REACTORS
330
C
102
}
330
C
100
AcDbDictionary
281
     1
  3
ByBlock
350
57C
  3
ByLayer
350
574
  3
Global
350
584
  0
DICTIONARY
  5
5B2
102
{ACAD_REACTORS
330
C
102
}
330
C
100
AcDbDictionary
281
     1
  3
Standard
350
5B3
  0
DICTIONARY
  5
17
102
{ACAD_REACTORS
330
C
102
}
330
C
100
AcDbDictionary
281
     1
  3
Standard
350
18
  0
DICTIONARY
  5
19
102
{ACAD_REACTORS
330
C
102
}
330
C
100
AcDbDictionary
281
     1
  0
ACDBDICTIONARYWDFLT
  5
E
102
{ACAD_REACTORS
330
C
102
}
330
C
100
AcDbDictionary
281
     1
  3
Normal
350
F
100
AcDbDictionaryWithDefault
340
F
  0
DICTIONARY
  5
5A0
102
{ACAD_REACTORS
330
C
102
}
330
C
100
AcDbDictionary
281
     1
  3
A0
350
5A1
  3
A1
350
5A2
  3
A2
350
5A3
  3
A3
350
5A4
  3
A4
350
5A5
  3
A5
350
5A6
  3
A6
350
5A7
  3
A7
350
5A8
  3
A8
350
5A9
  3
A9
350
5AA
  3
B0
350
5AB
  3
B1
350
5AC
  3
B2
350
5AD
  3
B3
350
5AE
  3
B4
350
5AF
  3
B5
350
5B0
  3
B6
350
5B1
  0
DICTIONARY
  5
59E
102
{ACAD_REACTORS
330
C
102
}
330
C
100
AcDbDictionary
281
     1
  3
Standard
350
59F
  0
DICTIONARY
  5
58C
102
{ACAD_REACTORS
330
C
102
}
330
C
100
AcDbDictionary
281
     1
  3
2dWireframe
350
592
  3
3D Hidden
350
594
  3
3dWireframe
350
593
  3
Basic
350
591
  3
Brighten
350
598
  3
ColorChange
350
59C
  3
Conceptual
350
595
  3
Dim
350
597
  3
Facepattern
350
59B
  3
Flat
350
58D
  3
FlatWithEdges
350
58E
  3
Gouraud
350
58F
  3
GouraudWithEdges
350
590
  3
Linepattern
350
59A
  3
Realistic
350
596
  3
Thicken
350
599
  0
XRECORD
  5
5DD
102
{ACAD_REACTORS
330
C
102
}
330
C
100
AcDbXrecord
280
     1
 90
        1
330
59F
  0
DICTIONARY
  5
5D0
102
{ACAD_REACTORS
330
C
102
}
330
C
100
AcDbDictionary
281
     1
  3
CANNOSCALE
350
5D4
  3
CMLEADERSTYLE
350
5D2
  3
CTABLESTYLE
350
5D1
  3
LAYEREVAL
350
5D6
  3
LAYERNOTIFY
350
5D7
  3
LIGHTINGUNITS
350
5D5
  3
MSLTSCALE
350
5D3
  0
XRECORD
  5
5CF
102
{ACAD_REACTORS
330
5CE
102
}
330
5CE
100
AcDbXrecord
280
     1
290
     1
  0
LAYOUT
  5
1E
102
{ACAD_REACTORS
330
1A
102
}
330
1A
100
AcDbPlotSettings
  1

  2
none_device
  4

  6

 40
0.0
 41
0.0
 42
0.0
 43
0.0
 44
0.0
 45
0.0
 46
0.0
 47
0.0
 48
0.0
 49
0.0
140
0.0
141
0.0
142
1.0
143
1.0
 70
   688
 72
     0
 73
     0
 74
     5
  7

 75
    16
147
1.0
 76
     0
 77
     2
 78
   300
148
0.0
149
0.0
100
AcDbLayout
  1
Layout1
 70
     1
 71
     1
 10
0.0
 20
0.0
 11
420.0
 21
297.0
 12
0.0
 22
0.0
 32
0.0
 14
1.000000000000000E+20
 24
1.000000000000000E+20
 34
1.000000000000000E+20
 15
-1.000000000000000E+20
 25
-1.000000000000000E+20
 35
-1.000000000000000E+20
146
0.0
 13
0.0
 23
0.0
 33
0.0
 16
1.0
 26
0.0
 36
0.0
 17
0.0
 27
1.0
 37
0.0
 76
     0
330
1B
  0
LAYOUT
  5
26
102
{ACAD_REACTORS
330
1A
102
}
330
1A
100
AcDbPlotSettings
  1

  2
none_device
  4

  6

 40
0.0
 41
0.0
 42
0.0
 43
0.0
 44
0.0
 45
0.0
 46
0.0
 47
0.0
 48
0.0
 49
0.0
140
0.0
141
0.0
142
1.0
143
1.0
 70
   688
 72
     0
 73
     0
 74
     5
  7

 75
    16
147
1.0
 76
     0
 77
     2
 78
   300
148
0.0
149
0.0
100
AcDbLayout
  1
Layout2
 70
     1
 71
     2
 10
0.0
 20
0.0
 11
0.0
 21
0.0
 12
0.0
 22
0.0
 32
0.0
 14
0.0
 24
0.0
 34
0.0
 15
0.0
 25
0.0
 35
0.0
146
0.0
 13
0.0
 23
0.0
 33
0.0
 16
1.0
 26
0.0
 36
0.0
 17
0.0
 27
1.0
 37
0.0
 76
     0
330
23
  0
LAYOUT
  5
22
102
{ACAD_REACTORS
330
1A
102
}
330
1A
100
AcDbPlotSettings
  1

  2
none_device
  4

  6

 40
0.0
 41
0.0
 42
0.0
 43
0.0
 44
0.0
 45
0.0
 46
0.0
 47
0.0
 48
0.0
 49
0.0
140
0.0
141
0.0
142
1.0
143
1.0
 70
  1712
 72
     0
 73
     0
 74
     0
  7

 75
     0
147
1.0
 76
     0
 77
     2
 78
   300
148
0.0
149
0.0
100
AcDbLayout
  1
Model
 70
     1
 71
     0
 10
0.0
 20
0.0
 11
279.4
 21
215.9
 12
0.0
 22
0.0
 32
0.0
 14
0.0
 24
0.0
 34
0.0
 15
279.4
 25
215.9
 35
0.0
146
0.0
 13
0.0
 23
0.0
 33
0.0
 16
1.0
 26
0.0
 36
0.0
 17
0.0
 27
1.0
 37
0.0
 76
     0
330
1F
331
29
  0
MATERIAL
  5
57C
102
{ACAD_XDICTIONARY
360
57D
102
}
102
{ACAD_REACTORS
330
573
102
}
330
573
100
AcDbMaterial
  1
ByBlock
 72
     0
 43
0.0008202099737533
 43
0.0
 43
0.0
 43
0.0
 43
0.0
 43
0.0008202099737533
 43
0.0
 43
0.0
 43
0.0
 43
0.0
 43
1.0
 43
0.0
 43
0.0
 43
0.0
 43
0.0
 43
1.0
 77
     0
 47
0.0008202099737533
 47
0.0
 47
0.0
 47
0.0
 47
0.0
 47
0.0008202099737533
 47
0.0
 47
0.0
 47
0.0
 47
0.0
 47
1.0
 47
0.0
 47
0.0
 47
0.0
 47
0.0
 47
1.0
171
     0
 49
0.0008202099737533
 49
0.0
 49
0.0
 49
0.0
 49
0.0
 49
0.0008202099737533
 49
0.0
 49
0.0
 49
0.0
 49
0.0
 49
1.0
 49
0.0
 49
0.0
 49
0.0
 49
0.0
 49
1.0
175
     0
142
0.0008202099737533
142
0.0
142
0.0
142
0.0
142
0.0
142
0.0008202099737533
142
0.0
142
0.0
142
0.0
142
0.0
142
1.0
142
0.0
142
0.0
142
0.0
142
0.0
142
1.0
179
     0
144
0.0008202099737533
144
0.0
144
0.0
144
0.0
144
0.0
144
0.0008202099737533
144
0.0
144
0.0
144
0.0
144
0.0
144
1.0
144
0.0
144
0.0
144
0.0
144
0.0
144
1.0
147
0.0008202099737533
147
0.0
147
0.0
147
0.0
147
0.0
147
0.0008202099737533
147
0.0
147
0.0
147
0.0
147
0.0
147
1.0
147
0.0
147
0.0
147
0.0
147
0.0
147
1.0
  0
MATERIAL
  5
574
102
{ACAD_XDICTIONARY
360
575
102
}
102
{ACAD_REACTORS
330
573
102
}
330
573
100
AcDbMaterial
  1
ByLayer
 72
     0
 43
0.0008202099737533
 43
0.0
 43
0.0
 43
0.0
 43
0.0
 43
0.0008202099737533
 43
0.0
 43
0.0
 43
0.0
 43
0.0
 43
1.0
 43
0.0
 43
0.0
 43
0.0
 43
0.0
 43
1.0
 77
     0
 47
0.0008202099737533
 47
0.0
 47
0.0
 47
0.0
 47
0.0
 47
0.0008202099737533
 47
0.0
 47
0.0
 47
0.0
 47
0.0
 47
1.0
 47
0.0
 47
0.0
 47
0.0
 47
0.0
 47
1.0
171
     0
 49
0.0008202099737533
 49
0.0
 49
0.0
 49
0.0
 49
0.0
 49
0.0008202099737533
 49
0.0
 49
0.0
 49
0.0
 49
0.0
 49
1.0
 49
0.0
 49
0.0
 49
0.0
 49
0.0
 49
1.0
175
     0
142
0.0008202099737533
142
0.0
142
0.0
142
0.0
142
0.0
142
0.0008202099737533
142
0.0
142
0.0
142
0.0
142
0.0
142
1.0
142
0.0
142
0.0
142
0.0
142
0.0
142
1.0
179
     0
144
0.0008202099737533
144
0.0
144
0.0
144
0.0
144
0.0
144
0.0008202099737533
144
0.0
144
0.0
144
0.0
144
0.0
144
1.0
144
0.0
144
0.0
144
0.0
144
0.0
144
1.0
147
0.0008202099737533
147
0.0
147
0.0
147
0.0
147
0.0
147
0.0008202099737533
147
0.0
147
0.0
147
0.0
147
0.0
147
1.0
147
0.0
147
0.0
147
0.0
147
0.0
147
1.0
  0
MATERIAL
  5
584
102
{ACAD_XDICTIONARY
360
585
102
}
102
{ACAD_REACTORS
330
573
102
}
330
573
100
AcDbMaterial
  1
Global
 72
     0
 43
0.0008202099737533
 43
0.0
 43
0.0
 43
0.0
 43
0.0
 43
0.0008202099737533
 43
0.0
 43
0.0
 43
0.0
 43
0.0
 43
1.0
 43
0.0
 43
0.0
 43
0.0
 43
0.0
 43
1.0
 77
     0
 47
0.0008202099737533
 47
0.0
 47
0.0
 47
0.0
 47
0.0
 47
0.0008202099737533
 47
0.0
 47
0.0
 47
0.0
 47
0.0
 47
1.0
 47
0.0
 47
0.0
 47
0.0
 47
0.0
 47
1.0
171
     0
 49
0.0008202099737533
 49
0.0
 49
0.0
 49
0.0
 49
0.0
 49
0.0008202099737533
 49
0.0
 49
0.0
 49
0.0
 49
0.0
 49
1.0
 49
0.0
 49
0.0
 49
0.0
 49
0.0
 49
1.0
175
     0
142
0.0008202099737533
142
0.0
142
0.0
142
0.0
142
0.0
142
0.0008202099737533
142
0.0
142
0.0
142
0.0
142
0.0
142
1.0
142
0.0
142
0.0
142
0.0
142
0.0
142
1.0
179
     0
144
0.0008202099737533
144
0.0
144
0.0
144
0.0
144
0.0
144
0.0008202099737533
144
0.0
144
0.0
144
0.0
144
0.0
144
1.0
144
0.0
144
0.0
144
0.0
144
0.0
144
1.0
147
0.0008202099737533
147
0.0
147
0.0
147
0.0
147
0.0
147
0.0008202099737533
147
0.0
147
0.0
147
0.0
147
0.0
147
1.0
147
0.0
147
0.0
147
0.0
147
0.0
147
1.0
  0
MLEADERSTYLE
  5
5B3
102
{ACAD_REACTORS
330
5B2
102
}
330
5B2
100
AcDbMLeaderStyle
170
     2
171
     1
172
     0
 90
        2
 40
0.0
 41
0.0
173
     1
 91
-1056964608
340
14
 92
       -2
290
     1
 42
2.0
291
     1
 43
0.36
  3
Standard
 44
4.0
300

342
11
174
     1
178
     6
175
     1
176
     0
 93
-1056964608
 45
4.0
292
     0
297
     0
 46
4.0
 94
-1056964608
 47
1.0
 49
1.0
140
1.0
293
     1
141
0.0
294
     1
177
     0
142
1.0
295
     1
296
     0
143
0.125
1001
ACAD_MLEADERVER
1070
     2
  0
MLINESTYLE
  5
18
102
{ACAD_REACTORS
330
17
102
}
330
17
100
AcDbMlineStyle
  2
STANDARD
 70
     0
  3

 62
   256
 51
90.0
 52
90.0
 71
     2
 49
0.5
 62
   256
  6
BYLAYER
 49
-0.5
 62
   256
  6
BYLAYER
  0
ACDBPLACEHOLDER
  5
F
102
{ACAD_REACTORS
330
E
102
}
330
E
  0
SCALE
  5
5A1
102
{ACAD_REACTORS
330
5A0
102
}
330
5A0
100
AcDbScale
 70
     0
300
1:1
140
1.0
141
1.0
290
     1
  0
SCALE
  5
5A2
102
{ACAD_REACTORS
330
5A0
102
}
330
5A0
100
AcDbScale
 70
     0
300
1:2
140
1.0
141
2.0
290
     0
  0
SCALE
  5
5A3
102
{ACAD_REACTORS
330
5A0
102
}
330
5A0
100
AcDbScale
 70
     0
300
1:4
140
1.0
141
4.0
290
     0
  0
SCALE
  5
5A4
102
{ACAD_REACTORS
330
5A0
102
}
330
5A0
100
AcDbScale
 70
     0
300
1:5
140
1.0
141
5.0
290
     0
  0
SCALE
  5
5A5
102
{ACAD_REACTORS
330
5A0
102
}
330
5A0
100
AcDbScale
 70
     0
300
1:8
140
1.0
141
8.0
290
     0
  0
SCALE
  5
5A6
102
{ACAD_REACTORS
330
5A0
102
}
330
5A0
100
AcDbScale
 70
     0
300
1:10
140
1.0
141
10.0
290
     0
  0
SCALE
  5
5A7
102
{ACAD_REACTORS
330
5A0
102
}
330
5A0
100
AcDbScale
 70
     0
300
1:16
140
1.0
141
16.0
290
     0
  0
SCALE
  5
5A8
102
{ACAD_REACTORS
330
5A0
102
}
330
5A0
100
AcDbScale
 70
     0
300
1:20
140
1.0
141
20.0
290
     0
  0
SCALE
  5
5A9
102
{ACAD_REACTORS
330
5A0
102
}
330
5A0
100
AcDbScale
 70
     0
300
1:30
140
1.0
141
30.0
290
     0
  0
SCALE
  5
5AA
102
{ACAD_REACTORS
330
5A0
102
}
330
5A0
100
AcDbScale
 70
     0
300
1:40
140
1.0
141
40.0
290
     0
  0
SCALE
  5
5AB
102
{ACAD_REACTORS
330
5A0
102
}
330
5A0
100
AcDbScale
 70
     0
300
1:50
140
1.0
141
50.0
290
     0
  0
SCALE
  5
5AC
102
{ACAD_REACTORS
330
5A0
102
}
330
5A0
100
AcDbScale
 70
     0
300
1:100
140
1.0
141
100.0
290
     0
  0
SCALE
  5
5AD
102
{ACAD_REACTORS
330
5A0
102
}
330
5A0
100
AcDbScale
 70
     0
300
2:1
140
2.0
141
1.0
290
     0
  0
SCALE
  5
5AE
102
{ACAD_REACTORS
330
5A0
102
}
330
5A0
100
AcDbScale
 70
     0
300
4:1
140
4.0
141
1.0
290
     0
  0
SCALE
  5
5AF
102
{ACAD_REACTORS
330
5A0
102
}
330
5A0
100
AcDbScale
 70
     0
300
8:1
140
8.0
141
1.0
290
     0
  0
SCALE
  5
5B0
102
{ACAD_REACTORS
330
5A0
102
}
330
5A0
100
AcDbScale
 70
     0
300
10:1
140
10.0
141
1.0
290
     0
  0
SCALE
  5
5B1
102
{ACAD_REACTORS
330
5A0
102
}
330
5A0
100
AcDbScale
 70
     0
300
100:1
140
100.0
141
1.0
290
     0
  0
TABLESTYLE
  5
59F
102
{ACAD_XDICTIONARY
360
5DB
102
}
102
{ACAD_REACTORS
330
59E
102
}
330
59E
100
AcDbTableStyle
  3
Standard
 70
     0
 71
     0
 40
1.5
 41
1.5
280
     0
281
     0
  7
Standard
140
4.5
170
     2
 62
     0
 63
     7
283
     0
 90
      512
 91
        0
  1

274
    -2
284
     1
 64
     0
275
    -2
285
     1
 65
     0
276
    -2
286
     1
 66
     0
277
    -2
287
     1
 67
     0
278
    -2
288
     1
 68
     0
279
    -2
289
     1
 69
     0
  7
Standard
140
6.0
170
     5
 62
     0
 63
     7
283
     0
 90
      512
 91
        0
  1

274
    -2
284
     1
 64
     0
275
    -2
285
     1
 65
     0
276
    -2
286
     1
 66
     0
277
    -2
287
     1
 67
     0
278
    -2
288
     1
 68
     0
279
    -2
289
     1
 69
     0
  7
Standard
140
4.5
170
     5
 62
     0
 63
     7
283
     0
 90
      512
 91
        0
  1

274
    -2
284
     1
 64
     0
275
    -2
285
     1
 65
     0
276
    -2
286
     1
 66
     0
277
    -2
287
     1
 67
     0
278
    -2
288
     1
 68
     0
279
    -2
289
     1
 69
     0
  0
VISUALSTYLE
  5
592
102
{ACAD_REACTORS
330
58C
102
}
330
58C
100
AcDbVisualStyle
  2
2dWireframe
 70
     4
 71
     0
 72
     2
 73
     0
 90
        0
 40
-0.6
 41
-30.0
 62
     5
 63
     7
421
 16777215
 74
     1
 91
        4
 64
     7
 65
   257
 75
     1
175
     1
 42
1.0
 92
        0
 66
   257
 43
1.0
 76
     1
 77
     6
 78
     2
 67
     7
 79
     5
170
     0
171
     0
290
     0
174
     0
 93
        1
 44
0.0
173
     0
291
     0
 45
0.0
  0
VISUALSTYLE
  5
594
102
{ACAD_REACTORS
330
58C
102
}
330
58C
100
AcDbVisualStyle
  2
3D Hidden
 70
     6
 71
     1
 72
     2
 73
     2
 90
        0
 40
-0.6
 41
-30.0
 62
     5
 63
     7
421
 16777215
 74
     2
 91
        2
 64
     7
 65
   257
 75
     2
175
     1
 42
40.0
 92
        0
 66
   257
 43
1.0
 76
     1
 77
     6
 78
     2
 67
     7
 79
     3
170
     0
171
     0
290
     0
174
     0
 93
        1
 44
0.0
173
     0
291
     0
 45
0.0
  0
VISUALSTYLE
  5
593
102
{ACAD_REACTORS
330
58C
102
}
330
58C
100
AcDbVisualStyle
  2
3dWireframe
 70
     5
 71
     0
 72
     2
 73
     0
 90
        0
 40
-0.6
 41
-30.0
 62
     5
 63
     7
421
 16777215
 74
     1
 91
        4
 64
     7
 65
   257
 75
     1
175
     1
 42
1.0
 92
        0
 66
   257
 43
1.0
 76
     1
 77
     6
 78
     2
 67
     7
 79
     5
170
     0
171
     0
290
     0
174
     0
 93
        1
 44
0.0
173
     0
291
     0
 45
0.0
  0
VISUALSTYLE
  5
591
102
{ACAD_REACTORS
330
58C
102
}
330
58C
100
AcDbVisualStyle
  2
Basic
 70
     7
 71
     1
 72
     0
 73
     1
 90
        0
 40
-0.6
 41
-30.0
 62
     5
 63
     7
421
 16777215
 74
     0
 91
        4
 64
     7
 65
   257
 75
     1
175
     1
 42
1.0
 92
        8
 66
     7
 43
1.0
 76
     1
 77
     6
 78
     2
 67
     7
 79
     5
170
     0
171
     0
290
     0
174
     0
 93
        1
 44
0.0
173
     0
291
     1
 45
0.0
  0
VISUALSTYLE
  5
598
102
{ACAD_REACTORS
330
58C
102
}
330
58C
100
AcDbVisualStyle
  2
Brighten
 70
    12
 71
     2
 72
     2
 73
     0
 90
        0
 40
-0.6
 41
-30.0
 62
     5
 63
     7
421
 16777215
 74
     1
 91
        4
 64
     7
 65
   257
 75
     1
175
     1
 42
1.0
 92
        8
 66
     7
 43
1.0
 76
     1
 77
     6
 78
     2
 67
     7
 79
     5
170
     0
171
     0
290
     0
174
     0
 93
        1
 44
50.0
173
     0
291
     1
 45
0.0
  0
VISUALSTYLE
  5
59C
102
{ACAD_REACTORS
330
58C
102
}
330
58C
100
AcDbVisualStyle
  2
ColorChange
 70
    16
 71
     2
 72
     2
 73
     3
 90
        0
 40
-0.6
 41
-30.0
 62
     5
 63
     8
421
  8421504
 74
     1
 91
        4
 64
     7
 65
   257
 75
     1
175
     1
 42
1.0
 92
        8
 66
     8
424
  8421504
 43
1.0
 76
     1
 77
     6
 78
     2
 67
     7
 79
     5
170
     0
171
     0
290
     0
174
     0
 93
        1
 44
0.0
173
     0
291
     1
 45
0.0
  0
VISUALSTYLE
  5
595
102
{ACAD_REACTORS
330
58C
102
}
330
58C
100
AcDbVisualStyle
  2
Conceptual
 70
     9
 71
     3
 72
     2
 73
     0
 90
        0
 40
-0.6
 41
-30.0
 62
     5
 63
     7
421
 16777215
 74
     2
 91
        2
 64
     7
 65
   257
 75
     1
175
     1
 42
40.0
 92
        8
 66
     7
 43
1.0
 76
     1
 77
     6
 78
     2
 67
     7
 79
     3
170
     0
171
     0
290
     0
174
     0
 93
        1
 44
0.0
173
     0
291
     0
 45
0.0
  0
VISUALSTYLE
  5
597
102
{ACAD_REACTORS
330
58C
102
}
330
58C
100
AcDbVisualStyle
  2
Dim
 70
    11
 71
     2
 72
     2
 73
     0
 90
        0
 40
-0.6
 41
-30.0
 62
     5
 63
     7
421
 16777215
 74
     1
 91
        4
 64
     7
 65
   257
 75
     1
175
     1
 42
1.0
 92
        8
 66
     7
 43
1.0
 76
     1
 77
     6
 78
     2
 67
     7
 79
     5
170
     0
171
     0
290
     0
174
     0
 93
        1
 44
-50.0
173
     0
291
     1
 45
0.0
  0
VISUALSTYLE
  5
59B
102
{ACAD_REACTORS
330
58C
102
}
330
58C
100
AcDbVisualStyle
  2
Facepattern
 70
    15
 71
     2
 72
     2
 73
     0
 90
        0
 40
-0.6
 41
-30.0
 62
     5
 63
     7
421
 16777215
 74
     1
 91
        4
 64
     7
 65
   257
 75
     1
175
     1
 42
1.0
 92
        8
 66
     7
 43
1.0
 76
     1
 77
     6
 78
     2
 67
     7
 79
     5
170
     0
171
     0
290
     0
174
     0
 93
        1
 44
0.0
173
     0
291
     1
 45
0.0
  0
VISUALSTYLE
  5
58D
102
{ACAD_REACTORS
330
58C
102
}
330
58C
100
AcDbVisualStyle
  2
Flat
 70
     0
 71
     2
 72
     1
 73
     1
 90
        2
 40
-0.6
 41
30.0
 62
     5
 63
     7
421
 16777215
 74
     0
 91
        4
 64
     7
 65
   257
 75
     1
175
     1
 42
1.0
 92
        8
 66
     7
 43
1.0
 76
     1
 77
     6
 78
     2
 67
     7
 79
     5
170
     0
171
     0
290
     0
174
     0
 93
       13
 44
0.0
173
     0
291
     1
 45
0.0
  0
VISUALSTYLE
  5
58E
102
{ACAD_REACTORS
330
58C
102
}
330
58C
100
AcDbVisualStyle
  2
FlatWithEdges
 70
     1
 71
     2
 72
     1
 73
     1
 90
        2
 40
-0.6
 41
30.0
 62
     5
 63
     7
421
 16777215
 74
     1
 91
        4
 64
     7
 65
   257
 75
     1
175
     1
 42
1.0
 92
        0
 66
   257
 43
1.0
 76
     1
 77
     6
 78
     2
 67
     7
 79
     5
170
     0
171
     0
290
     0
174
     0
 93
       13
 44
0.0
173
     0
291
     1
 45
0.0
  0
VISUALSTYLE
  5
58F
102
{ACAD_REACTORS
330
58C
102
}
330
58C
100
AcDbVisualStyle
  2
Gouraud
 70
     2
 71
     2
 72
     2
 73
     1
 90
        2
 40
-0.6
 41
30.0
 62
     5
 63
     7
421
 16777215
 74
     0
 91
        4
 64
     7
 65
   257
 75
     1
175
     1
 42
1.0
 92
        0
 66
     7
 43
1.0
 76
     1
 77
     6
 78
     2
 67
     7
 79
     5
170
     0
171
     0
290
     0
174
     0
 93
       13
 44
0.0
173
     0
291
     1
 45
0.0
  0
VISUALSTYLE
  5
590
102
{ACAD_REACTORS
330
58C
102
}
330
58C
100
AcDbVisualStyle
  2
GouraudWithEdges
 70
     3
 71
     2
 72
     2
 73
     1
 90
        2
 40
-0.6
 41
30.0
 62
     5
 63
     7
421
 16777215
 74
     1
 91
        4
 64
     7
 65
   257
 75
     1
175
     1
 42
1.0
 92
        0
 66
   257
 43
1.0
 76
     1
 77
     6
 78
     2
 67
     7
 79
     5
170
     0
171
     0
290
     0
174
     0
 93
       13
 44
0.0
173
     0
291
     1
 45
0.0
  0
VISUALSTYLE
  5
59A
102
{ACAD_REACTORS
330
58C
102
}
330
58C
100
AcDbVisualStyle
  2
Linepattern
 70
    14
 71
     2
 72
     2
 73
     0
 90
        0
 40
-0.6
 41
-30.0
 62
     5
 63
     7
421
 16777215
 74
     1
 91
        4
 64
     7
 65
   257
 75
     7
175
     7
 42
1.0
 92
        8
 66
     7
 43
1.0
 76
     1
 77
     6
 78
     2
 67
     7
 79
     5
170
     0
171
     0
290
     0
174
     0
 93
        1
 44
0.0
173
     0
291
     1
 45
0.0
  0
VISUALSTYLE
  5
596
102
{ACAD_REACTORS
330
58C
102
}
330
58C
100
AcDbVisualStyle
  2
Realistic
 70
     8
 71
     2
 72
     2
 73
     0
 90
        0
 40
-0.6
 41
-30.0
 62
     5
 63
     7
421
 16777215
 74
     1
 91
        0
 64
     7
 65
   257
 75
     1
175
     1
 42
1.0
 92
        8
 66
     8
424
  7895160
 43
1.0
 76
     1
 77
     6
 78
     2
 67
     7
 79
     5
170
     0
171
     0
290
     0
174
     0
 93
       13
 44
0.0
173
     0
291
     0
 45
0.0
  0
VISUALSTYLE
  5
599
102
{ACAD_REACTORS
330
58C
102
}
330
58C
100
AcDbVisualStyle
  2
Thicken
 70
    13
 71
     2
 72
     2
 73
     0
 90
        0
 40
-0.6
 41
-30.0
 62
     5
 63
     7
421
 16777215
 74
     1
 91
        4
 64
     7
 65
   257
 75
     1
175
     1
 42
1.0
 92
       12
 66
     7
 43
1.0
 76
     1
 77
     6
 78
     2
 67
     7
 79
     5
170
     0
171
     0
290
     0
174
     0
 93
        1
 44
0.0
173
     0
291
     1
 45
0.0
  0
DICTIONARYVAR
  5
5D4
102
{ACAD_REACTORS
330
5D0
102
}
330
5D0
100
DictionaryVariables
280
     0
  1
1:1
  0
DICTIONARYVAR
  5
5D2
102
{ACAD_REACTORS
330
5D0
102
}
330
5D0
100
DictionaryVariables
280
     0
  1
STANDARD
  0
DICTIONARYVAR
  5
5D1
102
{ACAD_REACTORS
330
5D0
102
}
330
5D0
100
DictionaryVariables
280
     0
  1
STANDARD
  0
DICTIONARYVAR
  5
5D6
102
{ACAD_REACTORS
330
5D0
102
}
330
5D0
100
DictionaryVariables
280
     0
  1
1
  0
DICTIONARYVAR
  5
5D7
102
{ACAD_REACTORS
330
5D0
102
}
330
5D0
100
DictionaryVariables
280
     0
  1
15
  0
DICTIONARYVAR
  5
5D5
102
{ACAD_REACTORS
330
5D0
102
}
330
5D0
100
DictionaryVariables
280
     0
  1
0
  0
DICTIONARYVAR
  5
5D3
102
{ACAD_REACTORS
330
5D0
102
}
330
5D0
100
DictionaryVariables
280
     0
  1
0
  0
DICTIONARY
  5
57D
330
57C
100
AcDbDictionary
280
     1
281
     1
  3
BUMPTILE
360
57F
  3
DIFFUSETILE
360
57E
  3
OPACITYTILE
360
582
  3
REFLECTIONTILE
360
581
  3
REFRACTIONTILE
360
583
  3
SPECULARTILE
360
580
  0
DICTIONARY
  5
575
330
574
100
AcDbDictionary
280
     1
281
     1
  3
BUMPTILE
360
577
  3
DIFFUSETILE
360
576
  3
OPACITYTILE
360
57A
  3
REFLECTIONTILE
360
579
  3
REFRACTIONTILE
360
57B
  3
SPECULARTILE
360
578
  0
DICTIONARY
  5
585
330
584
100
AcDbDictionary
280
     1
281
     1
  3
BUMPTILE
360
587
  3
DIFFUSETILE
360
586
  3
OPACITYTILE
360
58A
  3
REFLECTIONTILE
360
589
  3
REFRACTIONTILE
360
58B
  3
SPECULARTILE
360
588
  0
DICTIONARY
  5
5DB
330
59F
100
AcDbDictionary
280
     1
281
     1
  3
ACAD_ROUNDTRIP_2008_TABLESTYLE_CELLSTYLEMAP
360
5DC
  0
XRECORD
  5
57F
102
{ACAD_REACTORS
330
57D
102
}
330
57D
100
AcDbXrecord
280
     1
270
     1
271
     1
  0
XRECORD
  5
57E
102
{ACAD_REACTORS
330
57D
102
}
330
57D
100
AcDbXrecord
280
     1
270
     1
271
     1
  0
XRECORD
  5
582
102
{ACAD_REACTORS
330
57D
102
}
330
57D
100
AcDbXrecord
280
     1
270
     1
271
     1
  0
XRECORD
  5
581
102
{ACAD_REACTORS
330
57D
102
}
330
57D
100
AcDbXrecord
280
     1
270
     1
271
     1
  0
XRECORD
  5
583
102
{ACAD_REACTORS
330
57D
102
}
330
57D
100
AcDbXrecord
280
     1
270
     1
271
     1
  0
XRECORD
  5
580
102
{ACAD_REACTORS
330
57D
102
}
330
57D
100
AcDbXrecord
280
     1
270
     1
271
     1
  0
XRECORD
  5
577
102
{ACAD_REACTORS
330
575
102
}
330
575
100
AcDbXrecord
280
     1
270
     1
271
     1
  0
XRECORD
  5
576
102
{ACAD_REACTORS
330
575
102
}
330
575
100
AcDbXrecord
280
     1
270
     1
271
     1
  0
XRECORD
  5
57A
102
{ACAD_REACTORS
330
575
102
}
330
575
100
AcDbXrecord
280
     1
270
     1
271
     1
  0
XRECORD
  5
579
102
{ACAD_REACTORS
330
575
102
}
330
575
100
AcDbXrecord
280
     1
270
     1
271
     1
  0
XRECORD
  5
57B
102
{ACAD_REACTORS
330
575
102
}
330
575
100
AcDbXrecord
280
     1
270
     1
271
     1
  0
XRECORD
  5
578
102
{ACAD_REACTORS
330
575
102
}
330
575
100
AcDbXrecord
280
     1
270
     1
271
     1
  0
XRECORD
  5
587
102
{ACAD_REACTORS
330
585
102
}
330
585
100
AcDbXrecord
280
     1
270
     1
271
     1
  0
XRECORD
  5
586
102
{ACAD_REACTORS
330
585
102
}
330
585
100
AcDbXrecord
280
     1
270
     1
271
     1
  0
XRECORD
  5
58A
102
{ACAD_REACTORS
330
585
102
}
330
585
100
AcDbXrecord
280
     1
270
     1
271
     1
  0
XRECORD
  5
589
102
{ACAD_REACTORS
330
585
102
}
330
585
100
AcDbXrecord
280
     1
270
     1
271
     1
  0
XRECORD
  5
58B
102
{ACAD_REACTORS
330
585
102
}
330
585
100
AcDbXrecord
280
     1
270
     1
271
     1
  0
XRECORD
  5
588
102
{ACAD_REACTORS
330
585
102
}
330
585
100
AcDbXrecord
280
     1
270
     1
271
     1
  0
CELLSTYLEMAP
  5
5DC
102
{ACAD_REACTORS
330
5DB
102
}
330
5DB
100
AcDbCellStyleMap
 90
        3
300
CELLSTYLE
  1
TABLEFORMAT_BEGIN
 90
        5
170
     1
 91
        0
 92
    32768
 62
   257
 93
        1
300
CONTENTFORMAT
  1
CONTENTFORMAT_BEGIN
 90
        0
 91
        0
 92
      512
 93
        0
300

 40
0.0
140
1.0
 94
        5
 62
     0
340
11
144
6.0
309
CONTENTFORMAT_END
171
     1
301
MARGIN
  1
CELLMARGIN_BEGIN
 40
1.5
 40
1.5
 40
1.5
 40
1.5
 40
4.5
 40
4.5
309
CELLMARGIN_END
 94
        6
 95
        1
302
GRIDFORMAT
  1
GRIDFORMAT_BEGIN
 90
        0
 91
        1
 62
     0
 92
       -2
340
0
 93
        0
 40
1.125
309
GRIDFORMAT_END
 95
        2
302
GRIDFORMAT
  1
GRIDFORMAT_BEGIN
 90
        0
 91
        1
 62
     0
 92
       -2
340
0
 93
        0
 40
1.125
309
GRIDFORMAT_END
 95
        4
302
GRIDFORMAT
  1
GRIDFORMAT_BEGIN
 90
        0
 91
        1
 62
     0
 92
       -2
340
0
 93
        0
 40
1.125
309
GRIDFORMAT_END
 95
        8
302
GRIDFORMAT
  1
GRIDFORMAT_BEGIN
 90
        0
 91
        1
 62
     0
 92
       -2
340
0
 93
        0
 40
1.125
309
GRIDFORMAT_END
 95
       16
302
GRIDFORMAT
  1
GRIDFORMAT_BEGIN
 90
        0
 91
        1
 62
     0
 92
       -2
340
0
 93
        0
 40
1.125
309
GRIDFORMAT_END
 95
       32
302
GRIDFORMAT
  1
GRIDFORMAT_BEGIN
 90
        0
 91
        1
 62
     0
 92
       -2
340
0
 93
        0
 40
1.125
309
GRIDFORMAT_END
309
TABLEFORMAT_END
  1
CELLSTYLE_BEGIN
 90
        1
 91
        1
300
_TITLE
309
CELLSTYLE_END
300
CELLSTYLE
  1
TABLEFORMAT_BEGIN
 90
        5
170
     1
 91
        0
 92
        0
 62
   257
 93
        1
300
CONTENTFORMAT
  1
CONTENTFORMAT_BEGIN
 90
        0
 91
        0
 92
      512
 93
        0
300

 40
0.0
140
1.0
 94
        5
 62
     0
340
11
144
4.5
309
CONTENTFORMAT_END
171
     1
301
MARGIN
  1
CELLMARGIN_BEGIN
 40
1.5
 40
1.5
 40
1.5
 40
1.5
 40
4.5
 40
4.5
309
CELLMARGIN_END
 94
        6
 95
        1
302
GRIDFORMAT
  1
GRIDFORMAT_BEGIN
 90
        0
 91
        1
 62
     0
 92
       -2
340
0
 93
        0
 40
1.125
309
GRIDFORMAT_END
 95
        2
302
GRIDFORMAT
  1
GRIDFORMAT_BEGIN
 90
        0
 91
        1
 62
     0
 92
       -2
340
0
 93
        0
 40
1.125
309
GRIDFORMAT_END
 95
        4
302
GRIDFORMAT
  1
GRIDFORMAT_BEGIN
 90
        0
 91
        1
 62
     0
 92
       -2
340
0
 93
        0
 40
1.125
309
GRIDFORMAT_END
 95
        8
302
GRIDFORMAT
  1
GRIDFORMAT_BEGIN
 90
        0
 91
        1
 62
     0
 92
       -2
340
0
 93
        0
 40
1.125
309
GRIDFORMAT_END
 95
       16
302
GRIDFORMAT
  1
GRIDFORMAT_BEGIN
 90
        0
 91
        1
 62
     0
 92
       -2
340
0
 93
        0
 40
1.125
309
GRIDFORMAT_END
 95
       32
302
GRIDFORMAT
  1
GRIDFORMAT_BEGIN
 90
        0
 91
        1
 62
     0
 92
       -2
340
0
 93
        0
 40
1.125
309
GRIDFORMAT_END
309
TABLEFORMAT_END
  1
CELLSTYLE_BEGIN
 90
        2
 91
        1
300
_HEADER
309
CELLSTYLE_END
300
CELLSTYLE
  1
TABLEFORMAT_BEGIN
 90
        5
170
     1
 91
        0
 92
        0
 62
   257
 93
        1
300
CONTENTFORMAT
  1
CONTENTFORMAT_BEGIN
 90
        0
 91
        0
 92
      512
 93
        0
300

 40
0.0
140
1.0
 94
        2
 62
     0
340
11
144
4.5
309
CONTENTFORMAT_END
171
     1
301
MARGIN
  1
CELLMARGIN_BEGIN
 40
1.5
 40
1.5
 40
1.5
 40
1.5
 40
4.5
 40
4.5
309
CELLMARGIN_END
 94
        6
 95
        1
302
GRIDFORMAT
  1
GRIDFORMAT_BEGIN
 90
        0
 91
        1
 62
     0
 92
       -2
340
0
 93
        0
 40
1.125
309
GRIDFORMAT_END
 95
        2
302
GRIDFORMAT
  1
GRIDFORMAT_BEGIN
 90
        0
 91
        1
 62
     0
 92
       -2
340
0
 93
        0
 40
1.125
309
GRIDFORMAT_END
 95
        4
302
GRIDFORMAT
  1
GRIDFORMAT_BEGIN
 90
        0
 91
        1
 62
     0
 92
       -2
340
0
 93
        0
 40
1.125
309
GRIDFORMAT_END
 95
        8
302
GRIDFORMAT
  1
GRIDFORMAT_BEGIN
 90
        0
 91
        1
 62
     0
 92
       -2
340
0
 93
        0
 40
1.125
309
GRIDFORMAT_END
 95
       16
302
GRIDFORMAT
  1
GRIDFORMAT_BEGIN
 90
        0
 91
        1
 62
     0
 92
       -2
340
0
 93
        0
 40
1.125
309
GRIDFORMAT_END
 95
       32
302
GRIDFORMAT
  1
GRIDFORMAT_BEGIN
 90
        0
 91
        1
 62
     0
 92
       -2
340
0
 93
        0
 40
1.125
309
GRIDFORMAT_END
309
TABLEFORMAT_END
  1
CELLSTYLE_BEGIN
 90
        3
 91
        2
300
_DATA
309
CELLSTYLE_END
  0
ENDSEC
  0
EOF
