  0
SECTION
  2
HEADER
  9
$ACADVER
  1
AC1015
  9
$ACADMAINTVER
 70
     6
  9
$DWGCODEPAGE
  3
ANSI_1251
  9
$INSBASE
 10
0.0
 20
0.0
 30
0.0
  9
$EXTMIN
 10
0.0
 20
0.0
 30
0.0
  9
$EXTMAX
 10
279.4
 20
215.9
 30
0.0
  9
$LIMMIN
 10
0.0
 20
0.0
  9
$LIMMAX
 10
279.4
 20
215.9
  9
$ORTHOMODE
 70
     0
  9
$REGENMODE
 70
     1
  9
$FILLMODE
 70
     1
  9
$QTEXTMODE
 70
     0
  9
$MIRRTEXT
 70
     1
  9
$LTSCALE
 40
1.0
  9
$ATTMODE
 70
     1
  9
$TEXTSIZE
 40
3.5
  9
$TRACEWID
 40
1.0
  9
$TEXTSTYLE
  7
Standard
  9
$CLAYER
  8
0
  9
$CELTYPE
  6
ByLayer
  9
$CECOLOR
 62
   256
  9
$CELTSCALE
 40
1.0
  9
$DISPSILH
 70
     0
  9
$DIMSCALE
 40
1.0
  9
$DIMASZ
 40
3.5
  9
$DIMEXO
 40
0.01
  9
$DIMDLI
 40
3.75
  9
$DIMRND
 40
0.0
  9
$DIMDLE
 40
0.0
  9
$DIMEXE
 40
1.0
  9
$DIMTP
 40
0.0
  9
$DIMTM
 40
0.0
  9
$DIMTXT
 40
3.5
  9
$DIMCEN
 40
2.5
  9
$DIMTSZ
 40
0.0
  9
$DIMTOL
 70
     0
  9
$DIMLIM
 70
     0
  9
$DIMTIH
 70
     1
  9
$DIMTOH
 70
     1
  9
$DIMSE1
 70
     0
  9
$DIMSE2
 70
     0
  9
$DIMTAD
 70
     1
  9
$DIMZIN
 70
     0
  9
$DIMBLK
  1

  9
$DIMASO
 70
     1
  9
$DIMSHO
 70
     1
  9
$DIMPOST
  1

  9
$DIMAPOST
  1

  9
$DIMALT
 70
     0
  9
$DIMALTD
 70
     3
  9
$DIMALTF
 40
0.0393700787
  9
$DIMLFAC
 40
1.0
  9
$DIMTOFL
 70
     1
  9
$DIMTVP
 40
0.0
  9
$DIMTIX
 70
     0
  9
$DIMSOXD
 70
     0
  9
$DIMSAH
 70
     0
  9
$DIMBLK1
  1

  9
$DIMBLK2
  1

  9
$DIMSTYLE
  2
ISO-25
  9
$DIMCLRD
 70
     0
  9
$DIMCLRE
 70
     0
  9
$DIMCLRT
 70
     0
  9
$DIMTFAC
 40
1.0
  9
$DIMGAP
 40
3.0
  9
$DIMJUST
 70
     0
  9
$DIMSD1
 70
     0
  9
$DIMSD2
 70
     0
  9
$DIMTOLJ
 70
     0
  9
$DIMTZIN
 70
     0
  9
$DIMALTZ
 70
     0
  9
$DIMALTTZ
 70
     0
  9
$DIMUPT
 70
     0
  9
$DIMDEC
 70
     2
  9
$DIMTDEC
 70
     3
  9
$DIMALTU
 70
     2
  9
$DIMALTTD
 70
     3
  9
$DIMTXSTY
  7
Standard
  9
$DIMAUNIT
 70
     0
  9
$DIMADEC
 70
     2
  9
$DIMALTRND
 40
0.0
  9
$DIMAZIN
 70
     0
  9
$DIMDSEP
 70
    44
  9
$DIMATFIT
 70
     3
  9
$DIMFRAC
 70
     0
  9
$DIMLDRBLK
  1

  9
$DIMLUNIT
 70
     2
  9
$DIMLWD
 70
    -2
  9
$DIMLWE
 70
    -2
  9
$DIMTMOVE
 70
     0
  9
$LUNITS
 70
     2
  9
$LUPREC
 70
     2
  9
$SKETCHINC
 40
1.0
  9
$FILLETRAD
 40
10.0
  9
$AUNITS
 70
     0
  9
$AUPREC
 70
     2
  9
$MENU
  1
.
  9
$ELEVATION
 40
0.0
  9
$PELEVATION
 40
0.0
  9
$THICKNESS
 40
0.0
  9
$LIMCHECK
 70
     0
  9
$CHAMFERA
 40
10.0
  9
$CHAMFERB
 40
10.0
  9
$CHAMFERC
 40
20.0
  9
$CHAMFERD
 40
0.0
  9
$SKPOLY
 70
     0
  9
$TDCREATE
 40
2458057.493633854
  9
$TDUCREATE
 40
2458057.410300521
  9
$TDUPDATE
 40
2458057.493634803
  9
$TDUUPDATE
 40
2458057.41030147
  9
$TDINDWG
 40
0.0000000116
  9
$TDUSRTIMER
 40
0.0000000116
  9
$USRTIMER
 70
     1
  9
$ANGBASE
 50
0.0
  9
$ANGDIR
 70
     0
  9
$PDMODE
 70
     0
  9
$PDSIZE
 40
-1.0
  9
$PLINEWID
 40
0.0
  9
$SPLFRAME
 70
     0
  9
$SPLINETYPE
 70
     6
  9
$SPLINESEGS
 70
     8
  9
$HANDSEED
  5
F6
  9
$SURFTAB1
 70
     6
  9
$SURFTAB2
 70
     6
  9
$SURFTYPE
 70
     6
  9
$SURFU
 70
     6
  9
$SURFV
 70
     6
  9
$UCSBASE
  2

  9
$UCSNAME
  2

  9
$UCSORG
 10
0.0
 20
0.0
 30
0.0
  9
$UCSXDIR
 10
1.0
 20
0.0
 30
0.0
  9
$UCSYDIR
 10
0.0
 20
1.0
 30
0.0
  9
$UCSORTHOREF
  2

  9
$UCSORTHOVIEW
 70
     0
  9
$UCSORGTOP
 10
0.0
 20
0.0
 30
0.0
  9
$UCSORGBOTTOM
 10
0.0
 20
0.0
 30
0.0
  9
$UCSORGLEFT
 10
0.0
 20
0.0
 30
0.0
  9
$UCSORGRIGHT
 10
0.0
 20
0.0
 30
0.0
  9
$UCSORGFRONT
 10
0.0
 20
0.0
 30
0.0
  9
$UCSORGBACK
 10
0.0
 20
0.0
 30
0.0
  9
$PUCSBASE
  2

  9
$PUCSNAME
  2

  9
$PUCSORG
 10
0.0
 20
0.0
 30
0.0
  9
$PUCSXDIR
 10
1.0
 20
0.0
 30
0.0
  9
$PUCSYDIR
 10
0.0
 20
1.0
 30
0.0
  9
$PUCSORTHOREF
  2

  9
$PUCSORTHOVIEW
 70
     0
  9
$PUCSORGTOP
 10
0.0
 20
0.0
 30
0.0
  9
$PUCSORGBOTTOM
 10
0.0
 20
0.0
 30
0.0
  9
$PUCSORGLEFT
 10
0.0
 20
0.0
 30
0.0
  9
$PUCSORGRIGHT
 10
0.0
 20
0.0
 30
0.0
  9
$PUCSORGFRONT
 10
0.0
 20
0.0
 30
0.0
  9
$PUCSORGBACK
 10
0.0
 20
0.0
 30
0.0
  9
$USERI1
 70
     0
  9
$USERI2
 70
     0
  9
$USERI3
 70
     0
  9
$USERI4
 70
     0
  9
$USERI5
 70
     0
  9
$USERR1
 40
0.0
  9
$USERR2
 40
0.0
  9
$USERR3
 40
0.0
  9
$USERR4
 40
0.0
  9
$USERR5
 40
0.0
  9
$WORLDVIEW
 70
     1
  9
$SHADEDGE
 70
     3
  9
$SHADEDIF
 70
    70
  9
$TILEMODE
 70
     1
  9
$MAXACTVP
 70
    64
  9
$PINSBASE
 10
0.0
 20
0.0
 30
0.0
  9
$PLIMCHECK
 70
     0
  9
$PEXTMIN
 10
1.0000000000E+20
 20
1.0000000000E+20
 30
1.0000000000E+20
  9
$PEXTMAX
 10
-1.0000000000E+20
 20
-1.0000000000E+20
 30
-1.0000000000E+20
  9
$PLIMMIN
 10
0.0
 20
0.0
  9
$PLIMMAX
 10
420.0
 20
297.0
  9
$UNITMODE
 70
     0
  9
$VISRETAIN
 70
     1
  9
$PLINEGEN
 70
     0
  9
$PSLTSCALE
 70
     1
  9
$TREEDEPTH
 70
  3020
  9
$CMLSTYLE
  2
Standard
  9
$CMLJUST
 70
     0
  9
$CMLSCALE
 40
20.0
  9
$PROXYGRAPHICS
 70
     1
  9
$MEASUREMENT
 70
     1
  9
$CELWEIGHT
370
    -1
  9
$ENDCAPS
280
     0
  9
$JOINSTYLE
280
     0
  9
$LWDISPLAY
290
     1
  9
$INSUNITS
 70
     4
  9
$HYPERLINKBASE
  1

  9
$STYLESHEET
  1

  9
$XEDIT
290
     1
  9
$CEPSNTYPE
380
     0
  9
$PSTYLEMODE
290
     1
  9
$FINGERPRINTGUID
  2
{1FB9AD61-DB42-4938-B946-A08CB280BE66}
  9
$VERSIONGUID
  2
{FAEB1C32-E019-11D5-929B-00C0DF256EC4}
  9
$EXTNAMES
290
     1
  9
$PSVPSCALE
 40
0.0
  9
$OLESTARTUP
290
     0
  0
ENDSEC
  0
SECTION
  2
CLASSES
  0
CLASS
  1
ACDBDICTIONARYWDFLT
  2
AcDbDictionaryWithDefault
  3
ObjectDBX Classes
 90
        0
280
     0
281
     0
  0
CLASS
  1
VISUALSTYLE
  2
AcDbVisualStyle
  3
ObjectDBX Classes
 90
     4095
280
     0
281
     0
  0
CLASS
  1
MATERIAL
  2
AcDbMaterial
  3
ObjectDBX Classes
 90
     1153
280
     0
281
     0
  0
CLASS
  1
ACDBPLACEHOLDER
  2
AcDbPlaceHolder
  3
ObjectDBX Classes
 90
        0
280
     0
281
     0
  0
CLASS
  1
LAYOUT
  2
AcDbLayout
  3
ObjectDBX Classes
 90
        0
280
     0
281
     0
  0
ENDSEC
  0
SECTION
  2
TABLES
  0
TABLE
  2
VPORT
  5
8
330
0
100
AcDbSymbolTable
 70
     1
  0
VPORT
  5
29
330
8
100
AcDbSymbolTableRecord
100
AcDbViewportTableRecord
  2
*Active
 70
     0
 10
0.0
 20
0.0
 11
1.0
 21
1.0
 12
139.7
 22
107.95
 13
0.0
 23
0.0
 14
10.0
 24
10.0
 15
10.0
 25
10.0
 16
0.0
 26
0.0
 36
1.0
 17
0.0
 27
0.0
 37
0.0
 40
215.9
 41
1.2941176471
 42
50.0
 43
0.0
 44
0.0
 50
0.0
 51
0.0
 71
     0
 72
  2000
 73
     1
 74
     3
 75
     0
 76
     0
 77
     0
 78
     0
281
     0
 65
     1
110
0.0
120
0.0
130
0.0
111
1.0
121
0.0
131
0.0
112
0.0
122
1.0
132
0.0
 79
     0
146
0.0
  0
ENDTAB
  0
TABLE
  2
LTYPE
  5
5
330
0
100
AcDbSymbolTable
 70
     6
  0
LTYPE
  5
14
330
5
100
AcDbSymbolTableRecord
100
AcDbLinetypeTableRecord
  2
ByBlock
 70
     0
  3

 72
    65
 73
     0
 40
0.0
  0
LTYPE
  5
15
330
5
100
AcDbSymbolTableRecord
100
AcDbLinetypeTableRecord
  2
ByLayer
 70
     0
  3

 72
    65
 73
     0
 40
0.0
  0
LTYPE
  5
16
330
5
100
AcDbSymbolTableRecord
100
AcDbLinetypeTableRecord
  2
Continuous
 70
     0
  3
Solid line
 72
    65
 73
     0
 40
0.0
  0
LTYPE
  5
3F
330
5
100
AcDbSymbolTableRecord
100
AcDbLinetypeTableRecord
  2
HIDDEN
 70
     0
  3
Hidden __ __ __ __ __ __ __ __ __ __ __ __ __ __
 72
    65
 73
     2
 40
1.905
 49
1.27
 74
     0
 49
-0.635
 74
     0
  0
LTYPE
  5
40
330
5
100
AcDbSymbolTableRecord
100
AcDbLinetypeTableRecord
  2
PHANTOM
 70
     0
  3
Phantom ______  __  __  ______  __  __  ______
 72
    65
 73
     6
 40
12.7
 49
6.35
 74
     0
 49
-1.27
 74
     0
 49
1.27
 74
     0
 49
-1.27
 74
     0
 49
1.27
 74
     0
 49
-1.27
 74
     0
  0
LTYPE
  5
41
330
5
100
AcDbSymbolTableRecord
100
AcDbLinetypeTableRecord
  2
CENTER
 70
     0
  3
Center ____ _ ____ _ ____ _ ____ _ ____ _ ____
 72
    65
 73
     4
 40
10.16
 49
6.35
 74
     0
 49
-1.27
 74
     0
 49
1.27
 74
     0
 49
-1.27
 74
     0
  0
LTYPE
  5
42
330
5
100
AcDbSymbolTableRecord
100
AcDbLinetypeTableRecord
  2
CENTERX2
 70
     0
  3
Center (2x) ________  __  ________  __  _____
 72
    65
 73
     4
 40
20.32
 49
12.7
 74
     0
 49
-2.54
 74
     0
 49
2.54
 74
     0
 49
-2.54
 74
     0
  0
LTYPE
  5
43
330
5
100
AcDbSymbolTableRecord
100
AcDbLinetypeTableRecord
  2
DOT2
 70
     0
  3
Dot (.5x) ........................................
 72
    65
 73
     2
 40
0.635
 49
0.0
 74
     0
 49
-0.635
 74
     0
  0
ENDTAB
  0
TABLE
  2
LAYER
  5
2
330
0
100
AcDbSymbolTable
 70
     1
  0
LAYER
  5
10
330
2
100
AcDbSymbolTableRecord
100
AcDbLayerTableRecord
  2
0
 70
     0
 62
     7
  6
Continuous
370
    -3
390
F
  0
ENDTAB
  0
TABLE
  2
STYLE
  5
3
330
0
100
AcDbSymbolTable
 70
     1
  0
STYLE
  5
11
330
3
100
AcDbSymbolTableRecord
100
AcDbTextStyleTableRecord
  2
Standard
 70
     0
 40
0.0
 41
1.0
 50
0.0
 71
     0
 42
3.5
  3
txt
  4

  0
ENDTAB
  0
TABLE
  2
VIEW
  5
6
330
0
100
AcDbSymbolTable
 70
     0
  0
ENDTAB
  0
TABLE
  2
UCS
  5
7
330
0
100
AcDbSymbolTable
 70
     0
  0
ENDTAB
  0
TABLE
  2
APPID
  5
9
330
0
100
AcDbSymbolTable
 70
     1
  0
APPID
  5
12
330
9
100
AcDbSymbolTableRecord
100
AcDbRegAppTableRecord
  2
ACAD
 70
     0
  0
ENDTAB
  0
TABLE
  2
DIMSTYLE
  5
A
330
0
100
AcDbSymbolTable
 70
     1
100
AcDbDimStyleTable
  0
DIMSTYLE
105
27
330
A
100
AcDbSymbolTableRecord
100
AcDbDimStyleTableRecord
  2
ISO-25
 70
     0
 41
2.5
 42
0.625
 43
3.75
 44
1.25
 73
     0
 74
     0
 77
     1
 78
     8
140
2.5
141
2.5
143
0.0393700787
147
0.625
171
     3
172
     1
178
     0
271
     2
272
     2
274
     3
278
    44
283
     0
284
     8
340
11
  0
ENDTAB
  0
TABLE
  2
BLOCK_RECORD
  5
1
330
0
100
AcDbSymbolTable
 70
     1
  0
BLOCK_RECORD
  5
1F
330
1
100
AcDbSymbolTableRecord
100
AcDbBlockTableRecord
  2
*Model_Space
340
22
  0
BLOCK_RECORD
  5
1B
330
1
100
AcDbSymbolTableRecord
100
AcDbBlockTableRecord
  2
*Paper_Space
340
1E
  0
BLOCK_RECORD
  5
23
330
1
100
AcDbSymbolTableRecord
100
AcDbBlockTableRecord
  2
*Paper_Space0
340
26
  0
ENDTAB
  0
ENDSEC
  0
SECTION
  2
BLOCKS
  0
BLOCK
  5
20
330
1F
100
AcDbEntity
  8
0
100
AcDbBlockBegin
  2
*Model_Space
 70
     0
 10
0.0
 20
0.0
 30
0.0
  3
*Model_Space
  1

  0
ENDBLK
  5
21
330
1F
100
AcDbEntity
  8
0
100
AcDbBlockEnd
  0
BLOCK
  5
1C
330
1B
100
AcDbEntity
 67
     1
  8
0
100
AcDbBlockBegin
  2
*Paper_Space
 70
     0
 10
0.0
 20
0.0
 30
0.0
  3
*Paper_Space
  1

  0
ENDBLK
  5
1D
330
1B
100
AcDbEntity
 67
     1
  8
0
100
AcDbBlockEnd
  0
BLOCK
  5
24
330
23
100
AcDbEntity
  8
0
100
AcDbBlockBegin
  2
*Paper_Space0
 70
     0
 10
0.0
 20
0.0
 30
0.0
  3
*Paper_Space0
  1

  0
ENDBLK
  5
25
330
23
100
AcDbEntity
  8
0
100
AcDbBlockEnd
  0
ENDSEC
  0
SECTION
  2
ENTITIES
  0
SPLINE
  5
44
330
1F
100
AcDbEntity
  8
0
  6
Continuous
 62
     7
370
    15
100
AcDbSpline
210
0.0
220
0.0
230
1.0
 70
     8
 71
     3
 72
     9
 73
     5
 74
     0
 42
0.00000001
 43
0.00000001
 12
1.0
 22
0.0
 32
0.0
 13
1.0
 23
0.0
 33
0.0
 40
0.0
 40
0.0
 40
0.0
 40
0.0
 40
0.5881168241656048
 40
0.9999999999999999
 40
0.9999999999999999
 40
0.9999999999999999
 40
0.9999999999999999
 10
170.7455244988772
 20
54.30859715210355
 30
0.0
 10
170.9472988951446
 20
54.52618002435327
 30
0.0
 10
171.290384465862
 20
54.89614541780791
 30
0.0
 10
171.6056334872343
 20
55.28999959403987
 30
0.0
 10
171.7354792553357
 20
55.45222150296193
 30
0.0
  0
LINE
  5
45
330
1F
100
AcDbEntity
  8
0
  6
Continuous
 62
     7
370
    15
100
AcDbLine
 10
167.6694458953
 20
51.2932670868
 30
0.0
 11
168.9425471648
 21
52.4186351762
 31
0.0
  0
SPLINE
  5
46
330
1F
100
AcDbEntity
  8
0
  6
Continuous
 62
     7
370
    15
100
AcDbSpline
210
0.0
220
0.0
230
1.0
 70
     8
 71
     3
 72
     9
 73
     5
 74
     0
 42
0.00000001
 43
0.00000001
 12
1.0
 22
0.0
 32
0.0
 13
1.0
 23
0.0
 33
0.0
 40
0.0
 40
0.0
 40
0.0
 40
0.0
 40
0.6845046416788966
 40
1.0
 40
1.0
 40
1.0
 40
1.0
 10
173.0790263056383
 20
57.30719081414344
 30
0.0
 10
173.2539576304495
 20
57.55220787426234
 30
0.0
 10
173.5095166349614
 20
57.91015586350892
 30
0.0
 10
173.7403153507173
 20
58.28440315204288
 30
0.0
 10
173.8131312742447
 20
58.40247643443961
 30
0.0
  0
SPLINE
  5
47
330
1F
100
AcDbEntity
  8
0
  6
Continuous
 62
     7
370
    15
100
AcDbSpline
210
0.0
220
0.0
230
1.0
 70
     8
 71
     3
 72
     9
 73
     5
 74
     0
 42
0.00000001
 43
0.00000001
 12
1.0
 22
0.0
 32
0.0
 13
1.0
 23
0.0
 33
0.0
 40
0.0
 40
0.0
 40
0.0
 40
0.0
 40
0.085755138825129
 40
1.0
 40
1.0
 40
1.0
 40
1.0
 10
163.4394814254129
 20
48.32056980760492
 30
0.0
 10
163.4869033341088
 20
48.34567766612801
 30
0.0
 10
164.0398953687041
 20
48.63846313492995
 30
0.0
 10
164.5548549228892
 20
48.99609554614499
 30
0.0
 10
165.0256540490159
 20
49.32305914028792
 30
0.0
  0
SPLINE
  5
48
330
1F
100
AcDbEntity
  8
0
  6
Continuous
 62
     7
370
    15
100
AcDbSpline
210
0.0
220
0.0
230
1.0
 70
     8
 71
     3
 72
    14
 73
    10
 74
     0
 42
0.00000001
 43
0.00000001
 12
1.0
 22
0.0
 32
0.0
 13
1.0
 23
0.0
 33
0.0
 40
0.0
 40
0.0
 40
0.0
 40
0.0
 40
0.0981022636622896
 40
0.2506217277678209
 40
0.4029607669331269
 40
0.5550766418365624
 40
0.7069834534531226
 40
0.8587004694431695
 40
1.0
 40
1.0
 40
1.0
 40
1.0
 10
148.4467690515276
 20
44.29789897700816
 30
0.0
 10
148.9602182308608
 20
44.30570288686041
 30
0.0
 10
150.2719261939761
 20
44.32563952539962
 30
0.0
 10
152.3744877755709
 20
44.52459903393063
 30
0.0
 10
154.7336821114019
 20
44.92878374562392
 30
0.0
 10
157.0505022625744
 20
45.52089003145593
 30
0.0
 10
159.3073924327671
 20
46.29796560862761
 30
0.0
 10
161.4511234665922
 20
47.21690664365541
 30
0.0
 10
162.7925929932971
 20
47.96150622423752
 30
0.0
 10
163.4394814254129
 20
48.32056980760492
 30
0.0
  0
SPLINE
  5
49
330
1F
100
AcDbEntity
  8
0
  6
Continuous
 62
     7
370
    15
100
AcDbSpline
210
0.0
220
0.0
230
1.0
 70
     8
 71
     3
 72
     9
 73
     5
 74
     0
 42
0.00000001
 43
0.00000001
 12
1.0
 22
0.0
 32
0.0
 13
1.0
 23
0.0
 33
0.0
 40
0.0
 40
0.0
 40
0.0
 40
0.0
 40
0.0136146245164985
 40
1.0
 40
1.0
 40
1.0
 40
1.0
 10
174.8879145869491
 20
60.29861060970662
 30
0.0
 10
174.8906392895339
 20
60.3033791238505
 30
0.0
 10
175.0907698610006
 20
60.65362852941469
 30
0.0
 10
175.2588120813604
 20
61.02093897499575
 30
0.0
 10
175.4245664699869
 20
61.38324862677924
 30
0.0
  0
SPLINE
  5
4A
330
1F
100
AcDbEntity
  8
0
  6
Continuous
 62
     7
370
    15
100
AcDbSpline
210
0.0
220
0.0
230
1.0
 70
     8
 71
     3
 72
     9
 73
     5
 74
     0
 42
0.00000001
 43
0.00000001
 12
1.0
 22
0.0
 32
0.0
 13
1.0
 23
0.0
 33
0.0
 40
0.0
 40
0.0
 40
0.0
 40
0.0
 40
0.1366630785138192
 40
1.0
 40
1.0
 40
1.0
 40
1.0
 10
176.2387796977208
 20
63.30511818419954
 30
0.0
 10
176.2591875894015
 20
63.35245754077359
 30
0.0
 10
176.4085175467139
 20
63.69885217119511
 30
0.0
 10
176.5282112066813
 20
64.05691336865712
 30
0.0
 10
176.6315471625989
 20
64.36604082057762
 30
0.0
  0
LINE
  5
4B
330
1F
100
AcDbEntity
  8
0
  6
Continuous
 62
     7
370
    15
100
AcDbLine
 10
177.2164304645
 20
66.3094678886
 30
0.0
 11
177.4847417897
 21
67.3497099034
 31
0.0
  0
LINE
  5
4C
330
1F
100
AcDbEntity
  8
0
  6
Continuous
 62
     7
370
    15
100
AcDbLine
 10
178.1915387626
 20
72.3085915811
 30
0.0
 11
178.2420147509
 21
73.3219430656
 31
0.0
  0
SPLINE
  5
4D
330
1F
100
AcDbEntity
  8
0
  6
Continuous
 62
     7
370
    15
100
AcDbSpline
210
0.0
220
0.0
230
1.0
 70
     8
 71
     3
 72
     9
 73
     5
 74
     0
 42
0.00000001
 43
0.00000001
 12
1.0
 22
0.0
 32
0.0
 13
1.0
 23
0.0
 33
0.0
 40
0.0
 40
0.0
 40
0.0
 40
0.0
 40
0.652435538559158
 40
1.0
 40
1.0
 40
1.0
 40
1.0
 10
177.8504022223371
 20
69.31103408710426
 30
0.0
 10
177.8929469958203
 20
69.53296679659013
 30
0.0
 10
177.9581561559117
 20
69.87312715936865
 30
0.0
 10
178.0009251855915
 20
70.2167544603976
 30
0.0
 10
178.0157901803585
 20
70.3361870982161
 30
0.0
  0
SPLINE
  5
4E
330
1F
100
AcDbEntity
  8
0
  6
Continuous
 62
     7
370
    15
100
AcDbSpline
210
0.0
220
0.0
230
1.0
 70
     8
 71
     3
 72
    27
 73
    23
 74
     0
 42
0.00000001
 43
0.00000001
 12
1.0
 22
0.0
 32
0.0
 13
1.0
 23
0.0
 33
0.0
 40
0.0
 40
0.0
 40
0.0
 40
0.0
 40
0.0328878819043871
 40
0.0840186299255601
 40
0.1350888921444136
 40
0.1860843405963312
 40
0.2370097025035293
 40
0.2878714371719871
 40
0.3386775506000186
 40
0.3894373942837902
 40
0.440161435560653
 40
0.4908610046706765
 40
0.5415480238524311
 40
0.5922334159061354
 40
0.6429266812728445
 40
0.6936399216068905
 40
0.7443847691108393
 40
0.7951721035714128
 40
0.846011785538354
 40
0.8969124102142622
 40
0.947881088041216
 40
1.0
 40
1.0
 40
1.0
 40
1.0
 10
23.0594985707793
 20
74.10326035183958
 30
0.0
 10
23.06730055891143
 20
73.58981007002588
 30
0.0
 10
23.08723228803466
 20
72.2780992904051
 30
0.0
 10
23.28624440012514
 20
70.17556788718976
 30
0.0
 10
23.69021450363113
 20
67.81625043179467
 30
0.0
 10
24.28311791738699
 20
65.49988758862952
 30
0.0
 10
25.05722520535855
 20
63.24129452687038
 30
0.0
 10
26.00839695929591
 20
61.0545128038497
 30
0.0
 10
27.13017957358829
 20
58.95310343629937
 30
0.0
 10
28.41543381384873
 20
56.9500454329865
 30
0.0
 10
29.85596574083275
 20
55.0576759031611
 30
0.0
 10
31.44269544908054
 20
53.28762606041978
 30
0.0
 10
33.16566986663377
 20
51.65077787869332
 30
0.0
 10
35.01410682718925
 20
50.15722131247369
 30
0.0
 10
36.97648088006564
 20
48.81615362580418
 30
0.0
 10
39.04061136570114
 20
47.63586150084819
 30
0.0
 10
41.19375668098926
 20
46.62353631751262
 30
0.0
 10
43.42264664422275
 20
45.7857988109087
 30
0.0
 10
45.71354808661307
 20
45.12666855219777
 30
0.0
 10
48.05233950993307
 20
44.65499432685613
 30
0.0
 10
50.44126581442196
 20
44.35442296037545
 30
0.0
 10
52.05100815636577
 20
44.31687993772543
 30
0.0
 10
52.86485994561097
 20
44.29789897700815
 30
0.0
  0
SPLINE
  5
4F
330
1F
100
AcDbEntity
  8
0
  6
Continuous
 62
     7
370
    15
100
AcDbSpline
210
0.0
220
0.0
230
1.0
 70
     8
 71
     3
 72
    27
 73
    23
 74
     0
 42
0.00000001
 43
0.00000001
 12
1.0
 22
0.0
 32
0.0
 13
1.0
 23
0.0
 33
0.0
 40
0.0
 40
0.0
 40
0.0
 40
0.0
 40
0.0328878819043872
 40
0.0840186299255517
 40
0.1350888921444091
 40
0.1860843405963247
 40
0.2370097025035258
 40
0.2878714371719848
 40
0.3386775506000156
 40
0.3894373942837883
 40
0.4401614355606474
 40
0.4908610046706715
 40
0.5415480238524234
 40
0.5922334159061292
 40
0.6429266812728389
 40
0.6936399216068879
 40
0.7443847691108326
 40
0.7951721035714077
 40
0.8460117855383514
 40
0.8969124102142525
 40
0.9478810880412093
 40
1.0
 40
1.0
 40
1.0
 40
1.0
 10
178.2521304263591
 20
144.6851694577565
 30
0.0
 10
178.2443284382269
 20
145.1986197395702
 30
0.0
 10
178.2243967091037
 20
146.5103305191908
 30
0.0
 10
178.0253845970132
 20
148.6128619224061
 30
0.0
 10
177.6214144935073
 20
150.9721793778011
 30
0.0
 10
177.0285110797515
 20
153.2885422209663
 30
0.0
 10
176.2544037917799
 20
155.5471352827255
 30
0.0
 10
175.3032320378425
 20
157.7339170057462
 30
0.0
 10
174.1814494235501
 20
159.8353263732966
 30
0.0
 10
172.8961951832897
 20
161.8383843766095
 30
0.0
 10
171.4556632563057
 20
163.7307539064348
 30
0.0
 10
169.8689335480581
 20
165.5008037491761
 30
0.0
 10
168.1459591305048
 20
167.1376519309026
 30
0.0
 10
166.2975221699494
 20
168.6312084971221
 30
0.0
 10
164.3351481170729
 20
169.9722761837918
 30
0.0
 10
162.2710176314375
 20
171.1525683087478
 30
0.0
 10
160.1178723161493
 20
172.1648934920834
 30
0.0
 10
157.8889823529159
 20
173.0026309986874
 30
0.0
 10
155.5980809105256
 20
173.6617612573982
 30
0.0
 10
153.2592894872056
 20
174.1334354827399
 30
0.0
 10
150.8703631827166
 20
174.4340068492206
 30
0.0
 10
149.2606208407727
 20
174.4715498718706
 30
0.0
 10
148.4467690515274
 20
174.4905308325879
 30
0.0
  0
SPLINE
  5
50
330
1F
100
AcDbEntity
  8
0
  6
Continuous
 62
     7
370
    15
100
AcDbSpline
210
0.0
220
0.0
230
1.0
 70
     8
 71
     3
 72
    27
 73
    23
 74
     0
 42
0.00000001
 43
0.00000001
 12
1.0
 22
0.0
 32
0.0
 13
1.0
 23
0.0
 33
0.0
 40
0.0
 40
0.0
 40
0.0
 40
0.0
 40
0.0328878819043871
 40
0.0840186299255508
 40
0.1350888921444089
 40
0.1860843405963214
 40
0.2370097025035234
 40
0.2878714371719834
 40
0.3386775506000154
 40
0.3894373942837888
 40
0.4401614355606526
 40
0.4908610046706766
 40
0.5415480238524295
 40
0.59223341590613
 40
0.6429266812728365
 40
0.6936399216068844
 40
0.7443847691108336
 40
0.7951721035714051
 40
0.8460117855383478
 40
0.8969124102142552
 40
0.947881088041212
 40
0.9999999999999999
 40
0.9999999999999999
 40
0.9999999999999999
 40
0.9999999999999999
 10
52.86485994561072
 20
174.4905308325879
 30
0.0
 10
52.35140966379702
 20
174.4827288444558
 30
0.0
 10
51.03969888417638
 20
174.4627971153326
 30
0.0
 10
48.93716748096112
 20
174.2637850032421
 30
0.0
 10
46.57785002556617
 20
173.8598148997362
 30
0.0
 10
44.26148718240096
 20
173.2669114859803
 30
0.0
 10
42.0028941206418
 20
172.4928041980087
 30
0.0
 10
39.81611239762101
 20
171.5416324440714
 30
0.0
 10
37.71470303007063
 20
170.419849829779
 30
0.0
 10
35.71164502675769
 20
169.1345955895185
 30
0.0
 10
33.81927549693226
 20
167.6940636625345
 30
0.0
 10
32.04922565419091
 20
166.1073339542867
 30
0.0
 10
30.41237747246453
 20
164.3843595367335
 30
0.0
 10
28.91882090624495
 20
162.5359225761782
 30
0.0
 10
27.57775321957548
 20
160.5735485233018
 30
0.0
 10
26.39746109461943
 20
158.5094180376664
 30
0.0
 10
25.38513591128389
 20
156.3562727223782
 30
0.0
 10
24.54739840467994
 20
154.1273827591447
 30
0.0
 10
23.88826814596898
 20
151.8364813167545
 30
0.0
 10
23.41659392062731
 20
149.4976898934344
 30
0.0
 10
23.11602255414662
 20
147.1087635889454
 30
0.0
 10
23.07847953149658
 20
145.4990212470015
 30
0.0
 10
23.0594985707793
 20
144.6851694577562
 30
0.0
  0
LINE
  5
51
330
1F
100
AcDbEntity
  8
0
  6
Continuous
 62
     7
370
    15
100
AcDbLine
 10
178.2521304264
 20
81.3090427569
 30
0.0
 11
178.2521304264
 21
82.3090427569
 31
0.0
  0
LINE
  5
52
330
1F
100
AcDbEntity
  8
0
  6
Continuous
 62
     7
370
    15
100
AcDbLine
 10
178.2521304264
 20
84.3090427569
 30
0.0
 11
178.2521304264
 21
85.3090427569
 31
0.0
  0
LINE
  5
53
330
1F
100
AcDbEntity
  8
0
  6
Continuous
 62
     7
370
    15
100
AcDbLine
 10
178.2521304264
 20
78.3090427569
 30
0.0
 11
178.2521304264
 21
79.3090427569
 31
0.0
  0
LINE
  5
54
330
1F
100
AcDbEntity
  8
0
  6
Continuous
 62
     7
370
    15
100
AcDbLine
 10
178.2521304264
 20
90.3090427569
 30
0.0
 11
178.2521304264
 21
144.6851694578
 31
0.0
  0
LINE
  5
55
330
1F
100
AcDbEntity
  8
0
  6
Continuous
 62
     7
370
    15
100
AcDbLine
 10
178.2521304264
 20
87.3090427569
 30
0.0
 11
178.2521304264
 21
88.3090427569
 31
0.0
  0
LINE
  5
56
330
1F
100
AcDbEntity
  8
0
  6
Continuous
 62
     7
370
    15
100
AcDbLine
 10
52.8648599456
 20
44.297898977
 30
0.0
 11
148.4467690515
 21
44.297898977
 31
0.0
  0
LINE
  5
57
330
1F
100
AcDbEntity
  8
0
  6
Continuous
 62
     7
370
    15
100
AcDbLine
 10
178.2521304264
 20
75.3090427569
 30
0.0
 11
178.2521304264
 21
76.3090427569
 31
0.0
  0
LINE
  5
58
330
1F
100
AcDbEntity
  8
0
  6
Continuous
 62
     7
370
    15
100
AcDbLine
 10
23.0594985708
 20
144.6851694578
 30
0.0
 11
23.0594985708
 21
74.1032603518
 31
0.0
  0
LINE
  5
59
330
1F
100
AcDbEntity
  8
0
  6
Continuous
 62
     7
370
    15
100
AcDbLine
 10
148.4467690515
 20
174.4905308326
 30
0.0
 11
52.8648599456
 21
174.4905308326
 31
0.0
  0
LINE
  5
5A
330
1F
100
AcDbEntity
  8
0
  6
Continuous
 62
     7
370
    15
100
AcDbLine
 10
57.8692757918
 20
49.3996341358
 30
0.0
 11
143.4423532053
 21
49.3996341358
 31
0.0
  0
LINE
  5
5B
330
1F
100
AcDbEntity
  8
0
  6
Continuous
 62
     7
370
    15
100
AcDbLine
 10
148.4467690515
 20
44.3952182896
 30
0.0
 11
143.4423532053
 21
49.3996341358
 31
0.0
  0
LINE
  5
5C
330
1F
100
AcDbEntity
  8
0
  6
Continuous
 62
     7
370
    15
100
AcDbLine
 10
52.8648599456
 20
44.3952182896
 30
0.0
 11
148.4467690515
 21
44.3952182896
 31
0.0
  0
LINE
  5
5D
330
1F
100
AcDbEntity
  8
0
  6
Continuous
 62
     7
370
    15
100
AcDbLine
 10
57.8692757918
 20
49.3996341358
 30
0.0
 11
52.8648599456
 21
44.3952182896
 31
0.0
  0
LINE
  5
5E
330
1F
100
AcDbEntity
  8
0
  6
Continuous
 62
     7
370
    15
100
AcDbLine
 10
28.1612337296
 20
139.6807536115
 30
0.0
 11
28.1612337296
 21
79.1076761981
 31
0.0
  0
LINE
  5
5F
330
1F
100
AcDbEntity
  8
0
  6
Continuous
 62
     7
370
    15
100
AcDbLine
 10
23.1568178834
 20
74.1032603518
 30
0.0
 11
28.1612337296
 21
79.1076761981
 31
0.0
  0
LINE
  5
60
330
1F
100
AcDbEntity
  8
0
  6
Continuous
 62
     7
370
    15
100
AcDbLine
 10
23.1568178834
 20
144.6851694578
 30
0.0
 11
23.1568178834
 21
74.1032603518
 31
0.0
  0
LINE
  5
61
330
1F
100
AcDbEntity
  8
0
  6
Continuous
 62
     7
370
    15
100
AcDbLine
 10
28.1612337296
 20
139.6807536115
 30
0.0
 11
23.1568178834
 21
144.6851694578
 31
0.0
  0
ELLIPSE
  5
62
330
1F
100
AcDbEntity
  8
0
  6
Continuous
 62
     7
370
    15
100
AcDbEllipse
 10
148.055578976
 20
74.4944504274
 30
0.0
 11
21.35417005729582
 21
-21.35417005729583
 31
0.0
210
0.0
220
0.0
230
1.0
 40
0.9933986373
 41
0.7160405378062688
 42
0.7493170564419167
  0
LINE
  5
63
330
1F
100
AcDbEntity
  8
0
  6
Continuous
 62
     7
370
    15
100
AcDbLine
 10
177.1883067734
 20
72.3090427569
 30
0.0
 11
178.0897974128
 21
72.3090427569
 31
0.0
  0
SPLINE
  5
64
330
1F
100
AcDbEntity
  8
0
  6
Continuous
 62
     7
370
    15
100
AcDbSpline
210
0.0
220
0.0
230
1.0
 70
     8
 71
     3
 72
     9
 73
     5
 74
     0
 42
0.00000001
 43
0.00000001
 12
1.0
 22
0.0
 32
0.0
 13
1.0
 23
0.0
 33
0.0
 40
0.0
 40
0.0
 40
0.0
 40
0.0
 40
0.5
 40
1.0
 40
1.0
 40
1.0
 40
1.0
 10
176.8948107854013
 20
70.30904275688569
 30
0.0
 10
176.9537662789618
 20
70.64410336973384
 30
0.0
 10
177.0615227197096
 20
71.31250733574926
 30
0.0
 10
177.1493242477212
 20
71.9774481756928
 30
0.0
 10
177.1883067734034
 20
72.30904275688569
 30
0.0
  0
LINE
  5
65
330
1F
100
AcDbEntity
  8
0
  6
Continuous
 62
     7
370
    15
100
AcDbLine
 10
176.8948107854
 20
70.3090427569
 30
0.0
 11
177.8900767657
 21
70.3090427569
 31
0.0
  0
ELLIPSE
  5
66
330
1F
100
AcDbEntity
  8
0
  6
Continuous
 62
     7
370
    15
100
AcDbEllipse
 10
148.055578976
 20
74.4944504274
 30
0.0
 11
21.35417005729582
 21
-21.35417005729583
 31
0.0
210
0.0
220
0.0
230
1.0
 40
0.9933986373
 41
0.6155724740823322
 42
0.6492069130691197
  0
LINE
  5
67
330
1F
100
AcDbEntity
  8
0
  6
Continuous
 62
     7
370
    15
100
AcDbLine
 10
176.7041970007
 20
69.3090427569
 30
0.0
 11
177.739097457
 21
69.3090427569
 31
0.0
  0
SPLINE
  5
68
330
1F
100
AcDbEntity
  8
0
  6
Continuous
 62
     7
370
    15
100
AcDbSpline
210
0.0
220
0.0
230
1.0
 70
     8
 71
     3
 72
    10
 73
     6
 74
     0
 42
0.00000001
 43
0.00000001
 12
1.0
 22
0.0
 32
0.0
 13
1.0
 23
0.0
 33
0.0
 40
0.0
 40
0.0
 40
0.0
 40
0.0
 40
0.5
 40
0.5
 40
1.0
 40
1.0
 40
1.0
 40
1.0
 10
176.2342606616154
 20
67.30904275688566
 30
0.0
 10
176.3215496465175
 20
67.63858876098968
 30
0.0
 10
176.4044343067784
 20
67.9700692922261
 30
0.0
 10
176.5612099846363
 20
68.63699874111437
 30
0.0
 10
176.6352895398376
 20
68.97340857099205
 30
0.0
 10
176.7041970006739
 20
69.30904275688566
 30
0.0
  0
LINE
  5
69
330
1F
100
AcDbEntity
  8
0
  6
Continuous
 62
     7
370
    15
100
AcDbLine
 10
176.2342606616
 20
67.3090427569
 30
0.0
 11
177.332144667
 21
67.3090427569
 31
0.0
  0
ELLIPSE
  5
6A
330
1F
100
AcDbEntity
  8
0
  6
Continuous
 62
     7
370
    15
100
AcDbEllipse
 10
148.055578976
 20
74.4944504274
 30
0.0
 11
21.35417005729582
 21
-21.35417005729583
 31
0.0
210
0.0
220
0.0
230
1.0
 40
0.9933986373
 41
0.5132993895168335
 42
0.5476631574571771
  0
LINE
  5
6B
330
1F
100
AcDbEntity
  8
0
  6
Continuous
 62
     7
370
    15
100
AcDbLine
 10
175.9541997869
 20
66.3090427569
 30
0.0
 11
177.0746480537
 21
66.3090427569
 31
0.0
  0
SPLINE
  5
6C
330
1F
100
AcDbEntity
  8
0
  6
Continuous
 62
     7
370
    15
100
AcDbSpline
210
0.0
220
0.0
230
1.0
 70
     8
 71
     3
 72
     9
 73
     5
 74
     0
 42
0.00000001
 43
0.00000001
 12
1.0
 22
0.0
 32
0.0
 13
1.0
 23
0.0
 33
0.0
 40
0.0
 40
0.0
 40
0.0
 40
0.0
 40
0.5
 40
1.0
 40
1.0
 40
1.0
 40
1.0
 10
175.3010907585072
 20
64.30904275688567
 30
0.0
 10
175.4190952118614
 20
64.63840042524238
 30
0.0
 10
175.6460071897686
 20
65.30105401531546
 30
0.0
 10
175.8545672495588
 20
65.97169196995344
 30
0.0
 10
175.9541997869304
 20
66.30904275688565
 30
0.0
  0
LINE
  5
6D
330
1F
100
AcDbEntity
  8
0
  6
Continuous
 62
     7
370
    15
100
AcDbLine
 10
175.3010907585
 20
64.3090427569
 30
0.0
 11
176.4465774002
 21
64.3090427569
 31
0.0
  0
ELLIPSE
  5
6E
330
1F
100
AcDbEntity
  8
0
  6
Continuous
 62
     7
370
    15
100
AcDbEllipse
 10
148.055578976
 20
74.4944504274
 30
0.0
 11
21.35417005729582
 21
-21.35417005729583
 31
0.0
210
0.0
220
0.0
230
1.0
 40
0.9933986373
 41
0.4079669834179248
 42
0.4435070951304755
  0
LINE
  5
6F
330
1F
100
AcDbEntity
  8
0
  6
Continuous
 62
     7
370
    15
100
AcDbLine
 10
174.9264903336
 20
63.3090427569
 30
0.0
 11
176.0734083214
 21
63.3090427569
 31
0.0
  0
SPLINE
  5
70
330
1F
100
AcDbEntity
  8
0
  6
Continuous
 62
     7
370
    15
100
AcDbSpline
210
0.0
220
0.0
230
1.0
 70
     8
 71
     3
 72
    10
 73
     6
 74
     0
 42
0.00000001
 43
0.00000001
 12
1.0
 22
0.0
 32
0.0
 13
1.0
 23
0.0
 33
0.0
 40
0.0
 40
0.0
 40
0.0
 40
0.0
 40
0.5000000000000011
 40
0.5000000000000011
 40
1.0
 40
1.0
 40
1.0
 40
1.0
 10
174.0760278512855
 20
61.30904275688567
 30
0.0
 10
174.2267035696575
 20
61.63640619164691
 30
0.0
 10
174.3737651398211
 20
61.96857868674298
 30
0.0
 10
174.6574443727439
 20
62.63567106394279
 30
0.0
 10
174.7944066029916
 20
62.97130636791464
 30
0.0
 10
174.9264903335712
 20
63.30904275688565
 30
0.0
  0
LINE
  5
71
330
1F
100
AcDbEntity
  8
0
  6
Continuous
 62
     7
370
    15
100
AcDbLine
 10
174.0760278513
 20
61.3090427569
 30
0.0
 11
175.2005036607
 21
61.3090427569
 31
0.0
  0
ELLIPSE
  5
72
330
1F
100
AcDbEntity
  8
0
  6
Continuous
 62
     7
370
    15
100
AcDbEllipse
 10
148.055578976
 20
74.4944504274
 30
0.0
 11
21.35417005729582
 21
-21.35417005729583
 31
0.0
210
0.0
220
0.0
230
1.0
 40
0.9933986373
 41
0.2979700273054552
 42
0.3352751071172673
  0
LINE
  5
73
330
1F
100
AcDbEntity
  8
0
  6
Continuous
 62
     7
370
    15
100
AcDbLine
 10
173.597475089
 20
60.3090427569
 30
0.0
 11
174.6965435693
 21
60.3090427569
 31
0.0
  0
SPLINE
  5
74
330
1F
100
AcDbEntity
  8
0
  6
Continuous
 62
     7
370
    15
100
AcDbSpline
210
0.0
220
0.0
230
1.0
 70
     8
 71
     3
 72
     9
 73
     5
 74
     0
 42
0.00000001
 43
0.00000001
 12
1.0
 22
0.0
 32
0.0
 13
1.0
 23
0.0
 33
0.0
 40
0.0
 40
0.0
 40
0.0
 40
0.0
 40
0.5
 40
1.0
 40
1.0
 40
1.0
 40
1.0
 10
172.5249942382808
 20
58.30904275688568
 30
0.0
 10
172.7119566390586
 20
58.63314736092751
 30
0.0
 10
173.0777668506495
 20
59.29036138704352
 30
0.0
 10
173.4270597574045
 20
59.96623991305219
 30
0.0
 10
173.5974750890109
 20
60.30904275688569
 30
0.0
  0
LINE
  5
75
330
1F
100
AcDbEntity
  8
0
  6
Continuous
 62
     7
370
    15
100
AcDbLine
 10
172.5249942383
 20
58.3090427569
 30
0.0
 11
173.5400291236
 21
58.3090427569
 31
0.0
  0
ELLIPSE
  5
76
330
1F
100
AcDbEntity
  8
0
  6
Continuous
 62
     7
370
    15
100
AcDbEllipse
 10
148.055578976
 20
74.4944504274
 30
0.0
 11
21.35417005729582
 21
-21.35417005729583
 31
0.0
210
0.0
220
0.0
230
1.0
 40
0.9933986373
 41
0.1810511909580733
 42
0.220974501806048
  0
LINE
  5
77
330
1F
100
AcDbEntity
  8
0
  6
Continuous
 62
     7
370
    15
100
AcDbLine
 10
171.9265393052
 20
57.3090427569
 30
0.0
 11
172.8804416781
 21
57.3090427569
 31
0.0
  0
SPLINE
  5
78
330
1F
100
AcDbEntity
  8
0
  6
Continuous
 62
     7
370
    15
100
AcDbSpline
210
0.0
220
0.0
230
1.0
 70
     8
 71
     3
 72
     8
 73
     4
 74
     0
 42
0.00000001
 43
0.00000001
 12
1.0
 22
0.0
 32
0.0
 13
1.0
 23
0.0
 33
0.0
 40
0.0
 40
0.0
 40
0.0
 40
0.0
 40
1.0
 40
1.0
 40
1.0
 40
1.0
 10
170.5902858736142
 20
55.30904275688568
 30
0.0
 10
171.053518016427
 20
55.9539041382896
 30
0.0
 10
171.4990141107448
 20
56.620088728067
 30
0.0
 10
171.9265393052162
 20
57.30904275688567
 30
0.0
  0
LINE
  5
79
330
1F
100
AcDbEntity
  8
0
  6
Continuous
 62
     7
370
    15
100
AcDbLine
 10
170.5902858736
 20
55.3090427569
 30
0.0
 11
171.3752558887
 21
55.3090427569
 31
0.0
  0
ELLIPSE
  5
7A
330
1F
100
AcDbEntity
  8
0
  6
Continuous
 62
     7
370
    15
100
AcDbEllipse
 10
148.055578976
 20
74.4944504274
 30
0.0
 11
21.35417005729582
 21
-21.35417005729583
 31
0.0
210
0.0
220
0.0
230
1.0
 40
0.9933986373
 41
0.0536721777413007
 42
0.0976005417036693
  0
LINE
  5
7B
330
1F
100
AcDbEntity
  8
0
  6
Continuous
 62
     7
370
    15
100
AcDbLine
 10
169.8445262712
 20
54.3090427569
 30
0.0
 11
170.5170111713
 21
54.3090427569
 31
0.0
  0
SPLINE
  5
7C
330
1F
100
AcDbEntity
  8
0
  6
Continuous
 62
     7
370
    15
100
AcDbSpline
210
0.0
220
0.0
230
1.0
 70
     8
 71
     3
 72
     8
 73
     4
 74
     0
 42
0.00000001
 43
0.00000001
 12
1.0
 22
0.0
 32
0.0
 13
1.0
 23
0.0
 33
0.0
 40
0.0
 40
0.0
 40
0.0
 40
0.0
 40
1.0
 40
1.0
 40
1.0
 40
1.0
 10
168.1701939456977
 20
52.30904275688573
 30
0.0
 10
168.7479845637656
 20
52.94718711501227
 30
0.0
 10
169.3059233533713
 20
53.6132410953734
 30
0.0
 10
169.844526271192
 20
54.3090427568857
 30
0.0
  0
LINE
  5
7D
330
1F
100
AcDbEntity
  8
0
  6
Continuous
 62
     7
370
    15
100
AcDbLine
 10
168.1701939457
 20
52.3090427569
 30
0.0
 11
168.5443478936
 21
52.3090427569
 31
0.0
  0
ELLIPSE
  5
7E
330
1F
100
AcDbEntity
  8
0
  6
Continuous
 62
     7
370
    15
100
AcDbEllipse
 10
148.055578976
 20
74.4944504274
 30
0.0
 11
21.35417005729582
 21
-21.35417005729583
 31
0.0
210
0.0
220
0.0
230
1.0
 40
0.9933986373
 41
6.192609740060515
 42
6.243184481793888
  0
LINE
  5
7F
330
1F
100
AcDbEntity
  8
0
  6
Continuous
 62
     7
370
    15
100
AcDbLine
 10
167.2259162034
 20
51.3090427569
 30
0.0
 11
167.4034429686
 21
51.3090427569
 31
0.0
  0
SPLINE
  5
80
330
1F
100
AcDbEntity
  8
0
  6
Continuous
 62
     7
370
    15
100
AcDbSpline
210
0.0
220
0.0
230
1.0
 70
     8
 71
     3
 72
     8
 73
     4
 74
     0
 42
0.00000001
 43
0.00000001
 12
1.0
 22
0.0
 32
0.0
 13
1.0
 23
0.0
 33
0.0
 40
0.0
 40
0.0
 40
0.0
 40
0.0
 40
1.0
 40
1.0
 40
1.0
 40
1.0
 10
166.4509536885579
 20
50.54855436021517
 30
0.0
 10
166.7125265369559
 20
50.79661603293671
 30
0.0
 10
166.9708120522071
 20
51.05007000187727
 30
0.0
 10
167.2259162034063
 20
51.30904275688572
 30
0.0
  0
ELLIPSE
  5
81
330
1F
100
AcDbEntity
  8
0
  6
Continuous
 62
     7
370
    15
100
AcDbEllipse
 10
148.055578976
 20
74.4944504274
 30
0.0
 11
21.35417005729582
 21
-21.35417005729583
 31
0.0
210
0.0
220
0.0
230
1.0
 40
0.9933986373
 41
5.507472325450622
 42
6.151982160439538
  0
ELLIPSE
  5
82
330
1F
100
AcDbEntity
  8
0
  6
Continuous
 62
     7
370
    15
100
AcDbEllipse
 10
142.855568092
 20
79.6944613114
 30
0.0
 11
21.6281426293836
 21
-21.62814262938361
 31
0.0
210
0.0
220
0.0
230
1.0
 40
0.9808148485
 41
5.507472325450621
 42
7.058898288908566
  0
LINE
  5
83
330
1F
100
AcDbEntity
  8
0
  6
Continuous
 62
     7
370
    15
100
AcDbLine
 10
173.1503952676
 20
79.1076761981
 30
0.0
 11
177.3929777364
 21
74.8650937292
 31
0.0
  0
SPLINE
  5
84
330
1F
100
AcDbEntity
  8
0
  6
Continuous
 62
     7
370
    15
100
AcDbSpline
210
0.0
220
0.0
230
1.0
 70
     8
 71
     3
 72
     8
 73
     4
 74
     0
 42
0.00000001
 43
0.00000001
 12
1.0
 22
0.0
 32
0.0
 13
1.0
 23
0.0
 33
0.0
 40
0.0
 40
0.0
 40
0.0
 40
0.0
 40
1.0
 40
1.0
 40
1.0
 40
1.0
 10
177.2912476695985
 20
73.30904275688569
 30
0.0
 10
177.337303215909
 20
73.83063206926944
 30
0.0
 10
177.3711668106174
 20
74.34998887139784
 30
0.0
 10
177.3929777364007
 20
74.86509372921368
 30
0.0
  0
LINE
  5
85
330
1F
100
AcDbEntity
  8
0
  6
Continuous
 62
     7
370
    15
100
AcDbLine
 10
177.2912476696
 20
73.3090427569
 30
0.0
 11
178.139262707
 21
73.3090427569
 31
0.0
  0
ARC
  5
86
330
1F
100
AcDbEntity
  8
0
  6
Continuous
 62
     7
370
    15
100
AcDbCircle
 10
346.3553083431
 20
67.8194529058
 30
0.0
 40
169.108691002444
100
AcDbArc
 50
176.4437351179
 51
177.1224292958
  0
LINE
  5
87
330
1F
100
AcDbEntity
  8
0
  6
Continuous
 62
     7
370
    15
100
AcDbLine
 10
177.459848852
 20
76.3090427569
 30
0.0
 11
178.1548111138
 21
76.3090427569
 31
0.0
  0
LINE
  5
88
330
1F
100
AcDbEntity
  8
0
  6
Continuous
 62
     7
370
    15
100
AcDbLine
 10
178.1548111138
 20
75.3090427569
 30
0.0
 11
178.1548111138
 21
76.3090427569
 31
0.0
  0
LINE
  5
89
330
1F
100
AcDbEntity
  8
0
  6
Continuous
 62
     7
370
    15
100
AcDbLine
 10
177.412311171
 20
75.3090427569
 30
0.0
 11
178.1548111138
 21
75.3090427569
 31
0.0
  0
ARC
  5
8A
330
1F
100
AcDbEntity
  8
0
  6
Continuous
 62
     7
370
    15
100
AcDbCircle
 10
361.3445956647
 20
67.0766223013
 30
0.0
 40
184.1164251923454
100
AcDbArc
 50
177.4372723232
 51
177.5755572174
  0
LINE
  5
8B
330
1F
100
AcDbEntity
  8
0
  6
Continuous
 62
     7
370
    15
100
AcDbLine
 10
173.1503952676
 20
79.1076761981
 30
0.0
 11
173.1503952676
 21
139.6807536115
 31
0.0
  0
LINE
  5
8C
330
1F
100
AcDbEntity
  8
0
  6
Continuous
 62
     7
370
    15
100
AcDbLine
 10
178.1548111138
 20
144.6851694578
 30
0.0
 11
173.1503952676
 21
139.6807536115
 31
0.0
  0
LINE
  5
8D
330
1F
100
AcDbEntity
  8
0
  6
Continuous
 62
     7
370
    15
100
AcDbLine
 10
178.1548111138
 20
87.1466545042
 30
0.0
 11
178.1548111138
 21
144.6851694578
 31
0.0
  0
LWPOLYLINE
  5
8E
330
1F
100
AcDbEntity
  8
0
  6
Continuous
 62
     7
370
    15
100
AcDbPolyline
 90
        9
 70
   128
 43
0.0
 10
178.0408399422
 20
85.3090427569
 10
178.055287654
 20
85.5380964751
 10
178.06967794
 20
85.7673367529
 10
178.0840107535
 20
85.996762847
 10
178.0982860481
 20
86.2263740135
 10
178.1125037774
 20
86.4561695078
 10
178.1266638954
 20
86.686148585
 10
178.1407663561
 20
86.9163104992
 10
178.1548111138
 20
87.1466545042
  0
LINE
  5
8F
330
1F
100
AcDbEntity
  8
0
  6
Continuous
 62
     7
370
    15
100
AcDbLine
 10
178.0408399422
 20
85.3090427569
 30
0.0
 11
178.1548111138
 21
85.3090427569
 31
0.0
  0
LINE
  5
90
330
1F
100
AcDbEntity
  8
0
  6
Continuous
 62
     7
370
    15
100
AcDbLine
 10
178.1548111138
 20
84.3090427569
 30
0.0
 11
178.1548111138
 21
85.3090427569
 31
0.0
  0
LINE
  5
91
330
1F
100
AcDbEntity
  8
0
  6
Continuous
 62
     7
370
    15
100
AcDbLine
 10
177.9769505868
 20
84.3090427569
 30
0.0
 11
178.1548111138
 21
84.3090427569
 31
0.0
  0
LWPOLYLINE
  5
92
330
1F
100
AcDbEntity
  8
0
  6
Continuous
 62
     7
370
    15
100
AcDbPolyline
 90
        9
 70
   128
 43
0.0
 10
177.9769505868
 20
84.3090427569
 10
177.9607172182
 20
84.0582255749
 10
177.9444147433
 20
83.8076399096
 10
177.928043226
 20
83.5572867443
 10
177.9116027305
 20
83.3071670608
 10
177.8950933214
 20
83.0572818406
 10
177.8785150633
 20
82.8076320637
 10
177.8618680215
 20
82.5582187097
 10
177.845152261
 20
82.3090427569
  0
LINE
  5
93
330
1F
100
AcDbEntity
  8
0
  6
Continuous
 62
     7
370
    15
100
AcDbLine
 10
177.845152261
 20
82.3090427569
 30
0.0
 11
178.1548111138
 21
82.3090427569
 31
0.0
  0
LINE
  5
94
330
1F
100
AcDbEntity
  8
0
  6
Continuous
 62
     7
370
    15
100
AcDbLine
 10
178.1548111138
 20
81.3090427569
 30
0.0
 11
178.1548111138
 21
82.3090427569
 31
0.0
  0
LINE
  5
95
330
1F
100
AcDbEntity
  8
0
  6
Continuous
 62
     7
370
    15
100
AcDbLine
 10
177.7772129004
 20
81.3090427569
 30
0.0
 11
178.1548111138
 21
81.3090427569
 31
0.0
  0
LWPOLYLINE
  5
96
330
1F
100
AcDbEntity
  8
0
  6
Continuous
 62
     7
370
    15
100
AcDbPolyline
 90
        9
 70
   128
 43
0.0
 10
177.7772129004
 20
81.3090427569
 10
177.7629706702
 20
81.1019446288
 10
177.7486807856
 20
80.8950160511
 10
177.7343432856
 20
80.6882575898
 10
177.7199582095
 20
80.4816698106
 10
177.7055255966
 20
80.2752532786
 10
177.6910454864
 20
80.0690085587
 10
177.6765179185
 20
79.8629362151
 10
177.6619429327
 20
79.6570368116
  0
ARC
  5
97
330
1F
100
AcDbEntity
  8
0
  6
Continuous
 62
     7
370
    15
100
AcDbCircle
 10
329.2677237105
 20
68.9039258344
 30
0.0
 40
151.9866512590275
100
AcDbArc
 50
175.9429132
 51
176.0744186428
  0
LINE
  5
98
330
1F
100
AcDbEntity
  8
0
  6
Continuous
 62
     7
370
    15
100
AcDbLine
 10
177.6376617084
 20
79.3090427569
 30
0.0
 11
178.1548111138
 21
79.3090427569
 31
0.0
  0
LINE
  5
99
330
1F
100
AcDbEntity
  8
0
  6
Continuous
 62
     7
370
    15
100
AcDbLine
 10
178.1548111138
 20
78.3090427569
 30
0.0
 11
178.1548111138
 21
79.3090427569
 31
0.0
  0
LINE
  5
9A
330
1F
100
AcDbEntity
  8
0
  6
Continuous
 62
     7
370
    15
100
AcDbLine
 10
177.5722586097
 20
78.3090427569
 30
0.0
 11
178.1548111138
 21
78.3090427569
 31
0.0
  0
ELLIPSE
  5
9B
330
1F
100
AcDbEntity
  8
0
  6
Continuous
 62
     7
370
    15
100
AcDbEllipse
 10
58.4560609051
 20
79.6944613114
 30
0.0
 11
-21.6281426293836
 21
-21.6281426293836
 31
0.0
210
0.0
220
0.0
230
1.0
 40
0.9808148485
 41
5.50747232545062
 42
7.058898288908566
  0
ELLIPSE
  5
9C
330
1F
100
AcDbEntity
  8
0
  6
Continuous
 62
     7
370
    15
100
AcDbEllipse
 10
58.4560609051
 20
139.0939684982
 30
0.0
 11
-21.6281426293836
 21
21.62814262938363
 31
0.0
210
0.0
220
0.0
230
1.0
 40
0.9808148485
 41
5.507472325450621
 42
7.058898288908567
  0
LINE
  5
9D
330
1F
100
AcDbEntity
  8
0
  6
Continuous
 62
     7
370
    15
100
AcDbLine
 10
143.4423532053
 20
169.3887956738
 30
0.0
 11
57.8692757918
 21
169.3887956738
 31
0.0
  0
ELLIPSE
  5
9E
330
1F
100
AcDbEntity
  8
0
  6
Continuous
 62
     7
370
    15
100
AcDbEllipse
 10
142.855568092
 20
139.0939684982
 30
0.0
 11
21.62814262938357
 21
21.6281426293836
 31
0.0
210
0.0
220
0.0
230
1.0
 40
0.9808148485
 41
5.507472325450621
 42
7.058898288908566
  0
ARC
  5
9F
330
1F
100
AcDbEntity
  8
0
  6
Continuous
 62
     7
370
    15
100
AcDbCircle
 10
60.0828562337
 20
81.3212566399
 30
0.0
 40
29.99999999999999
100
AcDbArc
 50
180.0
 51
270.0
  0
LINE
  5
A0
330
1F
100
AcDbEntity
  8
0
  6
Continuous
 62
     7
370
    15
100
AcDbLine
 10
60.0828562337
 20
51.3212566399
 30
0.0
 11
138.0287727634
 21
51.3212566399
 31
0.0
  0
ARC
  5
A1
330
1F
100
AcDbEntity
  8
0
  6
Continuous
 62
     7
370
    15
100
AcDbCircle
 10
138.0287727634
 20
81.3212566399
 30
0.0
 40
30.00000000000003
100
AcDbArc
 50
270.0
 51
0.0
  0
ARC
  5
A2
330
1F
100
AcDbEntity
  8
0
  6
Continuous
 62
     7
370
    15
100
AcDbCircle
 10
138.0287727634
 20
134.2671731697
 30
0.0
 40
30.00000000000003
100
AcDbArc
 50
0.0
 51
90.0
  0
LINE
  5
A3
330
1F
100
AcDbEntity
  8
0
  6
Continuous
 62
     7
370
    15
100
AcDbLine
 10
138.0287727634
 20
164.2671731697
 30
0.0
 11
60.0828562337
 21
164.2671731697
 31
0.0
  0
ARC
  5
A4
330
1F
100
AcDbEntity
  8
0
  6
Continuous
 62
     7
370
    15
100
AcDbCircle
 10
60.0828562337
 20
134.2671731697
 30
0.0
 40
30.00000000000003
100
AcDbArc
 50
90.0
 51
180.0
  0
LINE
  5
A5
330
1F
100
AcDbEntity
  8
0
  6
Continuous
 62
     7
370
    15
100
AcDbLine
 10
30.0828562337
 20
134.2671731697
 30
0.0
 11
30.0828562337
 21
81.3212566399
 31
0.0
  0
LINE
  5
A6
330
1F
100
AcDbEntity
  8
0
  6
Continuous
 62
     7
370
    15
100
AcDbLine
 10
168.0287727634
 20
81.3212566399
 30
0.0
 11
168.0287727634
 21
134.2671731697
 31
0.0
  0
LINE
  5
A7
330
1F
100
AcDbEntity
  8
0
  6
Continuous
 62
     7
370
    15
100
AcDbLine
 10
143.4423532053
 20
169.3887956738
 30
0.0
 11
148.4467690515
 21
174.39321152
 31
0.0
  0
ELLIPSE
  5
A8
330
1F
100
AcDbEntity
  8
0
  6
Continuous
 62
     7
370
    15
100
AcDbEllipse
 10
148.055578976
 20
144.2939793822
 30
0.0
 11
21.35417005729602
 21
21.35417005729568
 31
0.0
210
0.0
220
0.0
230
1.0
 40
0.9933986373
 41
5.507472325450628
 42
7.058898288908575
  0
ELLIPSE
  5
A9
330
1F
100
AcDbEntity
  8
0
  6
Continuous
 62
     7
370
    15
100
AcDbEllipse
 10
53.2560500212
 20
144.2939793822
 30
0.0
 11
21.35417005729581
 21
-21.35417005729581
 31
0.0
210
0.0
220
0.0
230
1.0
 40
0.9933986373
 41
2.365879671860814
 42
3.917305635318786
  0
LINE
  5
AA
330
1F
100
AcDbEntity
  8
0
  6
Continuous
 62
     7
370
    15
100
AcDbLine
 10
52.8648599456
 20
174.39321152
 30
0.0
 11
57.8692757918
 21
169.3887956738
 31
0.0
  0
LINE
  5
AB
330
1F
100
AcDbEntity
  8
0
  6
Continuous
 62
     7
370
    15
100
AcDbLine
 10
148.4467690515
 20
174.39321152
 30
0.0
 11
52.8648599456
 21
174.39321152
 31
0.0
  0
ELLIPSE
  5
AC
330
1F
100
AcDbEntity
  8
0
  6
Continuous
 62
     7
370
    15
100
AcDbEllipse
 10
53.2560500212
 20
74.4944504274
 30
0.0
 11
21.35417005729568
 21
21.35417005729599
 31
0.0
210
0.0
220
0.0
230
1.0
 40
0.9933986373
 41
2.365879671860806
 42
3.917305635318779
  0
ARC
  5
AD
330
1F
100
AcDbEntity
  8
0
  6
Continuous
 62
     7
370
    15
100
AcDbCircle
 10
70.0828562337
 20
91.3212566399
 30
0.0
 40
30.0
100
AcDbArc
 50
180.0
 51
270.0
  0
ARC
  5
AE
330
1F
100
AcDbEntity
  8
0
  6
Continuous
 62
     7
370
    15
100
AcDbCircle
 10
128.0287727634
 20
124.2671731697
 30
0.0
 40
30.00000000000003
100
AcDbArc
 50
0.0
 51
90.0
  0
LINE
  5
AF
330
1F
100
AcDbEntity
  8
0
  6
Continuous
 62
     7
370
    15
100
AcDbLine
 10
70.0828562337
 20
61.3212566399
 30
0.0
 11
128.0287727634
 21
61.3212566399
 31
0.0
  0
LINE
  5
B0
330
1F
100
AcDbEntity
  8
0
  6
Continuous
 62
     7
370
    15
100
AcDbLine
 10
158.0287727634
 20
91.3212566399
 30
0.0
 11
158.0287727634
 21
124.2671731697
 31
0.0
  0
ARC
  5
B1
330
1F
100
AcDbEntity
  8
0
  6
Continuous
 62
     7
370
    15
100
AcDbCircle
 10
128.0287727634
 20
91.3212566399
 30
0.0
 40
30.0
100
AcDbArc
 50
270.0
 51
0.0
  0
ARC
  5
B2
330
1F
100
AcDbEntity
  8
0
  6
Continuous
 62
     7
370
    15
100
AcDbCircle
 10
70.0828562337
 20
124.2671731697
 30
0.0
 40
30.0
100
AcDbArc
 50
90.0
 51
180.0
  0
LINE
  5
B3
330
1F
100
AcDbEntity
  8
0
  6
Continuous
 62
     7
370
    15
100
AcDbLine
 10
128.0287727634
 20
154.2671731697
 30
0.0
 11
70.0828562337
 21
154.2671731697
 31
0.0
  0
LINE
  5
B4
330
1F
100
AcDbEntity
  8
0
  6
Continuous
 62
     7
370
    15
100
AcDbLine
 10
40.0828562337
 20
124.2671731697
 30
0.0
 11
40.0828562337
 21
91.3212566399
 31
0.0
  0
SPLINE
  5
B5
330
1F
100
AcDbEntity
  8
0
  6
Continuous
 62
     7
370
    15
100
AcDbSpline
210
0.0
220
0.0
230
1.0
 70
    24
 71
     3
 72
     9
 73
     5
 74
     0
 42
0.00000001
 43
0.00000001
 12
1.0
 22
0.0
 32
0.0
 13
1.0
 23
0.0
 33
0.0
 40
0.0
 40
0.0
 40
0.0
 40
0.0
 40
0.6554330557175797
 40
1.0
 40
1.0
 40
1.0
 40
1.0
 10
170.5170111713105
 20
54.30904275688573
 30
0.0
 10
170.6156097798628
 20
54.30904275688574
 30
0.0
 10
170.7660425474692
 20
54.30904275688575
 30
0.0
 10
170.7504148297467
 20
54.30904275688574
 30
0.0
 10
170.7450300348049
 20
54.30904275688574
 30
0.0
  0
SPLINE
  5
B6
330
1F
100
AcDbEntity
  8
0
  6
Continuous
 62
     7
370
    15
100
AcDbSpline
210
0.0
220
0.0
230
1.0
 70
    24
 71
     3
 72
     9
 73
     5
 74
     0
 42
0.00000001
 43
0.00000001
 12
1.0
 22
0.0
 32
0.0
 13
1.0
 23
0.0
 33
0.0
 40
0.0
 40
0.0
 40
0.0
 40
0.0
 40
0.6808467947002067
 40
1.0
 40
1.0
 40
1.0
 40
1.0
 10
171.3752558887308
 20
55.3090427568857
 30
0.0
 10
171.4737122367383
 20
55.3090427568857
 30
0.0
 10
171.6183209046117
 20
55.30904275688571
 30
0.0
 10
171.5977667602977
 20
55.30904275688572
 30
0.0
 10
171.5912068392577
 20
55.30904275688572
 30
0.0
  0
LINE
  5
B7
330
1F
100
AcDbEntity
  8
0
  6
Continuous
 62
     7
370
    15
100
AcDbLine
 10
167.6142488795
 20
51.3090427569
 30
0.0
 11
167.655500865
 21
51.3090427569
 31
0.0
  0
SPLINE
  5
B8
330
1F
100
AcDbEntity
  8
0
  6
Continuous
 62
     7
370
    15
100
AcDbSpline
210
0.0
220
0.0
230
1.0
 70
    24
 71
     3
 72
     9
 73
     5
 74
     0
 42
0.00000001
 43
0.00000001
 12
1.0
 22
0.0
 32
0.0
 13
1.0
 23
0.0
 33
0.0
 40
0.0
 40
0.0
 40
0.0
 40
0.0
 40
0.6024189842163604
 40
1.0
 40
1.0
 40
1.0
 40
1.0
 10
168.5443478936325
 20
52.30904275688575
 30
0.0
 10
168.6430664261909
 20
52.30904275688575
 30
0.0
 10
168.8069366479881
 20
52.30904275688575
 30
0.0
 10
168.8036743488275
 20
52.30904275688575
 30
0.0
 10
168.8023773206134
 20
52.30904275688575
 30
0.0
  0
LINE
  5
B9
330
1F
100
AcDbEntity
  8
0
  6
Continuous
 62
     7
370
    15
100
AcDbLine
 10
164.968491534
 20
49.3090427569
 30
0.0
 11
165.0346479191
 21
49.3090427569
 31
0.0
  0
SPLINE
  5
BA
330
1F
100
AcDbEntity
  8
0
  6
Continuous
 62
     7
370
    15
100
AcDbSpline
210
0.0
220
0.0
230
1.0
 70
     8
 71
     3
 72
     8
 73
     4
 74
     0
 42
0.00000001
 43
0.00000001
 12
1.0
 22
0.0
 32
0.0
 13
1.0
 23
0.0
 33
0.0
 40
0.0
 40
0.0
 40
0.0
 40
0.0
 40
1.0
 40
1.0
 40
1.0
 40
1.0
 10
164.9684915340419
 20
49.30904275688573
 30
0.0
 10
165.4893506153618
 20
49.69210111309193
 30
0.0
 10
165.9829932050091
 20
50.10476571384919
 30
0.0
 10
166.4509536885579
 20
50.54855436021517
 30
0.0
  0
LINE
  5
BB
330
1F
100
AcDbEntity
  8
0
  6
Continuous
 62
     7
370
    15
100
AcDbLine
 10
178.1548111138
 20
82.3090427569
 30
0.0
 11
178.2521304264
 21
82.3090427569
 31
0.0
  0
LINE
  5
BC
330
1F
100
AcDbEntity
  8
0
  6
Continuous
 62
     7
370
    15
100
AcDbLine
 10
178.1548111138
 20
81.3090427569
 30
0.0
 11
178.2521304264
 21
81.3090427569
 31
0.0
  0
LINE
  5
BD
330
1F
100
AcDbEntity
  8
0
  6
Continuous
 62
     7
370
    15
100
AcDbLine
 10
178.1548111138
 20
85.3090427569
 30
0.0
 11
178.2521304264
 21
85.3090427569
 31
0.0
  0
LINE
  5
BE
330
1F
100
AcDbEntity
  8
0
  6
Continuous
 62
     7
370
    15
100
AcDbLine
 10
178.1548111138
 20
84.3090427569
 30
0.0
 11
178.2521304264
 21
84.3090427569
 31
0.0
  0
LINE
  5
BF
330
1F
100
AcDbEntity
  8
0
  6
Continuous
 62
     7
370
    15
100
AcDbLine
 10
178.1548111138
 20
79.3090427569
 30
0.0
 11
178.2521304264
 21
79.3090427569
 31
0.0
  0
LINE
  5
C0
330
1F
100
AcDbEntity
  8
0
  6
Continuous
 62
     7
370
    15
100
AcDbLine
 10
178.1548111138
 20
78.3090427569
 30
0.0
 11
178.2521304264
 21
78.3090427569
 31
0.0
  0
SPLINE
  5
C1
330
1F
100
AcDbEntity
  8
0
  6
Continuous
 62
     7
370
    15
100
AcDbSpline
210
0.0
220
0.0
230
1.0
 70
     8
 71
     3
 72
     8
 73
     4
 74
     0
 42
0.00000001
 43
0.00000001
 12
1.0
 22
0.0
 32
0.0
 13
1.0
 23
0.0
 33
0.0
 40
0.0
 40
0.0
 40
0.0
 40
0.0
 40
1.0
 40
1.0
 40
1.0
 40
1.0
 10
178.2519723533686
 20
90.30904275688572
 30
0.0
 10
178.2504227023268
 20
89.6396940759301
 30
0.0
 10
178.2374783875848
 20
88.97302011670413
 30
0.0
 10
178.2121675783678
 20
88.30904275688575
 30
0.0
  0
LINE
  5
C2
330
1F
100
AcDbEntity
  8
0
  6
Continuous
 62
     7
370
    15
100
AcDbLine
 10
178.2121675784
 20
88.3090427569
 30
0.0
 11
178.2521304264
 21
88.3090427569
 31
0.0
  0
LINE
  5
C3
330
1F
100
AcDbEntity
  8
0
  6
Continuous
 62
     7
370
    15
100
AcDbLine
 10
178.1644225704
 20
87.3090427569
 30
0.0
 11
178.2521304264
 21
87.3090427569
 31
0.0
  0
SPLINE
  5
C4
330
1F
100
AcDbEntity
  8
0
  6
Continuous
 62
     7
370
    15
100
AcDbSpline
210
0.0
220
0.0
230
1.0
 70
     8
 71
     3
 72
     8
 73
     4
 74
     0
 42
0.00000001
 43
0.00000001
 12
1.0
 22
0.0
 32
0.0
 13
1.0
 23
0.0
 33
0.0
 40
0.0
 40
0.0
 40
0.0
 40
0.0
 40
1.0
 40
1.0
 40
1.0
 40
1.0
 10
178.1644225703986
 20
87.30904275688575
 30
0.0
 10
178.1613066708945
 20
87.2549077098353
 30
0.0
 10
178.1581031225705
 20
87.20077831215777
 30
0.0
 10
178.1548111137748
 20
87.14665450422102
 30
0.0
  0
LINE
  5
C5
330
1F
100
AcDbEntity
  8
0
  6
Continuous
 62
     7
370
    15
100
AcDbLine
 10
178.1548111138
 20
76.3090427569
 30
0.0
 11
178.2521304264
 21
76.3090427569
 31
0.0
  0
LINE
  5
C6
330
1F
100
AcDbEntity
  8
0
  6
Continuous
 62
     7
370
    15
100
AcDbLine
 10
178.1548111138
 20
75.3090427569
 30
0.0
 11
178.2521304264
 21
75.3090427569
 31
0.0
  0
ARC
  5
C7
330
1F
100
AcDbEntity
  8
0
  6
Continuous
 62
     7
370
    15
100
AcDbCircle
 10
128.0287727634
 20
91.3212566399
 30
0.0
 40
20.0
100
AcDbArc
 50
270.0
 51
0.0
  0
LINE
  5
C8
330
1F
100
AcDbEntity
  8
0
  6
Continuous
 62
     7
370
    15
100
AcDbLine
 10
158.0287727634
 20
91.3212566399
 30
0.0
 11
148.0287727634
 21
91.3212566399
 31
0.0
  0
LINE
  5
C9
330
1F
100
AcDbEntity
  8
0
  6
Continuous
 62
     7
370
    15
100
AcDbLine
 10
128.0287727634
 20
71.3212566399
 30
0.0
 11
128.0287727634
 21
61.3212566399
 31
0.0
  0
LINE
  5
CA
330
1F
100
AcDbEntity
  8
0
  6
Continuous
 62
     7
370
    15
100
AcDbLine
 10
128.0287727634
 20
154.2671731697
 30
0.0
 11
128.0287727634
 21
144.2671731697
 31
0.0
  0
LINE
  5
CB
330
1F
100
AcDbEntity
  8
0
  6
Continuous
 62
     7
370
    15
100
AcDbLine
 10
128.0287727634
 20
144.2671731697
 30
0.0
 11
70.0828562337
 21
144.2671731697
 31
0.0
  0
LINE
  5
CC
330
1F
100
AcDbEntity
  8
0
  6
Continuous
 62
     7
370
    15
100
AcDbLine
 10
70.0828562337
 20
154.2671731697
 30
0.0
 11
70.0828562337
 21
144.2671731697
 31
0.0
  0
ARC
  5
CD
330
1F
100
AcDbEntity
  8
0
  6
Continuous
 62
     7
370
    15
100
AcDbCircle
 10
70.0828562337
 20
91.3212566399
 30
0.0
 40
20.0
100
AcDbArc
 50
180.0
 51
270.0
  0
LINE
  5
CE
330
1F
100
AcDbEntity
  8
0
  6
Continuous
 62
     7
370
    15
100
AcDbLine
 10
70.0828562337
 20
71.3212566399
 30
0.0
 11
70.0828562337
 21
61.3212566399
 31
0.0
  0
LINE
  5
CF
330
1F
100
AcDbEntity
  8
0
  6
Continuous
 62
     7
370
    15
100
AcDbLine
 10
50.0828562337
 20
91.3212566399
 30
0.0
 11
40.0828562337
 21
91.3212566399
 31
0.0
  0
LINE
  5
D0
330
1F
100
AcDbEntity
  8
0
  6
Continuous
 62
     7
370
    15
100
AcDbLine
 10
50.0828562337
 20
124.2671731697
 30
0.0
 11
50.0828562337
 21
91.3212566399
 31
0.0
  0
ARC
  5
D1
330
1F
100
AcDbEntity
  8
0
  6
Continuous
 62
     7
370
    15
100
AcDbCircle
 10
70.0828562337
 20
124.2671731697
 30
0.0
 40
20.0
100
AcDbArc
 50
90.0
 51
180.0
  0
ARC
  5
D2
330
1F
100
AcDbEntity
  8
0
  6
Continuous
 62
     7
370
    15
100
AcDbCircle
 10
128.0287727634
 20
124.2671731697
 30
0.0
 40
20.0
100
AcDbArc
 50
0.0
 51
90.0
  0
LINE
  5
D3
330
1F
100
AcDbEntity
  8
0
  6
Continuous
 62
     7
370
    15
100
AcDbLine
 10
148.0287727634
 20
91.3212566399
 30
0.0
 11
148.0287727634
 21
124.2671731697
 31
0.0
  0
LINE
  5
D4
330
1F
100
AcDbEntity
  8
0
  6
Continuous
 62
     7
370
    15
100
AcDbLine
 10
70.0828562337
 20
71.3212566399
 30
0.0
 11
128.0287727634
 21
71.3212566399
 31
0.0
  0
LINE
  5
D5
330
1F
100
AcDbEntity
  8
0
  6
Continuous
 62
     7
370
    15
100
AcDbLine
 10
50.0828562337
 20
124.2671731697
 30
0.0
 11
40.0828562337
 21
124.2671731697
 31
0.0
  0
LINE
  5
D6
330
1F
100
AcDbEntity
  8
0
  6
Continuous
 62
     7
370
    15
100
AcDbLine
 10
158.0287727634
 20
124.2671731697
 30
0.0
 11
148.0287727634
 21
124.2671731697
 31
0.0
  0
LINE
  5
D7
330
1F
100
AcDbEntity
  8
0
  6
Continuous
 62
     8
370
    15
100
AcDbLine
 10
148.4467690515
 20
44.2978989928
 30
0.0
 11
148.4467690515
 21
44.3952182896
 31
0.0
  0
LINE
  5
D8
330
1F
100
AcDbEntity
  8
0
  6
Continuous
 62
     8
370
    15
100
AcDbLine
 10
23.0594985753
 20
74.1032603518
 30
0.0
 11
23.1568178834
 21
74.1032603518
 31
0.0
  0
LINE
  5
D9
330
1F
100
AcDbEntity
  8
0
  6
Continuous
 62
     8
370
    15
100
AcDbLine
 10
52.8648599456
 20
44.2978989815
 30
0.0
 11
52.8648599456
 21
44.3952182896
 31
0.0
  0
LINE
  5
DA
330
1F
100
AcDbEntity
  8
0
  6
Continuous
 62
     8
370
    15
100
AcDbLine
 10
148.4467690515
 20
174.39321152
 30
0.0
 11
148.4467690515
 21
174.4905308306
 31
0.0
  0
LINE
  5
DB
330
1F
100
AcDbEntity
  8
0
  6
Continuous
 62
     8
370
    15
100
AcDbLine
 10
178.1548111138
 20
144.6851694578
 30
0.0
 11
178.2521304244
 21
144.6851694578
 31
0.0
  0
LINE
  5
DC
330
1F
100
AcDbEntity
  8
0
  6
Continuous
 62
     8
370
    15
100
AcDbLine
 10
23.1568178834
 20
144.6851694578
 30
0.0
 11
23.0594985728
 21
144.6851694578
 31
0.0
  0
LINE
  5
DD
330
1F
100
AcDbEntity
  8
0
  6
Continuous
 62
     8
370
    15
100
AcDbLine
 10
52.8648599456
 20
174.39321152
 30
0.0
 11
52.8648599456
 21
174.4905308306
 31
0.0
  0
ELLIPSE
  5
DE
330
1F
100
AcDbEntity
  8
0
  6
Continuous
 62
     7
370
    15
100
AcDbEllipse
 10
219.9724520091
 20
144.2939793822
 30
0.0
 11
1.385880822101853
 21
30.09977731265567
 31
0.0
210
0.0
220
0.0
230
1.0
 40
0.0455474998
 41
4.727482897453791
 42
6.278908860912043
  0
LINE
  5
DF
330
1F
100
AcDbEntity
  8
0
  6
Continuous
 62
     7
370
    15
100
AcDbLine
 10
221.3641830187
 20
144.6851694578
 30
0.0
 11
209.9724520091
 21
144.6851694578
 31
0.0
  0
LINE
  5
E0
330
1F
100
AcDbEntity
  8
0
  6
Continuous
 62
     7
370
    15
100
AcDbLine
 10
209.9724520091
 20
144.6851694578
 30
0.0
 11
209.9724520091
 21
164.4905308326
 31
0.0
  0
ARC
  5
E1
330
1F
100
AcDbEntity
  8
0
  6
Continuous
 62
     7
370
    15
100
AcDbCircle
 10
219.9724520091
 20
164.4905308326
 30
0.0
 40
10.00000000000001
100
AcDbArc
 50
82.0
 51
180.0
  0
LINE
  5
E2
330
1F
100
AcDbEntity
  8
0
  6
Continuous
 62
     7
370
    15
100
AcDbLine
 10
221.3641830187
 20
144.6851694578
 30
0.0
 11
221.3641830187
 21
74.1032603518
 31
0.0
  0
LINE
  5
E3
330
1F
100
AcDbEntity
  8
0
  6
Continuous
 62
     7
370
    15
100
AcDbLine
 10
209.9724520091
 20
74.1032603518
 30
0.0
 11
221.3641830187
 21
74.1032603518
 31
0.0
  0
LINE
  5
E4
330
1F
100
AcDbEntity
  8
0
  6
Continuous
 62
     7
370
    15
100
AcDbLine
 10
209.9724520091
 20
74.1032603518
 30
0.0
 11
209.9724520091
 21
144.6851694578
 31
0.0
  0
LINE
  5
E5
330
1F
100
AcDbEntity
  8
0
  6
Continuous
 62
     7
370
    15
100
AcDbLine
 10
209.9724520091
 20
54.297898977
 30
0.0
 11
209.9724520091
 21
74.1032603518
 31
0.0
  0
ELLIPSE
  5
E6
330
1F
100
AcDbEntity
  8
0
  6
Continuous
 62
     7
370
    15
100
AcDbEllipse
 10
219.9724520091
 20
74.4944504274
 30
0.0
 11
-1.385880822101825
 21
30.09977731265565
 31
0.0
210
0.0
220
0.0
230
1.0
 40
0.0455474998
 41
3.145869099857962
 42
4.69729506331559
  0
ARC
  5
E7
330
1F
100
AcDbEntity
  8
0
  6
Continuous
 62
     7
370
    15
100
AcDbCircle
 10
219.9724520091
 20
54.297898977
 30
0.0
 40
10.00000000000001
100
AcDbArc
 50
180.0
 51
278.0
  0
LINE
  5
E8
330
1F
100
AcDbEntity
  8
0
  6
Continuous
 62
     7
370
    15
100
AcDbLine
 10
256.9724520091
 20
169.3887956738
 30
0.0
 11
256.9724520091
 21
139.6807536115
 31
0.0
  0
LINE
  5
E9
330
1F
100
AcDbEntity
  8
0
  6
Continuous
 62
     7
370
    15
100
AcDbLine
 10
256.9724520091
 20
139.6807536115
 30
0.0
 11
221.3641830187
 21
144.6851694578
 31
0.0
  0
LINE
  5
EA
330
1F
100
AcDbEntity
  8
0
  6
Continuous
 62
     7
370
    15
100
AcDbLine
 10
221.3641830187
 20
174.39321152
 30
0.0
 11
256.9724520091
 21
169.3887956738
 31
0.0
  0
LINE
  5
EB
330
1F
100
AcDbEntity
  8
0
  6
Continuous
 62
     7
370
    15
100
AcDbLine
 10
256.9724520091
 20
139.6807536115
 30
0.0
 11
256.9724520091
 21
79.1076761981
 31
0.0
  0
LINE
  5
EC
330
1F
100
AcDbEntity
  8
0
  6
Continuous
 62
     7
370
    15
100
AcDbLine
 10
221.3641830187
 20
74.1032603518
 30
0.0
 11
256.9724520091
 21
79.1076761981
 31
0.0
  0
LINE
  5
ED
330
1F
100
AcDbEntity
  8
0
  6
Continuous
 62
     7
370
    15
100
AcDbLine
 10
256.9724520091
 20
79.1076761981
 30
0.0
 11
256.9724520091
 21
49.3996341358
 31
0.0
  0
LINE
  5
EE
330
1F
100
AcDbEntity
  8
0
  6
Continuous
 62
     7
370
    15
100
AcDbLine
 10
256.9724520091
 20
49.3996341358
 30
0.0
 11
221.3641830187
 21
44.3952182896
 31
0.0
  0
LINE
  5
EF
330
1F
100
AcDbEntity
  8
0
  6
Continuous
 62
     7
370
    15
100
AcDbLine
 10
264.9724520091
 20
124.2671731697
 30
0.0
 11
264.9724520091
 21
91.3212566399
 31
0.0
  0
LINE
  5
F0
330
1F
100
AcDbEntity
  8
0
  6
Continuous
 62
     7
370
    15
100
AcDbLine
 10
264.9724520091
 20
91.3212566399
 30
0.0
 11
264.9724520091
 21
71.3212566399
 31
0.0
  0
ARC
  5
F1
330
1F
100
AcDbEntity
  8
0
  6
Continuous
 62
     7
370
    15
100
AcDbCircle
 10
254.9724520091
 20
71.3212566399
 30
0.0
 40
10.0
100
AcDbArc
 50
281.5369590328
 51
0.0
  0
LINE
  5
F2
330
1F
100
AcDbEntity
  8
0
  6
Continuous
 62
     7
370
    15
100
AcDbLine
 10
264.9724520091
 20
144.2671731697
 30
0.0
 11
264.9724520091
 21
124.2671731697
 31
0.0
  0
ARC
  5
F3
330
1F
100
AcDbEntity
  8
0
  6
Continuous
 62
     7
370
    15
100
AcDbCircle
 10
254.9724520091
 20
144.2671731697
 30
0.0
 40
10.0
100
AcDbArc
 50
0.0
 51
78.4630409672
  0
LINE
  5
F4
330
1F
100
AcDbEntity
  8
0
  6
Continuous
 62
     8
370
    15
100
AcDbLine
 10
264.9724520091
 20
91.3212566399
 30
0.0
 11
256.9724520091
 21
91.3212566399
 31
0.0
  0
LINE
  5
F5
330
1F
100
AcDbEntity
  8
0
  6
Continuous
 62
     8
370
    15
100
AcDbLine
 10
264.9724520091
 20
124.2671731697
 30
0.0
 11
256.9724520091
 21
124.2671731697
 31
0.0
  0
ENDSEC
  0
SECTION
  2
OBJECTS
  0
DICTIONARY
  5
C
330
0
100
AcDbDictionary
281
     1
  3
ACAD_GROUP
350
D
  3
ACAD_LAYOUT
350
1A
  3
ACAD_MLINESTYLE
350
17
  3
ACAD_PLOTSETTINGS
350
19
  3
ACAD_PLOTSTYLENAME
350
E
  0
DICTIONARY
  5
D
102
{ACAD_REACTORS
330
C
102
}
330
C
100
AcDbDictionary
281
     1
  0
DICTIONARY
  5
1A
102
{ACAD_REACTORS
330
C
102
}
330
C
100
AcDbDictionary
281
     1
  3
Layout1
350
1E
  3
Layout2
350
26
  3
Model
350
22
  0
DICTIONARY
  5
17
102
{ACAD_REACTORS
330
C
102
}
330
C
100
AcDbDictionary
281
     1
  3
Standard
350
18
  0
DICTIONARY
  5
19
102
{ACAD_REACTORS
330
C
102
}
330
C
100
AcDbDictionary
281
     1
  0
ACDBDICTIONARYWDFLT
  5
E
102
{ACAD_REACTORS
330
C
102
}
330
C
100
AcDbDictionary
281
     1
  3
Normal
350
F
100
AcDbDictionaryWithDefault
340
F
  0
LAYOUT
  5
1E
102
{ACAD_REACTORS
330
1A
102
}
330
1A
100
AcDbPlotSettings
  1

  2
none_device
  4

  6

 40
0.0
 41
0.0
 42
0.0
 43
0.0
 44
0.0
 45
0.0
 46
0.0
 47
0.0
 48
0.0
 49
0.0
140
0.0
141
0.0
142
1.0
143
1.0
 70
   688
 72
     0
 73
     0
 74
     5
  7

 75
    16
147
1.0
148
0.0
149
0.0
100
AcDbLayout
  1
Layout1
 70
     1
 71
     1
 10
0.0
 20
0.0
 11
420.0
 21
297.0
 12
0.0
 22
0.0
 32
0.0
 14
1.0000000000E+20
 24
1.0000000000E+20
 34
1.0000000000E+20
 15
-1.0000000000E+20
 25
-1.0000000000E+20
 35
-1.0000000000E+20
146
0.0
 13
0.0
 23
0.0
 33
0.0
 16
1.0
 26
0.0
 36
0.0
 17
0.0
 27
1.0
 37
0.0
 76
     0
330
1B
  0
LAYOUT
  5
26
102
{ACAD_REACTORS
330
1A
102
}
330
1A
100
AcDbPlotSettings
  1

  2
none_device
  4

  6

 40
0.0
 41
0.0
 42
0.0
 43
0.0
 44
0.0
 45
0.0
 46
0.0
 47
0.0
 48
0.0
 49
0.0
140
0.0
141
0.0
142
1.0
143
1.0
 70
   688
 72
     0
 73
     0
 74
     5
  7

 75
    16
147
1.0
148
0.0
149
0.0
100
AcDbLayout
  1
Layout2
 70
     1
 71
     2
 10
0.0
 20
0.0
 11
0.0
 21
0.0
 12
0.0
 22
0.0
 32
0.0
 14
0.0
 24
0.0
 34
0.0
 15
0.0
 25
0.0
 35
0.0
146
0.0
 13
0.0
 23
0.0
 33
0.0
 16
1.0
 26
0.0
 36
0.0
 17
0.0
 27
1.0
 37
0.0
 76
     0
330
23
  0
LAYOUT
  5
22
102
{ACAD_REACTORS
330
1A
102
}
330
1A
100
AcDbPlotSettings
  1

  2
none_device
  4

  6

 40
0.0
 41
0.0
 42
0.0
 43
0.0
 44
0.0
 45
0.0
 46
0.0
 47
0.0
 48
0.0
 49
0.0
140
0.0
141
0.0
142
1.0
143
1.0
 70
  1712
 72
     0
 73
     0
 74
     0
  7

 75
     0
147
1.0
148
0.0
149
0.0
100
AcDbLayout
  1
Model
 70
     1
 71
     0
 10
0.0
 20
0.0
 11
279.4
 21
215.9
 12
0.0
 22
0.0
 32
0.0
 14
0.0
 24
0.0
 34
0.0
 15
279.4
 25
215.9
 35
0.0
146
0.0
 13
0.0
 23
0.0
 33
0.0
 16
1.0
 26
0.0
 36
0.0
 17
0.0
 27
1.0
 37
0.0
 76
     0
330
1F
331
29
  0
MLINESTYLE
  5
18
102
{ACAD_REACTORS
330
17
102
}
330
17
100
AcDbMlineStyle
  2
Standard
 70
     0
  3

 62
   256
 51
90.0
 52
90.0
 71
     2
 49
0.5
 62
   256
  6
BYLAYER
 49
-0.5
 62
   256
  6
BYLAYER
  0
ACDBPLACEHOLDER
  5
F
102
{ACAD_REACTORS
330
E
102
}
330
E
  0
ENDSEC
  0
EOF
