  0
SECTION
  2
HEADER
  9
$ACADVER
  1
AC1015
  9
$ACADMAINTVER
 70
     6
  9
$DWGCODEPAGE
  3
ANSI_1251
  9
$INSBASE
 10
0.0
 20
0.0
 30
0.0
  9
$EXTMIN
 10
0.0
 20
0.0
 30
0.0
  9
$EXTMAX
 10
1397.0
 20
1079.5
 30
0.0
  9
$LIMMIN
 10
0.0
 20
0.0
  9
$LIMMAX
 10
1397.0
 20
1079.5
  9
$ORTHOMODE
 70
     0
  9
$REGENMODE
 70
     1
  9
$FILLMODE
 70
     1
  9
$QTEXTMODE
 70
     0
  9
$MIRRTEXT
 70
     1
  9
$LTSCALE
 40
5.0
  9
$ATTMODE
 70
     1
  9
$TEXTSIZE
 40
17.5
  9
$TRACEWID
 40
1.0
  9
$TEXTSTYLE
  7
Standard
  9
$CLAYER
  8
0
  9
$CELTYPE
  6
ByLayer
  9
$CECOLOR
 62
   256
  9
$CELTSCALE
 40
1.0
  9
$DISPSILH
 70
     0
  9
$DIMSCALE
 40
1.0
  9
$DIMASZ
 40
17.5
  9
$DIMEXO
 40
0.05
  9
$DIMDLI
 40
3.75
  9
$DIMRND
 40
0.0
  9
$DIMDLE
 40
0.0
  9
$DIMEXE
 40
5.0
  9
$DIMTP
 40
0.0
  9
$DIMTM
 40
0.0
  9
$DIMTXT
 40
17.5
  9
$DIMCEN
 40
2.5
  9
$DIMTSZ
 40
0.0
  9
$DIMTOL
 70
     0
  9
$DIMLIM
 70
     0
  9
$DIMTIH
 70
     1
  9
$DIMTOH
 70
     1
  9
$DIMSE1
 70
     0
  9
$DIMSE2
 70
     0
  9
$DIMTAD
 70
     1
  9
$DIMZIN
 70
     0
  9
$DIMBLK
  1

  9
$DIMASO
 70
     1
  9
$DIMSHO
 70
     1
  9
$DIMPOST
  1

  9
$DIMAPOST
  1

  9
$DIMALT
 70
     0
  9
$DIMALTD
 70
     3
  9
$DIMALTF
 40
0.0393700787
  9
$DIMLFAC
 40
1.0
  9
$DIMTOFL
 70
     1
  9
$DIMTVP
 40
0.0
  9
$DIMTIX
 70
     0
  9
$DIMSOXD
 70
     0
  9
$DIMSAH
 70
     0
  9
$DIMBLK1
  1

  9
$DIMBLK2
  1

  9
$DIMSTYLE
  2
ISO-25
  9
$DIMCLRD
 70
     0
  9
$DIMCLRE
 70
     0
  9
$DIMCLRT
 70
     0
  9
$DIMTFAC
 40
1.0
  9
$DIMGAP
 40
15.0
  9
$DIMJUST
 70
     0
  9
$DIMSD1
 70
     0
  9
$DIMSD2
 70
     0
  9
$DIMTOLJ
 70
     0
  9
$DIMTZIN
 70
     0
  9
$DIMALTZ
 70
     0
  9
$DIMALTTZ
 70
     0
  9
$DIMUPT
 70
     0
  9
$DIMDEC
 70
     2
  9
$DIMTDEC
 70
     3
  9
$DIMALTU
 70
     2
  9
$DIMALTTD
 70
     3
  9
$DIMTXSTY
  7
Standard
  9
$DIMAUNIT
 70
     0
  9
$DIMADEC
 70
     2
  9
$DIMALTRND
 40
0.0
  9
$DIMAZIN
 70
     0
  9
$DIMDSEP
 70
    44
  9
$DIMATFIT
 70
     3
  9
$DIMFRAC
 70
     0
  9
$DIMLDRBLK
  1

  9
$DIMLUNIT
 70
     2
  9
$DIMLWD
 70
    -2
  9
$DIMLWE
 70
    -2
  9
$DIMTMOVE
 70
     0
  9
$LUNITS
 70
     2
  9
$LUPREC
 70
     2
  9
$SKETCHINC
 40
1.0
  9
$FILLETRAD
 40
10.0
  9
$AUNITS
 70
     0
  9
$AUPREC
 70
     2
  9
$MENU
  1
.
  9
$ELEVATION
 40
0.0
  9
$PELEVATION
 40
0.0
  9
$THICKNESS
 40
0.0
  9
$LIMCHECK
 70
     0
  9
$CHAMFERA
 40
10.0
  9
$CHAMFERB
 40
10.0
  9
$CHAMFERC
 40
20.0
  9
$CHAMFERD
 40
0.0
  9
$SKPOLY
 70
     0
  9
$TDCREATE
 40
2458136.605273669
  9
$TDUCREATE
 40
2458136.521940336
  9
$TDUPDATE
 40
2458136.605274005
  9
$TDUUPDATE
 40
2458136.521940671
  9
$TDINDWG
 40
0.0000000116
  9
$TDUSRTIMER
 40
0.0000000116
  9
$USRTIMER
 70
     1
  9
$ANGBASE
 50
0.0
  9
$ANGDIR
 70
     0
  9
$PDMODE
 70
     0
  9
$PDSIZE
 40
-1.0
  9
$PLINEWID
 40
0.0
  9
$SPLFRAME
 70
     0
  9
$SPLINETYPE
 70
     6
  9
$SPLINESEGS
 70
     8
  9
$HANDSEED
  5
1E8
  9
$SURFTAB1
 70
     6
  9
$SURFTAB2
 70
     6
  9
$SURFTYPE
 70
     6
  9
$SURFU
 70
     6
  9
$SURFV
 70
     6
  9
$UCSBASE
  2

  9
$UCSNAME
  2

  9
$UCSORG
 10
0.0
 20
0.0
 30
0.0
  9
$UCSXDIR
 10
1.0
 20
0.0
 30
0.0
  9
$UCSYDIR
 10
0.0
 20
1.0
 30
0.0
  9
$UCSORTHOREF
  2

  9
$UCSORTHOVIEW
 70
     0
  9
$UCSORGTOP
 10
0.0
 20
0.0
 30
0.0
  9
$UCSORGBOTTOM
 10
0.0
 20
0.0
 30
0.0
  9
$UCSORGLEFT
 10
0.0
 20
0.0
 30
0.0
  9
$UCSORGRIGHT
 10
0.0
 20
0.0
 30
0.0
  9
$UCSORGFRONT
 10
0.0
 20
0.0
 30
0.0
  9
$UCSORGBACK
 10
0.0
 20
0.0
 30
0.0
  9
$PUCSBASE
  2

  9
$PUCSNAME
  2

  9
$PUCSORG
 10
0.0
 20
0.0
 30
0.0
  9
$PUCSXDIR
 10
1.0
 20
0.0
 30
0.0
  9
$PUCSYDIR
 10
0.0
 20
1.0
 30
0.0
  9
$PUCSORTHOREF
  2

  9
$PUCSORTHOVIEW
 70
     0
  9
$PUCSORGTOP
 10
0.0
 20
0.0
 30
0.0
  9
$PUCSORGBOTTOM
 10
0.0
 20
0.0
 30
0.0
  9
$PUCSORGLEFT
 10
0.0
 20
0.0
 30
0.0
  9
$PUCSORGRIGHT
 10
0.0
 20
0.0
 30
0.0
  9
$PUCSORGFRONT
 10
0.0
 20
0.0
 30
0.0
  9
$PUCSORGBACK
 10
0.0
 20
0.0
 30
0.0
  9
$USERI1
 70
     0
  9
$USERI2
 70
     0
  9
$USERI3
 70
     0
  9
$USERI4
 70
     0
  9
$USERI5
 70
     0
  9
$USERR1
 40
0.0
  9
$USERR2
 40
0.0
  9
$USERR3
 40
0.0
  9
$USERR4
 40
0.0
  9
$USERR5
 40
0.0
  9
$WORLDVIEW
 70
     1
  9
$SHADEDGE
 70
     3
  9
$SHADEDIF
 70
    70
  9
$TILEMODE
 70
     1
  9
$MAXACTVP
 70
    64
  9
$PINSBASE
 10
0.0
 20
0.0
 30
0.0
  9
$PLIMCHECK
 70
     0
  9
$PEXTMIN
 10
1.0000000000E+20
 20
1.0000000000E+20
 30
1.0000000000E+20
  9
$PEXTMAX
 10
-1.0000000000E+20
 20
-1.0000000000E+20
 30
-1.0000000000E+20
  9
$PLIMMIN
 10
0.0
 20
0.0
  9
$PLIMMAX
 10
420.0
 20
297.0
  9
$UNITMODE
 70
     0
  9
$VISRETAIN
 70
     1
  9
$PLINEGEN
 70
     0
  9
$PSLTSCALE
 70
     1
  9
$TREEDEPTH
 70
  3020
  9
$CMLSTYLE
  2
Standard
  9
$CMLJUST
 70
     0
  9
$CMLSCALE
 40
20.0
  9
$PROXYGRAPHICS
 70
     1
  9
$MEASUREMENT
 70
     1
  9
$CELWEIGHT
370
    -1
  9
$ENDCAPS
280
     0
  9
$JOINSTYLE
280
     0
  9
$LWDISPLAY
290
     1
  9
$INSUNITS
 70
     4
  9
$HYPERLINKBASE
  1

  9
$STYLESHEET
  1

  9
$XEDIT
290
     1
  9
$CEPSNTYPE
380
     0
  9
$PSTYLEMODE
290
     1
  9
$FINGERPRINTGUID
  2
{B9A7D14D-07D7-4D89-A55E-35DC5F6C98BA}
  9
$VERSIONGUID
  2
{FAEB1C32-E019-11D5-929B-00C0DF256EC4}
  9
$EXTNAMES
290
     1
  9
$PSVPSCALE
 40
0.0
  9
$OLESTARTUP
290
     0
  0
ENDSEC
  0
SECTION
  2
CLASSES
  0
CLASS
  1
ACDBDICTIONARYWDFLT
  2
AcDbDictionaryWithDefault
  3
ObjectDBX Classes
 90
        0
280
     0
281
     0
  0
CLASS
  1
VISUALSTYLE
  2
AcDbVisualStyle
  3
ObjectDBX Classes
 90
     4095
280
     0
281
     0
  0
CLASS
  1
MATERIAL
  2
AcDbMaterial
  3
ObjectDBX Classes
 90
     1153
280
     0
281
     0
  0
CLASS
  1
ACDBPLACEHOLDER
  2
AcDbPlaceHolder
  3
ObjectDBX Classes
 90
        0
280
     0
281
     0
  0
CLASS
  1
LAYOUT
  2
AcDbLayout
  3
ObjectDBX Classes
 90
        0
280
     0
281
     0
  0
ENDSEC
  0
SECTION
  2
TABLES
  0
TABLE
  2
VPORT
  5
8
330
0
100
AcDbSymbolTable
 70
     1
  0
VPORT
  5
29
330
8
100
AcDbSymbolTableRecord
100
AcDbViewportTableRecord
  2
*Active
 70
     0
 10
0.0
 20
0.0
 11
1.0
 21
1.0
 12
698.5
 22
539.75
 13
0.0
 23
0.0
 14
10.0
 24
10.0
 15
10.0
 25
10.0
 16
0.0
 26
0.0
 36
1.0
 17
0.0
 27
0.0
 37
0.0
 40
1079.5
 41
1.2941176471
 42
50.0
 43
0.0
 44
0.0
 50
0.0
 51
0.0
 71
     0
 72
  2000
 73
     1
 74
     3
 75
     0
 76
     0
 77
     0
 78
     0
281
     0
 65
     1
110
0.0
120
0.0
130
0.0
111
1.0
121
0.0
131
0.0
112
0.0
122
1.0
132
0.0
 79
     0
146
0.0
  0
ENDTAB
  0
TABLE
  2
LTYPE
  5
5
330
0
100
AcDbSymbolTable
 70
     6
  0
LTYPE
  5
14
330
5
100
AcDbSymbolTableRecord
100
AcDbLinetypeTableRecord
  2
ByBlock
 70
     0
  3

 72
    65
 73
     0
 40
0.0
  0
LTYPE
  5
15
330
5
100
AcDbSymbolTableRecord
100
AcDbLinetypeTableRecord
  2
ByLayer
 70
     0
  3

 72
    65
 73
     0
 40
0.0
  0
LTYPE
  5
16
330
5
100
AcDbSymbolTableRecord
100
AcDbLinetypeTableRecord
  2
Continuous
 70
     0
  3
Solid line
 72
    65
 73
     0
 40
0.0
  0
LTYPE
  5
3F
330
5
100
AcDbSymbolTableRecord
100
AcDbLinetypeTableRecord
  2
HIDDEN
 70
     0
  3
Hidden __ __ __ __ __ __ __ __ __ __ __ __ __ __
 72
    65
 73
     2
 40
1.905
 49
1.27
 74
     0
 49
-0.635
 74
     0
  0
LTYPE
  5
40
330
5
100
AcDbSymbolTableRecord
100
AcDbLinetypeTableRecord
  2
PHANTOM
 70
     0
  3
Phantom ______  __  __  ______  __  __  ______
 72
    65
 73
     6
 40
12.7
 49
6.35
 74
     0
 49
-1.27
 74
     0
 49
1.27
 74
     0
 49
-1.27
 74
     0
 49
1.27
 74
     0
 49
-1.27
 74
     0
  0
LTYPE
  5
41
330
5
100
AcDbSymbolTableRecord
100
AcDbLinetypeTableRecord
  2
CENTER
 70
     0
  3
Center ____ _ ____ _ ____ _ ____ _ ____ _ ____
 72
    65
 73
     4
 40
10.16
 49
6.35
 74
     0
 49
-1.27
 74
     0
 49
1.27
 74
     0
 49
-1.27
 74
     0
  0
LTYPE
  5
42
330
5
100
AcDbSymbolTableRecord
100
AcDbLinetypeTableRecord
  2
CENTERX2
 70
     0
  3
Center (2x) ________  __  ________  __  _____
 72
    65
 73
     4
 40
20.32
 49
12.7
 74
     0
 49
-2.54
 74
     0
 49
2.54
 74
     0
 49
-2.54
 74
     0
  0
LTYPE
  5
43
330
5
100
AcDbSymbolTableRecord
100
AcDbLinetypeTableRecord
  2
DOT2
 70
     0
  3
Dot (.5x) ........................................
 72
    65
 73
     2
 40
0.635
 49
0.0
 74
     0
 49
-0.635
 74
     0
  0
ENDTAB
  0
TABLE
  2
LAYER
  5
2
330
0
100
AcDbSymbolTable
 70
     1
  0
LAYER
  5
10
330
2
100
AcDbSymbolTableRecord
100
AcDbLayerTableRecord
  2
0
 70
     0
 62
     7
  6
Continuous
370
    -3
390
F
  0
ENDTAB
  0
TABLE
  2
STYLE
  5
3
330
0
100
AcDbSymbolTable
 70
     1
  0
STYLE
  5
11
330
3
100
AcDbSymbolTableRecord
100
AcDbTextStyleTableRecord
  2
Standard
 70
     0
 40
0.0
 41
1.0
 50
0.0
 71
     0
 42
17.5
  3
txt
  4

  0
ENDTAB
  0
TABLE
  2
VIEW
  5
6
330
0
100
AcDbSymbolTable
 70
     0
  0
ENDTAB
  0
TABLE
  2
UCS
  5
7
330
0
100
AcDbSymbolTable
 70
     0
  0
ENDTAB
  0
TABLE
  2
APPID
  5
9
330
0
100
AcDbSymbolTable
 70
     1
  0
APPID
  5
12
330
9
100
AcDbSymbolTableRecord
100
AcDbRegAppTableRecord
  2
ACAD
 70
     0
  0
ENDTAB
  0
TABLE
  2
DIMSTYLE
  5
A
330
0
100
AcDbSymbolTable
 70
     1
100
AcDbDimStyleTable
  0
DIMSTYLE
105
27
330
A
100
AcDbSymbolTableRecord
100
AcDbDimStyleTableRecord
  2
ISO-25
 70
     0
 41
2.5
 42
0.625
 43
3.75
 44
1.25
 73
     0
 74
     0
 77
     1
 78
     8
140
2.5
141
2.5
143
0.0393700787
147
0.625
171
     3
172
     1
178
     0
271
     2
272
     2
274
     3
278
    44
283
     0
284
     8
340
11
  0
ENDTAB
  0
TABLE
  2
BLOCK_RECORD
  5
1
330
0
100
AcDbSymbolTable
 70
     1
  0
BLOCK_RECORD
  5
1F
330
1
100
AcDbSymbolTableRecord
100
AcDbBlockTableRecord
  2
*Model_Space
340
22
  0
BLOCK_RECORD
  5
1B
330
1
100
AcDbSymbolTableRecord
100
AcDbBlockTableRecord
  2
*Paper_Space
340
1E
  0
BLOCK_RECORD
  5
23
330
1
100
AcDbSymbolTableRecord
100
AcDbBlockTableRecord
  2
*Paper_Space0
340
26
  0
ENDTAB
  0
ENDSEC
  0
SECTION
  2
BLOCKS
  0
BLOCK
  5
20
330
1F
100
AcDbEntity
  8
0
100
AcDbBlockBegin
  2
*Model_Space
 70
     0
 10
0.0
 20
0.0
 30
0.0
  3
*Model_Space
  1

  0
ENDBLK
  5
21
330
1F
100
AcDbEntity
  8
0
100
AcDbBlockEnd
  0
BLOCK
  5
1C
330
1B
100
AcDbEntity
 67
     1
  8
0
100
AcDbBlockBegin
  2
*Paper_Space
 70
     0
 10
0.0
 20
0.0
 30
0.0
  3
*Paper_Space
  1

  0
ENDBLK
  5
1D
330
1B
100
AcDbEntity
 67
     1
  8
0
100
AcDbBlockEnd
  0
BLOCK
  5
24
330
23
100
AcDbEntity
  8
0
100
AcDbBlockBegin
  2
*Paper_Space0
 70
     0
 10
0.0
 20
0.0
 30
0.0
  3
*Paper_Space0
  1

  0
ENDBLK
  5
25
330
23
100
AcDbEntity
  8
0
100
AcDbBlockEnd
  0
ENDSEC
  0
SECTION
  2
ENTITIES
  0
LINE
  5
44
330
1F
100
AcDbEntity
  8
0
  6
Continuous
 62
     7
370
    15
100
AcDbLine
 10
176.3295848421
 20
692.1148072156
 30
0.0
 11
173.8295848421
 21
692.1148072156
 31
0.0
  0
LINE
  5
45
330
1F
100
AcDbEntity
  8
0
  6
Continuous
 62
     7
370
    15
100
AcDbLine
 10
173.8295848421
 20
681.6201603177
 30
0.0
 11
176.3295848421
 21
681.6201603177
 31
0.0
  0
LINE
  5
46
330
1F
100
AcDbEntity
  8
0
  6
Continuous
 62
     7
370
    15
100
AcDbLine
 10
508.8295848421
 20
692.1148072156
 30
0.0
 11
506.3295848421
 21
692.1148072156
 31
0.0
  0
LINE
  5
47
330
1F
100
AcDbEntity
  8
0
  6
Continuous
 62
     7
370
    15
100
AcDbLine
 10
506.3295848421
 20
681.6201603177
 30
0.0
 11
508.8295848421
 21
681.6201603177
 31
0.0
  0
CIRCLE
  5
48
330
1F
100
AcDbEntity
  8
0
  6
Continuous
 62
     7
370
    15
100
AcDbCircle
 10
195.8163159934
 20
859.7303573099
 30
0.0
 40
1.68038767011771
  0
CIRCLE
  5
49
330
1F
100
AcDbEntity
  8
0
  6
Continuous
 62
     7
370
    15
100
AcDbCircle
 10
486.3295848421
 20
859.7303573099
 30
0.0
 40
1.680387670117796
  0
CIRCLE
  5
4A
330
1F
100
AcDbEntity
  8
0
  6
Continuous
 62
     7
370
    15
100
AcDbCircle
 10
196.3295848421
 20
607.5042282105
 30
0.0
 40
1.68038767011771
  0
CIRCLE
  5
4B
330
1F
100
AcDbEntity
  8
0
  6
Continuous
 62
     7
370
    15
100
AcDbCircle
 10
486.8428536908
 20
607.5042282105
 30
0.0
 40
1.680387670117739
  0
CIRCLE
  5
4C
330
1F
100
AcDbEntity
  8
0
  6
Continuous
 62
     7
370
    15
100
AcDbCircle
 10
196.3295848421
 20
607.5042282105
 30
0.0
 40
7.999999999999972
  0
CIRCLE
  5
4D
330
1F
100
AcDbEntity
  8
0
  6
Continuous
 62
     7
370
    15
100
AcDbCircle
 10
486.8428536908
 20
607.5042282105
 30
0.0
 40
8.0
  0
CIRCLE
  5
4E
330
1F
100
AcDbEntity
  8
0
  6
Continuous
 62
     7
370
    15
100
AcDbCircle
 10
486.3295848421
 20
859.7303573099
 30
0.0
 40
8.000000000000057
  0
CIRCLE
  5
4F
330
1F
100
AcDbEntity
  8
0
  6
Continuous
 62
     7
370
    15
100
AcDbCircle
 10
195.8163159934
 20
859.7303573099
 30
0.0
 40
7.999999999999972
  0
LINE
  5
50
330
1F
100
AcDbEntity
  8
0
  6
Continuous
 62
     7
370
    15
100
AcDbLine
 10
486.3295848421
 20
872.5042282105
 30
0.0
 11
196.3295848421
 21
872.5042282105
 31
0.0
  0
LINE
  5
51
330
1F
100
AcDbEntity
  8
0
  6
Continuous
 62
     7
370
    15
100
AcDbLine
 10
196.3295848421
 20
592.5042282105
 30
0.0
 11
486.3295848421
 21
592.5042282105
 31
0.0
  0
LINE
  5
52
330
1F
100
AcDbEntity
  8
0
  6
Continuous
 62
     7
370
    15
100
AcDbLine
 10
347.3687668307
 20
656.7053069656
 30
0.0
 11
329.0070637329
 21
656.7053069656
 31
0.0
  0
LINE
  5
53
330
1F
100
AcDbEntity
  8
0
  6
Continuous
 62
     7
370
    15
100
AcDbLine
 10
321.0070637329
 20
654.7053069656
 30
0.0
 11
327.0070637329
 21
648.7053069656
 31
0.0
  0
LINE
  5
54
330
1F
100
AcDbEntity
  8
0
  6
Continuous
 62
     7
370
    15
100
AcDbLine
 10
334.2763861934
 20
687.8138395131
 30
0.0
 11
334.2763861934
 21
678.9805528713
 31
0.0
  0
LINE
  5
55
330
1F
100
AcDbEntity
  8
0
  6
Continuous
 62
     7
370
    15
100
AcDbLine
 10
334.2763861934
 20
678.9805528713
 30
0.0
 11
351.7769075182
 21
678.9805528713
 31
0.0
  0
LINE
  5
56
330
1F
100
AcDbEntity
  8
0
  6
Continuous
 62
     7
370
    15
100
AcDbLine
 10
351.7769075182
 20
678.9805528713
 30
0.0
 11
351.7769075182
 21
648.5325866521
 31
0.0
  0
LINE
  5
57
330
1F
100
AcDbEntity
  8
0
  6
Continuous
 62
     7
370
    15
100
AcDbLine
 10
351.7769075182
 20
648.5325866521
 30
0.0
 11
359.7769075182
 21
648.5325866521
 31
0.0
  0
LINE
  5
58
330
1F
100
AcDbEntity
  8
0
  6
Continuous
 62
     7
370
    15
100
AcDbLine
 10
329.0070637329
 20
687.8138395131
 30
0.0
 11
321.0070637329
 21
687.8138395131
 31
0.0
  0
LINE
  5
59
330
1F
100
AcDbEntity
  8
0
  6
Continuous
 62
     7
370
    15
100
AcDbLine
 10
501.3295848421
 20
607.5042282105
 30
0.0
 11
501.3295848421
 21
857.5042282105
 31
0.0
  0
LINE
  5
5A
330
1F
100
AcDbEntity
  8
0
  6
Continuous
 62
     7
370
    15
100
AcDbLine
 10
181.3295848421
 20
857.5042282105
 30
0.0
 11
181.3295848421
 21
607.5042282105
 31
0.0
  0
ARC
  5
5B
330
1F
100
AcDbEntity
  8
0
  6
Continuous
 62
     7
370
    15
100
AcDbCircle
 10
228.4279450728
 20
826.7120839716
 30
0.0
 40
15.00000000000003
100
AcDbArc
 50
90.0
 51
180.0
  0
ARC
  5
5C
330
1F
100
AcDbEntity
  8
0
  6
Continuous
 62
     7
370
    15
100
AcDbCircle
 10
228.4279450728
 20
740.2689446175
 30
0.0
 40
15.00000000000003
100
AcDbArc
 50
180.0
 51
270.0
  0
ARC
  5
5D
330
1F
100
AcDbEntity
  8
0
  6
Continuous
 62
     7
370
    15
100
AcDbCircle
 10
454.2312246114
 20
740.2689446175
 30
0.0
 40
15.0
100
AcDbArc
 50
270.0
 51
0.0
  0
LINE
  5
5E
330
1F
100
AcDbEntity
  8
0
  6
Continuous
 62
     7
370
    15
100
AcDbLine
 10
359.7769075182
 20
648.5325866521
 30
0.0
 11
359.7769075182
 21
681.8138395131
 31
0.0
  0
LINE
  5
5F
330
1F
100
AcDbEntity
  8
0
  6
Continuous
 62
     7
370
    15
100
AcDbLine
 10
359.7769075182
 20
681.8138395131
 30
0.0
 11
353.7769075182
 21
687.8138395131
 31
0.0
  0
LINE
  5
60
330
1F
100
AcDbEntity
  8
0
  6
Continuous
 62
     7
370
    15
100
AcDbLine
 10
353.7769075182
 20
687.8138395131
 30
0.0
 11
334.2763861934
 21
687.8138395131
 31
0.0
  0
LINE
  5
61
330
1F
100
AcDbEntity
  8
0
  6
Continuous
 62
     7
370
    15
100
AcDbLine
 10
228.4279450728
 20
725.2689446175
 30
0.0
 11
454.2312246114
 21
725.2689446175
 31
0.0
  0
LINE
  5
62
330
1F
100
AcDbEntity
  8
0
  6
Continuous
 62
     7
370
    15
100
AcDbLine
 10
469.2312246114
 20
740.2689446175
 30
0.0
 11
469.2312246114
 21
826.7120839716
 31
0.0
  0
LINE
  5
63
330
1F
100
AcDbEntity
  8
0
  6
Continuous
 62
     7
370
    15
100
AcDbLine
 10
347.3687668307
 20
648.7053069656
 30
0.0
 11
347.3687668307
 21
656.7053069656
 31
0.0
  0
ARC
  5
64
330
1F
100
AcDbEntity
  8
0
  6
Continuous
 62
     7
370
    15
100
AcDbCircle
 10
196.3295848421
 20
857.5042282105
 30
0.0
 40
15.00000000000003
100
AcDbArc
 50
90.0
 51
180.0
  0
LINE
  5
65
330
1F
100
AcDbEntity
  8
0
  6
Continuous
 62
     7
370
    15
100
AcDbLine
 10
329.0070637329
 20
656.7053069656
 30
0.0
 11
329.0070637329
 21
687.8138395131
 31
0.0
  0
ARC
  5
66
330
1F
100
AcDbEntity
  8
0
  6
Continuous
 62
     7
370
    15
100
AcDbCircle
 10
486.3295848421
 20
857.5042282105
 30
0.0
 40
15.0
100
AcDbArc
 50
0.0
 51
90.0
  0
LINE
  5
67
330
1F
100
AcDbEntity
  8
0
  6
Continuous
 62
     7
370
    15
100
AcDbLine
 10
321.0070637329
 20
687.8138395131
 30
0.0
 11
321.0070637329
 21
654.7053069656
 31
0.0
  0
ARC
  5
68
330
1F
100
AcDbEntity
  8
0
  6
Continuous
 62
     7
370
    15
100
AcDbCircle
 10
196.3295848421
 20
607.5042282105
 30
0.0
 40
15.00000000000003
100
AcDbArc
 50
180.0
 51
270.0
  0
LINE
  5
69
330
1F
100
AcDbEntity
  8
0
  6
Continuous
 62
     7
370
    15
100
AcDbLine
 10
327.0070637329
 20
648.7053069656
 30
0.0
 11
347.3687668307
 21
648.7053069656
 31
0.0
  0
ARC
  5
6A
330
1F
100
AcDbEntity
  8
0
  6
Continuous
 62
     7
370
    15
100
AcDbCircle
 10
486.3295848421
 20
607.5042282105
 30
0.0
 40
15.0
100
AcDbArc
 50
270.0
 51
0.0
  0
ARC
  5
6B
330
1F
100
AcDbEntity
  8
0
  6
Continuous
 62
     7
370
    15
100
AcDbCircle
 10
454.2312246114
 20
826.7120839716
 30
0.0
 40
15.0
100
AcDbArc
 50
0.0
 51
90.0
  0
LINE
  5
6C
330
1F
100
AcDbEntity
  8
0
  6
Continuous
 62
     7
370
    15
100
AcDbLine
 10
454.2312246114
 20
841.7120839716
 30
0.0
 11
228.4279450728
 21
841.7120839716
 31
0.0
  0
LINE
  5
6D
330
1F
100
AcDbEntity
  8
0
  6
Continuous
 62
     7
370
    15
100
AcDbLine
 10
213.4279450728
 20
826.7120839716
 30
0.0
 11
213.4279450728
 21
740.2689446175
 31
0.0
  0
LINE
  5
6E
330
1F
100
AcDbEntity
  8
0
  6
Continuous
 62
     7
370
    15
100
AcDbLine
 10
501.3295848421
 20
707.4294828577
 30
0.0
 11
506.3295848421
 21
707.4294828577
 31
0.0
  0
LINE
  5
6F
330
1F
100
AcDbEntity
  8
0
  6
Continuous
 62
     7
370
    15
100
AcDbLine
 10
506.3295848421
 20
707.4294828577
 30
0.0
 11
506.3295848421
 21
577.5042282105
 31
0.0
  0
LINE
  5
70
330
1F
100
AcDbEntity
  8
0
  6
Continuous
 62
     7
370
    15
100
AcDbLine
 10
176.3295848421
 20
577.5042282105
 30
0.0
 11
506.3295848421
 21
577.5042282105
 31
0.0
  0
LINE
  5
71
330
1F
100
AcDbEntity
  8
0
  6
Continuous
 62
     7
370
    15
100
AcDbLine
 10
176.3295848421
 20
707.4294828577
 30
0.0
 11
176.3295848421
 21
577.5042282105
 31
0.0
  0
LINE
  5
72
330
1F
100
AcDbEntity
  8
0
  6
Continuous
 62
     7
370
    15
100
AcDbLine
 10
181.3295848421
 20
607.5042282105
 30
0.0
 11
181.3295848421
 21
582.5042282105
 31
0.0
  0
LINE
  5
73
330
1F
100
AcDbEntity
  8
0
  6
Continuous
 62
     7
370
    15
100
AcDbLine
 10
181.3295848421
 20
582.5042282105
 30
0.0
 11
501.3295848421
 21
582.5042282105
 31
0.0
  0
LINE
  5
74
330
1F
100
AcDbEntity
  8
0
  6
Continuous
 62
     7
370
    15
100
AcDbLine
 10
501.3295848421
 20
582.5042282105
 30
0.0
 11
501.3295848421
 21
607.5042282105
 31
0.0
  0
LINE
  5
75
330
1F
100
AcDbEntity
  8
0
  6
Continuous
 62
     7
370
    15
100
AcDbLine
 10
176.3295848421
 20
707.4294828577
 30
0.0
 11
181.3295848421
 21
707.4294828577
 31
0.0
  0
LINE
  5
76
330
1F
100
AcDbEntity
  8
0
  6
Continuous
 62
     7
370
    15
100
AcDbLine
 10
293.4291955961
 20
767.5060804469
 30
0.0
 11
293.4291955961
 21
777.5060804469
 31
0.0
  0
LINE
  5
77
330
1F
100
AcDbEntity
  8
0
  6
Continuous
 62
     7
370
    15
100
AcDbLine
 10
283.4291955961
 20
767.5060804469
 30
0.0
 11
293.4291955961
 21
767.5060804469
 31
0.0
  0
LINE
  5
78
330
1F
100
AcDbEntity
  8
0
  6
Continuous
 62
     7
370
    15
100
AcDbLine
 10
283.4291955961
 20
777.5060804469
 30
0.0
 11
283.4291955961
 21
767.5060804469
 31
0.0
  0
LINE
  5
79
330
1F
100
AcDbEntity
  8
0
  6
Continuous
 62
     7
370
    15
100
AcDbLine
 10
293.4291955961
 20
777.5060804469
 30
0.0
 11
283.4291955961
 21
777.5060804469
 31
0.0
  0
LINE
  5
7A
330
1F
100
AcDbEntity
  8
0
  6
Continuous
 62
     7
370
    15
100
AcDbLine
 10
333.4291955961
 20
767.5060804469
 30
0.0
 11
333.4291955961
 21
777.5060804469
 31
0.0
  0
LINE
  5
7B
330
1F
100
AcDbEntity
  8
0
  6
Continuous
 62
     7
370
    15
100
AcDbLine
 10
323.4291955961
 20
777.5060804469
 30
0.0
 11
323.4291955961
 21
767.5060804469
 31
0.0
  0
LINE
  5
7C
330
1F
100
AcDbEntity
  8
0
  6
Continuous
 62
     7
370
    15
100
AcDbLine
 10
333.4291955961
 20
777.5060804469
 30
0.0
 11
323.4291955961
 21
777.5060804469
 31
0.0
  0
LINE
  5
7D
330
1F
100
AcDbEntity
  8
0
  6
Continuous
 62
     7
370
    15
100
AcDbLine
 10
323.4291955961
 20
767.5060804469
 30
0.0
 11
333.4291955961
 21
767.5060804469
 31
0.0
  0
LINE
  5
7E
330
1F
100
AcDbEntity
  8
0
  6
Continuous
 62
     7
370
    15
100
AcDbLine
 10
313.4291955961
 20
824.5060804469
 30
0.0
 11
313.4291955961
 21
834.5060804469
 31
0.0
  0
LINE
  5
7F
330
1F
100
AcDbEntity
  8
0
  6
Continuous
 62
     7
370
    15
100
AcDbLine
 10
303.4291955961
 20
824.5060804469
 30
0.0
 11
313.4291955961
 21
824.5060804469
 31
0.0
  0
LINE
  5
80
330
1F
100
AcDbEntity
  8
0
  6
Continuous
 62
     7
370
    15
100
AcDbLine
 10
303.4291955961
 20
834.5060804469
 30
0.0
 11
303.4291955961
 21
824.5060804469
 31
0.0
  0
LINE
  5
81
330
1F
100
AcDbEntity
  8
0
  6
Continuous
 62
     7
370
    15
100
AcDbLine
 10
313.4291955961
 20
834.5060804469
 30
0.0
 11
303.4291955961
 21
834.5060804469
 31
0.0
  0
LINE
  5
82
330
1F
100
AcDbEntity
  8
0
  6
Continuous
 62
     7
370
    15
100
AcDbLine
 10
313.4291955961
 20
767.5060804469
 30
0.0
 11
313.4291955961
 21
777.5060804469
 31
0.0
  0
LINE
  5
83
330
1F
100
AcDbEntity
  8
0
  6
Continuous
 62
     7
370
    15
100
AcDbLine
 10
303.4291955961
 20
767.5060804469
 30
0.0
 11
313.4291955961
 21
767.5060804469
 31
0.0
  0
LINE
  5
84
330
1F
100
AcDbEntity
  8
0
  6
Continuous
 62
     7
370
    15
100
AcDbLine
 10
313.4291955961
 20
777.5060804469
 30
0.0
 11
303.4291955961
 21
777.5060804469
 31
0.0
  0
LINE
  5
85
330
1F
100
AcDbEntity
  8
0
  6
Continuous
 62
     7
370
    15
100
AcDbLine
 10
303.4291955961
 20
777.5060804469
 30
0.0
 11
303.4291955961
 21
767.5060804469
 31
0.0
  0
LINE
  5
86
330
1F
100
AcDbEntity
  8
0
  6
Continuous
 62
     7
370
    15
100
AcDbLine
 10
343.4291955961
 20
834.5060804469
 30
0.0
 11
343.4291955961
 21
824.5060804469
 31
0.0
  0
LINE
  5
87
330
1F
100
AcDbEntity
  8
0
  6
Continuous
 62
     7
370
    15
100
AcDbLine
 10
353.4291955961
 20
824.5060804469
 30
0.0
 11
353.4291955961
 21
834.5060804469
 31
0.0
  0
LINE
  5
88
330
1F
100
AcDbEntity
  8
0
  6
Continuous
 62
     7
370
    15
100
AcDbLine
 10
343.4291955961
 20
824.5060804469
 30
0.0
 11
353.4291955961
 21
824.5060804469
 31
0.0
  0
LINE
  5
89
330
1F
100
AcDbEntity
  8
0
  6
Continuous
 62
     7
370
    15
100
AcDbLine
 10
353.4291955961
 20
834.5060804469
 30
0.0
 11
343.4291955961
 21
834.5060804469
 31
0.0
  0
LINE
  5
8A
330
1F
100
AcDbEntity
  8
0
  6
Continuous
 62
     7
370
    15
100
AcDbLine
 10
333.4291955961
 20
824.5060804469
 30
0.0
 11
333.4291955961
 21
834.5060804469
 31
0.0
  0
LINE
  5
8B
330
1F
100
AcDbEntity
  8
0
  6
Continuous
 62
     7
370
    15
100
AcDbLine
 10
323.4291955961
 20
824.5060804469
 30
0.0
 11
333.4291955961
 21
824.5060804469
 31
0.0
  0
LINE
  5
8C
330
1F
100
AcDbEntity
  8
0
  6
Continuous
 62
     7
370
    15
100
AcDbLine
 10
323.4291955961
 20
834.5060804469
 30
0.0
 11
323.4291955961
 21
824.5060804469
 31
0.0
  0
LINE
  5
8D
330
1F
100
AcDbEntity
  8
0
  6
Continuous
 62
     7
370
    15
100
AcDbLine
 10
333.4291955961
 20
834.5060804469
 30
0.0
 11
323.4291955961
 21
834.5060804469
 31
0.0
  0
LINE
  5
8E
330
1F
100
AcDbEntity
  8
0
  6
Continuous
 62
     7
370
    15
100
AcDbLine
 10
413.4291955961
 20
824.5060804469
 30
0.0
 11
413.4291955961
 21
834.5060804469
 31
0.0
  0
LINE
  5
8F
330
1F
100
AcDbEntity
  8
0
  6
Continuous
 62
     7
370
    15
100
AcDbLine
 10
403.4291955961
 20
824.5060804469
 30
0.0
 11
413.4291955961
 21
824.5060804469
 31
0.0
  0
LINE
  5
90
330
1F
100
AcDbEntity
  8
0
  6
Continuous
 62
     7
370
    15
100
AcDbLine
 10
403.4291955961
 20
834.5060804469
 30
0.0
 11
403.4291955961
 21
824.5060804469
 31
0.0
  0
LINE
  5
91
330
1F
100
AcDbEntity
  8
0
  6
Continuous
 62
     7
370
    15
100
AcDbLine
 10
413.4291955961
 20
834.5060804469
 30
0.0
 11
403.4291955961
 21
834.5060804469
 31
0.0
  0
LINE
  5
92
330
1F
100
AcDbEntity
  8
0
  6
Continuous
 62
     7
370
    15
100
AcDbLine
 10
433.4291955961
 20
824.5060804469
 30
0.0
 11
433.4291955961
 21
834.5060804469
 31
0.0
  0
LINE
  5
93
330
1F
100
AcDbEntity
  8
0
  6
Continuous
 62
     7
370
    15
100
AcDbLine
 10
423.4291955961
 20
824.5060804469
 30
0.0
 11
433.4291955961
 21
824.5060804469
 31
0.0
  0
LINE
  5
94
330
1F
100
AcDbEntity
  8
0
  6
Continuous
 62
     7
370
    15
100
AcDbLine
 10
423.4291955961
 20
834.5060804469
 30
0.0
 11
423.4291955961
 21
824.5060804469
 31
0.0
  0
LINE
  5
95
330
1F
100
AcDbEntity
  8
0
  6
Continuous
 62
     7
370
    15
100
AcDbLine
 10
433.4291955961
 20
834.5060804469
 30
0.0
 11
423.4291955961
 21
834.5060804469
 31
0.0
  0
LINE
  5
96
330
1F
100
AcDbEntity
  8
0
  6
Continuous
 62
     7
370
    15
100
AcDbLine
 10
233.4291955961
 20
834.5060804469
 30
0.0
 11
223.4291955961
 21
834.5060804469
 31
0.0
  0
LINE
  5
97
330
1F
100
AcDbEntity
  8
0
  6
Continuous
 62
     7
370
    15
100
AcDbLine
 10
233.4291955961
 20
824.5060804469
 30
0.0
 11
233.4291955961
 21
834.5060804469
 31
0.0
  0
LINE
  5
98
330
1F
100
AcDbEntity
  8
0
  6
Continuous
 62
     7
370
    15
100
AcDbLine
 10
223.4291955961
 20
824.5060804469
 30
0.0
 11
233.4291955961
 21
824.5060804469
 31
0.0
  0
LINE
  5
99
330
1F
100
AcDbEntity
  8
0
  6
Continuous
 62
     7
370
    15
100
AcDbLine
 10
223.4291955961
 20
834.5060804469
 30
0.0
 11
223.4291955961
 21
824.5060804469
 31
0.0
  0
LINE
  5
9A
330
1F
100
AcDbEntity
  8
0
  6
Continuous
 62
     7
370
    15
100
AcDbLine
 10
253.4291955961
 20
824.5060804469
 30
0.0
 11
253.4291955961
 21
834.5060804469
 31
0.0
  0
LINE
  5
9B
330
1F
100
AcDbEntity
  8
0
  6
Continuous
 62
     7
370
    15
100
AcDbLine
 10
243.4291955961
 20
824.5060804469
 30
0.0
 11
253.4291955961
 21
824.5060804469
 31
0.0
  0
LINE
  5
9C
330
1F
100
AcDbEntity
  8
0
  6
Continuous
 62
     7
370
    15
100
AcDbLine
 10
243.4291955961
 20
834.5060804469
 30
0.0
 11
243.4291955961
 21
824.5060804469
 31
0.0
  0
LINE
  5
9D
330
1F
100
AcDbEntity
  8
0
  6
Continuous
 62
     7
370
    15
100
AcDbLine
 10
253.4291955961
 20
834.5060804469
 30
0.0
 11
243.4291955961
 21
834.5060804469
 31
0.0
  0
LINE
  5
9E
330
1F
100
AcDbEntity
  8
0
  6
Continuous
 62
     7
370
    15
100
AcDbLine
 10
273.4291955961
 20
824.5060804469
 30
0.0
 11
273.4291955961
 21
834.5060804469
 31
0.0
  0
LINE
  5
9F
330
1F
100
AcDbEntity
  8
0
  6
Continuous
 62
     7
370
    15
100
AcDbLine
 10
263.4291955961
 20
824.5060804469
 30
0.0
 11
273.4291955961
 21
824.5060804469
 31
0.0
  0
LINE
  5
A0
330
1F
100
AcDbEntity
  8
0
  6
Continuous
 62
     7
370
    15
100
AcDbLine
 10
263.4291955961
 20
834.5060804469
 30
0.0
 11
263.4291955961
 21
824.5060804469
 31
0.0
  0
LINE
  5
A1
330
1F
100
AcDbEntity
  8
0
  6
Continuous
 62
     7
370
    15
100
AcDbLine
 10
273.4291955961
 20
834.5060804469
 30
0.0
 11
263.4291955961
 21
834.5060804469
 31
0.0
  0
LINE
  5
A2
330
1F
100
AcDbEntity
  8
0
  6
Continuous
 62
     7
370
    15
100
AcDbLine
 10
293.4291955961
 20
824.5060804469
 30
0.0
 11
293.4291955961
 21
834.5060804469
 31
0.0
  0
LINE
  5
A3
330
1F
100
AcDbEntity
  8
0
  6
Continuous
 62
     7
370
    15
100
AcDbLine
 10
283.4291955961
 20
824.5060804469
 30
0.0
 11
293.4291955961
 21
824.5060804469
 31
0.0
  0
LINE
  5
A4
330
1F
100
AcDbEntity
  8
0
  6
Continuous
 62
     7
370
    15
100
AcDbLine
 10
283.4291955961
 20
834.5060804469
 30
0.0
 11
283.4291955961
 21
824.5060804469
 31
0.0
  0
LINE
  5
A5
330
1F
100
AcDbEntity
  8
0
  6
Continuous
 62
     7
370
    15
100
AcDbLine
 10
293.4291955961
 20
834.5060804469
 30
0.0
 11
283.4291955961
 21
834.5060804469
 31
0.0
  0
LINE
  5
A6
330
1F
100
AcDbEntity
  8
0
  6
Continuous
 62
     7
370
    15
100
AcDbLine
 10
293.4291955961
 20
805.5060804469
 30
0.0
 11
293.4291955961
 21
815.5060804469
 31
0.0
  0
LINE
  5
A7
330
1F
100
AcDbEntity
  8
0
  6
Continuous
 62
     7
370
    15
100
AcDbLine
 10
283.4291955961
 20
805.5060804469
 30
0.0
 11
293.4291955961
 21
805.5060804469
 31
0.0
  0
LINE
  5
A8
330
1F
100
AcDbEntity
  8
0
  6
Continuous
 62
     7
370
    15
100
AcDbLine
 10
283.4291955961
 20
815.5060804469
 30
0.0
 11
283.4291955961
 21
805.5060804469
 31
0.0
  0
LINE
  5
A9
330
1F
100
AcDbEntity
  8
0
  6
Continuous
 62
     7
370
    15
100
AcDbLine
 10
293.4291955961
 20
815.5060804469
 30
0.0
 11
283.4291955961
 21
815.5060804469
 31
0.0
  0
LINE
  5
AA
330
1F
100
AcDbEntity
  8
0
  6
Continuous
 62
     7
370
    15
100
AcDbLine
 10
313.4291955961
 20
805.5060804469
 30
0.0
 11
313.4291955961
 21
815.5060804469
 31
0.0
  0
LINE
  5
AB
330
1F
100
AcDbEntity
  8
0
  6
Continuous
 62
     7
370
    15
100
AcDbLine
 10
303.4291955961
 20
805.5060804469
 30
0.0
 11
313.4291955961
 21
805.5060804469
 31
0.0
  0
LINE
  5
AC
330
1F
100
AcDbEntity
  8
0
  6
Continuous
 62
     7
370
    15
100
AcDbLine
 10
303.4291955961
 20
815.5060804469
 30
0.0
 11
303.4291955961
 21
805.5060804469
 31
0.0
  0
LINE
  5
AD
330
1F
100
AcDbEntity
  8
0
  6
Continuous
 62
     7
370
    15
100
AcDbLine
 10
313.4291955961
 20
815.5060804469
 30
0.0
 11
303.4291955961
 21
815.5060804469
 31
0.0
  0
LINE
  5
AE
330
1F
100
AcDbEntity
  8
0
  6
Continuous
 62
     7
370
    15
100
AcDbLine
 10
333.4291955961
 20
805.5060804469
 30
0.0
 11
333.4291955961
 21
815.5060804469
 31
0.0
  0
LINE
  5
AF
330
1F
100
AcDbEntity
  8
0
  6
Continuous
 62
     7
370
    15
100
AcDbLine
 10
323.4291955961
 20
805.5060804469
 30
0.0
 11
333.4291955961
 21
805.5060804469
 31
0.0
  0
LINE
  5
B0
330
1F
100
AcDbEntity
  8
0
  6
Continuous
 62
     7
370
    15
100
AcDbLine
 10
323.4291955961
 20
815.5060804469
 30
0.0
 11
323.4291955961
 21
805.5060804469
 31
0.0
  0
LINE
  5
B1
330
1F
100
AcDbEntity
  8
0
  6
Continuous
 62
     7
370
    15
100
AcDbLine
 10
333.4291955961
 20
815.5060804469
 30
0.0
 11
323.4291955961
 21
815.5060804469
 31
0.0
  0
LINE
  5
B2
330
1F
100
AcDbEntity
  8
0
  6
Continuous
 62
     7
370
    15
100
AcDbLine
 10
353.4291955961
 20
805.5060804469
 30
0.0
 11
353.4291955961
 21
815.5060804469
 31
0.0
  0
LINE
  5
B3
330
1F
100
AcDbEntity
  8
0
  6
Continuous
 62
     7
370
    15
100
AcDbLine
 10
343.4291955961
 20
805.5060804469
 30
0.0
 11
353.4291955961
 21
805.5060804469
 31
0.0
  0
LINE
  5
B4
330
1F
100
AcDbEntity
  8
0
  6
Continuous
 62
     7
370
    15
100
AcDbLine
 10
343.4291955961
 20
815.5060804469
 30
0.0
 11
343.4291955961
 21
805.5060804469
 31
0.0
  0
LINE
  5
B5
330
1F
100
AcDbEntity
  8
0
  6
Continuous
 62
     7
370
    15
100
AcDbLine
 10
353.4291955961
 20
815.5060804469
 30
0.0
 11
343.4291955961
 21
815.5060804469
 31
0.0
  0
LINE
  5
B6
330
1F
100
AcDbEntity
  8
0
  6
Continuous
 62
     7
370
    15
100
AcDbLine
 10
373.4291955961
 20
805.5060804469
 30
0.0
 11
373.4291955961
 21
815.5060804469
 31
0.0
  0
LINE
  5
B7
330
1F
100
AcDbEntity
  8
0
  6
Continuous
 62
     7
370
    15
100
AcDbLine
 10
363.4291955961
 20
805.5060804469
 30
0.0
 11
373.4291955961
 21
805.5060804469
 31
0.0
  0
LINE
  5
B8
330
1F
100
AcDbEntity
  8
0
  6
Continuous
 62
     7
370
    15
100
AcDbLine
 10
363.4291955961
 20
815.5060804469
 30
0.0
 11
363.4291955961
 21
805.5060804469
 31
0.0
  0
LINE
  5
B9
330
1F
100
AcDbEntity
  8
0
  6
Continuous
 62
     7
370
    15
100
AcDbLine
 10
373.4291955961
 20
815.5060804469
 30
0.0
 11
363.4291955961
 21
815.5060804469
 31
0.0
  0
LINE
  5
BA
330
1F
100
AcDbEntity
  8
0
  6
Continuous
 62
     7
370
    15
100
AcDbLine
 10
393.4291955961
 20
805.5060804469
 30
0.0
 11
393.4291955961
 21
815.5060804469
 31
0.0
  0
LINE
  5
BB
330
1F
100
AcDbEntity
  8
0
  6
Continuous
 62
     7
370
    15
100
AcDbLine
 10
383.4291955961
 20
805.5060804469
 30
0.0
 11
393.4291955961
 21
805.5060804469
 31
0.0
  0
LINE
  5
BC
330
1F
100
AcDbEntity
  8
0
  6
Continuous
 62
     7
370
    15
100
AcDbLine
 10
383.4291955961
 20
815.5060804469
 30
0.0
 11
383.4291955961
 21
805.5060804469
 31
0.0
  0
LINE
  5
BD
330
1F
100
AcDbEntity
  8
0
  6
Continuous
 62
     7
370
    15
100
AcDbLine
 10
393.4291955961
 20
815.5060804469
 30
0.0
 11
383.4291955961
 21
815.5060804469
 31
0.0
  0
LINE
  5
BE
330
1F
100
AcDbEntity
  8
0
  6
Continuous
 62
     7
370
    15
100
AcDbLine
 10
413.4291955961
 20
805.5060804469
 30
0.0
 11
413.4291955961
 21
815.5060804469
 31
0.0
  0
LINE
  5
BF
330
1F
100
AcDbEntity
  8
0
  6
Continuous
 62
     7
370
    15
100
AcDbLine
 10
403.4291955961
 20
805.5060804469
 30
0.0
 11
413.4291955961
 21
805.5060804469
 31
0.0
  0
LINE
  5
C0
330
1F
100
AcDbEntity
  8
0
  6
Continuous
 62
     7
370
    15
100
AcDbLine
 10
403.4291955961
 20
815.5060804469
 30
0.0
 11
403.4291955961
 21
805.5060804469
 31
0.0
  0
LINE
  5
C1
330
1F
100
AcDbEntity
  8
0
  6
Continuous
 62
     7
370
    15
100
AcDbLine
 10
413.4291955961
 20
815.5060804469
 30
0.0
 11
403.4291955961
 21
815.5060804469
 31
0.0
  0
LINE
  5
C2
330
1F
100
AcDbEntity
  8
0
  6
Continuous
 62
     7
370
    15
100
AcDbLine
 10
433.4291955961
 20
805.5060804469
 30
0.0
 11
433.4291955961
 21
815.5060804469
 31
0.0
  0
LINE
  5
C3
330
1F
100
AcDbEntity
  8
0
  6
Continuous
 62
     7
370
    15
100
AcDbLine
 10
423.4291955961
 20
805.5060804469
 30
0.0
 11
433.4291955961
 21
805.5060804469
 31
0.0
  0
LINE
  5
C4
330
1F
100
AcDbEntity
  8
0
  6
Continuous
 62
     7
370
    15
100
AcDbLine
 10
423.4291955961
 20
815.5060804469
 30
0.0
 11
423.4291955961
 21
805.5060804469
 31
0.0
  0
LINE
  5
C5
330
1F
100
AcDbEntity
  8
0
  6
Continuous
 62
     7
370
    15
100
AcDbLine
 10
433.4291955961
 20
815.5060804469
 30
0.0
 11
423.4291955961
 21
815.5060804469
 31
0.0
  0
LINE
  5
C6
330
1F
100
AcDbEntity
  8
0
  6
Continuous
 62
     7
370
    15
100
AcDbLine
 10
453.4291955961
 20
805.5060804469
 30
0.0
 11
453.4291955961
 21
815.5060804469
 31
0.0
  0
LINE
  5
C7
330
1F
100
AcDbEntity
  8
0
  6
Continuous
 62
     7
370
    15
100
AcDbLine
 10
443.4291955961
 20
805.5060804469
 30
0.0
 11
453.4291955961
 21
805.5060804469
 31
0.0
  0
LINE
  5
C8
330
1F
100
AcDbEntity
  8
0
  6
Continuous
 62
     7
370
    15
100
AcDbLine
 10
443.4291955961
 20
815.5060804469
 30
0.0
 11
443.4291955961
 21
805.5060804469
 31
0.0
  0
LINE
  5
C9
330
1F
100
AcDbEntity
  8
0
  6
Continuous
 62
     7
370
    15
100
AcDbLine
 10
453.4291955961
 20
815.5060804469
 30
0.0
 11
443.4291955961
 21
815.5060804469
 31
0.0
  0
LINE
  5
CA
330
1F
100
AcDbEntity
  8
0
  6
Continuous
 62
     7
370
    15
100
AcDbLine
 10
253.4291955961
 20
786.5060804469
 30
0.0
 11
253.4291955961
 21
796.5060804469
 31
0.0
  0
LINE
  5
CB
330
1F
100
AcDbEntity
  8
0
  6
Continuous
 62
     7
370
    15
100
AcDbLine
 10
243.4291955961
 20
786.5060804469
 30
0.0
 11
253.4291955961
 21
786.5060804469
 31
0.0
  0
LINE
  5
CC
330
1F
100
AcDbEntity
  8
0
  6
Continuous
 62
     7
370
    15
100
AcDbLine
 10
243.4291955961
 20
796.5060804469
 30
0.0
 11
243.4291955961
 21
786.5060804469
 31
0.0
  0
LINE
  5
CD
330
1F
100
AcDbEntity
  8
0
  6
Continuous
 62
     7
370
    15
100
AcDbLine
 10
253.4291955961
 20
796.5060804469
 30
0.0
 11
243.4291955961
 21
796.5060804469
 31
0.0
  0
LINE
  5
CE
330
1F
100
AcDbEntity
  8
0
  6
Continuous
 62
     7
370
    15
100
AcDbLine
 10
273.4291955961
 20
786.5060804469
 30
0.0
 11
273.4291955961
 21
796.5060804469
 31
0.0
  0
LINE
  5
CF
330
1F
100
AcDbEntity
  8
0
  6
Continuous
 62
     7
370
    15
100
AcDbLine
 10
263.4291955961
 20
786.5060804469
 30
0.0
 11
273.4291955961
 21
786.5060804469
 31
0.0
  0
LINE
  5
D0
330
1F
100
AcDbEntity
  8
0
  6
Continuous
 62
     7
370
    15
100
AcDbLine
 10
263.4291955961
 20
796.5060804469
 30
0.0
 11
263.4291955961
 21
786.5060804469
 31
0.0
  0
LINE
  5
D1
330
1F
100
AcDbEntity
  8
0
  6
Continuous
 62
     7
370
    15
100
AcDbLine
 10
273.4291955961
 20
796.5060804469
 30
0.0
 11
263.4291955961
 21
796.5060804469
 31
0.0
  0
LINE
  5
D2
330
1F
100
AcDbEntity
  8
0
  6
Continuous
 62
     7
370
    15
100
AcDbLine
 10
293.4291955961
 20
786.5060804469
 30
0.0
 11
293.4291955961
 21
796.5060804469
 31
0.0
  0
LINE
  5
D3
330
1F
100
AcDbEntity
  8
0
  6
Continuous
 62
     7
370
    15
100
AcDbLine
 10
283.4291955961
 20
786.5060804469
 30
0.0
 11
293.4291955961
 21
786.5060804469
 31
0.0
  0
LINE
  5
D4
330
1F
100
AcDbEntity
  8
0
  6
Continuous
 62
     7
370
    15
100
AcDbLine
 10
283.4291955961
 20
796.5060804469
 30
0.0
 11
283.4291955961
 21
786.5060804469
 31
0.0
  0
LINE
  5
D5
330
1F
100
AcDbEntity
  8
0
  6
Continuous
 62
     7
370
    15
100
AcDbLine
 10
293.4291955961
 20
796.5060804469
 30
0.0
 11
283.4291955961
 21
796.5060804469
 31
0.0
  0
LINE
  5
D6
330
1F
100
AcDbEntity
  8
0
  6
Continuous
 62
     7
370
    15
100
AcDbLine
 10
313.4291955961
 20
786.5060804469
 30
0.0
 11
313.4291955961
 21
796.5060804469
 31
0.0
  0
LINE
  5
D7
330
1F
100
AcDbEntity
  8
0
  6
Continuous
 62
     7
370
    15
100
AcDbLine
 10
303.4291955961
 20
786.5060804469
 30
0.0
 11
313.4291955961
 21
786.5060804469
 31
0.0
  0
LINE
  5
D8
330
1F
100
AcDbEntity
  8
0
  6
Continuous
 62
     7
370
    15
100
AcDbLine
 10
303.4291955961
 20
796.5060804469
 30
0.0
 11
303.4291955961
 21
786.5060804469
 31
0.0
  0
LINE
  5
D9
330
1F
100
AcDbEntity
  8
0
  6
Continuous
 62
     7
370
    15
100
AcDbLine
 10
313.4291955961
 20
796.5060804469
 30
0.0
 11
303.4291955961
 21
796.5060804469
 31
0.0
  0
LINE
  5
DA
330
1F
100
AcDbEntity
  8
0
  6
Continuous
 62
     7
370
    15
100
AcDbLine
 10
333.4291955961
 20
786.5060804469
 30
0.0
 11
333.4291955961
 21
796.5060804469
 31
0.0
  0
LINE
  5
DB
330
1F
100
AcDbEntity
  8
0
  6
Continuous
 62
     7
370
    15
100
AcDbLine
 10
323.4291955961
 20
786.5060804469
 30
0.0
 11
333.4291955961
 21
786.5060804469
 31
0.0
  0
LINE
  5
DC
330
1F
100
AcDbEntity
  8
0
  6
Continuous
 62
     7
370
    15
100
AcDbLine
 10
323.4291955961
 20
796.5060804469
 30
0.0
 11
323.4291955961
 21
786.5060804469
 31
0.0
  0
LINE
  5
DD
330
1F
100
AcDbEntity
  8
0
  6
Continuous
 62
     7
370
    15
100
AcDbLine
 10
333.4291955961
 20
796.5060804469
 30
0.0
 11
323.4291955961
 21
796.5060804469
 31
0.0
  0
LINE
  5
DE
330
1F
100
AcDbEntity
  8
0
  6
Continuous
 62
     7
370
    15
100
AcDbLine
 10
373.4291955961
 20
824.5060804469
 30
0.0
 11
373.4291955961
 21
834.5060804469
 31
0.0
  0
LINE
  5
DF
330
1F
100
AcDbEntity
  8
0
  6
Continuous
 62
     7
370
    15
100
AcDbLine
 10
363.4291955961
 20
824.5060804469
 30
0.0
 11
373.4291955961
 21
824.5060804469
 31
0.0
  0
LINE
  5
E0
330
1F
100
AcDbEntity
  8
0
  6
Continuous
 62
     7
370
    15
100
AcDbLine
 10
363.4291955961
 20
834.5060804469
 30
0.0
 11
363.4291955961
 21
824.5060804469
 31
0.0
  0
LINE
  5
E1
330
1F
100
AcDbEntity
  8
0
  6
Continuous
 62
     7
370
    15
100
AcDbLine
 10
373.4291955961
 20
834.5060804469
 30
0.0
 11
363.4291955961
 21
834.5060804469
 31
0.0
  0
LINE
  5
E2
330
1F
100
AcDbEntity
  8
0
  6
Continuous
 62
     7
370
    15
100
AcDbLine
 10
383.4291955961
 20
824.5060804469
 30
0.0
 11
393.4291955961
 21
824.5060804469
 31
0.0
  0
LINE
  5
E3
330
1F
100
AcDbEntity
  8
0
  6
Continuous
 62
     7
370
    15
100
AcDbLine
 10
383.4291955961
 20
834.5060804469
 30
0.0
 11
383.4291955961
 21
824.5060804469
 31
0.0
  0
LINE
  5
E4
330
1F
100
AcDbEntity
  8
0
  6
Continuous
 62
     7
370
    15
100
AcDbLine
 10
393.4291955961
 20
834.5060804469
 30
0.0
 11
383.4291955961
 21
834.5060804469
 31
0.0
  0
LINE
  5
E5
330
1F
100
AcDbEntity
  8
0
  6
Continuous
 62
     7
370
    15
100
AcDbLine
 10
393.4291955961
 20
824.5060804469
 30
0.0
 11
393.4291955961
 21
834.5060804469
 31
0.0
  0
LINE
  5
E6
330
1F
100
AcDbEntity
  8
0
  6
Continuous
 62
     7
370
    15
100
AcDbLine
 10
383.4291955961
 20
786.5060804469
 30
0.0
 11
393.4291955961
 21
786.5060804469
 31
0.0
  0
LINE
  5
E7
330
1F
100
AcDbEntity
  8
0
  6
Continuous
 62
     7
370
    15
100
AcDbLine
 10
393.4291955961
 20
796.5060804469
 30
0.0
 11
383.4291955961
 21
796.5060804469
 31
0.0
  0
LINE
  5
E8
330
1F
100
AcDbEntity
  8
0
  6
Continuous
 62
     7
370
    15
100
AcDbLine
 10
393.4291955961
 20
786.5060804469
 30
0.0
 11
393.4291955961
 21
796.5060804469
 31
0.0
  0
LINE
  5
E9
330
1F
100
AcDbEntity
  8
0
  6
Continuous
 62
     7
370
    15
100
AcDbLine
 10
383.4291955961
 20
796.5060804469
 30
0.0
 11
383.4291955961
 21
786.5060804469
 31
0.0
  0
LINE
  5
EA
330
1F
100
AcDbEntity
  8
0
  6
Continuous
 62
     7
370
    15
100
AcDbLine
 10
413.4291955961
 20
786.5060804469
 30
0.0
 11
413.4291955961
 21
796.5060804469
 31
0.0
  0
LINE
  5
EB
330
1F
100
AcDbEntity
  8
0
  6
Continuous
 62
     7
370
    15
100
AcDbLine
 10
403.4291955961
 20
786.5060804469
 30
0.0
 11
413.4291955961
 21
786.5060804469
 31
0.0
  0
LINE
  5
EC
330
1F
100
AcDbEntity
  8
0
  6
Continuous
 62
     7
370
    15
100
AcDbLine
 10
403.4291955961
 20
796.5060804469
 30
0.0
 11
403.4291955961
 21
786.5060804469
 31
0.0
  0
LINE
  5
ED
330
1F
100
AcDbEntity
  8
0
  6
Continuous
 62
     7
370
    15
100
AcDbLine
 10
413.4291955961
 20
796.5060804469
 30
0.0
 11
403.4291955961
 21
796.5060804469
 31
0.0
  0
LINE
  5
EE
330
1F
100
AcDbEntity
  8
0
  6
Continuous
 62
     7
370
    15
100
AcDbLine
 10
433.4291955961
 20
786.5060804469
 30
0.0
 11
433.4291955961
 21
796.5060804469
 31
0.0
  0
LINE
  5
EF
330
1F
100
AcDbEntity
  8
0
  6
Continuous
 62
     7
370
    15
100
AcDbLine
 10
423.4291955961
 20
786.5060804469
 30
0.0
 11
433.4291955961
 21
786.5060804469
 31
0.0
  0
LINE
  5
F0
330
1F
100
AcDbEntity
  8
0
  6
Continuous
 62
     7
370
    15
100
AcDbLine
 10
423.4291955961
 20
796.5060804469
 30
0.0
 11
423.4291955961
 21
786.5060804469
 31
0.0
  0
LINE
  5
F1
330
1F
100
AcDbEntity
  8
0
  6
Continuous
 62
     7
370
    15
100
AcDbLine
 10
433.4291955961
 20
796.5060804469
 30
0.0
 11
423.4291955961
 21
796.5060804469
 31
0.0
  0
LINE
  5
F2
330
1F
100
AcDbEntity
  8
0
  6
Continuous
 62
     7
370
    15
100
AcDbLine
 10
453.4291955961
 20
824.5060804469
 30
0.0
 11
453.4291955961
 21
834.5060804469
 31
0.0
  0
LINE
  5
F3
330
1F
100
AcDbEntity
  8
0
  6
Continuous
 62
     7
370
    15
100
AcDbLine
 10
443.4291955961
 20
824.5060804469
 30
0.0
 11
453.4291955961
 21
824.5060804469
 31
0.0
  0
LINE
  5
F4
330
1F
100
AcDbEntity
  8
0
  6
Continuous
 62
     7
370
    15
100
AcDbLine
 10
443.4291955961
 20
834.5060804469
 30
0.0
 11
443.4291955961
 21
824.5060804469
 31
0.0
  0
LINE
  5
F5
330
1F
100
AcDbEntity
  8
0
  6
Continuous
 62
     7
370
    15
100
AcDbLine
 10
453.4291955961
 20
834.5060804469
 30
0.0
 11
443.4291955961
 21
834.5060804469
 31
0.0
  0
LINE
  5
F6
330
1F
100
AcDbEntity
  8
0
  6
Continuous
 62
     7
370
    15
100
AcDbLine
 10
253.4291955961
 20
805.5060804469
 30
0.0
 11
253.4291955961
 21
815.5060804469
 31
0.0
  0
LINE
  5
F7
330
1F
100
AcDbEntity
  8
0
  6
Continuous
 62
     7
370
    15
100
AcDbLine
 10
243.4291955961
 20
805.5060804469
 30
0.0
 11
253.4291955961
 21
805.5060804469
 31
0.0
  0
LINE
  5
F8
330
1F
100
AcDbEntity
  8
0
  6
Continuous
 62
     7
370
    15
100
AcDbLine
 10
243.4291955961
 20
815.5060804469
 30
0.0
 11
243.4291955961
 21
805.5060804469
 31
0.0
  0
LINE
  5
F9
330
1F
100
AcDbEntity
  8
0
  6
Continuous
 62
     7
370
    15
100
AcDbLine
 10
253.4291955961
 20
815.5060804469
 30
0.0
 11
243.4291955961
 21
815.5060804469
 31
0.0
  0
LINE
  5
FA
330
1F
100
AcDbEntity
  8
0
  6
Continuous
 62
     7
370
    15
100
AcDbLine
 10
273.4291955961
 20
805.5060804469
 30
0.0
 11
273.4291955961
 21
815.5060804469
 31
0.0
  0
LINE
  5
FB
330
1F
100
AcDbEntity
  8
0
  6
Continuous
 62
     7
370
    15
100
AcDbLine
 10
263.4291955961
 20
805.5060804469
 30
0.0
 11
273.4291955961
 21
805.5060804469
 31
0.0
  0
LINE
  5
FC
330
1F
100
AcDbEntity
  8
0
  6
Continuous
 62
     7
370
    15
100
AcDbLine
 10
263.4291955961
 20
815.5060804469
 30
0.0
 11
263.4291955961
 21
805.5060804469
 31
0.0
  0
LINE
  5
FD
330
1F
100
AcDbEntity
  8
0
  6
Continuous
 62
     7
370
    15
100
AcDbLine
 10
273.4291955961
 20
815.5060804469
 30
0.0
 11
263.4291955961
 21
815.5060804469
 31
0.0
  0
LINE
  5
FE
330
1F
100
AcDbEntity
  8
0
  6
Continuous
 62
     7
370
    15
100
AcDbLine
 10
293.4291955961
 20
729.5060804469
 30
0.0
 11
293.4291955961
 21
739.5060804469
 31
0.0
  0
LINE
  5
FF
330
1F
100
AcDbEntity
  8
0
  6
Continuous
 62
     7
370
    15
100
AcDbLine
 10
283.4291955961
 20
739.5060804469
 30
0.0
 11
283.4291955961
 21
729.5060804469
 31
0.0
  0
LINE
  5
100
330
1F
100
AcDbEntity
  8
0
  6
Continuous
 62
     7
370
    15
100
AcDbLine
 10
293.4291955961
 20
739.5060804469
 30
0.0
 11
283.4291955961
 21
739.5060804469
 31
0.0
  0
LINE
  5
101
330
1F
100
AcDbEntity
  8
0
  6
Continuous
 62
     7
370
    15
100
AcDbLine
 10
283.4291955961
 20
729.5060804469
 30
0.0
 11
293.4291955961
 21
729.5060804469
 31
0.0
  0
LINE
  5
102
330
1F
100
AcDbEntity
  8
0
  6
Continuous
 62
     7
370
    15
100
AcDbLine
 10
303.4291955961
 20
739.5060804469
 30
0.0
 11
303.4291955961
 21
729.5060804469
 31
0.0
  0
LINE
  5
103
330
1F
100
AcDbEntity
  8
0
  6
Continuous
 62
     7
370
    15
100
AcDbLine
 10
313.4291955961
 20
739.5060804469
 30
0.0
 11
303.4291955961
 21
739.5060804469
 31
0.0
  0
LINE
  5
104
330
1F
100
AcDbEntity
  8
0
  6
Continuous
 62
     7
370
    15
100
AcDbLine
 10
313.4291955961
 20
729.5060804469
 30
0.0
 11
313.4291955961
 21
739.5060804469
 31
0.0
  0
LINE
  5
105
330
1F
100
AcDbEntity
  8
0
  6
Continuous
 62
     7
370
    15
100
AcDbLine
 10
303.4291955961
 20
729.5060804469
 30
0.0
 11
313.4291955961
 21
729.5060804469
 31
0.0
  0
LINE
  5
106
330
1F
100
AcDbEntity
  8
0
  6
Continuous
 62
     7
370
    15
100
AcDbLine
 10
333.4291955961
 20
729.5060804469
 30
0.0
 11
333.4291955961
 21
739.5060804469
 31
0.0
  0
LINE
  5
107
330
1F
100
AcDbEntity
  8
0
  6
Continuous
 62
     7
370
    15
100
AcDbLine
 10
323.4291955961
 20
739.5060804469
 30
0.0
 11
323.4291955961
 21
729.5060804469
 31
0.0
  0
LINE
  5
108
330
1F
100
AcDbEntity
  8
0
  6
Continuous
 62
     7
370
    15
100
AcDbLine
 10
323.4291955961
 20
729.5060804469
 30
0.0
 11
333.4291955961
 21
729.5060804469
 31
0.0
  0
LINE
  5
109
330
1F
100
AcDbEntity
  8
0
  6
Continuous
 62
     7
370
    15
100
AcDbLine
 10
333.4291955961
 20
739.5060804469
 30
0.0
 11
323.4291955961
 21
739.5060804469
 31
0.0
  0
LINE
  5
10A
330
1F
100
AcDbEntity
  8
0
  6
Continuous
 62
     7
370
    15
100
AcDbLine
 10
343.4291955961
 20
767.5060804469
 30
0.0
 11
353.4291955961
 21
767.5060804469
 31
0.0
  0
LINE
  5
10B
330
1F
100
AcDbEntity
  8
0
  6
Continuous
 62
     7
370
    15
100
AcDbLine
 10
353.4291955961
 20
777.5060804469
 30
0.0
 11
343.4291955961
 21
777.5060804469
 31
0.0
  0
LINE
  5
10C
330
1F
100
AcDbEntity
  8
0
  6
Continuous
 62
     7
370
    15
100
AcDbLine
 10
353.4291955961
 20
767.5060804469
 30
0.0
 11
353.4291955961
 21
777.5060804469
 31
0.0
  0
LINE
  5
10D
330
1F
100
AcDbEntity
  8
0
  6
Continuous
 62
     7
370
    15
100
AcDbLine
 10
343.4291955961
 20
777.5060804469
 30
0.0
 11
343.4291955961
 21
767.5060804469
 31
0.0
  0
LINE
  5
10E
330
1F
100
AcDbEntity
  8
0
  6
Continuous
 62
     7
370
    15
100
AcDbLine
 10
373.4291955961
 20
767.5060804469
 30
0.0
 11
373.4291955961
 21
777.5060804469
 31
0.0
  0
LINE
  5
10F
330
1F
100
AcDbEntity
  8
0
  6
Continuous
 62
     7
370
    15
100
AcDbLine
 10
363.4291955961
 20
767.5060804469
 30
0.0
 11
373.4291955961
 21
767.5060804469
 31
0.0
  0
LINE
  5
110
330
1F
100
AcDbEntity
  8
0
  6
Continuous
 62
     7
370
    15
100
AcDbLine
 10
363.4291955961
 20
777.5060804469
 30
0.0
 11
363.4291955961
 21
767.5060804469
 31
0.0
  0
LINE
  5
111
330
1F
100
AcDbEntity
  8
0
  6
Continuous
 62
     7
370
    15
100
AcDbLine
 10
373.4291955961
 20
777.5060804469
 30
0.0
 11
363.4291955961
 21
777.5060804469
 31
0.0
  0
LINE
  5
112
330
1F
100
AcDbEntity
  8
0
  6
Continuous
 62
     7
370
    15
100
AcDbLine
 10
393.4291955961
 20
767.5060804469
 30
0.0
 11
393.4291955961
 21
777.5060804469
 31
0.0
  0
LINE
  5
113
330
1F
100
AcDbEntity
  8
0
  6
Continuous
 62
     7
370
    15
100
AcDbLine
 10
383.4291955961
 20
767.5060804469
 30
0.0
 11
393.4291955961
 21
767.5060804469
 31
0.0
  0
LINE
  5
114
330
1F
100
AcDbEntity
  8
0
  6
Continuous
 62
     7
370
    15
100
AcDbLine
 10
383.4291955961
 20
777.5060804469
 30
0.0
 11
383.4291955961
 21
767.5060804469
 31
0.0
  0
LINE
  5
115
330
1F
100
AcDbEntity
  8
0
  6
Continuous
 62
     7
370
    15
100
AcDbLine
 10
393.4291955961
 20
777.5060804469
 30
0.0
 11
383.4291955961
 21
777.5060804469
 31
0.0
  0
LINE
  5
116
330
1F
100
AcDbEntity
  8
0
  6
Continuous
 62
     7
370
    15
100
AcDbLine
 10
413.4291955961
 20
767.5060804469
 30
0.0
 11
413.4291955961
 21
777.5060804469
 31
0.0
  0
LINE
  5
117
330
1F
100
AcDbEntity
  8
0
  6
Continuous
 62
     7
370
    15
100
AcDbLine
 10
403.4291955961
 20
767.5060804469
 30
0.0
 11
413.4291955961
 21
767.5060804469
 31
0.0
  0
LINE
  5
118
330
1F
100
AcDbEntity
  8
0
  6
Continuous
 62
     7
370
    15
100
AcDbLine
 10
403.4291955961
 20
777.5060804469
 30
0.0
 11
403.4291955961
 21
767.5060804469
 31
0.0
  0
LINE
  5
119
330
1F
100
AcDbEntity
  8
0
  6
Continuous
 62
     7
370
    15
100
AcDbLine
 10
413.4291955961
 20
777.5060804469
 30
0.0
 11
403.4291955961
 21
777.5060804469
 31
0.0
  0
LINE
  5
11A
330
1F
100
AcDbEntity
  8
0
  6
Continuous
 62
     7
370
    15
100
AcDbLine
 10
433.4291955961
 20
767.5060804469
 30
0.0
 11
433.4291955961
 21
777.5060804469
 31
0.0
  0
LINE
  5
11B
330
1F
100
AcDbEntity
  8
0
  6
Continuous
 62
     7
370
    15
100
AcDbLine
 10
423.4291955961
 20
767.5060804469
 30
0.0
 11
433.4291955961
 21
767.5060804469
 31
0.0
  0
LINE
  5
11C
330
1F
100
AcDbEntity
  8
0
  6
Continuous
 62
     7
370
    15
100
AcDbLine
 10
423.4291955961
 20
777.5060804469
 30
0.0
 11
423.4291955961
 21
767.5060804469
 31
0.0
  0
LINE
  5
11D
330
1F
100
AcDbEntity
  8
0
  6
Continuous
 62
     7
370
    15
100
AcDbLine
 10
433.4291955961
 20
777.5060804469
 30
0.0
 11
423.4291955961
 21
777.5060804469
 31
0.0
  0
LINE
  5
11E
330
1F
100
AcDbEntity
  8
0
  6
Continuous
 62
     7
370
    15
100
AcDbLine
 10
453.4291955961
 20
767.5060804469
 30
0.0
 11
453.4291955961
 21
777.5060804469
 31
0.0
  0
LINE
  5
11F
330
1F
100
AcDbEntity
  8
0
  6
Continuous
 62
     7
370
    15
100
AcDbLine
 10
443.4291955961
 20
767.5060804469
 30
0.0
 11
453.4291955961
 21
767.5060804469
 31
0.0
  0
LINE
  5
120
330
1F
100
AcDbEntity
  8
0
  6
Continuous
 62
     7
370
    15
100
AcDbLine
 10
443.4291955961
 20
777.5060804469
 30
0.0
 11
443.4291955961
 21
767.5060804469
 31
0.0
  0
LINE
  5
121
330
1F
100
AcDbEntity
  8
0
  6
Continuous
 62
     7
370
    15
100
AcDbLine
 10
453.4291955961
 20
777.5060804469
 30
0.0
 11
443.4291955961
 21
777.5060804469
 31
0.0
  0
LINE
  5
122
330
1F
100
AcDbEntity
  8
0
  6
Continuous
 62
     7
370
    15
100
AcDbLine
 10
253.4291955961
 20
748.5060804469
 30
0.0
 11
253.4291955961
 21
758.5060804469
 31
0.0
  0
LINE
  5
123
330
1F
100
AcDbEntity
  8
0
  6
Continuous
 62
     7
370
    15
100
AcDbLine
 10
243.4291955961
 20
748.5060804469
 30
0.0
 11
253.4291955961
 21
748.5060804469
 31
0.0
  0
LINE
  5
124
330
1F
100
AcDbEntity
  8
0
  6
Continuous
 62
     7
370
    15
100
AcDbLine
 10
243.4291955961
 20
758.5060804469
 30
0.0
 11
243.4291955961
 21
748.5060804469
 31
0.0
  0
LINE
  5
125
330
1F
100
AcDbEntity
  8
0
  6
Continuous
 62
     7
370
    15
100
AcDbLine
 10
253.4291955961
 20
758.5060804469
 30
0.0
 11
243.4291955961
 21
758.5060804469
 31
0.0
  0
LINE
  5
126
330
1F
100
AcDbEntity
  8
0
  6
Continuous
 62
     7
370
    15
100
AcDbLine
 10
273.4291955961
 20
748.5060804469
 30
0.0
 11
273.4291955961
 21
758.5060804469
 31
0.0
  0
LINE
  5
127
330
1F
100
AcDbEntity
  8
0
  6
Continuous
 62
     7
370
    15
100
AcDbLine
 10
263.4291955961
 20
748.5060804469
 30
0.0
 11
273.4291955961
 21
748.5060804469
 31
0.0
  0
LINE
  5
128
330
1F
100
AcDbEntity
  8
0
  6
Continuous
 62
     7
370
    15
100
AcDbLine
 10
263.4291955961
 20
758.5060804469
 30
0.0
 11
263.4291955961
 21
748.5060804469
 31
0.0
  0
LINE
  5
129
330
1F
100
AcDbEntity
  8
0
  6
Continuous
 62
     7
370
    15
100
AcDbLine
 10
273.4291955961
 20
758.5060804469
 30
0.0
 11
263.4291955961
 21
758.5060804469
 31
0.0
  0
LINE
  5
12A
330
1F
100
AcDbEntity
  8
0
  6
Continuous
 62
     7
370
    15
100
AcDbLine
 10
293.4291955961
 20
748.5060804469
 30
0.0
 11
293.4291955961
 21
758.5060804469
 31
0.0
  0
LINE
  5
12B
330
1F
100
AcDbEntity
  8
0
  6
Continuous
 62
     7
370
    15
100
AcDbLine
 10
283.4291955961
 20
748.5060804469
 30
0.0
 11
293.4291955961
 21
748.5060804469
 31
0.0
  0
LINE
  5
12C
330
1F
100
AcDbEntity
  8
0
  6
Continuous
 62
     7
370
    15
100
AcDbLine
 10
283.4291955961
 20
758.5060804469
 30
0.0
 11
283.4291955961
 21
748.5060804469
 31
0.0
  0
LINE
  5
12D
330
1F
100
AcDbEntity
  8
0
  6
Continuous
 62
     7
370
    15
100
AcDbLine
 10
293.4291955961
 20
758.5060804469
 30
0.0
 11
283.4291955961
 21
758.5060804469
 31
0.0
  0
LINE
  5
12E
330
1F
100
AcDbEntity
  8
0
  6
Continuous
 62
     7
370
    15
100
AcDbLine
 10
313.4291955961
 20
748.5060804469
 30
0.0
 11
313.4291955961
 21
758.5060804469
 31
0.0
  0
LINE
  5
12F
330
1F
100
AcDbEntity
  8
0
  6
Continuous
 62
     7
370
    15
100
AcDbLine
 10
303.4291955961
 20
748.5060804469
 30
0.0
 11
313.4291955961
 21
748.5060804469
 31
0.0
  0
LINE
  5
130
330
1F
100
AcDbEntity
  8
0
  6
Continuous
 62
     7
370
    15
100
AcDbLine
 10
303.4291955961
 20
758.5060804469
 30
0.0
 11
303.4291955961
 21
748.5060804469
 31
0.0
  0
LINE
  5
131
330
1F
100
AcDbEntity
  8
0
  6
Continuous
 62
     7
370
    15
100
AcDbLine
 10
313.4291955961
 20
758.5060804469
 30
0.0
 11
303.4291955961
 21
758.5060804469
 31
0.0
  0
LINE
  5
132
330
1F
100
AcDbEntity
  8
0
  6
Continuous
 62
     7
370
    15
100
AcDbLine
 10
333.4291955961
 20
748.5060804469
 30
0.0
 11
333.4291955961
 21
758.5060804469
 31
0.0
  0
LINE
  5
133
330
1F
100
AcDbEntity
  8
0
  6
Continuous
 62
     7
370
    15
100
AcDbLine
 10
323.4291955961
 20
748.5060804469
 30
0.0
 11
333.4291955961
 21
748.5060804469
 31
0.0
  0
LINE
  5
134
330
1F
100
AcDbEntity
  8
0
  6
Continuous
 62
     7
370
    15
100
AcDbLine
 10
323.4291955961
 20
758.5060804469
 30
0.0
 11
323.4291955961
 21
748.5060804469
 31
0.0
  0
LINE
  5
135
330
1F
100
AcDbEntity
  8
0
  6
Continuous
 62
     7
370
    15
100
AcDbLine
 10
333.4291955961
 20
758.5060804469
 30
0.0
 11
323.4291955961
 21
758.5060804469
 31
0.0
  0
LINE
  5
136
330
1F
100
AcDbEntity
  8
0
  6
Continuous
 62
     7
370
    15
100
AcDbLine
 10
353.4291955961
 20
748.5060804469
 30
0.0
 11
353.4291955961
 21
758.5060804469
 31
0.0
  0
LINE
  5
137
330
1F
100
AcDbEntity
  8
0
  6
Continuous
 62
     7
370
    15
100
AcDbLine
 10
343.4291955961
 20
748.5060804469
 30
0.0
 11
353.4291955961
 21
748.5060804469
 31
0.0
  0
LINE
  5
138
330
1F
100
AcDbEntity
  8
0
  6
Continuous
 62
     7
370
    15
100
AcDbLine
 10
343.4291955961
 20
758.5060804469
 30
0.0
 11
343.4291955961
 21
748.5060804469
 31
0.0
  0
LINE
  5
139
330
1F
100
AcDbEntity
  8
0
  6
Continuous
 62
     7
370
    15
100
AcDbLine
 10
353.4291955961
 20
758.5060804469
 30
0.0
 11
343.4291955961
 21
758.5060804469
 31
0.0
  0
LINE
  5
13A
330
1F
100
AcDbEntity
  8
0
  6
Continuous
 62
     7
370
    15
100
AcDbLine
 10
373.4291955961
 20
748.5060804469
 30
0.0
 11
373.4291955961
 21
758.5060804469
 31
0.0
  0
LINE
  5
13B
330
1F
100
AcDbEntity
  8
0
  6
Continuous
 62
     7
370
    15
100
AcDbLine
 10
363.4291955961
 20
748.5060804469
 30
0.0
 11
373.4291955961
 21
748.5060804469
 31
0.0
  0
LINE
  5
13C
330
1F
100
AcDbEntity
  8
0
  6
Continuous
 62
     7
370
    15
100
AcDbLine
 10
363.4291955961
 20
758.5060804469
 30
0.0
 11
363.4291955961
 21
748.5060804469
 31
0.0
  0
LINE
  5
13D
330
1F
100
AcDbEntity
  8
0
  6
Continuous
 62
     7
370
    15
100
AcDbLine
 10
373.4291955961
 20
758.5060804469
 30
0.0
 11
363.4291955961
 21
758.5060804469
 31
0.0
  0
LINE
  5
13E
330
1F
100
AcDbEntity
  8
0
  6
Continuous
 62
     7
370
    15
100
AcDbLine
 10
393.4291955961
 20
748.5060804469
 30
0.0
 11
393.4291955961
 21
758.5060804469
 31
0.0
  0
LINE
  5
13F
330
1F
100
AcDbEntity
  8
0
  6
Continuous
 62
     7
370
    15
100
AcDbLine
 10
383.4291955961
 20
748.5060804469
 30
0.0
 11
393.4291955961
 21
748.5060804469
 31
0.0
  0
LINE
  5
140
330
1F
100
AcDbEntity
  8
0
  6
Continuous
 62
     7
370
    15
100
AcDbLine
 10
383.4291955961
 20
758.5060804469
 30
0.0
 11
383.4291955961
 21
748.5060804469
 31
0.0
  0
LINE
  5
141
330
1F
100
AcDbEntity
  8
0
  6
Continuous
 62
     7
370
    15
100
AcDbLine
 10
393.4291955961
 20
758.5060804469
 30
0.0
 11
383.4291955961
 21
758.5060804469
 31
0.0
  0
LINE
  5
142
330
1F
100
AcDbEntity
  8
0
  6
Continuous
 62
     7
370
    15
100
AcDbLine
 10
413.4291955961
 20
748.5060804469
 30
0.0
 11
413.4291955961
 21
758.5060804469
 31
0.0
  0
LINE
  5
143
330
1F
100
AcDbEntity
  8
0
  6
Continuous
 62
     7
370
    15
100
AcDbLine
 10
403.4291955961
 20
748.5060804469
 30
0.0
 11
413.4291955961
 21
748.5060804469
 31
0.0
  0
LINE
  5
144
330
1F
100
AcDbEntity
  8
0
  6
Continuous
 62
     7
370
    15
100
AcDbLine
 10
403.4291955961
 20
758.5060804469
 30
0.0
 11
403.4291955961
 21
748.5060804469
 31
0.0
  0
LINE
  5
145
330
1F
100
AcDbEntity
  8
0
  6
Continuous
 62
     7
370
    15
100
AcDbLine
 10
413.4291955961
 20
758.5060804469
 30
0.0
 11
403.4291955961
 21
758.5060804469
 31
0.0
  0
LINE
  5
146
330
1F
100
AcDbEntity
  8
0
  6
Continuous
 62
     7
370
    15
100
AcDbLine
 10
433.4291955961
 20
748.5060804469
 30
0.0
 11
433.4291955961
 21
758.5060804469
 31
0.0
  0
LINE
  5
147
330
1F
100
AcDbEntity
  8
0
  6
Continuous
 62
     7
370
    15
100
AcDbLine
 10
423.4291955961
 20
748.5060804469
 30
0.0
 11
433.4291955961
 21
748.5060804469
 31
0.0
  0
LINE
  5
148
330
1F
100
AcDbEntity
  8
0
  6
Continuous
 62
     7
370
    15
100
AcDbLine
 10
423.4291955961
 20
758.5060804469
 30
0.0
 11
423.4291955961
 21
748.5060804469
 31
0.0
  0
LINE
  5
149
330
1F
100
AcDbEntity
  8
0
  6
Continuous
 62
     7
370
    15
100
AcDbLine
 10
433.4291955961
 20
758.5060804469
 30
0.0
 11
423.4291955961
 21
758.5060804469
 31
0.0
  0
LINE
  5
14A
330
1F
100
AcDbEntity
  8
0
  6
Continuous
 62
     7
370
    15
100
AcDbLine
 10
453.4291955961
 20
748.5060804469
 30
0.0
 11
453.4291955961
 21
758.5060804469
 31
0.0
  0
LINE
  5
14B
330
1F
100
AcDbEntity
  8
0
  6
Continuous
 62
     7
370
    15
100
AcDbLine
 10
443.4291955961
 20
748.5060804469
 30
0.0
 11
453.4291955961
 21
748.5060804469
 31
0.0
  0
LINE
  5
14C
330
1F
100
AcDbEntity
  8
0
  6
Continuous
 62
     7
370
    15
100
AcDbLine
 10
443.4291955961
 20
758.5060804469
 30
0.0
 11
443.4291955961
 21
748.5060804469
 31
0.0
  0
LINE
  5
14D
330
1F
100
AcDbEntity
  8
0
  6
Continuous
 62
     7
370
    15
100
AcDbLine
 10
453.4291955961
 20
758.5060804469
 30
0.0
 11
443.4291955961
 21
758.5060804469
 31
0.0
  0
LINE
  5
14E
330
1F
100
AcDbEntity
  8
0
  6
Continuous
 62
     7
370
    15
100
AcDbLine
 10
253.4291955961
 20
729.5060804469
 30
0.0
 11
253.4291955961
 21
739.5060804469
 31
0.0
  0
LINE
  5
14F
330
1F
100
AcDbEntity
  8
0
  6
Continuous
 62
     7
370
    15
100
AcDbLine
 10
243.4291955961
 20
729.5060804469
 30
0.0
 11
253.4291955961
 21
729.5060804469
 31
0.0
  0
LINE
  5
150
330
1F
100
AcDbEntity
  8
0
  6
Continuous
 62
     7
370
    15
100
AcDbLine
 10
243.4291955961
 20
739.5060804469
 30
0.0
 11
243.4291955961
 21
729.5060804469
 31
0.0
  0
LINE
  5
151
330
1F
100
AcDbEntity
  8
0
  6
Continuous
 62
     7
370
    15
100
AcDbLine
 10
253.4291955961
 20
739.5060804469
 30
0.0
 11
243.4291955961
 21
739.5060804469
 31
0.0
  0
LINE
  5
152
330
1F
100
AcDbEntity
  8
0
  6
Continuous
 62
     7
370
    15
100
AcDbLine
 10
273.4291955961
 20
729.5060804469
 30
0.0
 11
273.4291955961
 21
739.5060804469
 31
0.0
  0
LINE
  5
153
330
1F
100
AcDbEntity
  8
0
  6
Continuous
 62
     7
370
    15
100
AcDbLine
 10
263.4291955961
 20
729.5060804469
 30
0.0
 11
273.4291955961
 21
729.5060804469
 31
0.0
  0
LINE
  5
154
330
1F
100
AcDbEntity
  8
0
  6
Continuous
 62
     7
370
    15
100
AcDbLine
 10
263.4291955961
 20
739.5060804469
 30
0.0
 11
263.4291955961
 21
729.5060804469
 31
0.0
  0
LINE
  5
155
330
1F
100
AcDbEntity
  8
0
  6
Continuous
 62
     7
370
    15
100
AcDbLine
 10
273.4291955961
 20
739.5060804469
 30
0.0
 11
263.4291955961
 21
739.5060804469
 31
0.0
  0
LINE
  5
156
330
1F
100
AcDbEntity
  8
0
  6
Continuous
 62
     7
370
    15
100
AcDbLine
 10
233.4291955961
 20
758.5060804469
 30
0.0
 11
223.4291955961
 21
758.5060804469
 31
0.0
  0
LINE
  5
157
330
1F
100
AcDbEntity
  8
0
  6
Continuous
 62
     7
370
    15
100
AcDbLine
 10
233.4291955961
 20
748.5060804469
 30
0.0
 11
233.4291955961
 21
758.5060804469
 31
0.0
  0
LINE
  5
158
330
1F
100
AcDbEntity
  8
0
  6
Continuous
 62
     7
370
    15
100
AcDbLine
 10
223.4291955961
 20
748.5060804469
 30
0.0
 11
233.4291955961
 21
748.5060804469
 31
0.0
  0
LINE
  5
159
330
1F
100
AcDbEntity
  8
0
  6
Continuous
 62
     7
370
    15
100
AcDbLine
 10
223.4291955961
 20
758.5060804469
 30
0.0
 11
223.4291955961
 21
748.5060804469
 31
0.0
  0
LINE
  5
15A
330
1F
100
AcDbEntity
  8
0
  6
Continuous
 62
     7
370
    15
100
AcDbLine
 10
343.4291955961
 20
729.5060804469
 30
0.0
 11
353.4291955961
 21
729.5060804469
 31
0.0
  0
LINE
  5
15B
330
1F
100
AcDbEntity
  8
0
  6
Continuous
 62
     7
370
    15
100
AcDbLine
 10
353.4291955961
 20
739.5060804469
 30
0.0
 11
343.4291955961
 21
739.5060804469
 31
0.0
  0
LINE
  5
15C
330
1F
100
AcDbEntity
  8
0
  6
Continuous
 62
     7
370
    15
100
AcDbLine
 10
353.4291955961
 20
729.5060804469
 30
0.0
 11
353.4291955961
 21
739.5060804469
 31
0.0
  0
LINE
  5
15D
330
1F
100
AcDbEntity
  8
0
  6
Continuous
 62
     7
370
    15
100
AcDbLine
 10
343.4291955961
 20
739.5060804469
 30
0.0
 11
343.4291955961
 21
729.5060804469
 31
0.0
  0
LINE
  5
15E
330
1F
100
AcDbEntity
  8
0
  6
Continuous
 62
     7
370
    15
100
AcDbLine
 10
373.4291955961
 20
729.5060804469
 30
0.0
 11
373.4291955961
 21
739.5060804469
 31
0.0
  0
LINE
  5
15F
330
1F
100
AcDbEntity
  8
0
  6
Continuous
 62
     7
370
    15
100
AcDbLine
 10
363.4291955961
 20
729.5060804469
 30
0.0
 11
373.4291955961
 21
729.5060804469
 31
0.0
  0
LINE
  5
160
330
1F
100
AcDbEntity
  8
0
  6
Continuous
 62
     7
370
    15
100
AcDbLine
 10
363.4291955961
 20
739.5060804469
 30
0.0
 11
363.4291955961
 21
729.5060804469
 31
0.0
  0
LINE
  5
161
330
1F
100
AcDbEntity
  8
0
  6
Continuous
 62
     7
370
    15
100
AcDbLine
 10
373.4291955961
 20
739.5060804469
 30
0.0
 11
363.4291955961
 21
739.5060804469
 31
0.0
  0
LINE
  5
162
330
1F
100
AcDbEntity
  8
0
  6
Continuous
 62
     7
370
    15
100
AcDbLine
 10
393.4291955961
 20
729.5060804469
 30
0.0
 11
393.4291955961
 21
739.5060804469
 31
0.0
  0
LINE
  5
163
330
1F
100
AcDbEntity
  8
0
  6
Continuous
 62
     7
370
    15
100
AcDbLine
 10
383.4291955961
 20
729.5060804469
 30
0.0
 11
393.4291955961
 21
729.5060804469
 31
0.0
  0
LINE
  5
164
330
1F
100
AcDbEntity
  8
0
  6
Continuous
 62
     7
370
    15
100
AcDbLine
 10
383.4291955961
 20
739.5060804469
 30
0.0
 11
383.4291955961
 21
729.5060804469
 31
0.0
  0
LINE
  5
165
330
1F
100
AcDbEntity
  8
0
  6
Continuous
 62
     7
370
    15
100
AcDbLine
 10
393.4291955961
 20
739.5060804469
 30
0.0
 11
383.4291955961
 21
739.5060804469
 31
0.0
  0
LINE
  5
166
330
1F
100
AcDbEntity
  8
0
  6
Continuous
 62
     7
370
    15
100
AcDbLine
 10
413.4291955961
 20
729.5060804469
 30
0.0
 11
413.4291955961
 21
739.5060804469
 31
0.0
  0
LINE
  5
167
330
1F
100
AcDbEntity
  8
0
  6
Continuous
 62
     7
370
    15
100
AcDbLine
 10
403.4291955961
 20
729.5060804469
 30
0.0
 11
413.4291955961
 21
729.5060804469
 31
0.0
  0
LINE
  5
168
330
1F
100
AcDbEntity
  8
0
  6
Continuous
 62
     7
370
    15
100
AcDbLine
 10
403.4291955961
 20
739.5060804469
 30
0.0
 11
403.4291955961
 21
729.5060804469
 31
0.0
  0
LINE
  5
169
330
1F
100
AcDbEntity
  8
0
  6
Continuous
 62
     7
370
    15
100
AcDbLine
 10
413.4291955961
 20
739.5060804469
 30
0.0
 11
403.4291955961
 21
739.5060804469
 31
0.0
  0
LINE
  5
16A
330
1F
100
AcDbEntity
  8
0
  6
Continuous
 62
     7
370
    15
100
AcDbLine
 10
433.4291955961
 20
729.5060804469
 30
0.0
 11
433.4291955961
 21
739.5060804469
 31
0.0
  0
LINE
  5
16B
330
1F
100
AcDbEntity
  8
0
  6
Continuous
 62
     7
370
    15
100
AcDbLine
 10
423.4291955961
 20
729.5060804469
 30
0.0
 11
433.4291955961
 21
729.5060804469
 31
0.0
  0
LINE
  5
16C
330
1F
100
AcDbEntity
  8
0
  6
Continuous
 62
     7
370
    15
100
AcDbLine
 10
423.4291955961
 20
739.5060804469
 30
0.0
 11
423.4291955961
 21
729.5060804469
 31
0.0
  0
LINE
  5
16D
330
1F
100
AcDbEntity
  8
0
  6
Continuous
 62
     7
370
    15
100
AcDbLine
 10
433.4291955961
 20
739.5060804469
 30
0.0
 11
423.4291955961
 21
739.5060804469
 31
0.0
  0
LINE
  5
16E
330
1F
100
AcDbEntity
  8
0
  6
Continuous
 62
     7
370
    15
100
AcDbLine
 10
453.4291955961
 20
729.5060804469
 30
0.0
 11
453.4291955961
 21
739.5060804469
 31
0.0
  0
LINE
  5
16F
330
1F
100
AcDbEntity
  8
0
  6
Continuous
 62
     7
370
    15
100
AcDbLine
 10
443.4291955961
 20
729.5060804469
 30
0.0
 11
453.4291955961
 21
729.5060804469
 31
0.0
  0
LINE
  5
170
330
1F
100
AcDbEntity
  8
0
  6
Continuous
 62
     7
370
    15
100
AcDbLine
 10
443.4291955961
 20
739.5060804469
 30
0.0
 11
443.4291955961
 21
729.5060804469
 31
0.0
  0
LINE
  5
171
330
1F
100
AcDbEntity
  8
0
  6
Continuous
 62
     7
370
    15
100
AcDbLine
 10
453.4291955961
 20
739.5060804469
 30
0.0
 11
443.4291955961
 21
739.5060804469
 31
0.0
  0
LINE
  5
172
330
1F
100
AcDbEntity
  8
0
  6
Continuous
 62
     7
370
    15
100
AcDbLine
 10
233.4291955961
 20
805.5060804469
 30
0.0
 11
233.4291955961
 21
815.5060804469
 31
0.0
  0
LINE
  5
173
330
1F
100
AcDbEntity
  8
0
  6
Continuous
 62
     7
370
    15
100
AcDbLine
 10
223.4291955961
 20
805.5060804469
 30
0.0
 11
233.4291955961
 21
805.5060804469
 31
0.0
  0
LINE
  5
174
330
1F
100
AcDbEntity
  8
0
  6
Continuous
 62
     7
370
    15
100
AcDbLine
 10
223.4291955961
 20
815.5060804469
 30
0.0
 11
223.4291955961
 21
805.5060804469
 31
0.0
  0
LINE
  5
175
330
1F
100
AcDbEntity
  8
0
  6
Continuous
 62
     7
370
    15
100
AcDbLine
 10
233.4291955961
 20
815.5060804469
 30
0.0
 11
223.4291955961
 21
815.5060804469
 31
0.0
  0
LINE
  5
176
330
1F
100
AcDbEntity
  8
0
  6
Continuous
 62
     7
370
    15
100
AcDbLine
 10
233.4291955961
 20
786.5060804469
 30
0.0
 11
233.4291955961
 21
796.5060804469
 31
0.0
  0
LINE
  5
177
330
1F
100
AcDbEntity
  8
0
  6
Continuous
 62
     7
370
    15
100
AcDbLine
 10
223.4291955961
 20
786.5060804469
 30
0.0
 11
233.4291955961
 21
786.5060804469
 31
0.0
  0
LINE
  5
178
330
1F
100
AcDbEntity
  8
0
  6
Continuous
 62
     7
370
    15
100
AcDbLine
 10
223.4291955961
 20
796.5060804469
 30
0.0
 11
223.4291955961
 21
786.5060804469
 31
0.0
  0
LINE
  5
179
330
1F
100
AcDbEntity
  8
0
  6
Continuous
 62
     7
370
    15
100
AcDbLine
 10
233.4291955961
 20
796.5060804469
 30
0.0
 11
223.4291955961
 21
796.5060804469
 31
0.0
  0
LINE
  5
17A
330
1F
100
AcDbEntity
  8
0
  6
Continuous
 62
     7
370
    15
100
AcDbLine
 10
223.4291955961
 20
729.5060804469
 30
0.0
 11
233.4291955961
 21
729.5060804469
 31
0.0
  0
LINE
  5
17B
330
1F
100
AcDbEntity
  8
0
  6
Continuous
 62
     7
370
    15
100
AcDbLine
 10
233.4291955961
 20
739.5060804469
 30
0.0
 11
223.4291955961
 21
739.5060804469
 31
0.0
  0
LINE
  5
17C
330
1F
100
AcDbEntity
  8
0
  6
Continuous
 62
     7
370
    15
100
AcDbLine
 10
233.4291955961
 20
729.5060804469
 30
0.0
 11
233.4291955961
 21
739.5060804469
 31
0.0
  0
LINE
  5
17D
330
1F
100
AcDbEntity
  8
0
  6
Continuous
 62
     7
370
    15
100
AcDbLine
 10
223.4291955961
 20
739.5060804469
 30
0.0
 11
223.4291955961
 21
729.5060804469
 31
0.0
  0
LINE
  5
17E
330
1F
100
AcDbEntity
  8
0
  6
Continuous
 62
     7
370
    15
100
AcDbLine
 10
353.4291955961
 20
786.5060804469
 30
0.0
 11
353.4291955961
 21
796.5060804469
 31
0.0
  0
LINE
  5
17F
330
1F
100
AcDbEntity
  8
0
  6
Continuous
 62
     7
370
    15
100
AcDbLine
 10
343.4291955961
 20
786.5060804469
 30
0.0
 11
353.4291955961
 21
786.5060804469
 31
0.0
  0
LINE
  5
180
330
1F
100
AcDbEntity
  8
0
  6
Continuous
 62
     7
370
    15
100
AcDbLine
 10
343.4291955961
 20
796.5060804469
 30
0.0
 11
343.4291955961
 21
786.5060804469
 31
0.0
  0
LINE
  5
181
330
1F
100
AcDbEntity
  8
0
  6
Continuous
 62
     7
370
    15
100
AcDbLine
 10
353.4291955961
 20
796.5060804469
 30
0.0
 11
343.4291955961
 21
796.5060804469
 31
0.0
  0
LINE
  5
182
330
1F
100
AcDbEntity
  8
0
  6
Continuous
 62
     7
370
    15
100
AcDbLine
 10
223.4291955961
 20
767.5060804469
 30
0.0
 11
233.4291955961
 21
767.5060804469
 31
0.0
  0
LINE
  5
183
330
1F
100
AcDbEntity
  8
0
  6
Continuous
 62
     7
370
    15
100
AcDbLine
 10
233.4291955961
 20
777.5060804469
 30
0.0
 11
223.4291955961
 21
777.5060804469
 31
0.0
  0
LINE
  5
184
330
1F
100
AcDbEntity
  8
0
  6
Continuous
 62
     7
370
    15
100
AcDbLine
 10
233.4291955961
 20
767.5060804469
 30
0.0
 11
233.4291955961
 21
777.5060804469
 31
0.0
  0
LINE
  5
185
330
1F
100
AcDbEntity
  8
0
  6
Continuous
 62
     7
370
    15
100
AcDbLine
 10
223.4291955961
 20
777.5060804469
 30
0.0
 11
223.4291955961
 21
767.5060804469
 31
0.0
  0
LINE
  5
186
330
1F
100
AcDbEntity
  8
0
  6
Continuous
 62
     7
370
    15
100
AcDbLine
 10
363.4291955961
 20
796.5060804469
 30
0.0
 11
363.4291955961
 21
786.5060804469
 31
0.0
  0
LINE
  5
187
330
1F
100
AcDbEntity
  8
0
  6
Continuous
 62
     7
370
    15
100
AcDbLine
 10
373.4291955961
 20
786.5060804469
 30
0.0
 11
373.4291955961
 21
796.5060804469
 31
0.0
  0
LINE
  5
188
330
1F
100
AcDbEntity
  8
0
  6
Continuous
 62
     7
370
    15
100
AcDbLine
 10
363.4291955961
 20
786.5060804469
 30
0.0
 11
373.4291955961
 21
786.5060804469
 31
0.0
  0
LINE
  5
189
330
1F
100
AcDbEntity
  8
0
  6
Continuous
 62
     7
370
    15
100
AcDbLine
 10
373.4291955961
 20
796.5060804469
 30
0.0
 11
363.4291955961
 21
796.5060804469
 31
0.0
  0
LINE
  5
18A
330
1F
100
AcDbEntity
  8
0
  6
Continuous
 62
     7
370
    15
100
AcDbLine
 10
253.4291955961
 20
767.5060804469
 30
0.0
 11
253.4291955961
 21
777.5060804469
 31
0.0
  0
LINE
  5
18B
330
1F
100
AcDbEntity
  8
0
  6
Continuous
 62
     7
370
    15
100
AcDbLine
 10
243.4291955961
 20
767.5060804469
 30
0.0
 11
253.4291955961
 21
767.5060804469
 31
0.0
  0
LINE
  5
18C
330
1F
100
AcDbEntity
  8
0
  6
Continuous
 62
     7
370
    15
100
AcDbLine
 10
243.4291955961
 20
777.5060804469
 30
0.0
 11
243.4291955961
 21
767.5060804469
 31
0.0
  0
LINE
  5
18D
330
1F
100
AcDbEntity
  8
0
  6
Continuous
 62
     7
370
    15
100
AcDbLine
 10
253.4291955961
 20
777.5060804469
 30
0.0
 11
243.4291955961
 21
777.5060804469
 31
0.0
  0
LINE
  5
18E
330
1F
100
AcDbEntity
  8
0
  6
Continuous
 62
     7
370
    15
100
AcDbLine
 10
443.4291955961
 20
786.5060804469
 30
0.0
 11
453.4291955961
 21
786.5060804469
 31
0.0
  0
LINE
  5
18F
330
1F
100
AcDbEntity
  8
0
  6
Continuous
 62
     7
370
    15
100
AcDbLine
 10
453.4291955961
 20
786.5060804469
 30
0.0
 11
453.4291955961
 21
796.5060804469
 31
0.0
  0
LINE
  5
190
330
1F
100
AcDbEntity
  8
0
  6
Continuous
 62
     7
370
    15
100
AcDbLine
 10
443.4291955961
 20
796.5060804469
 30
0.0
 11
443.4291955961
 21
786.5060804469
 31
0.0
  0
LINE
  5
191
330
1F
100
AcDbEntity
  8
0
  6
Continuous
 62
     7
370
    15
100
AcDbLine
 10
453.4291955961
 20
796.5060804469
 30
0.0
 11
443.4291955961
 21
796.5060804469
 31
0.0
  0
LINE
  5
192
330
1F
100
AcDbEntity
  8
0
  6
Continuous
 62
     7
370
    15
100
AcDbLine
 10
263.4291955961
 20
767.5060804469
 30
0.0
 11
273.4291955961
 21
767.5060804469
 31
0.0
  0
LINE
  5
193
330
1F
100
AcDbEntity
  8
0
  6
Continuous
 62
     7
370
    15
100
AcDbLine
 10
273.4291955961
 20
767.5060804469
 30
0.0
 11
273.4291955961
 21
777.5060804469
 31
0.0
  0
LINE
  5
194
330
1F
100
AcDbEntity
  8
0
  6
Continuous
 62
     7
370
    15
100
AcDbLine
 10
273.4291955961
 20
777.5060804469
 30
0.0
 11
263.4291955961
 21
777.5060804469
 31
0.0
  0
LINE
  5
195
330
1F
100
AcDbEntity
  8
0
  6
Continuous
 62
     7
370
    15
100
AcDbLine
 10
263.4291955961
 20
777.5060804469
 30
0.0
 11
263.4291955961
 21
767.5060804469
 31
0.0
  0
LINE
  5
196
330
1F
100
AcDbEntity
  8
0
  6
Continuous
 62
     7
370
    15
100
AcDbLine
 10
173.8295848421
 20
692.1148072156
 30
0.0
 11
173.8295848421
 21
681.6201603177
 31
0.0
  0
LINE
  5
197
330
1F
100
AcDbEntity
  8
0
  6
Continuous
 62
     7
370
    15
100
AcDbLine
 10
508.8295848421
 20
692.1148072156
 30
0.0
 11
508.8295848421
 21
681.6201603177
 31
0.0
  0
ARC
  5
198
330
1F
100
AcDbEntity
  8
0
  6
Continuous
 62
     7
370
    15
100
AcDbCircle
 10
733.4520856756
 20
858.0499696398
 30
0.0
 40
10.00000000000008
100
AcDbArc
 50
320.805032574
 51
0.0
  0
ARC
  5
199
330
1F
100
AcDbEntity
  8
0
  6
Continuous
 62
     7
370
    15
100
AcDbCircle
 10
733.4520856756
 20
861.4107449801
 30
0.0
 40
10.00000000000008
100
AcDbArc
 50
0.0
 51
39.194967426
  0
ARC
  5
19A
330
1F
100
AcDbEntity
  8
0
  6
Continuous
 62
     7
370
    15
100
AcDbCircle
 10
733.4520856756
 20
605.8238405404
 30
0.0
 40
10.00000000000008
100
AcDbArc
 50
320.805032574
 51
0.0
  0
ARC
  5
19B
330
1F
100
AcDbEntity
  8
0
  6
Continuous
 62
     7
370
    15
100
AcDbCircle
 10
733.4520856756
 20
609.1846158806
 30
0.0
 40
10.00000000000008
100
AcDbArc
 50
0.0
 51
39.194967426
  0
CIRCLE
  5
19C
330
1F
100
AcDbEntity
  8
0
  6
Continuous
 62
     7
370
    15
100
AcDbCircle
 10
717.2020856756
 20
686.8674837667
 30
0.0
 40
5.247323448942893
  0
LINE
  5
19D
330
1F
100
AcDbEntity
  8
0
  6
Continuous
 62
     7
370
    15
100
AcDbLine
 10
697.2020856756
 20
577.5042282105
 30
0.0
 11
737.2020856756
 21
577.5042282105
 31
0.0
  0
LINE
  5
19E
330
1F
100
AcDbEntity
  8
0
  6
Continuous
 62
     7
370
    15
100
AcDbLine
 10
697.2020856756
 20
707.4294828577
 30
0.0
 11
697.2020856756
 21
577.5042282105
 31
0.0
  0
LINE
  5
19F
330
1F
100
AcDbEntity
  8
0
  6
Continuous
 62
     7
370
    15
100
AcDbLine
 10
697.2020856756
 20
707.4294828577
 30
0.0
 11
737.2020856756
 21
707.4294828577
 31
0.0
  0
LINE
  5
1A0
330
1F
100
AcDbEntity
  8
0
  6
Continuous
 62
     7
370
    15
100
AcDbLine
 10
737.2020856756
 20
707.4294828577
 30
0.0
 11
737.2020856756
 21
577.5042282105
 31
0.0
  0
LINE
  5
1A1
330
1F
100
AcDbEntity
  8
0
  6
Continuous
 62
     7
370
    15
100
AcDbLine
 10
729.4122112088
 20
857.5042282105
 30
0.0
 11
719.8385345712
 21
860.3929503568
 31
0.0
  0
ARC
  5
1A2
330
1F
100
AcDbEntity
  8
0
  6
Continuous
 62
     7
370
    15
100
AcDbCircle
 10
1633.018229079
 20
584.8538333661
 30
0.0
 40
943.8443056670602
100
AcDbArc
 50
163.2095507958
 51
178.6248827069
  0
LINE
  5
1A3
330
1F
100
AcDbEntity
  8
0
  6
Continuous
 62
     7
370
    15
100
AcDbLine
 10
679.4486248111
 20
607.7442084139
 30
0.0
 11
689.4457448715
 21
607.5042282105
 31
0.0
  0
ARC
  5
1A4
330
1F
100
AcDbEntity
  8
0
  6
Continuous
 62
     7
370
    15
100
AcDbCircle
 10
1633.018229079
 20
584.8538333661
 30
0.0
 40
953.8443056670601
100
AcDbArc
 50
163.2095507958
 51
178.6248827069
  0
SPLINE
  5
1A5
330
1F
100
AcDbEntity
  8
0
  6
Continuous
 62
     7
370
    15
100
AcDbSpline
210
0.0
220
0.0
230
1.0
 70
     8
 71
     3
 72
    29
 73
    25
 74
     0
 42
0.00000001
 43
0.00000001
 12
1.0
 22
0.0
 32
0.0
 13
1.0
 23
0.0
 33
0.0
 40
0.0
 40
0.0
 40
0.0
 40
0.0
 40
0.1249999999999999
 40
0.1249999999999999
 40
0.1874999999999984
 40
0.1874999999999984
 40
0.2499999999999969
 40
0.2499999999999969
 40
0.3749999999999986
 40
0.3749999999999986
 40
0.4374999999999979
 40
0.4374999999999979
 40
0.4999999999999973
 40
0.4999999999999973
 40
0.6249999999999986
 40
0.6249999999999986
 40
0.6874999999999987
 40
0.6874999999999987
 40
0.7499999999999989
 40
0.812499999999999
 40
0.812499999999999
 40
0.8749999999999991
 40
0.8749999999999991
 40
1.0
 40
1.0
 40
1.0
 40
1.0
 10
689.3389737692747
 20
592.5042282105262
 30
0.0
 10
689.3389737692747
 20
592.5042282105262
 30
0.0
 10
689.339577757826
 20
592.6013579641373
 30
0.0
 10
689.341366969823
 20
592.8867890384818
 30
0.0
 10
689.3421119399796
 20
593.0053951348348
 30
0.0
 10
689.3439117079821
 20
593.290600494052
 30
0.0
 10
689.3449717066911
 20
593.4580092145494
 30
0.0
 10
689.3485643259789
 20
594.0220802786124
 30
0.0
 10
689.3515194369907
 20
594.4823234571572
 30
0.0
 10
689.3568460618411
 20
595.2978353973818
 30
0.0
 10
689.3587788662384
 20
595.591749201492
 30
0.0
 10
689.3629373830908
 20
596.2184863056392
 30
0.0
 10
689.3651427933693
 20
596.548256475904
 30
0.0
 10
689.3721440974198
 20
597.5852318690493
 30
0.0
 10
689.3773212775858
 20
598.3396514498966
 30
0.0
 10
689.385943564757
 20
599.5681704956194
 30
0.0
 10
689.3889614472264
 20
599.9938802809511
 30
0.0
 10
689.3951633673527
 20
600.8591283950167
 30
0.0
 10
689.4015630542419
 20
601.7427414534419
 30
0.0
 10
689.4083712764351
 20
602.6625239876115
 30
0.0
 10
689.415394415138
 20
603.6006346823284
 30
0.0
 10
689.4190296973261
 20
604.0809693614174
 30
0.0
 10
689.4301551995726
 20
605.534258710832
 30
0.0
 10
689.437820157518
 20
606.5138425510326
 30
0.0
 10
689.4457448715212
 20
607.5042282105262
 30
0.0
  0
ARC
  5
1A6
330
1F
100
AcDbEntity
  8
0
  6
Continuous
 62
     7
370
    15
100
AcDbCircle
 10
689.3389737693
 20
602.5042282105
 30
0.0
 40
10.00000000000005
100
AcDbArc
 50
178.9284757266
 51
270.0
  0
SPLINE
  5
1A7
330
1F
100
AcDbEntity
  8
0
  6
Continuous
 62
     7
370
    15
100
AcDbSpline
210
0.0
220
0.0
230
1.0
 70
     8
 71
     3
 72
    24
 73
    20
 74
     0
 42
0.00000001
 43
0.00000001
 12
1.0
 22
0.0
 32
0.0
 13
1.0
 23
0.0
 33
0.0
 40
0.0
 40
0.0
 40
0.0
 40
0.0
 40
0.1249999999999963
 40
0.1249999999999963
 40
0.2499999999999925
 40
0.2499999999999925
 40
0.3749999999999888
 40
0.3749999999999888
 40
0.499999999999985
 40
0.499999999999985
 40
0.6249999999999812
 40
0.6249999999999812
 40
0.7499999999999776
 40
0.7499999999999776
 40
0.8124999999999806
 40
0.8124999999999806
 40
0.8749999999999836
 40
0.8749999999999836
 40
1.0
 40
1.0
 40
1.0
 40
1.0
 10
679.4486248111247
 20
607.7442084139185
 30
0.0
 10
679.4406603218553
 20
607.412422898609
 30
0.0
 10
679.4329535329365
 20
607.0841560318372
 30
0.0
 10
679.4180325968965
 20
606.4346177211386
 30
0.0
 10
679.4109295428727
 20
606.1181109015768
 30
0.0
 10
679.3976147804362
 20
605.5123718555689
 30
0.0
 10
679.3913170921295
 20
605.2192041761058
 30
0.0
 10
679.3796937989133
 20
604.6674555158847
 30
0.0
 10
679.3744519008493
 20
604.4129804019374
 30
0.0
 10
679.3649894239094
 20
603.946043262552
 30
0.0
 10
679.3607370303617
 20
603.7318964813755
 30
0.0
 10
679.3535143781454
 20
603.3634347129876
 30
0.0
 10
679.3505054872218
 20
603.207273110677
 30
0.0
 10
679.3468442423513
 20
603.0156966133292
 30
0.0
 10
679.3457629988295
 20
602.9587842683848
 30
0.0
 10
679.3439264056443
 20
602.8617823636099
 30
0.0
 10
679.3431660551047
 20
602.8214338782506
 30
0.0
 10
679.3413396025363
 20
602.7243153240139
 30
0.0
 10
679.340722472491
 20
602.6912335750604
 30
0.0
 10
679.340722472491
 20
602.6912335750603
 30
0.0
  0
LINE
  5
1A8
330
1F
100
AcDbEntity
  8
0
  6
Continuous
 62
     7
370
    15
100
AcDbLine
 10
741.2020856756
 20
592.5042282105
 30
0.0
 11
737.2020856756
 21
592.5042282105
 31
0.0
  0
LINE
  5
1A9
330
1F
100
AcDbEntity
  8
0
  6
Continuous
 62
     7
370
    15
100
AcDbLine
 10
697.2020856756
 20
592.5042282105
 30
0.0
 11
689.3389737693
 21
592.5042282105
 31
0.0
  0
LINE
  5
1AA
330
1F
100
AcDbEntity
  8
0
  6
Continuous
 62
     7
370
    15
100
AcDbLine
 10
689.4457448715
 20
607.5042282105
 30
0.0
 11
697.2020856756
 21
607.5042282105
 31
0.0
  0
LINE
  5
1AB
330
1F
100
AcDbEntity
  8
0
  6
Continuous
 62
     7
370
    15
100
AcDbLine
 10
737.2020856756
 20
607.5042282105
 30
0.0
 11
741.2020856756
 21
607.5042282105
 31
0.0
  0
LINE
  5
1AC
330
1F
100
AcDbEntity
  8
0
  6
Continuous
 62
     7
370
    15
100
AcDbLine
 10
741.2020856756
 20
607.5042282105
 30
0.0
 11
741.2020856756
 21
592.5042282105
 31
0.0
  0
LINE
  5
1AD
330
1F
100
AcDbEntity
  8
0
  6
Continuous
 62
     7
370
    15
100
AcDbLine
 10
741.2020856756
 20
857.5042282105
 30
0.0
 11
729.4122112088
 21
857.5042282105
 31
0.0
  0
LINE
  5
1AE
330
1F
100
AcDbEntity
  8
0
  6
Continuous
 62
     7
370
    15
100
AcDbLine
 10
741.2020856756
 20
857.5042282105
 30
0.0
 11
741.2020856756
 21
607.5042282105
 31
0.0
  0
SPLINE
  5
1AF
330
1F
100
AcDbEntity
  8
0
  6
Continuous
 62
     7
370
    15
100
AcDbSpline
210
0.0
220
0.0
230
1.0
 70
     8
 71
     3
 72
    30
 73
    26
 74
     0
 42
0.00000001
 43
0.00000001
 12
1.0
 22
0.0
 32
0.0
 13
1.0
 23
0.0
 33
0.0
 40
0.0
 40
0.0
 40
0.0
 40
0.0
 40
0.125
 40
0.125
 40
0.1874999999999991
 40
0.1874999999999991
 40
0.2499999999999983
 40
0.2499999999999983
 40
0.3749999999999995
 40
0.3749999999999995
 40
0.4375000000000011
 40
0.4375000000000011
 40
0.5000000000000027
 40
0.5000000000000027
 40
0.6250000000000059
 40
0.6250000000000059
 40
0.687500000000006
 40
0.687500000000006
 40
0.7500000000000061
 40
0.7500000000000061
 40
0.8750000000000031
 40
0.8750000000000031
 40
0.9375000000000016
 40
0.9375000000000016
 40
1.0
 40
1.0
 40
1.0
 40
1.0
 10
729.4122112088004
 20
857.5042282105262
 30
0.0
 10
729.5116270588887
 20
858.4926672017416
 30
0.0
 10
729.6095354491218
 20
859.4641649891436
 30
0.0
 10
729.754219727314
 20
860.8971091157189
 30
0.0
 10
729.8020817678964
 20
861.3706766225632
 30
0.0
 10
729.8970517326334
 20
862.3094790504828
 30
0.0
 10
729.9444037602948
 20
862.7771198309816
 30
0.0
 10
730.0824732464513
 20
864.1394543913128
 30
0.0
 10
730.169810238294
 20
864.9995748405115
 30
0.0
 10
730.29381744041
 20
866.2189800389355
 30
0.0
 10
730.3339784563835
 20
866.6135692515464
 30
0.0
 10
730.4118566459043
 20
867.3781748799536
 30
0.0
 10
730.4493009925116
 20
867.745510621908
 30
0.0
 10
730.5555186538026
 20
868.7868428924505
 30
0.0
 10
730.6189581147606
 20
869.4078441163409
 30
0.0
 10
730.7029226591119
 20
870.2289926697481
 30
0.0
 10
730.7291574290688
 20
870.4854118821298
 30
0.0
 10
730.7770282745079
 20
870.9531038398869
 30
0.0
 10
730.7986078055308
 20
871.1638262790558
 30
0.0
 10
730.8564549332058
 20
871.7285147156998
 30
0.0
 10
730.8858967617688
 20
872.0156533738447
 30
0.0
 10
730.9158826507722
 20
872.308037403845
 30
0.0
 10
730.9234404294043
 20
872.3817135154923
 30
0.0
 10
730.9334831753326
 20
872.4796092006495
 30
0.0
 10
730.9360091107785
 20
872.5042282105262
 30
0.0
 10
730.9360091107785
 20
872.5042282105262
 30
0.0
  0
SPLINE
  5
1B0
330
1F
100
AcDbEntity
  8
0
  6
Continuous
 62
     7
370
    15
100
AcDbSpline
210
0.0
220
0.0
230
1.0
 70
     8
 71
     3
 72
    22
 73
    18
 74
     0
 42
0.00000001
 43
0.00000001
 12
1.0
 22
0.0
 32
0.0
 13
1.0
 23
0.0
 33
0.0
 40
0.0
 40
0.0
 40
0.0
 40
0.0
 40
0.125
 40
0.125
 40
0.25
 40
0.25
 40
0.375
 40
0.375
 40
0.5
 40
0.5
 40
0.625
 40
0.625
 40
0.75
 40
0.75
 40
0.875
 40
0.875
 40
1.0
 40
1.0
 40
1.0
 40
1.0
 10
721.3784770628342
 20
865.4459251956899
 30
0.0
 10
721.3784770628342
 20
865.4459251956899
 30
0.0
 10
721.3676611432365
 20
865.4107912656532
 30
0.0
 10
721.3252917017389
 20
865.2730776769588
 30
0.0
 10
721.2941985069015
 20
865.1719928505936
 30
0.0
 10
721.213205979393
 20
864.9084321673552
 30
0.0
 10
721.162528701172
 20
864.7434190946433
 30
0.0
 10
721.046624861813
 20
864.3655354688296
 30
0.0
 10
720.9813184314322
 20
864.1524089592353
 30
0.0
 10
720.8364958526614
 20
863.6790586957081
 30
0.0
 10
720.7567239288536
 20
863.4179859250554
 30
0.0
 10
720.5902264337483
 20
862.8721436596782
 30
0.0
 10
720.5026957252132
 20
862.5847470298539
 30
0.0
 10
720.3191461081713
 20
861.9809575540036
 30
0.0
 10
720.2242177968064
 20
861.6681409020159
 30
0.0
 10
720.0333060290741
 20
861.0378266979852
 30
0.0
 10
719.9365762366451
 20
860.7178757579259
 30
0.0
 10
719.8385345711944
 20
860.3929503568316
 30
0.0
  0
ARC
  5
1B1
330
1F
100
AcDbEntity
  8
0
  6
Continuous
 62
     7
370
    15
100
AcDbCircle
 10
730.9360091108
 20
862.5042282105
 30
0.0
 40
10.00000000000017
100
AcDbArc
 50
90.0
 51
162.8922444531
  0
LINE
  5
1B2
330
1F
100
AcDbEntity
  8
0
  6
Continuous
 62
     7
370
    15
100
AcDbLine
 10
730.9360091108
 20
872.5042282105
 30
0.0
 11
741.2020856756
 21
872.5042282105
 31
0.0
  0
LINE
  5
1B3
330
1F
100
AcDbEntity
  8
0
  6
Continuous
 62
     7
370
    15
100
AcDbLine
 10
741.2020856756
 20
872.5042282105
 30
0.0
 11
741.2020856756
 21
857.5042282105
 31
0.0
  0
LINE
  5
1B4
330
1F
100
AcDbEntity
  8
0
  6
Continuous
 62
     7
370
    15
100
AcDbLine
 10
743.4520856756
 20
861.4107449801
 30
0.0
 11
743.4520856756
 21
858.0499696398
 31
0.0
  0
LINE
  5
1B5
330
1F
100
AcDbEntity
  8
0
  6
Continuous
 62
     7
370
    15
100
AcDbLine
 10
743.4520856756
 20
609.1846158806
 30
0.0
 11
743.4520856756
 21
605.8238405404
 31
0.0
  0
SPLINE
  5
1B6
330
1F
100
AcDbEntity
  8
0
  6
Continuous
 62
     7
370
    15
100
AcDbSpline
210
0.0
220
0.0
230
1.0
 70
     8
 71
     3
 72
    24
 73
    20
 74
     0
 42
0.00000001
 43
0.00000001
 12
1.0
 22
0.0
 32
0.0
 13
1.0
 23
0.0
 33
0.0
 40
0.0
 40
0.0
 40
0.0
 40
0.0
 40
0.0235945554122895
 40
0.1072765364009931
 40
0.1866131040342964
 40
0.2616159202736304
 40
0.3320916579666607
 40
0.3976385204015535
 40
0.4575687553197093
 40
0.510586120133811
 40
0.5542985176447564
 40
0.5892620376158136
 40
0.623269408995284
 40
0.6641366934595673
 40
0.7320207024503131
 40
0.8048333302808266
 40
0.8812145157633507
 40
0.9540619717985345
 40
0.9999999999999999
 40
0.9999999999999999
 40
0.9999999999999999
 40
0.9999999999999999
 10
182.1433752741184
 20
414.2413428207922
 30
0.0
 10
182.1923987638439
 20
414.1057421800572
 30
0.0
 10
182.4152921427675
 20
413.4892115094171
 30
0.0
 10
183.0228333998225
 20
412.5120647133712
 30
0.0
 10
183.9145869807478
 20
411.3631299607394
 30
0.0
 10
184.9155922991275
 20
410.4157739040871
 30
0.0
 10
185.9606837792342
 20
409.6577225782826
 30
0.0
 10
187.0107746435023
 20
409.0806529296345
 30
0.0
 10
188.0188617584047
 20
408.6684101969922
 30
0.0
 10
188.9305980422623
 20
408.4004917196669
 30
0.0
 10
189.6986294761677
 20
408.2451517076765
 30
0.0
 10
190.3141060885421
 20
408.1620529793696
 30
0.0
 10
190.8135384796901
 20
408.1177383126789
 30
0.0
 10
191.3362579965388
 20
408.0870142790662
 30
0.0
 10
192.0089906137335
 20
408.0626935736476
 30
0.0
 10
192.9797103507123
 20
408.0419368158437
 30
0.0
 10
194.1637393665266
 20
408.028009779629
 30
0.0
 10
195.3199369994175
 20
408.0208101974181
 30
0.0
 10
196.0480088017007
 20
408.0208913083524
 30
0.0
 10
196.3295767323356
 20
408.0209226764645
 30
0.0
  0
LINE
  5
1B7
330
1F
100
AcDbEntity
  8
0
  6
Continuous
 62
     7
370
    15
100
AcDbLine
 10
196.3295848421
 20
408.0202030274
 30
0.0
 11
486.3295848421
 21
408.0202030274
 31
0.0
  0
SPLINE
  5
1B8
330
1F
100
AcDbEntity
  8
0
  6
Continuous
 62
     7
370
    15
100
AcDbSpline
210
0.0
220
0.0
230
1.0
 70
     8
 71
     3
 72
    23
 73
    19
 74
     0
 42
0.00000001
 43
0.00000001
 12
1.0
 22
0.0
 32
0.0
 13
1.0
 23
0.0
 33
0.0
 40
0.0
 40
0.0
 40
0.0
 40
0.0
 40
0.0229735305995176
 40
0.0934999320052829
 40
0.1647508052690355
 40
0.2381545985050083
 40
0.3160072322553626
 40
0.3640811305475982
 40
0.4084363105606354
 40
0.4485583153950655
 40
0.4943654297986484
 40
0.5567084219716933
 40
0.6379151361295547
 40
0.7176717269243312
 40
0.7982798114696822
 40
0.8841133952615724
 40
0.9726945414874951
 40
1.0
 40
1.0
 40
1.0
 40
1.0
 10
486.4168113802321
 20
408.0208958079376
 30
0.0
 10
486.5582073176228
 20
408.0207523381645
 30
0.0
 10
487.1336743959017
 20
408.0201684307856
 30
0.0
 10
488.1332274656832
 20
408.0254312995153
 30
0.0
 10
489.3327264848845
 20
408.036896381872
 30
0.0
 10
490.4019145382417
 20
408.056066208069
 30
0.0
 10
491.1734611512471
 20
408.0801370843107
 30
0.0
 10
491.7914609869461
 20
408.1130236501745
 30
0.0
 10
492.3909638006474
 20
408.1648891259447
 30
0.0
 10
493.1271259018373
 20
408.2727535660194
 30
0.0
 10
494.0006628327441
 20
408.4685611580041
 30
0.0
 10
495.1037106730637
 20
408.8315932266112
 30
0.0
 10
496.3436326347431
 20
409.4297946680136
 30
0.0
 10
497.5742473711051
 20
410.2688231933306
 30
0.0
 10
498.6937205190616
 20
411.2982120735846
 30
0.0
 10
499.6594612769414
 20
412.5361765582289
 30
0.0
 10
500.3101769329091
 20
413.6074361344778
 30
0.0
 10
500.5402951120103
 20
414.2825867127484
 30
0.0
 10
500.5945160671121
 20
414.4416671875477
 30
0.0
  0
ARC
  5
1B9
330
1F
100
AcDbEntity
  8
0
  6
Continuous
 62
     7
370
    15
100
AcDbCircle
 10
198.0099725122
 20
462.1333149337
 30
0.0
 40
10.00000000000004
100
AcDbArc
 50
50.805032574
 51
90.0
  0
ARC
  5
1BA
330
1F
100
AcDbEntity
  8
0
  6
Continuous
 62
     7
370
    15
100
AcDbCircle
 10
194.649197172
 20
462.1333149337
 30
0.0
 40
10.00000000000004
100
AcDbArc
 50
90.0
 51
129.194967426
  0
ARC
  5
1BB
330
1F
100
AcDbEntity
  8
0
  6
Continuous
 62
     7
370
    15
100
AcDbCircle
 10
488.5232413609
 20
462.1333149337
 30
0.0
 40
10.00000000000004
100
AcDbArc
 50
50.805032574
 51
90.0
  0
ARC
  5
1BC
330
1F
100
AcDbEntity
  8
0
  6
Continuous
 62
     7
370
    15
100
AcDbCircle
 10
485.1624660207
 20
462.1333149337
 30
0.0
 40
10.00000000000007
100
AcDbArc
 50
90.0
 51
129.194967426
  0
LINE
  5
1BD
330
1F
100
AcDbEntity
  8
0
  6
Continuous
 62
     7
370
    15
100
AcDbLine
 10
508.8295848421
 20
451.1306383826
 30
0.0
 11
506.3295848421
 21
451.1306383826
 31
0.0
  0
LINE
  5
1BE
330
1F
100
AcDbEntity
  8
0
  6
Continuous
 62
     7
370
    15
100
AcDbLine
 10
506.3295848421
 20
440.6359914848
 30
0.0
 11
508.8295848421
 21
440.6359914848
 31
0.0
  0
LINE
  5
1BF
330
1F
100
AcDbEntity
  8
0
  6
Continuous
 62
     7
370
    15
100
AcDbLine
 10
176.3295848421
 20
451.1306383826
 30
0.0
 11
173.8295848421
 21
451.1306383826
 31
0.0
  0
LINE
  5
1C0
330
1F
100
AcDbEntity
  8
0
  6
Continuous
 62
     7
370
    15
100
AcDbLine
 10
173.8295848421
 20
440.6359914848
 30
0.0
 11
176.3295848421
 21
440.6359914848
 31
0.0
  0
ARC
  5
1C1
330
1F
100
AcDbEntity
  8
0
  6
Continuous
 62
     7
370
    15
100
AcDbCircle
 10
194.1359283233
 20
462.1333149337
 30
0.0
 40
10.00000000000004
100
AcDbArc
 50
90.0
 51
129.194967426
  0
ARC
  5
1C2
330
1F
100
AcDbEntity
  8
0
  6
Continuous
 62
     7
370
    15
100
AcDbCircle
 10
484.649197172
 20
462.1333149337
 30
0.0
 40
10.00000000000004
100
AcDbArc
 50
90.0
 51
129.194967426
  0
LINE
  5
1C3
330
1F
100
AcDbEntity
  8
0
  6
Continuous
 62
     7
370
    15
100
AcDbLine
 10
506.3295848421
 20
425.8833149337
 30
0.0
 11
506.3295848421
 21
465.8833149337
 31
0.0
  0
LINE
  5
1C4
330
1F
100
AcDbEntity
  8
0
  6
Continuous
 62
     7
370
    15
100
AcDbLine
 10
176.3295848421
 20
425.8833149337
 30
0.0
 11
506.3295848421
 21
425.8833149337
 31
0.0
  0
LINE
  5
1C5
330
1F
100
AcDbEntity
  8
0
  6
Continuous
 62
     7
370
    15
100
AcDbLine
 10
176.3295848421
 20
425.8833149337
 30
0.0
 11
176.3295848421
 21
465.8833149337
 31
0.0
  0
LINE
  5
1C6
330
1F
100
AcDbEntity
  8
0
  6
Continuous
 62
     7
370
    15
100
AcDbLine
 10
176.3295848421
 20
465.8833149337
 30
0.0
 11
506.3295848421
 21
465.8833149337
 31
0.0
  0
CIRCLE
  5
1C7
330
1F
100
AcDbEntity
  8
0
  6
Continuous
 62
     7
370
    15
100
AcDbCircle
 10
341.3295848421
 20
445.8833149337
 30
0.0
 40
12.80869642780374
  0
LINE
  5
1C8
330
1F
100
AcDbEntity
  8
0
  6
Continuous
 62
     7
370
    15
100
AcDbLine
 10
422.3716947789
 20
440.0746314068
 30
0.0
 11
457.5848799271
 21
440.0746314068
 31
0.0
  0
ARC
  5
1C9
330
1F
100
AcDbEntity
  8
0
  6
Continuous
 62
     7
370
    15
100
AcDbCircle
 10
457.5848799271
 20
445.8833149337
 30
0.0
 40
5.80868352695154
100
AcDbArc
 50
270.0
 51
90.0
  0
LINE
  5
1CA
330
1F
100
AcDbEntity
  8
0
  6
Continuous
 62
     7
370
    15
100
AcDbLine
 10
457.5848799271
 20
451.6919984607
 30
0.0
 11
422.3716947789
 21
451.6919984607
 31
0.0
  0
ARC
  5
1CB
330
1F
100
AcDbEntity
  8
0
  6
Continuous
 62
     7
370
    15
100
AcDbCircle
 10
422.3716947789
 20
445.8833149337
 30
0.0
 40
5.80868352695154
100
AcDbArc
 50
90.0
 51
270.0
  0
LINE
  5
1CC
330
1F
100
AcDbEntity
  8
0
  6
Continuous
 62
     7
370
    15
100
AcDbLine
 10
230.7705402958
 20
434.6032468446
 30
0.0
 11
230.7705402958
 21
457.1633830228
 31
0.0
  0
ARC
  5
1CD
330
1F
100
AcDbEntity
  8
0
  6
Continuous
 62
     7
370
    15
100
AcDbCircle
 10
226.6278126313
 20
457.1633830228
 30
0.0
 40
4.142727664500399
100
AcDbArc
 50
0.0
 51
180.0
  0
LINE
  5
1CE
330
1F
100
AcDbEntity
  8
0
  6
Continuous
 62
     7
370
    15
100
AcDbLine
 10
222.4850849668
 20
457.1633830228
 30
0.0
 11
222.4850849668
 21
434.6032468446
 31
0.0
  0
ARC
  5
1CF
330
1F
100
AcDbEntity
  8
0
  6
Continuous
 62
     7
370
    15
100
AcDbCircle
 10
226.6278126313
 20
434.6032468446
 30
0.0
 40
4.142727664500399
100
AcDbArc
 50
180.0
 51
0.0
  0
SPLINE
  5
1D0
330
1F
100
AcDbEntity
  8
0
  6
Continuous
 62
     7
370
    15
100
AcDbSpline
210
0.0
220
0.0
230
1.0
 70
     8
 71
     3
 72
    29
 73
    25
 74
     0
 42
0.00000001
 43
0.00000001
 12
1.0
 22
0.0
 32
0.0
 13
1.0
 23
0.0
 33
0.0
 40
0.0
 40
0.0
 40
0.0
 40
0.0
 40
0.1249999999999999
 40
0.1249999999999999
 40
0.1874999999999984
 40
0.1874999999999984
 40
0.2499999999999969
 40
0.2499999999999969
 40
0.3749999999999986
 40
0.3749999999999986
 40
0.4374999999999979
 40
0.4374999999999979
 40
0.4999999999999973
 40
0.4999999999999973
 40
0.6249999999999986
 40
0.6249999999999986
 40
0.6874999999999987
 40
0.6874999999999987
 40
0.7499999999999989
 40
0.812499999999999
 40
0.812499999999999
 40
0.8749999999999991
 40
0.8749999999999991
 40
1.0
 40
1.0
 40
1.0
 40
1.0
 10
196.3295848421052
 20
418.0202030274219
 30
0.0
 10
195.3391667666631
 20
418.0202030274219
 30
0.0
 10
194.3652883370459
 20
418.0208070159732
 30
0.0
 10
192.9282655926519
 20
418.0225962279702
 30
0.0
 10
192.4532532868903
 20
418.0233411981268
 30
0.0
 10
191.5114011573338
 20
418.0251409661294
 30
0.0
 10
191.0432688149395
 20
418.0262009648385
 30
0.0
 10
189.6814792450181
 20
418.0297935841261
 30
0.0
 10
188.8202729576207
 20
418.0327486951378
 30
0.0
 10
187.5978085859655
 20
418.0380753199884
 30
0.0
 10
187.2006696070493
 20
418.0400081243856
 30
0.0
 10
186.4363407247396
 20
418.044166641238
 30
0.0
 10
186.0725964789401
 20
418.0463720515166
 30
0.0
 10
185.0348949700658
 20
418.0533733555669
 30
0.0
 10
184.4139629617993
 20
418.058550535733
 30
0.0
 10
183.5913798686938
 20
418.0671728229043
 30
0.0
 10
183.3359155209845
 20
418.0701907053736
 30
0.0
 10
182.8728609877704
 20
418.0763926254999
 30
0.0
 10
182.4544616523696
 20
418.0827923123893
 30
0.0
 10
182.1240103826318
 20
418.0896005345823
 30
0.0
 10
181.8381251822765
 20
418.0966236732853
 30
0.0
 10
181.717078601464
 20
418.1002589554734
 30
0.0
 10
181.4267200405513
 20
418.1113844577197
 30
0.0
 10
181.3295848421051
 20
418.1190494156652
 30
0.0
 10
181.3295848421052
 20
418.1269741296684
 30
0.0
  0
ARC
  5
1D1
330
1F
100
AcDbEntity
  8
0
  6
Continuous
 62
     7
370
    15
100
AcDbCircle
 10
191.3243468187
 20
418.1270336914
 30
0.0
 40
9.994761976734345
100
AcDbArc
 50
180.0003414424
 51
202.9207869638
  0
LINE
  5
1D2
330
1F
100
AcDbEntity
  8
0
  6
Continuous
 62
     7
370
    15
100
AcDbLine
 10
196.3295848421
 20
418.0202030274
 30
0.0
 11
486.3295848421
 21
418.0202030274
 31
0.0
  0
SPLINE
  5
1D3
330
1F
100
AcDbEntity
  8
0
  6
Continuous
 62
     7
370
    15
100
AcDbSpline
210
0.0
220
0.0
230
1.0
 70
     8
 71
     3
 72
    29
 73
    25
 74
     0
 42
0.00000001
 43
0.00000001
 12
1.0
 22
0.0
 32
0.0
 13
1.0
 23
0.0
 33
0.0
 40
0.0
 40
0.0
 40
0.0
 40
0.0
 40
0.1249999999999979
 40
0.1249999999999979
 40
0.1874999999999987
 40
0.1874999999999987
 40
0.2499999999999994
 40
0.2499999999999994
 40
0.3750000000000008
 40
0.3750000000000008
 40
0.4375000000000001
 40
0.4375000000000001
 40
0.4999999999999993
 40
0.4999999999999993
 40
0.6250000000000003
 40
0.6250000000000003
 40
0.6875000000000009
 40
0.6875000000000009
 40
0.7500000000000014
 40
0.812500000000002
 40
0.812500000000002
 40
0.8750000000000024
 40
0.8750000000000024
 40
1.0
 40
1.0
 40
1.0
 40
1.0
 10
501.3295848421052
 20
418.1269741296684
 30
0.0
 10
501.3295848421052
 20
418.119049382083
 30
0.0
 10
501.2324605765338
 20
418.1114302181088
 30
0.0
 10
500.9470474760165
 20
418.1004267804551
 30
0.0
 10
500.8284490122444
 20
418.0968301113413
 30
0.0
 10
500.543262745474
 20
418.0897763646507
 30
0.0
 10
500.3758613179815
 20
418.0863101264407
 30
0.0
 10
499.8118093163205
 20
418.0763345317958
 30
0.0
 10
499.351584543101
 20
418.0701711869966
 30
0.0
 10
498.5361190174939
 20
418.0615885104758
 30
0.0
 10
498.2422420476802
 20
418.0588299672168
 30
0.0
 10
497.6154935399121
 20
418.0535702010611
 30
0.0
 10
497.2857203788204
 20
418.0510928406849
 30
0.0
 10
496.2487478148349
 20
418.0440855078347
 30
0.0
 10
495.4943456071005
 20
418.0399764158099
 30
0.0
 10
494.2658920192306
 20
418.0346022862998
 30
0.0
 10
493.8401520670328
 20
418.0329464213934
 30
0.0
 10
492.9748611673119
 20
418.0299623998937
 30
0.0
 10
492.0912182668516
 20
418.0272849443596
 30
0.0
 10
491.1714347945324
 20
418.0251922347219
 30
0.0
 10
490.2333398828845
 20
418.0233878764031
 30
0.0
 10
489.7530386939846
 20
418.0226274669754
 30
0.0
 10
488.2996448170752
 20
418.0208070195377
 30
0.0
 10
487.3200071754624
 20
418.0202030274219
 30
0.0
 10
486.3295848421052
 20
418.0202030274219
 30
0.0
  0
LWPOLYLINE
  5
1D4
330
1F
100
AcDbEntity
  8
0
  6
Continuous
 62
     7
370
    15
100
AcDbPolyline
 90
        3
 70
   128
 43
0.0
 10
501.3295848421
 20
418.1269741297
 10
501.1374376461
 20
416.1766327579
 10
500.6203612906
 20
414.4291918542
  0
LINE
  5
1D5
330
1F
100
AcDbEntity
  8
0
  6
Continuous
 62
     7
370
    15
100
AcDbLine
 10
196.3295848421
 20
469.8833149337
 30
0.0
 11
486.3295848421
 21
469.8833149337
 31
0.0
  0
LINE
  5
1D6
330
1F
100
AcDbEntity
  8
0
  6
Continuous
 62
     7
370
    15
100
AcDbLine
 10
181.3295848421
 20
418.1269741297
 30
0.0
 11
181.3295848421
 21
425.8833149337
 31
0.0
  0
LINE
  5
1D7
330
1F
100
AcDbEntity
  8
0
  6
Continuous
 62
     7
370
    15
100
AcDbLine
 10
181.3295848421
 20
465.8833149337
 30
0.0
 11
181.3295848421
 21
469.8833149337
 31
0.0
  0
LINE
  5
1D8
330
1F
100
AcDbEntity
  8
0
  6
Continuous
 62
     7
370
    15
100
AcDbLine
 10
181.3295848421
 20
469.8833149337
 30
0.0
 11
196.3295848421
 21
469.8833149337
 31
0.0
  0
LINE
  5
1D9
330
1F
100
AcDbEntity
  8
0
  6
Continuous
 62
     7
370
    15
100
AcDbLine
 10
501.3295848421
 20
469.8833149337
 30
0.0
 11
501.3295848421
 21
465.8833149337
 31
0.0
  0
LINE
  5
1DA
330
1F
100
AcDbEntity
  8
0
  6
Continuous
 62
     7
370
    15
100
AcDbLine
 10
501.3295848421
 20
425.8833149337
 30
0.0
 11
501.3295848421
 21
418.1269741297
 31
0.0
  0
LINE
  5
1DB
330
1F
100
AcDbEntity
  8
0
  6
Continuous
 62
     7
370
    15
100
AcDbLine
 10
486.3295848421
 20
469.8833149337
 30
0.0
 11
501.3295848421
 21
469.8833149337
 31
0.0
  0
LINE
  5
1DC
330
1F
100
AcDbEntity
  8
0
  6
Continuous
 62
     7
370
    15
100
AcDbLine
 10
194.6491973744
 20
472.1333149337
 30
0.0
 11
198.0099725122
 21
472.1333149337
 31
0.0
  0
LINE
  5
1DD
330
1F
100
AcDbEntity
  8
0
  6
Continuous
 62
     7
370
    15
100
AcDbLine
 10
485.1624662231
 20
472.1333149337
 30
0.0
 11
488.5232413609
 21
472.1333149337
 31
0.0
  0
LINE
  5
1DE
330
1F
100
AcDbEntity
  8
0
  6
Continuous
 62
     7
370
    15
100
AcDbLine
 10
508.8295848421
 20
451.1306383826
 30
0.0
 11
508.8295848421
 21
440.6359914848
 31
0.0
  0
LINE
  5
1DF
330
1F
100
AcDbEntity
  8
0
  6
Continuous
 62
     7
370
    15
100
AcDbLine
 10
173.8295848421
 20
451.1306383826
 30
0.0
 11
173.8295848421
 21
440.6359914848
 31
0.0
  0
LINE
  5
1E0
330
1F
100
AcDbEntity
  8
0
  6
Continuous
 62
     7
370
    15
100
AcDbLine
 10
194.1359285257
 20
472.1333149337
 30
0.0
 11
194.6491973744
 21
472.1333149337
 31
0.0
  0
LINE
  5
1E1
330
1F
100
AcDbEntity
  8
0
  6
Continuous
 62
     7
370
    15
100
AcDbLine
 10
484.6491973744
 20
472.1333149337
 30
0.0
 11
485.1624662231
 21
472.1333149337
 31
0.0
  0
LINE
  5
1E2
330
1F
100
AcDbEntity
  8
0
  6
Continuous
 62
     8
370
    15
100
AcDbLine
 10
196.3295848421
 20
418.0202030274
 30
0.0
 11
196.3295848421
 21
408.0202030274
 31
0.0
  0
LINE
  5
1E3
330
1F
100
AcDbEntity
  8
0
  6
Continuous
 62
     8
370
    15
100
AcDbLine
 10
486.3295848421
 20
408.0202030274
 30
0.0
 11
486.3295848421
 21
418.0202030274
 31
0.0
  0
LINE
  5
1E4
330
1F
100
AcDbEntity
  8
0
  6
Continuous
 62
     8
370
    15
100
AcDbLine
 10
196.3295848421
 20
469.8833149337
 30
0.0
 11
196.3295848421
 21
465.8833149337
 31
0.0
  0
LINE
  5
1E5
330
1F
100
AcDbEntity
  8
0
  6
Continuous
 62
     8
370
    15
100
AcDbLine
 10
196.3295848421
 20
425.8833149337
 30
0.0
 11
196.3295848421
 21
418.0202030274
 31
0.0
  0
LINE
  5
1E6
330
1F
100
AcDbEntity
  8
0
  6
Continuous
 62
     8
370
    15
100
AcDbLine
 10
486.3295848421
 20
418.0202030274
 30
0.0
 11
486.3295848421
 21
425.8833149337
 31
0.0
  0
LINE
  5
1E7
330
1F
100
AcDbEntity
  8
0
  6
Continuous
 62
     8
370
    15
100
AcDbLine
 10
486.3295848421
 20
465.8833149337
 30
0.0
 11
486.3295848421
 21
469.8833149337
 31
0.0
  0
ENDSEC
  0
SECTION
  2
OBJECTS
  0
DICTIONARY
  5
C
330
0
100
AcDbDictionary
281
     1
  3
ACAD_GROUP
350
D
  3
ACAD_LAYOUT
350
1A
  3
ACAD_MLINESTYLE
350
17
  3
ACAD_PLOTSETTINGS
350
19
  3
ACAD_PLOTSTYLENAME
350
E
  0
DICTIONARY
  5
D
102
{ACAD_REACTORS
330
C
102
}
330
C
100
AcDbDictionary
281
     1
  0
DICTIONARY
  5
1A
102
{ACAD_REACTORS
330
C
102
}
330
C
100
AcDbDictionary
281
     1
  3
Layout1
350
1E
  3
Layout2
350
26
  3
Model
350
22
  0
DICTIONARY
  5
17
102
{ACAD_REACTORS
330
C
102
}
330
C
100
AcDbDictionary
281
     1
  3
Standard
350
18
  0
DICTIONARY
  5
19
102
{ACAD_REACTORS
330
C
102
}
330
C
100
AcDbDictionary
281
     1
  0
ACDBDICTIONARYWDFLT
  5
E
102
{ACAD_REACTORS
330
C
102
}
330
C
100
AcDbDictionary
281
     1
  3
Normal
350
F
100
AcDbDictionaryWithDefault
340
F
  0
LAYOUT
  5
1E
102
{ACAD_REACTORS
330
1A
102
}
330
1A
100
AcDbPlotSettings
  1

  2
none_device
  4

  6

 40
0.0
 41
0.0
 42
0.0
 43
0.0
 44
0.0
 45
0.0
 46
0.0
 47
0.0
 48
0.0
 49
0.0
140
0.0
141
0.0
142
1.0
143
1.0
 70
   688
 72
     0
 73
     0
 74
     5
  7

 75
    16
147
1.0
148
0.0
149
0.0
100
AcDbLayout
  1
Layout1
 70
     1
 71
     1
 10
0.0
 20
0.0
 11
420.0
 21
297.0
 12
0.0
 22
0.0
 32
0.0
 14
1.0000000000E+20
 24
1.0000000000E+20
 34
1.0000000000E+20
 15
-1.0000000000E+20
 25
-1.0000000000E+20
 35
-1.0000000000E+20
146
0.0
 13
0.0
 23
0.0
 33
0.0
 16
1.0
 26
0.0
 36
0.0
 17
0.0
 27
1.0
 37
0.0
 76
     0
330
1B
  0
LAYOUT
  5
26
102
{ACAD_REACTORS
330
1A
102
}
330
1A
100
AcDbPlotSettings
  1

  2
none_device
  4

  6

 40
0.0
 41
0.0
 42
0.0
 43
0.0
 44
0.0
 45
0.0
 46
0.0
 47
0.0
 48
0.0
 49
0.0
140
0.0
141
0.0
142
1.0
143
1.0
 70
   688
 72
     0
 73
     0
 74
     5
  7

 75
    16
147
1.0
148
0.0
149
0.0
100
AcDbLayout
  1
Layout2
 70
     1
 71
     2
 10
0.0
 20
0.0
 11
0.0
 21
0.0
 12
0.0
 22
0.0
 32
0.0
 14
0.0
 24
0.0
 34
0.0
 15
0.0
 25
0.0
 35
0.0
146
0.0
 13
0.0
 23
0.0
 33
0.0
 16
1.0
 26
0.0
 36
0.0
 17
0.0
 27
1.0
 37
0.0
 76
     0
330
23
  0
LAYOUT
  5
22
102
{ACAD_REACTORS
330
1A
102
}
330
1A
100
AcDbPlotSettings
  1

  2
none_device
  4

  6

 40
0.0
 41
0.0
 42
0.0
 43
0.0
 44
0.0
 45
0.0
 46
0.0
 47
0.0
 48
0.0
 49
0.0
140
0.0
141
0.0
142
1.0
143
1.0
 70
  1712
 72
     0
 73
     0
 74
     0
  7

 75
     0
147
1.0
148
0.0
149
0.0
100
AcDbLayout
  1
Model
 70
     1
 71
     0
 10
0.0
 20
0.0
 11
1397.0
 21
1079.5
 12
0.0
 22
0.0
 32
0.0
 14
0.0
 24
0.0
 34
0.0
 15
1397.0
 25
1079.5
 35
0.0
146
0.0
 13
0.0
 23
0.0
 33
0.0
 16
1.0
 26
0.0
 36
0.0
 17
0.0
 27
1.0
 37
0.0
 76
     0
330
1F
331
29
  0
MLINESTYLE
  5
18
102
{ACAD_REACTORS
330
17
102
}
330
17
100
AcDbMlineStyle
  2
Standard
 70
     0
  3

 62
   256
 51
90.0
 52
90.0
 71
     2
 49
0.5
 62
   256
  6
BYLAYER
 49
-0.5
 62
   256
  6
BYLAYER
  0
ACDBPLACEHOLDER
  5
F
102
{ACAD_REACTORS
330
E
102
}
330
E
  0
ENDSEC
  0
EOF
